  0
SECTION
  2
HEADER
  9
$ACADVER
  1
AC1032
  9
$ACADMAINTVER
 90
        4
  9
$DWGCODEPAGE
  3
ANSI_1252
  9
$REQUIREDVERSIONS
160
                 0
  9
$INSBASE
 10
0.0
 20
0.0
 30
0.0
  9
$EXTMIN
 10
-21.287958
 20
-1.018997
 30
0.0
  9
$EXTMAX
 10
-14.537958
 20
9.356003
 30
0.0
  9
$LIMMIN
 10
-21.287958
 20
-1.018997
  9
$LIMMAX
 10
-14.537958
 20
9.356003
  9
$ORTHOMODE
 70
     0
  9
$REGENMODE
 70
     1
  9
$FILLMODE
 70
     1
  9
$QTEXTMODE
 70
     0
  9
$MIRRTEXT
 70
     1
  9
$LTSCALE
 40
1.0
  9
$ATTMODE
 70
     1
  9
$TEXTSIZE
 40
0.2
  9
$TRACEWID
 40
0.05
  9
$TEXTSTYLE
  7
STANDARD
  9
$CLAYER
  8
default
  9
$CELTYPE
  6
BYLAYER
  9
$CECOLOR
 62
   256
  9
$CELTSCALE
 40
1.0
  9
$DISPSILH
 70
     0
  9
$DIMSCALE
 40
1.0
  9
$DIMASZ
 40
0.18
  9
$DIMEXO
 40
0.0625
  9
$DIMDLI
 40
0.38
  9
$DIMRND
 40
0.0
  9
$DIMDLE
 40
0.0
  9
$DIMEXE
 40
0.18
  9
$DIMTP
 40
0.0
  9
$DIMTM
 40
0.0
  9
$DIMTXT
 40
0.18
  9
$DIMCEN
 40
0.09
  9
$DIMTSZ
 40
0.0
  9
$DIMTOL
 70
     0
  9
$DIMLIM
 70
     0
  9
$DIMTIH
 70
     1
  9
$DIMTOH
 70
     1
  9
$DIMSE1
 70
     0
  9
$DIMSE2
 70
     0
  9
$DIMTAD
 70
     0
  9
$DIMZIN
 70
     0
  9
$DIMBLK
  1

  9
$DIMASO
 70
     1
  9
$DIMSHO
 70
     1
  9
$DIMPOST
  1

  9
$DIMAPOST
  1

  9
$DIMALT
 70
     0
  9
$DIMALTD
 70
     2
  9
$DIMALTF
 40
25.4
  9
$DIMLFAC
 40
1.0
  9
$DIMTOFL
 70
     0
  9
$DIMTVP
 40
0.0
  9
$DIMTIX
 70
     0
  9
$DIMSOXD
 70
     0
  9
$DIMSAH
 70
     0
  9
$DIMBLK1
  1

  9
$DIMBLK2
  1

  9
$DIMSTYLE
  2
STANDARD
  9
$DIMCLRD
 70
     0
  9
$DIMCLRE
 70
     0
  9
$DIMCLRT
 70
     0
  9
$DIMTFAC
 40
1.0
  9
$DIMGAP
 40
0.09
  9
$DIMJUST
 70
     0
  9
$DIMSD1
 70
     0
  9
$DIMSD2
 70
     0
  9
$DIMTOLJ
 70
     1
  9
$DIMTZIN
 70
     0
  9
$DIMALTZ
 70
     0
  9
$DIMALTTZ
 70
     0
  9
$DIMUPT
 70
     0
  9
$DIMDEC
 70
     4
  9
$DIMTDEC
 70
     4
  9
$DIMALTU
 70
     2
  9
$DIMALTTD
 70
     2
  9
$DIMTXSTY
  7
STANDARD
  9
$DIMAUNIT
 70
     0
  9
$DIMADEC
 70
     0
  9
$DIMALTRND
 40
0.0
  9
$DIMAZIN
 70
     0
  9
$DIMDSEP
 70
    46
  9
$DIMATFIT
 70
     3
  9
$DIMFRAC
 70
     0
  9
$DIMLDRBLK
  1

  9
$DIMLUNIT
 70
     2
  9
$DIMLWD
 70
    -2
  9
$DIMLWE
 70
    -2
  9
$DIMTMOVE
 70
     2
  9
$DIMFXL
 40
1.0
  9
$DIMFXLON
 70
     0
  9
$DIMJOGANG
 40
0.7853981633974483
  9
$DIMTFILL
 70
     0
  9
$DIMTFILLCLR
 70
     0
  9
$DIMARCSYM
 70
     0
  9
$DIMLTYPE
  6

  9
$DIMLTEX1
  6

  9
$DIMLTEX2
  6

  9
$DIMTXTDIRECTION
 70
     0
  9
$LUNITS
 70
     2
  9
$LUPREC
 70
     6
  9
$SKETCHINC
 40
0.1
  9
$FILLETRAD
 40
0.5
  9
$AUNITS
 70
     0
  9
$AUPREC
 70
     0
  9
$MENU
  1
.
  9
$ELEVATION
 40
0.0
  9
$PELEVATION
 40
0.0
  9
$THICKNESS
 40
0.0
  9
$LIMCHECK
 70
     0
  9
$CHAMFERA
 40
0.5
  9
$CHAMFERB
 40
0.5
  9
$CHAMFERC
 40
1.0
  9
$CHAMFERD
 40
0.0
  9
$SKPOLY
 70
     0
  9
$TDCREATE
 40
2459345.1967361
  9
$TDUCREATE
 40
2459345.405069433
  9
$TDUPDATE
 40
2459345.196747477
  9
$TDUUPDATE
 40
2459345.40508081
  9
$TDINDWG
 40
0.0
  9
$TDUSRTIMER
 40
0.0
  9
$USRTIMER
 70
     1
  9
$ANGBASE
 50
0.0
  9
$ANGDIR
 70
     0
  9
$PDMODE
 70
     0
  9
$PDSIZE
 40
0.0
  9
$PLINEWID
 40
0.0
  9
$SPLFRAME
 70
     0
  9
$SPLINETYPE
 70
     6
  9
$SPLINESEGS
 70
     8
  9
$HANDSEED
  5
1D8
  9
$SURFTAB1
 70
     6
  9
$SURFTAB2
 70
     6
  9
$SURFTYPE
 70
     6
  9
$SURFU
 70
     6
  9
$SURFV
 70
     6
  9
$UCSBASE
  2

  9
$UCSNAME
  2

  9
$UCSORG
 10
0.0
 20
0.0
 30
0.0
  9
$UCSXDIR
 10
1.0
 20
0.0
 30
0.0
  9
$UCSYDIR
 10
0.0
 20
1.0
 30
0.0
  9
$UCSORTHOREF
  2

  9
$UCSORTHOVIEW
 70
     0
  9
$UCSORGTOP
 10
0.0
 20
0.0
 30
0.0
  9
$UCSORGBOTTOM
 10
0.0
 20
0.0
 30
0.0
  9
$UCSORGLEFT
 10
0.0
 20
0.0
 30
0.0
  9
$UCSORGRIGHT
 10
0.0
 20
0.0
 30
0.0
  9
$UCSORGFRONT
 10
0.0
 20
0.0
 30
0.0
  9
$UCSORGBACK
 10
0.0
 20
0.0
 30
0.0
  9
$PUCSBASE
  2

  9
$PUCSNAME
  2

  9
$PUCSORG
 10
0.0
 20
0.0
 30
0.0
  9
$PUCSXDIR
 10
1.0
 20
0.0
 30
0.0
  9
$PUCSYDIR
 10
0.0
 20
1.0
 30
0.0
  9
$PUCSORTHOREF
  2

  9
$PUCSORTHOVIEW
 70
     0
  9
$PUCSORGTOP
 10
0.0
 20
0.0
 30
0.0
  9
$PUCSORGBOTTOM
 10
0.0
 20
0.0
 30
0.0
  9
$PUCSORGLEFT
 10
0.0
 20
0.0
 30
0.0
  9
$PUCSORGRIGHT
 10
0.0
 20
0.0
 30
0.0
  9
$PUCSORGFRONT
 10
0.0
 20
0.0
 30
0.0
  9
$PUCSORGBACK
 10
0.0
 20
0.0
 30
0.0
  9
$USERI1
 70
     0
  9
$USERI2
 70
     0
  9
$USERI3
 70
     0
  9
$USERI4
 70
     0
  9
$USERI5
 70
     0
  9
$USERR1
 40
0.0
  9
$USERR2
 40
0.0
  9
$USERR3
 40
0.0
  9
$USERR4
 40
0.0
  9
$USERR5
 40
0.0
  9
$WORLDVIEW
 70
     1
  9
$SHADEDGE
 70
     3
  9
$SHADEDIF
 70
    70
  9
$TILEMODE
 70
     1
  9
$MAXACTVP
 70
    48
  9
$PINSBASE
 10
0.0
 20
0.0
 30
0.0
  9
$PLIMCHECK
 70
     0
  9
$PEXTMIN
 10
1.000000000000000E+20
 20
1.000000000000000E+20
 30
1.000000000000000E+20
  9
$PEXTMAX
 10
-1.000000000000000E+20
 20
-1.000000000000000E+20
 30
-1.000000000000000E+20
  9
$PLIMMIN
 10
0.0
 20
0.0
  9
$PLIMMAX
 10
12.0
 20
9.0
  9
$UNITMODE
 70
     0
  9
$VISRETAIN
 70
     1
  9
$PLINEGEN
 70
     0
  9
$PSLTSCALE
 70
     1
  9
$TREEDEPTH
 70
  3020
  9
$CMLSTYLE
  2
STANDARD
  9
$CMLJUST
 70
     0
  9
$CMLSCALE
 40
1.0
  9
$PROXYGRAPHICS
 70
     1
  9
$MEASUREMENT
 70
     0
  9
$CELWEIGHT
370
    -1
  9
$ENDCAPS
280
     0
  9
$JOINSTYLE
280
     0
  9
$LWDISPLAY
290
     0
  9
$INSUNITS
 70
     1
  9
$HYPERLINKBASE
  1

  9
$STYLESHEET
  1

  9
$XEDIT
290
     1
  9
$CEPSNTYPE
380
     0
  9
$PSTYLEMODE
290
     1
  9
$FINGERPRINTGUID
  2
{478730d7-0297-4e76-91d6-d23813b5c832}
  9
$VERSIONGUID
  2
{FAEB1C32-E019-11D5-929B-00C0DF256EC4}
  9
$EXTNAMES
290
     1
  9
$PSVPSCALE
 40
0.0
  9
$OLESTARTUP
290
     0
  9
$SORTENTS
280
   127
  9
$INDEXCTL
280
     0
  9
$HIDETEXT
280
     1
  9
$XCLIPFRAME
280
     2
  9
$HALOGAP
280
     0
  9
$OBSCOLOR
 70
   257
  9
$OBSLTYPE
280
     0
  9
$INTERSECTIONDISPLAY
280
     0
  9
$INTERSECTIONCOLOR
 70
   257
  9
$DIMASSOC
280
     2
  9
$PROJECTNAME
  1

  9
$CAMERADISPLAY
290
     0
  9
$LENSLENGTH
 40
50.0
  9
$CAMERAHEIGHT
 40
0.0
  9
$STEPSPERSEC
 40
2.0
  9
$STEPSIZE
 40
6.0
  9
$3DDWFPREC
 40
2.0
  9
$PSOLWIDTH
 40
0.25
  9
$PSOLHEIGHT
 40
4.0
  9
$LOFTANG1
 40
1.570796326794897
  9
$LOFTANG2
 40
1.570796326794897
  9
$LOFTMAG1
 40
0.0
  9
$LOFTMAG2
 40
0.0
  9
$LOFTPARAM
 70
     7
  9
$LOFTNORMALS
280
     1
  9
$LATITUDE
 40
37.795
  9
$LONGITUDE
 40
-122.394
  9
$NORTHDIRECTION
 40
0.0
  9
$TIMEZONE
 70
 -8000
  9
$LIGHTGLYPHDISPLAY
280
     1
  9
$TILEMODELIGHTSYNCH
280
     1
  9
$SOLIDHIST
280
     0
  9
$SHOWHIST
280
     1
  9
$DWFFRAME
280
     2
  9
$DGNFRAME
280
     2
  9
$REALWORLDSCALE
290
     1
  9
$INTERFERECOLOR
 62
   256
  9
$CSHADOW
280
     0
  9
$SHADOWPLANELOCATION
 40
0.0
  0
ENDSEC
  0
SECTION
  2
CLASSES
  0
CLASS
  1
ACDBDICTIONARYWDFLT
  2
AcDbDictionaryWithDefault
  3
ObjectDBX Classes
 90
        0
 91
        3
280
     0
281
     0
  0
CLASS
  1
SCALE
  2
AcDbScale
  3
ObjectDBX Classes
 90
     1153
 91
        3
280
     0
281
     0
  0
CLASS
  1
VISUALSTYLE
  2
AcDbVisualStyle
  3
ObjectDBX Classes
 90
     4095
 91
        3
280
     0
281
     0
  0
CLASS
  1
MATERIAL
  2
AcDbMaterial
  3
ObjectDBX Classes
 90
     1153
 91
        3
280
     0
281
     0
  0
CLASS
  1
TABLESTYLE
  2
AcDbTableStyle
  3
ObjectDBX Classes
 90
     4095
 91
        3
280
     0
281
     0
  0
CLASS
  1
MLEADERSTYLE
  2
AcDbMLeaderStyle
  3
ACDB_MLEADERSTYLE_CLASS
 90
     4095
 91
        3
280
     0
281
     0
  0
CLASS
  1
DICTIONARYVAR
  2
AcDbDictionaryVar
  3
ObjectDBX Classes
 90
        0
 91
        3
280
     0
281
     0
  0
CLASS
  1
CELLSTYLEMAP
  2
AcDbCellStyleMap
  3
ObjectDBX Classes
 90
     1152
 91
        3
280
     0
281
     0
  0
ENDSEC
  0
SECTION
  2
TABLES
  0
TABLE
  2
VPORT
  5
8
330
0
100
AcDbSymbolTable
 70
     1
  0
VPORT
  5
1E
330
8
100
AcDbSymbolTableRecord
100
AcDbViewportTableRecord
  2
*ACTIVE
 70
     0
 10
0.0
 20
0.0
 11
1.0
 21
1.0
 12
-1.900045
 22
4.168503
 13
0.0
 23
0.0
 14
0.25
 24
0.25
 15
0.25
 25
0.25
 16
0.0
 26
0.0
 36
1.0
 17
0.0
 27
0.0
 37
0.0
 40
7.014618
 41
2.125021
 42
50.0
 43
0.0
 44
0.0
 50
0.0
 51
0.0
 71
     0
 72
   100
 73
     1
 74
     1
 75
     0
 76
     0
 77
     0
 78
     0
281
     0
 65
     1
110
0.0
120
0.0
130
0.0
111
1.0
121
0.0
131
0.0
112
0.0
122
1.0
132
0.0
 79
     0
146
0.0
348
1B2
 60
     3
 61
     5
292
     1
282
     1
141
0.0
142
0.0
 63
   256
  0
ENDTAB
  0
TABLE
  2
LTYPE
  5
5
330
0
100
AcDbSymbolTable
 70
     1
  0
LTYPE
  5
12
330
5
100
AcDbSymbolTableRecord
100
AcDbLinetypeTableRecord
  2
BYBLOCK
 70
     0
  3

 72
    65
 73
     0
 40
0.0
  0
LTYPE
  5
13
330
5
100
AcDbSymbolTableRecord
100
AcDbLinetypeTableRecord
  2
BYLAYER
 70
     0
  3

 72
    65
 73
     0
 40
0.0
  0
LTYPE
  5
14
330
5
100
AcDbSymbolTableRecord
100
AcDbLinetypeTableRecord
  2
CONTINUOUS
 70
     0
  3
Solid line
 72
    65
 73
     0
 40
0.0
  0
ENDTAB
  0
TABLE
  2
LAYER
  5
2
330
0
100
AcDbSymbolTable
 70
     2
  0
LAYER
  5
E
330
2
100
AcDbSymbolTableRecord
100
AcDbLayerTableRecord
  2
0
 70
     0
 62
     7
  6
CONTINUOUS
370
    -3
390
187
347
1C9
348
0
  0
LAYER
  5
20
330
2
100
AcDbSymbolTableRecord
100
AcDbLayerTableRecord
  2
default
 70
     0
 62
     7
  6
CONTINUOUS
370
    -3
390
187
347
1C9
348
0
  0
ENDTAB
  0
TABLE
  2
STYLE
  5
3
330
0
100
AcDbSymbolTable
 70
     1
  0
STYLE
  5
F
330
3
100
AcDbSymbolTableRecord
100
AcDbTextStyleTableRecord
  2
STANDARD
 70
     0
 40
0.0
 41
1.0
 50
0.0
 71
     0
 42
0.2
  3
txt
  4

  0
ENDTAB
  0
TABLE
  2
VIEW
  5
6
330
0
100
AcDbSymbolTable
 70
     0
  0
ENDTAB
  0
TABLE
  2
UCS
  5
7
330
0
100
AcDbSymbolTable
 70
     0
  0
ENDTAB
  0
TABLE
  2
APPID
  5
9
330
0
100
AcDbSymbolTable
 70
     1
  0
APPID
  5
10
330
9
100
AcDbSymbolTableRecord
100
AcDbRegAppTableRecord
  2
ACAD
 70
     0
  0
ENDTAB
  0
TABLE
  2
DIMSTYLE
  5
A
330
0
100
AcDbSymbolTable
 70
     1
100
AcDbDimStyleTable
  0
DIMSTYLE
105
1D
330
A
100
AcDbSymbolTableRecord
100
AcDbDimStyleTableRecord
  2
STANDARD
 70
     0
178
     0
340
F
  0
ENDTAB
  0
TABLE
  2
BLOCK_RECORD
  5
1
330
0
100
AcDbSymbolTable
 70
     1
  0
BLOCK_RECORD
  5
18
330
1
100
AcDbSymbolTableRecord
100
AcDbBlockTableRecord
  2
*MODEL_SPACE
340
1AB
 70
     0
280
     1
281
     0
  0
BLOCK_RECORD
  5
15
330
1
100
AcDbSymbolTableRecord
100
AcDbBlockTableRecord
  2
*PAPER_SPACE
340
1AC
 70
     0
280
     1
281
     0
  0
BLOCK_RECORD
  5
21
330
1
100
AcDbSymbolTableRecord
100
AcDbBlockTableRecord
  2
Group1
340
0
102
{BLKREFS
331
184
102
}
 70
     0
280
     1
281
     0
  0
ENDTAB
  0
ENDSEC
  0
SECTION
  2
BLOCKS
  0
BLOCK
  5
19
330
18
100
AcDbEntity
  8
0
100
AcDbBlockBegin
  2
*MODEL_SPACE
 70
     0
 10
0.0
 20
0.0
 30
0.0
  3
*MODEL_SPACE
  1
     0
  0
ENDBLK
  5
1A
330
18
100
AcDbEntity
  8
0
100
AcDbBlockEnd
  0
BLOCK
  5
16
330
15
100
AcDbEntity
 67
     1
  8
0
100
AcDbBlockBegin
  2
*PAPER_SPACE
 70
     0
 10
0.0
 20
0.0
 30
0.0
  3
*PAPER_SPACE
  1
     0
  0
ENDBLK
  5
17
330
15
100
AcDbEntity
 67
     1
  8
0
100
AcDbBlockEnd
  0
BLOCK
  5
22
330
21
100
AcDbEntity
  8
default
  6
Continuous
 62
     7
100
AcDbBlockBegin
  2
Group1
 70
     0
 10
0.0
 20
0.0
 30
0.0
  3
Group1
  1

  0
LWPOLYLINE
  5
23
330
21
100
AcDbEntity
  8
default
100
AcDbPolyline
 90
        2
 70
     0
 43
0.005
 10
0.5625
 20
-0.4375
 42
0.0491268
 10
0.561299
 20
-0.425307
 42
6.999487
  0
LWPOLYLINE
  5
24
330
21
100
AcDbEntity
  8
default
100
AcDbPolyline
 90
        2
 70
     0
 43
0.005
 10
0.561299
 20
-0.425307
 42
0.0491268
 10
0.557742
 20
-0.413582
 42
6.999487
  0
LWPOLYLINE
  5
25
330
21
100
AcDbEntity
  8
default
100
AcDbPolyline
 90
        2
 70
     0
 43
0.005
 10
0.557742
 20
-0.413582
 42
0.0491268
 10
0.551967
 20
-0.402777
 42
6.999487
  0
LWPOLYLINE
  5
26
330
21
100
AcDbEntity
  8
default
100
AcDbPolyline
 90
        2
 70
     0
 43
0.005
 10
0.551967
 20
-0.402777
 42
0.0491268
 10
0.544194
 20
-0.393306
 42
6.999487
  0
LWPOLYLINE
  5
27
330
21
100
AcDbEntity
  8
default
100
AcDbPolyline
 90
        2
 70
     0
 43
0.005
 10
0.544194
 20
-0.393306
 42
0.0491268
 10
0.534723
 20
-0.385533
 42
6.999487
  0
LWPOLYLINE
  5
28
330
21
100
AcDbEntity
  8
default
100
AcDbPolyline
 90
        2
 70
     0
 43
0.005
 10
0.534723
 20
-0.385533
 42
0.0491268
 10
0.523918
 20
-0.379758
 42
6.999487
  0
LWPOLYLINE
  5
29
330
21
100
AcDbEntity
  8
default
100
AcDbPolyline
 90
        2
 70
     0
 43
0.005
 10
0.523918
 20
-0.379758
 42
0.0491268
 10
0.512193
 20
-0.376201
 42
6.999487
  0
LWPOLYLINE
  5
2A
330
21
100
AcDbEntity
  8
default
100
AcDbPolyline
 90
        2
 70
     0
 43
0.005
 10
0.512193
 20
-0.376201
 42
0.0491268
 10
0.5
 20
-0.375
 42
6.999487
  0
LWPOLYLINE
  5
2B
330
21
100
AcDbEntity
  8
default
100
AcDbPolyline
 90
        2
 70
     0
 43
0.005
 10
0.5
 20
-0.375
 42
0.0491268
 10
0.487807
 20
-0.376201
 42
6.999487
  0
LWPOLYLINE
  5
2C
330
21
100
AcDbEntity
  8
default
100
AcDbPolyline
 90
        2
 70
     0
 43
0.005
 10
0.487807
 20
-0.376201
 42
0.0491268
 10
0.476082
 20
-0.379758
 42
6.999487
  0
LWPOLYLINE
  5
2D
330
21
100
AcDbEntity
  8
default
100
AcDbPolyline
 90
        2
 70
     0
 43
0.005
 10
0.476082
 20
-0.379758
 42
0.0491268
 10
0.465277
 20
-0.385533
 42
6.999487
  0
LWPOLYLINE
  5
2E
330
21
100
AcDbEntity
  8
default
100
AcDbPolyline
 90
        2
 70
     0
 43
0.005
 10
0.465277
 20
-0.385533
 42
0.0491268
 10
0.455806
 20
-0.393306
 42
6.999487
  0
LWPOLYLINE
  5
2F
330
21
100
AcDbEntity
  8
default
100
AcDbPolyline
 90
        2
 70
     0
 43
0.005
 10
0.455806
 20
-0.393306
 42
0.0491268
 10
0.448033
 20
-0.402777
 42
6.999487
  0
LWPOLYLINE
  5
30
330
21
100
AcDbEntity
  8
default
100
AcDbPolyline
 90
        2
 70
     0
 43
0.005
 10
0.448033
 20
-0.402777
 42
0.0491268
 10
0.442258
 20
-0.413582
 42
6.999487
  0
LWPOLYLINE
  5
31
330
21
100
AcDbEntity
  8
default
100
AcDbPolyline
 90
        2
 70
     0
 43
0.005
 10
0.442258
 20
-0.413582
 42
0.0491268
 10
0.438701
 20
-0.425307
 42
6.999487
  0
LWPOLYLINE
  5
32
330
21
100
AcDbEntity
  8
default
100
AcDbPolyline
 90
        2
 70
     0
 43
0.005
 10
0.438701
 20
-0.425307
 42
0.0491268
 10
0.4375
 20
-0.4375
 42
6.999487
  0
LWPOLYLINE
  5
33
330
21
100
AcDbEntity
  8
default
100
AcDbPolyline
 90
        2
 70
     0
 43
0.005
 10
0.4375
 20
-0.4375
 42
0.0491268
 10
0.438701
 20
-0.449693
 42
6.999487
  0
LWPOLYLINE
  5
34
330
21
100
AcDbEntity
  8
default
100
AcDbPolyline
 90
        2
 70
     0
 43
0.005
 10
0.438701
 20
-0.449693
 42
0.0491268
 10
0.442258
 20
-0.461418
 42
6.999487
  0
LWPOLYLINE
  5
35
330
21
100
AcDbEntity
  8
default
100
AcDbPolyline
 90
        2
 70
     0
 43
0.005
 10
0.442258
 20
-0.461418
 42
0.0491268
 10
0.448033
 20
-0.472223
 42
6.999487
  0
LWPOLYLINE
  5
36
330
21
100
AcDbEntity
  8
default
100
AcDbPolyline
 90
        2
 70
     0
 43
0.005
 10
0.448033
 20
-0.472223
 42
0.0491268
 10
0.455806
 20
-0.481694
 42
6.999487
  0
LWPOLYLINE
  5
37
330
21
100
AcDbEntity
  8
default
100
AcDbPolyline
 90
        2
 70
     0
 43
0.005
 10
0.455806
 20
-0.481694
 42
0.0491268
 10
0.465277
 20
-0.489467
 42
6.999487
  0
LWPOLYLINE
  5
38
330
21
100
AcDbEntity
  8
default
100
AcDbPolyline
 90
        2
 70
     0
 43
0.005
 10
0.465277
 20
-0.489467
 42
0.0491268
 10
0.476082
 20
-0.495242
 42
6.999487
  0
LWPOLYLINE
  5
39
330
21
100
AcDbEntity
  8
default
100
AcDbPolyline
 90
        2
 70
     0
 43
0.005
 10
0.476082
 20
-0.495242
 42
0.0491268
 10
0.487807
 20
-0.498799
 42
6.999487
  0
LWPOLYLINE
  5
3A
330
21
100
AcDbEntity
  8
default
100
AcDbPolyline
 90
        2
 70
     0
 43
0.005
 10
0.487807
 20
-0.498799
 42
0.0491268
 10
0.5
 20
-0.5
 42
6.999487
  0
LWPOLYLINE
  5
3B
330
21
100
AcDbEntity
  8
default
100
AcDbPolyline
 90
        2
 70
     0
 43
0.005
 10
0.5
 20
-0.5
 42
0.0491268
 10
0.512193
 20
-0.498799
 42
6.999487
  0
LWPOLYLINE
  5
3C
330
21
100
AcDbEntity
  8
default
100
AcDbPolyline
 90
        2
 70
     0
 43
0.005
 10
0.512193
 20
-0.498799
 42
0.0491268
 10
0.523918
 20
-0.495242
 42
6.999487
  0
LWPOLYLINE
  5
3D
330
21
100
AcDbEntity
  8
default
100
AcDbPolyline
 90
        2
 70
     0
 43
0.005
 10
0.523918
 20
-0.495242
 42
0.0491268
 10
0.534723
 20
-0.489467
 42
6.999487
  0
LWPOLYLINE
  5
3E
330
21
100
AcDbEntity
  8
default
100
AcDbPolyline
 90
        2
 70
     0
 43
0.005
 10
0.534723
 20
-0.489467
 42
0.0491268
 10
0.544194
 20
-0.481694
 42
6.999487
  0
LWPOLYLINE
  5
3F
330
21
100
AcDbEntity
  8
default
100
AcDbPolyline
 90
        2
 70
     0
 43
0.005
 10
0.544194
 20
-0.481694
 42
0.0491268
 10
0.551967
 20
-0.472223
 42
6.999487
  0
LWPOLYLINE
  5
40
330
21
100
AcDbEntity
  8
default
100
AcDbPolyline
 90
        2
 70
     0
 43
0.005
 10
0.551967
 20
-0.472223
 42
0.0491268
 10
0.557742
 20
-0.461418
 42
6.999487
  0
LWPOLYLINE
  5
41
330
21
100
AcDbEntity
  8
default
100
AcDbPolyline
 90
        2
 70
     0
 43
0.005
 10
0.557742
 20
-0.461418
 42
0.0491268
 10
0.561299
 20
-0.449693
 42
6.999487
  0
LWPOLYLINE
  5
42
330
21
100
AcDbEntity
  8
default
100
AcDbPolyline
 90
        2
 70
     0
 43
0.005
 10
0.561299
 20
-0.449693
 42
0.0491268
 10
0.5625
 20
-0.4375
 42
6.999487
  0
LWPOLYLINE
  5
43
330
21
100
AcDbEntity
  8
default
100
AcDbPolyline
 90
        2
 70
     0
 43
0.005
 10
-2.1875
 20
-0.4375
 42
0.0491268
 10
-2.188701
 20
-0.425307
 42
6.999487
  0
LWPOLYLINE
  5
44
330
21
100
AcDbEntity
  8
default
100
AcDbPolyline
 90
        2
 70
     0
 43
0.005
 10
-2.188701
 20
-0.425307
 42
0.0491268
 10
-2.192258
 20
-0.413582
 42
6.999487
  0
LWPOLYLINE
  5
45
330
21
100
AcDbEntity
  8
default
100
AcDbPolyline
 90
        2
 70
     0
 43
0.005
 10
-2.192258
 20
-0.413582
 42
0.0491268
 10
-2.198033
 20
-0.402777
 42
6.999487
  0
LWPOLYLINE
  5
46
330
21
100
AcDbEntity
  8
default
100
AcDbPolyline
 90
        2
 70
     0
 43
0.005
 10
-2.198033
 20
-0.402777
 42
0.0491268
 10
-2.205806
 20
-0.393306
 42
6.999487
  0
LWPOLYLINE
  5
47
330
21
100
AcDbEntity
  8
default
100
AcDbPolyline
 90
        2
 70
     0
 43
0.005
 10
-2.205806
 20
-0.393306
 42
0.0491268
 10
-2.215277
 20
-0.385533
 42
6.999487
  0
LWPOLYLINE
  5
48
330
21
100
AcDbEntity
  8
default
100
AcDbPolyline
 90
        2
 70
     0
 43
0.005
 10
-2.215277
 20
-0.385533
 42
0.0491268
 10
-2.226082
 20
-0.379758
 42
6.999487
  0
LWPOLYLINE
  5
49
330
21
100
AcDbEntity
  8
default
100
AcDbPolyline
 90
        2
 70
     0
 43
0.005
 10
-2.226082
 20
-0.379758
 42
0.0491268
 10
-2.237807
 20
-0.376201
 42
6.999487
  0
LWPOLYLINE
  5
4A
330
21
100
AcDbEntity
  8
default
100
AcDbPolyline
 90
        2
 70
     0
 43
0.005
 10
-2.237807
 20
-0.376201
 42
0.0491268
 10
-2.25
 20
-0.375
 42
6.999487
  0
LWPOLYLINE
  5
4B
330
21
100
AcDbEntity
  8
default
100
AcDbPolyline
 90
        2
 70
     0
 43
0.005
 10
-2.25
 20
-0.375
 42
0.0491268
 10
-2.262193
 20
-0.376201
 42
6.999487
  0
LWPOLYLINE
  5
4C
330
21
100
AcDbEntity
  8
default
100
AcDbPolyline
 90
        2
 70
     0
 43
0.005
 10
-2.262193
 20
-0.376201
 42
0.0491268
 10
-2.273918
 20
-0.379758
 42
6.999487
  0
LWPOLYLINE
  5
4D
330
21
100
AcDbEntity
  8
default
100
AcDbPolyline
 90
        2
 70
     0
 43
0.005
 10
-2.273918
 20
-0.379758
 42
0.0491268
 10
-2.284723
 20
-0.385533
 42
6.999487
  0
LWPOLYLINE
  5
4E
330
21
100
AcDbEntity
  8
default
100
AcDbPolyline
 90
        2
 70
     0
 43
0.005
 10
-2.284723
 20
-0.385533
 42
0.0491268
 10
-2.294194
 20
-0.393306
 42
6.999487
  0
LWPOLYLINE
  5
4F
330
21
100
AcDbEntity
  8
default
100
AcDbPolyline
 90
        2
 70
     0
 43
0.005
 10
-2.294194
 20
-0.393306
 42
0.0491268
 10
-2.301967
 20
-0.402777
 42
6.999487
  0
LWPOLYLINE
  5
50
330
21
100
AcDbEntity
  8
default
100
AcDbPolyline
 90
        2
 70
     0
 43
0.005
 10
-2.301967
 20
-0.402777
 42
0.0491268
 10
-2.307742
 20
-0.413582
 42
6.999487
  0
LWPOLYLINE
  5
51
330
21
100
AcDbEntity
  8
default
100
AcDbPolyline
 90
        2
 70
     0
 43
0.005
 10
-2.307742
 20
-0.413582
 42
0.0491268
 10
-2.311299
 20
-0.425307
 42
6.999487
  0
LWPOLYLINE
  5
52
330
21
100
AcDbEntity
  8
default
100
AcDbPolyline
 90
        2
 70
     0
 43
0.005
 10
-2.311299
 20
-0.425307
 42
0.0491268
 10
-2.3125
 20
-0.4375
 42
6.999487
  0
LWPOLYLINE
  5
53
330
21
100
AcDbEntity
  8
default
100
AcDbPolyline
 90
        2
 70
     0
 43
0.005
 10
-2.3125
 20
-0.4375
 42
0.0491268
 10
-2.311299
 20
-0.449693
 42
6.999487
  0
LWPOLYLINE
  5
54
330
21
100
AcDbEntity
  8
default
100
AcDbPolyline
 90
        2
 70
     0
 43
0.005
 10
-2.311299
 20
-0.449693
 42
0.0491268
 10
-2.307742
 20
-0.461418
 42
6.999487
  0
LWPOLYLINE
  5
55
330
21
100
AcDbEntity
  8
default
100
AcDbPolyline
 90
        2
 70
     0
 43
0.005
 10
-2.307742
 20
-0.461418
 42
0.0491268
 10
-2.301967
 20
-0.472223
 42
6.999487
  0
LWPOLYLINE
  5
56
330
21
100
AcDbEntity
  8
default
100
AcDbPolyline
 90
        2
 70
     0
 43
0.005
 10
-2.301967
 20
-0.472223
 42
0.0491268
 10
-2.294194
 20
-0.481694
 42
6.999487
  0
LWPOLYLINE
  5
57
330
21
100
AcDbEntity
  8
default
100
AcDbPolyline
 90
        2
 70
     0
 43
0.005
 10
-2.294194
 20
-0.481694
 42
0.0491268
 10
-2.284723
 20
-0.489467
 42
6.999487
  0
LWPOLYLINE
  5
58
330
21
100
AcDbEntity
  8
default
100
AcDbPolyline
 90
        2
 70
     0
 43
0.005
 10
-2.284723
 20
-0.489467
 42
0.0491268
 10
-2.273918
 20
-0.495242
 42
6.999487
  0
LWPOLYLINE
  5
59
330
21
100
AcDbEntity
  8
default
100
AcDbPolyline
 90
        2
 70
     0
 43
0.005
 10
-2.273918
 20
-0.495242
 42
0.0491268
 10
-2.262193
 20
-0.498799
 42
6.999487
  0
LWPOLYLINE
  5
5A
330
21
100
AcDbEntity
  8
default
100
AcDbPolyline
 90
        2
 70
     0
 43
0.005
 10
-2.262193
 20
-0.498799
 42
0.0491268
 10
-2.25
 20
-0.5
 42
6.999487
  0
LWPOLYLINE
  5
5B
330
21
100
AcDbEntity
  8
default
100
AcDbPolyline
 90
        2
 70
     0
 43
0.005
 10
-2.25
 20
-0.5
 42
0.0491268
 10
-2.237807
 20
-0.498799
 42
6.999487
  0
LWPOLYLINE
  5
5C
330
21
100
AcDbEntity
  8
default
100
AcDbPolyline
 90
        2
 70
     0
 43
0.005
 10
-2.237807
 20
-0.498799
 42
0.0491268
 10
-2.226082
 20
-0.495242
 42
6.999487
  0
LWPOLYLINE
  5
5D
330
21
100
AcDbEntity
  8
default
100
AcDbPolyline
 90
        2
 70
     0
 43
0.005
 10
-2.226082
 20
-0.495242
 42
0.0491268
 10
-2.215277
 20
-0.489467
 42
6.999487
  0
LWPOLYLINE
  5
5E
330
21
100
AcDbEntity
  8
default
100
AcDbPolyline
 90
        2
 70
     0
 43
0.005
 10
-2.215277
 20
-0.489467
 42
0.0491268
 10
-2.205806
 20
-0.481694
 42
6.999487
  0
LWPOLYLINE
  5
5F
330
21
100
AcDbEntity
  8
default
100
AcDbPolyline
 90
        2
 70
     0
 43
0.005
 10
-2.205806
 20
-0.481694
 42
0.0491268
 10
-2.198033
 20
-0.472223
 42
6.999487
  0
LWPOLYLINE
  5
60
330
21
100
AcDbEntity
  8
default
100
AcDbPolyline
 90
        2
 70
     0
 43
0.005
 10
-2.198033
 20
-0.472223
 42
0.0491268
 10
-2.192258
 20
-0.461418
 42
6.999487
  0
LWPOLYLINE
  5
61
330
21
100
AcDbEntity
  8
default
100
AcDbPolyline
 90
        2
 70
     0
 43
0.005
 10
-2.192258
 20
-0.461418
 42
0.0491268
 10
-2.188701
 20
-0.449693
 42
6.999487
  0
LWPOLYLINE
  5
62
330
21
100
AcDbEntity
  8
default
100
AcDbPolyline
 90
        2
 70
     0
 43
0.005
 10
-2.188701
 20
-0.449693
 42
0.0491268
 10
-2.1875
 20
-0.4375
 42
6.999487
  0
LWPOLYLINE
  5
63
330
21
100
AcDbEntity
  8
default
100
AcDbPolyline
 90
        2
 70
     0
 43
0.005
 10
1.625
 20
-1.4375
 42
0.0283283
 10
1.622467
 20
-1.397557
 42
11.8919
  0
LWPOLYLINE
  5
64
330
21
100
AcDbEntity
  8
default
100
AcDbPolyline
 90
        2
 70
     0
 43
0.005
 10
1.622467
 20
-1.397557
 42
0.0283283
 10
1.615435
 20
-1.358157
 42
11.8919
  0
LWPOLYLINE
  5
65
330
21
100
AcDbEntity
  8
default
100
AcDbPolyline
 90
        2
 70
     0
 43
0.005
 10
1.615435
 20
-1.358157
 42
0.0283283
 10
1.603995
 20
-1.319804
 42
11.8919
  0
LWPOLYLINE
  5
66
330
21
100
AcDbEntity
  8
default
100
AcDbPolyline
 90
        2
 70
     0
 43
0.005
 10
1.603995
 20
-1.319804
 42
0.0283283
 10
1.588292
 20
-1.282991
 42
11.8919
  0
LWPOLYLINE
  5
67
330
21
100
AcDbEntity
  8
default
100
AcDbPolyline
 90
        2
 70
     0
 43
0.005
 10
1.588292
 20
-1.282991
 42
0.0467108
 10
1.541552
 20
-1.208312
 42
7.34024
  0
LWPOLYLINE
  5
68
330
21
100
AcDbEntity
  8
default
100
AcDbPolyline
 90
        2
 70
     0
 43
0.005
 10
1.541552
 20
-1.208312
 42
0.0467108
 10
1.481763
 20
-1.143607
 42
7.34024
  0
LWPOLYLINE
  5
69
330
21
100
AcDbEntity
  8
default
100
AcDbPolyline
 90
        2
 70
     0
 43
0.005
 10
1.481763
 20
-1.143607
 42
0.0363091
 10
1.402823
 20
-1.082267
 42
9.340146
  0
LWPOLYLINE
  5
6A
330
21
100
AcDbEntity
  8
default
100
AcDbPolyline
 90
        2
 70
     0
 43
0.005
 10
1.402823
 20
-1.082267
 42
0.0363091
 10
1.315839
 20
-1.032991
 42
9.340146
  0
LWPOLYLINE
  5
6B
330
21
100
AcDbEntity
  8
default
100
AcDbPolyline
 90
        2
 70
     0
 43
0.005
 10
1.315839
 20
-1.032991
 42
0.0296795
 10
1.213411
 20
-0.99127
 42
11.362088
  0
LWPOLYLINE
  5
6C
330
21
100
AcDbEntity
  8
default
100
AcDbPolyline
 90
        2
 70
     0
 43
0.005
 10
1.213411
 20
-0.99127
 42
0.0296795
 10
1.106763
 20
-0.961971
 42
11.362088
  0
LWPOLYLINE
  5
6D
330
21
100
AcDbEntity
  8
default
100
AcDbPolyline
 90
        2
 70
     0
 43
0.005
 10
1.106763
 20
-0.961971
 42
0.026666
 10
0.991535
 20
-0.943551
 42
12.61816
  0
LWPOLYLINE
  5
6E
330
21
100
AcDbEntity
  8
default
100
AcDbPolyline
 90
        2
 70
     0
 43
0.005
 10
0.991535
 20
-0.943551
 42
0.026666
 10
0.875
 20
-0.9375
 42
12.61816
  0
LWPOLYLINE
  5
6F
330
21
100
AcDbEntity
  8
default
100
AcDbPolyline
 90
        2
 70
     0
 43
0.005
 10
1.625
 20
-2.4375
 10
1.625
 20
-1.4375
  0
LWPOLYLINE
  5
70
330
21
100
AcDbEntity
  8
default
100
AcDbPolyline
 90
        2
 70
     0
 43
0.005
 10
0.875
 20
-2.4375
 10
1.625
 20
-2.4375
  0
LWPOLYLINE
  5
71
330
21
100
AcDbEntity
  8
default
100
AcDbPolyline
 90
        2
 70
     0
 43
0.005
 10
0.875
 20
-2.6875
 10
0.875
 20
-2.4375
  0
LWPOLYLINE
  5
72
330
21
100
AcDbEntity
  8
default
100
AcDbPolyline
 90
        2
 70
     0
 43
0.005
 10
0.875
 20
-2.6875
 10
3.375
 20
-2.6875
  0
LWPOLYLINE
  5
73
330
21
100
AcDbEntity
  8
default
100
AcDbPolyline
 90
        2
 70
     0
 43
0.005
 10
3.375
 20
-3.1875
 10
3.375
 20
-2.6875
  0
LWPOLYLINE
  5
74
330
21
100
AcDbEntity
  8
default
100
AcDbPolyline
 90
        2
 70
     0
 43
0.005
 10
0.875
 20
-3.1875
 10
3.375
 20
-3.1875
  0
LWPOLYLINE
  5
75
330
21
100
AcDbEntity
  8
default
100
AcDbPolyline
 90
        2
 70
     0
 43
0.005
 10
0.875
 20
-4.4375
 10
0.875
 20
-3.1875
  0
LWPOLYLINE
  5
76
330
21
100
AcDbEntity
  8
default
100
AcDbPolyline
 90
        2
 70
     0
 43
0.005
 10
0.875
 20
-4.4375
 10
1.625
 20
-4.4375
  0
LWPOLYLINE
  5
77
330
21
100
AcDbEntity
  8
default
100
AcDbPolyline
 90
        2
 70
     0
 43
0.005
 10
1.625
 20
-5.1875
 10
1.625
 20
-4.4375
  0
LWPOLYLINE
  5
78
330
21
100
AcDbEntity
  8
default
100
AcDbPolyline
 90
        2
 70
     0
 43
0.005
 10
-3.375
 20
-5.1875
 10
1.625
 20
-5.1875
  0
LWPOLYLINE
  5
79
330
21
100
AcDbEntity
  8
default
100
AcDbPolyline
 90
        2
 70
     0
 43
0.005
 10
-3.375
 20
-5.1875
 10
-3.375
 20
-4.4375
  0
LWPOLYLINE
  5
7A
330
21
100
AcDbEntity
  8
default
100
AcDbPolyline
 90
        2
 70
     0
 43
0.005
 10
-3.375
 20
-4.4375
 10
-2.625
 20
-4.4375
  0
LWPOLYLINE
  5
7B
330
21
100
AcDbEntity
  8
default
100
AcDbPolyline
 90
        2
 70
     0
 43
0.005
 10
-2.625
 20
-4.4375
 10
-2.625
 20
-2.4375
  0
LWPOLYLINE
  5
7C
330
21
100
AcDbEntity
  8
default
100
AcDbPolyline
 90
        2
 70
     0
 43
0.005
 10
-3.375
 20
-2.4375
 10
-2.625
 20
-2.4375
  0
LWPOLYLINE
  5
7D
330
21
100
AcDbEntity
  8
default
100
AcDbPolyline
 90
        2
 70
     0
 43
0.005
 10
-3.375
 20
-2.4375
 10
-3.375
 20
-1.4375
  0
LWPOLYLINE
  5
7E
330
21
100
AcDbEntity
  8
default
100
AcDbPolyline
 90
        2
 70
     0
 43
0.005
 10
-2.625
 20
-0.9375
 42
0.026666
 10
-2.741535
 20
-0.943551
 42
12.61816
  0
LWPOLYLINE
  5
7F
330
21
100
AcDbEntity
  8
default
100
AcDbPolyline
 90
        2
 70
     0
 43
0.005
 10
-2.741535
 20
-0.943551
 42
0.026666
 10
-2.856763
 20
-0.961971
 42
12.61816
  0
LWPOLYLINE
  5
80
330
21
100
AcDbEntity
  8
default
100
AcDbPolyline
 90
        2
 70
     0
 43
0.005
 10
-2.856763
 20
-0.961971
 42
0.0296795
 10
-2.963411
 20
-0.99127
 42
11.362088
  0
LWPOLYLINE
  5
81
330
21
100
AcDbEntity
  8
default
100
AcDbPolyline
 90
        2
 70
     0
 43
0.005
 10
-2.963411
 20
-0.99127
 42
0.0296795
 10
-3.065839
 20
-1.032991
 42
11.362088
  0
LWPOLYLINE
  5
82
330
21
100
AcDbEntity
  8
default
100
AcDbPolyline
 90
        2
 70
     0
 43
0.005
 10
-3.065839
 20
-1.032991
 42
0.0363091
 10
-3.152823
 20
-1.082267
 42
9.340146
  0
LWPOLYLINE
  5
83
330
21
100
AcDbEntity
  8
default
100
AcDbPolyline
 90
        2
 70
     0
 43
0.005
 10
-3.152823
 20
-1.082267
 42
0.0363091
 10
-3.231763
 20
-1.143607
 42
9.340146
  0
LWPOLYLINE
  5
84
330
21
100
AcDbEntity
  8
default
100
AcDbPolyline
 90
        2
 70
     0
 43
0.005
 10
-3.231763
 20
-1.143607
 42
0.0467108
 10
-3.291552
 20
-1.208312
 42
7.34024
  0
LWPOLYLINE
  5
85
330
21
100
AcDbEntity
  8
default
100
AcDbPolyline
 90
        2
 70
     0
 43
0.005
 10
-3.291552
 20
-1.208312
 42
0.0467108
 10
-3.338292
 20
-1.282991
 42
7.34024
  0
LWPOLYLINE
  5
86
330
21
100
AcDbEntity
  8
default
100
AcDbPolyline
 90
        2
 70
     0
 43
0.005
 10
-3.338292
 20
-1.282991
 42
0.0283283
 10
-3.353995
 20
-1.319804
 42
11.8919
  0
LWPOLYLINE
  5
87
330
21
100
AcDbEntity
  8
default
100
AcDbPolyline
 90
        2
 70
     0
 43
0.005
 10
-3.353995
 20
-1.319804
 42
0.0283283
 10
-3.365435
 20
-1.358157
 42
11.8919
  0
LWPOLYLINE
  5
88
330
21
100
AcDbEntity
  8
default
100
AcDbPolyline
 90
        2
 70
     0
 43
0.005
 10
-3.365435
 20
-1.358157
 42
0.0283283
 10
-3.372467
 20
-1.397557
 42
11.8919
  0
LWPOLYLINE
  5
89
330
21
100
AcDbEntity
  8
default
100
AcDbPolyline
 90
        2
 70
     0
 43
0.005
 10
-3.372467
 20
-1.397557
 42
0.0283283
 10
-3.375
 20
-1.4375
 42
11.8919
  0
LWPOLYLINE
  5
8A
330
21
100
AcDbEntity
  8
default
100
AcDbPolyline
 90
        2
 70
     0
 43
0.005
 10
1.3125
 20
2.9375
 42
0.0491268
 10
1.311299
 20
2.949693
 42
6.999487
  0
LWPOLYLINE
  5
8B
330
21
100
AcDbEntity
  8
default
100
AcDbPolyline
 90
        2
 70
     0
 43
0.005
 10
1.311299
 20
2.949693
 42
0.0491268
 10
1.307742
 20
2.961418
 42
6.999487
  0
LWPOLYLINE
  5
8C
330
21
100
AcDbEntity
  8
default
100
AcDbPolyline
 90
        2
 70
     0
 43
0.005
 10
1.307742
 20
2.961418
 42
0.0491268
 10
1.301967
 20
2.972223
 42
6.999487
  0
LWPOLYLINE
  5
8D
330
21
100
AcDbEntity
  8
default
100
AcDbPolyline
 90
        2
 70
     0
 43
0.005
 10
1.301967
 20
2.972223
 42
0.0491268
 10
1.294194
 20
2.981694
 42
6.999487
  0
LWPOLYLINE
  5
8E
330
21
100
AcDbEntity
  8
default
100
AcDbPolyline
 90
        2
 70
     0
 43
0.005
 10
1.294194
 20
2.981694
 42
0.0491268
 10
1.284723
 20
2.989467
 42
6.999487
  0
LWPOLYLINE
  5
8F
330
21
100
AcDbEntity
  8
default
100
AcDbPolyline
 90
        2
 70
     0
 43
0.005
 10
1.284723
 20
2.989467
 42
0.0491268
 10
1.273918
 20
2.995242
 42
6.999487
  0
LWPOLYLINE
  5
90
330
21
100
AcDbEntity
  8
default
100
AcDbPolyline
 90
        2
 70
     0
 43
0.005
 10
1.273918
 20
2.995242
 42
0.0491268
 10
1.262193
 20
2.998799
 42
6.999487
  0
LWPOLYLINE
  5
91
330
21
100
AcDbEntity
  8
default
100
AcDbPolyline
 90
        2
 70
     0
 43
0.005
 10
1.262193
 20
2.998799
 42
0.0491268
 10
1.25
 20
3.0
 42
6.999487
  0
LWPOLYLINE
  5
92
330
21
100
AcDbEntity
  8
default
100
AcDbPolyline
 90
        2
 70
     0
 43
0.005
 10
1.25
 20
3.0
 42
0.0491268
 10
1.237807
 20
2.998799
 42
6.999487
  0
LWPOLYLINE
  5
93
330
21
100
AcDbEntity
  8
default
100
AcDbPolyline
 90
        2
 70
     0
 43
0.005
 10
1.237807
 20
2.998799
 42
0.0491268
 10
1.226082
 20
2.995242
 42
6.999487
  0
LWPOLYLINE
  5
94
330
21
100
AcDbEntity
  8
default
100
AcDbPolyline
 90
        2
 70
     0
 43
0.005
 10
1.226082
 20
2.995242
 42
0.0491268
 10
1.215277
 20
2.989467
 42
6.999487
  0
LWPOLYLINE
  5
95
330
21
100
AcDbEntity
  8
default
100
AcDbPolyline
 90
        2
 70
     0
 43
0.005
 10
1.215277
 20
2.989467
 42
0.0491268
 10
1.205806
 20
2.981694
 42
6.999487
  0
LWPOLYLINE
  5
96
330
21
100
AcDbEntity
  8
default
100
AcDbPolyline
 90
        2
 70
     0
 43
0.005
 10
1.205806
 20
2.981694
 42
0.0491268
 10
1.198033
 20
2.972223
 42
6.999487
  0
LWPOLYLINE
  5
97
330
21
100
AcDbEntity
  8
default
100
AcDbPolyline
 90
        2
 70
     0
 43
0.005
 10
1.198033
 20
2.972223
 42
0.0491268
 10
1.192258
 20
2.961418
 42
6.999487
  0
LWPOLYLINE
  5
98
330
21
100
AcDbEntity
  8
default
100
AcDbPolyline
 90
        2
 70
     0
 43
0.005
 10
1.192258
 20
2.961418
 42
0.0491268
 10
1.188701
 20
2.949693
 42
6.999487
  0
LWPOLYLINE
  5
99
330
21
100
AcDbEntity
  8
default
100
AcDbPolyline
 90
        2
 70
     0
 43
0.005
 10
1.188701
 20
2.949693
 42
0.0491268
 10
1.1875
 20
2.9375
 42
6.999487
  0
LWPOLYLINE
  5
9A
330
21
100
AcDbEntity
  8
default
100
AcDbPolyline
 90
        2
 70
     0
 43
0.005
 10
1.1875
 20
2.9375
 42
0.0491268
 10
1.188701
 20
2.925307
 42
6.999487
  0
LWPOLYLINE
  5
9B
330
21
100
AcDbEntity
  8
default
100
AcDbPolyline
 90
        2
 70
     0
 43
0.005
 10
1.188701
 20
2.925307
 42
0.0491268
 10
1.192258
 20
2.913582
 42
6.999487
  0
LWPOLYLINE
  5
9C
330
21
100
AcDbEntity
  8
default
100
AcDbPolyline
 90
        2
 70
     0
 43
0.005
 10
1.192258
 20
2.913582
 42
0.0491268
 10
1.198033
 20
2.902777
 42
6.999487
  0
LWPOLYLINE
  5
9D
330
21
100
AcDbEntity
  8
default
100
AcDbPolyline
 90
        2
 70
     0
 43
0.005
 10
1.198033
 20
2.902777
 42
0.0491268
 10
1.205806
 20
2.893306
 42
6.999487
  0
LWPOLYLINE
  5
9E
330
21
100
AcDbEntity
  8
default
100
AcDbPolyline
 90
        2
 70
     0
 43
0.005
 10
1.205806
 20
2.893306
 42
0.0491268
 10
1.215277
 20
2.885533
 42
6.999487
  0
LWPOLYLINE
  5
9F
330
21
100
AcDbEntity
  8
default
100
AcDbPolyline
 90
        2
 70
     0
 43
0.005
 10
1.215277
 20
2.885533
 42
0.0491268
 10
1.226082
 20
2.879758
 42
6.999487
  0
LWPOLYLINE
  5
A0
330
21
100
AcDbEntity
  8
default
100
AcDbPolyline
 90
        2
 70
     0
 43
0.005
 10
1.226082
 20
2.879758
 42
0.0491268
 10
1.237807
 20
2.876201
 42
6.999487
  0
LWPOLYLINE
  5
A1
330
21
100
AcDbEntity
  8
default
100
AcDbPolyline
 90
        2
 70
     0
 43
0.005
 10
1.237807
 20
2.876201
 42
0.0491268
 10
1.25
 20
2.875
 42
6.999487
  0
LWPOLYLINE
  5
A2
330
21
100
AcDbEntity
  8
default
100
AcDbPolyline
 90
        2
 70
     0
 43
0.005
 10
1.25
 20
2.875
 42
0.0491268
 10
1.262193
 20
2.876201
 42
6.999487
  0
LWPOLYLINE
  5
A3
330
21
100
AcDbEntity
  8
default
100
AcDbPolyline
 90
        2
 70
     0
 43
0.005
 10
1.262193
 20
2.876201
 42
0.0491268
 10
1.273918
 20
2.879758
 42
6.999487
  0
LWPOLYLINE
  5
A4
330
21
100
AcDbEntity
  8
default
100
AcDbPolyline
 90
        2
 70
     0
 43
0.005
 10
1.273918
 20
2.879758
 42
0.0491268
 10
1.284723
 20
2.885533
 42
6.999487
  0
LWPOLYLINE
  5
A5
330
21
100
AcDbEntity
  8
default
100
AcDbPolyline
 90
        2
 70
     0
 43
0.005
 10
1.284723
 20
2.885533
 42
0.0491268
 10
1.294194
 20
2.893306
 42
6.999487
  0
LWPOLYLINE
  5
A6
330
21
100
AcDbEntity
  8
default
100
AcDbPolyline
 90
        2
 70
     0
 43
0.005
 10
1.294194
 20
2.893306
 42
0.0491268
 10
1.301967
 20
2.902777
 42
6.999487
  0
LWPOLYLINE
  5
A7
330
21
100
AcDbEntity
  8
default
100
AcDbPolyline
 90
        2
 70
     0
 43
0.005
 10
1.301967
 20
2.902777
 42
0.0491268
 10
1.307742
 20
2.913582
 42
6.999487
  0
LWPOLYLINE
  5
A8
330
21
100
AcDbEntity
  8
default
100
AcDbPolyline
 90
        2
 70
     0
 43
0.005
 10
1.307742
 20
2.913582
 42
0.0491268
 10
1.311299
 20
2.925307
 42
6.999487
  0
LWPOLYLINE
  5
A9
330
21
100
AcDbEntity
  8
default
100
AcDbPolyline
 90
        2
 70
     0
 43
0.005
 10
1.311299
 20
2.925307
 42
0.0491268
 10
1.3125
 20
2.9375
 42
6.999487
  0
LWPOLYLINE
  5
AA
330
21
100
AcDbEntity
  8
default
100
AcDbPolyline
 90
        2
 70
     0
 43
0.005
 10
0.5625
 20
3.8125
 42
0.0491268
 10
0.561299
 20
3.824693
 42
6.999487
  0
LWPOLYLINE
  5
AB
330
21
100
AcDbEntity
  8
default
100
AcDbPolyline
 90
        2
 70
     0
 43
0.005
 10
0.561299
 20
3.824693
 42
0.0491268
 10
0.557742
 20
3.836418
 42
6.999487
  0
LWPOLYLINE
  5
AC
330
21
100
AcDbEntity
  8
default
100
AcDbPolyline
 90
        2
 70
     0
 43
0.005
 10
0.557742
 20
3.836418
 42
0.0491268
 10
0.551967
 20
3.847223
 42
6.999487
  0
LWPOLYLINE
  5
AD
330
21
100
AcDbEntity
  8
default
100
AcDbPolyline
 90
        2
 70
     0
 43
0.005
 10
0.551967
 20
3.847223
 42
0.0491268
 10
0.544194
 20
3.856694
 42
6.999487
  0
LWPOLYLINE
  5
AE
330
21
100
AcDbEntity
  8
default
100
AcDbPolyline
 90
        2
 70
     0
 43
0.005
 10
0.544194
 20
3.856694
 42
0.0491268
 10
0.534723
 20
3.864467
 42
6.999487
  0
LWPOLYLINE
  5
AF
330
21
100
AcDbEntity
  8
default
100
AcDbPolyline
 90
        2
 70
     0
 43
0.005
 10
0.534723
 20
3.864467
 42
0.0491268
 10
0.523918
 20
3.870242
 42
6.999487
  0
LWPOLYLINE
  5
B0
330
21
100
AcDbEntity
  8
default
100
AcDbPolyline
 90
        2
 70
     0
 43
0.005
 10
0.523918
 20
3.870242
 42
0.0491268
 10
0.512193
 20
3.873799
 42
6.999487
  0
LWPOLYLINE
  5
B1
330
21
100
AcDbEntity
  8
default
100
AcDbPolyline
 90
        2
 70
     0
 43
0.005
 10
0.512193
 20
3.873799
 42
0.0491268
 10
0.5
 20
3.875
 42
6.999487
  0
LWPOLYLINE
  5
B2
330
21
100
AcDbEntity
  8
default
100
AcDbPolyline
 90
        2
 70
     0
 43
0.005
 10
0.5
 20
3.875
 42
0.0491268
 10
0.487807
 20
3.873799
 42
6.999487
  0
LWPOLYLINE
  5
B3
330
21
100
AcDbEntity
  8
default
100
AcDbPolyline
 90
        2
 70
     0
 43
0.005
 10
0.487807
 20
3.873799
 42
0.0491268
 10
0.476082
 20
3.870242
 42
6.999487
  0
LWPOLYLINE
  5
B4
330
21
100
AcDbEntity
  8
default
100
AcDbPolyline
 90
        2
 70
     0
 43
0.005
 10
0.476082
 20
3.870242
 42
0.0491268
 10
0.465277
 20
3.864467
 42
6.999487
  0
LWPOLYLINE
  5
B5
330
21
100
AcDbEntity
  8
default
100
AcDbPolyline
 90
        2
 70
     0
 43
0.005
 10
0.465277
 20
3.864467
 42
0.0491268
 10
0.455806
 20
3.856694
 42
6.999487
  0
LWPOLYLINE
  5
B6
330
21
100
AcDbEntity
  8
default
100
AcDbPolyline
 90
        2
 70
     0
 43
0.005
 10
0.455806
 20
3.856694
 42
0.0491268
 10
0.448033
 20
3.847223
 42
6.999487
  0
LWPOLYLINE
  5
B7
330
21
100
AcDbEntity
  8
default
100
AcDbPolyline
 90
        2
 70
     0
 43
0.005
 10
0.448033
 20
3.847223
 42
0.0491268
 10
0.442258
 20
3.836418
 42
6.999487
  0
LWPOLYLINE
  5
B8
330
21
100
AcDbEntity
  8
default
100
AcDbPolyline
 90
        2
 70
     0
 43
0.005
 10
0.442258
 20
3.836418
 42
0.0491268
 10
0.438701
 20
3.824693
 42
6.999487
  0
LWPOLYLINE
  5
B9
330
21
100
AcDbEntity
  8
default
100
AcDbPolyline
 90
        2
 70
     0
 43
0.005
 10
0.438701
 20
3.824693
 42
0.0491268
 10
0.4375
 20
3.8125
 42
6.999487
  0
LWPOLYLINE
  5
BA
330
21
100
AcDbEntity
  8
default
100
AcDbPolyline
 90
        2
 70
     0
 43
0.005
 10
0.4375
 20
3.8125
 42
0.0491268
 10
0.438701
 20
3.800307
 42
6.999487
  0
LWPOLYLINE
  5
BB
330
21
100
AcDbEntity
  8
default
100
AcDbPolyline
 90
        2
 70
     0
 43
0.005
 10
0.438701
 20
3.800307
 42
0.0491268
 10
0.442258
 20
3.788582
 42
6.999487
  0
LWPOLYLINE
  5
BC
330
21
100
AcDbEntity
  8
default
100
AcDbPolyline
 90
        2
 70
     0
 43
0.005
 10
0.442258
 20
3.788582
 42
0.0491268
 10
0.448033
 20
3.777777
 42
6.999487
  0
LWPOLYLINE
  5
BD
330
21
100
AcDbEntity
  8
default
100
AcDbPolyline
 90
        2
 70
     0
 43
0.005
 10
0.448033
 20
3.777777
 42
0.0491268
 10
0.455806
 20
3.768306
 42
6.999487
  0
LWPOLYLINE
  5
BE
330
21
100
AcDbEntity
  8
default
100
AcDbPolyline
 90
        2
 70
     0
 43
0.005
 10
0.455806
 20
3.768306
 42
0.0491268
 10
0.465277
 20
3.760533
 42
6.999487
  0
LWPOLYLINE
  5
BF
330
21
100
AcDbEntity
  8
default
100
AcDbPolyline
 90
        2
 70
     0
 43
0.005
 10
0.465277
 20
3.760533
 42
0.0491268
 10
0.476082
 20
3.754758
 42
6.999487
  0
LWPOLYLINE
  5
C0
330
21
100
AcDbEntity
  8
default
100
AcDbPolyline
 90
        2
 70
     0
 43
0.005
 10
0.476082
 20
3.754758
 42
0.0491268
 10
0.487807
 20
3.751201
 42
6.999487
  0
LWPOLYLINE
  5
C1
330
21
100
AcDbEntity
  8
default
100
AcDbPolyline
 90
        2
 70
     0
 43
0.005
 10
0.487807
 20
3.751201
 42
0.0491268
 10
0.5
 20
3.75
 42
6.999487
  0
LWPOLYLINE
  5
C2
330
21
100
AcDbEntity
  8
default
100
AcDbPolyline
 90
        2
 70
     0
 43
0.005
 10
0.5
 20
3.75
 42
0.0491268
 10
0.512193
 20
3.751201
 42
6.999487
  0
LWPOLYLINE
  5
C3
330
21
100
AcDbEntity
  8
default
100
AcDbPolyline
 90
        2
 70
     0
 43
0.005
 10
0.512193
 20
3.751201
 42
0.0491268
 10
0.523918
 20
3.754758
 42
6.999487
  0
LWPOLYLINE
  5
C4
330
21
100
AcDbEntity
  8
default
100
AcDbPolyline
 90
        2
 70
     0
 43
0.005
 10
0.523918
 20
3.754758
 42
0.0491268
 10
0.534723
 20
3.760533
 42
6.999487
  0
LWPOLYLINE
  5
C5
330
21
100
AcDbEntity
  8
default
100
AcDbPolyline
 90
        2
 70
     0
 43
0.005
 10
0.534723
 20
3.760533
 42
0.0491268
 10
0.544194
 20
3.768306
 42
6.999487
  0
LWPOLYLINE
  5
C6
330
21
100
AcDbEntity
  8
default
100
AcDbPolyline
 90
        2
 70
     0
 43
0.005
 10
0.544194
 20
3.768306
 42
0.0491268
 10
0.551967
 20
3.777777
 42
6.999487
  0
LWPOLYLINE
  5
C7
330
21
100
AcDbEntity
  8
default
100
AcDbPolyline
 90
        2
 70
     0
 43
0.005
 10
0.551967
 20
3.777777
 42
0.0491268
 10
0.557742
 20
3.788582
 42
6.999487
  0
LWPOLYLINE
  5
C8
330
21
100
AcDbEntity
  8
default
100
AcDbPolyline
 90
        2
 70
     0
 43
0.005
 10
0.557742
 20
3.788582
 42
0.0491268
 10
0.561299
 20
3.800307
 42
6.999487
  0
LWPOLYLINE
  5
C9
330
21
100
AcDbEntity
  8
default
100
AcDbPolyline
 90
        2
 70
     0
 43
0.005
 10
0.561299
 20
3.800307
 42
0.0491268
 10
0.5625
 20
3.8125
 42
6.999487
  0
LWPOLYLINE
  5
CA
330
21
100
AcDbEntity
  8
default
100
AcDbPolyline
 90
        2
 70
     0
 43
0.005
 10
0.5625
 20
2.9375
 42
0.0491268
 10
0.561299
 20
2.949693
 42
6.999487
  0
LWPOLYLINE
  5
CB
330
21
100
AcDbEntity
  8
default
100
AcDbPolyline
 90
        2
 70
     0
 43
0.005
 10
0.561299
 20
2.949693
 42
0.0491268
 10
0.557742
 20
2.961418
 42
6.999487
  0
LWPOLYLINE
  5
CC
330
21
100
AcDbEntity
  8
default
100
AcDbPolyline
 90
        2
 70
     0
 43
0.005
 10
0.557742
 20
2.961418
 42
0.0491268
 10
0.551967
 20
2.972223
 42
6.999487
  0
LWPOLYLINE
  5
CD
330
21
100
AcDbEntity
  8
default
100
AcDbPolyline
 90
        2
 70
     0
 43
0.005
 10
0.551967
 20
2.972223
 42
0.0491268
 10
0.544194
 20
2.981694
 42
6.999487
  0
LWPOLYLINE
  5
CE
330
21
100
AcDbEntity
  8
default
100
AcDbPolyline
 90
        2
 70
     0
 43
0.005
 10
0.544194
 20
2.981694
 42
0.0491268
 10
0.534723
 20
2.989467
 42
6.999487
  0
LWPOLYLINE
  5
CF
330
21
100
AcDbEntity
  8
default
100
AcDbPolyline
 90
        2
 70
     0
 43
0.005
 10
0.534723
 20
2.989467
 42
0.0491268
 10
0.523918
 20
2.995242
 42
6.999487
  0
LWPOLYLINE
  5
D0
330
21
100
AcDbEntity
  8
default
100
AcDbPolyline
 90
        2
 70
     0
 43
0.005
 10
0.523918
 20
2.995242
 42
0.0491268
 10
0.512193
 20
2.998799
 42
6.999487
  0
LWPOLYLINE
  5
D1
330
21
100
AcDbEntity
  8
default
100
AcDbPolyline
 90
        2
 70
     0
 43
0.005
 10
0.512193
 20
2.998799
 42
0.0491268
 10
0.5
 20
3.0
 42
6.999487
  0
LWPOLYLINE
  5
D2
330
21
100
AcDbEntity
  8
default
100
AcDbPolyline
 90
        2
 70
     0
 43
0.005
 10
0.5
 20
3.0
 42
0.0491268
 10
0.487807
 20
2.998799
 42
6.999487
  0
LWPOLYLINE
  5
D3
330
21
100
AcDbEntity
  8
default
100
AcDbPolyline
 90
        2
 70
     0
 43
0.005
 10
0.487807
 20
2.998799
 42
0.0491268
 10
0.476082
 20
2.995242
 42
6.999487
  0
LWPOLYLINE
  5
D4
330
21
100
AcDbEntity
  8
default
100
AcDbPolyline
 90
        2
 70
     0
 43
0.005
 10
0.476082
 20
2.995242
 42
0.0491268
 10
0.465277
 20
2.989467
 42
6.999487
  0
LWPOLYLINE
  5
D5
330
21
100
AcDbEntity
  8
default
100
AcDbPolyline
 90
        2
 70
     0
 43
0.005
 10
0.465277
 20
2.989467
 42
0.0491268
 10
0.455806
 20
2.981694
 42
6.999487
  0
LWPOLYLINE
  5
D6
330
21
100
AcDbEntity
  8
default
100
AcDbPolyline
 90
        2
 70
     0
 43
0.005
 10
0.455806
 20
2.981694
 42
0.0491268
 10
0.448033
 20
2.972223
 42
6.999487
  0
LWPOLYLINE
  5
D7
330
21
100
AcDbEntity
  8
default
100
AcDbPolyline
 90
        2
 70
     0
 43
0.005
 10
0.448033
 20
2.972223
 42
0.0491268
 10
0.442258
 20
2.961418
 42
6.999487
  0
LWPOLYLINE
  5
D8
330
21
100
AcDbEntity
  8
default
100
AcDbPolyline
 90
        2
 70
     0
 43
0.005
 10
0.442258
 20
2.961418
 42
0.0491268
 10
0.438701
 20
2.949693
 42
6.999487
  0
LWPOLYLINE
  5
D9
330
21
100
AcDbEntity
  8
default
100
AcDbPolyline
 90
        2
 70
     0
 43
0.005
 10
0.438701
 20
2.949693
 42
0.0491268
 10
0.4375
 20
2.9375
 42
6.999487
  0
LWPOLYLINE
  5
DA
330
21
100
AcDbEntity
  8
default
100
AcDbPolyline
 90
        2
 70
     0
 43
0.005
 10
0.4375
 20
2.9375
 42
0.0491268
 10
0.438701
 20
2.925307
 42
6.999487
  0
LWPOLYLINE
  5
DB
330
21
100
AcDbEntity
  8
default
100
AcDbPolyline
 90
        2
 70
     0
 43
0.005
 10
0.438701
 20
2.925307
 42
0.0491268
 10
0.442258
 20
2.913582
 42
6.999487
  0
LWPOLYLINE
  5
DC
330
21
100
AcDbEntity
  8
default
100
AcDbPolyline
 90
        2
 70
     0
 43
0.005
 10
0.442258
 20
2.913582
 42
0.0491268
 10
0.448033
 20
2.902777
 42
6.999487
  0
LWPOLYLINE
  5
DD
330
21
100
AcDbEntity
  8
default
100
AcDbPolyline
 90
        2
 70
     0
 43
0.005
 10
0.448033
 20
2.902777
 42
0.0491268
 10
0.455806
 20
2.893306
 42
6.999487
  0
LWPOLYLINE
  5
DE
330
21
100
AcDbEntity
  8
default
100
AcDbPolyline
 90
        2
 70
     0
 43
0.005
 10
0.455806
 20
2.893306
 42
0.0491268
 10
0.465277
 20
2.885533
 42
6.999487
  0
LWPOLYLINE
  5
DF
330
21
100
AcDbEntity
  8
default
100
AcDbPolyline
 90
        2
 70
     0
 43
0.005
 10
0.465277
 20
2.885533
 42
0.0491268
 10
0.476082
 20
2.879758
 42
6.999487
  0
LWPOLYLINE
  5
E0
330
21
100
AcDbEntity
  8
default
100
AcDbPolyline
 90
        2
 70
     0
 43
0.005
 10
0.476082
 20
2.879758
 42
0.0491268
 10
0.487807
 20
2.876201
 42
6.999487
  0
LWPOLYLINE
  5
E1
330
21
100
AcDbEntity
  8
default
100
AcDbPolyline
 90
        2
 70
     0
 43
0.005
 10
0.487807
 20
2.876201
 42
0.0491268
 10
0.5
 20
2.875
 42
6.999487
  0
LWPOLYLINE
  5
E2
330
21
100
AcDbEntity
  8
default
100
AcDbPolyline
 90
        2
 70
     0
 43
0.005
 10
0.5
 20
2.875
 42
0.0491268
 10
0.512193
 20
2.876201
 42
6.999487
  0
LWPOLYLINE
  5
E3
330
21
100
AcDbEntity
  8
default
100
AcDbPolyline
 90
        2
 70
     0
 43
0.005
 10
0.512193
 20
2.876201
 42
0.0491268
 10
0.523918
 20
2.879758
 42
6.999487
  0
LWPOLYLINE
  5
E4
330
21
100
AcDbEntity
  8
default
100
AcDbPolyline
 90
        2
 70
     0
 43
0.005
 10
0.523918
 20
2.879758
 42
0.0491268
 10
0.534723
 20
2.885533
 42
6.999487
  0
LWPOLYLINE
  5
E5
330
21
100
AcDbEntity
  8
default
100
AcDbPolyline
 90
        2
 70
     0
 43
0.005
 10
0.534723
 20
2.885533
 42
0.0491268
 10
0.544194
 20
2.893306
 42
6.999487
  0
LWPOLYLINE
  5
E6
330
21
100
AcDbEntity
  8
default
100
AcDbPolyline
 90
        2
 70
     0
 43
0.005
 10
0.544194
 20
2.893306
 42
0.0491268
 10
0.551967
 20
2.902777
 42
6.999487
  0
LWPOLYLINE
  5
E7
330
21
100
AcDbEntity
  8
default
100
AcDbPolyline
 90
        2
 70
     0
 43
0.005
 10
0.551967
 20
2.902777
 42
0.0491268
 10
0.557742
 20
2.913582
 42
6.999487
  0
LWPOLYLINE
  5
E8
330
21
100
AcDbEntity
  8
default
100
AcDbPolyline
 90
        2
 70
     0
 43
0.005
 10
0.557742
 20
2.913582
 42
0.0491268
 10
0.561299
 20
2.925307
 42
6.999487
  0
LWPOLYLINE
  5
E9
330
21
100
AcDbEntity
  8
default
100
AcDbPolyline
 90
        2
 70
     0
 43
0.005
 10
0.561299
 20
2.925307
 42
0.0491268
 10
0.5625
 20
2.9375
 42
6.999487
  0
LWPOLYLINE
  5
EA
330
21
100
AcDbEntity
  8
default
100
AcDbPolyline
 90
        2
 70
     0
 43
0.005
 10
-2.9375
 20
2.9375
 42
0.0491268
 10
-2.938701
 20
2.949693
 42
6.999487
  0
LWPOLYLINE
  5
EB
330
21
100
AcDbEntity
  8
default
100
AcDbPolyline
 90
        2
 70
     0
 43
0.005
 10
-2.938701
 20
2.949693
 42
0.0491268
 10
-2.942258
 20
2.961418
 42
6.999487
  0
LWPOLYLINE
  5
EC
330
21
100
AcDbEntity
  8
default
100
AcDbPolyline
 90
        2
 70
     0
 43
0.005
 10
-2.942258
 20
2.961418
 42
0.0491268
 10
-2.948033
 20
2.972223
 42
6.999487
  0
LWPOLYLINE
  5
ED
330
21
100
AcDbEntity
  8
default
100
AcDbPolyline
 90
        2
 70
     0
 43
0.005
 10
-2.948033
 20
2.972223
 42
0.0491268
 10
-2.955806
 20
2.981694
 42
6.999487
  0
LWPOLYLINE
  5
EE
330
21
100
AcDbEntity
  8
default
100
AcDbPolyline
 90
        2
 70
     0
 43
0.005
 10
-2.955806
 20
2.981694
 42
0.0491268
 10
-2.965277
 20
2.989467
 42
6.999487
  0
LWPOLYLINE
  5
EF
330
21
100
AcDbEntity
  8
default
100
AcDbPolyline
 90
        2
 70
     0
 43
0.005
 10
-2.965277
 20
2.989467
 42
0.0491268
 10
-2.976082
 20
2.995242
 42
6.999487
  0
LWPOLYLINE
  5
F0
330
21
100
AcDbEntity
  8
default
100
AcDbPolyline
 90
        2
 70
     0
 43
0.005
 10
-2.976082
 20
2.995242
 42
0.0491268
 10
-2.987807
 20
2.998799
 42
6.999487
  0
LWPOLYLINE
  5
F1
330
21
100
AcDbEntity
  8
default
100
AcDbPolyline
 90
        2
 70
     0
 43
0.005
 10
-2.987807
 20
2.998799
 42
0.0491268
 10
-3.0
 20
3.0
 42
6.999487
  0
LWPOLYLINE
  5
F2
330
21
100
AcDbEntity
  8
default
100
AcDbPolyline
 90
        2
 70
     0
 43
0.005
 10
-3.0
 20
3.0
 42
0.0491268
 10
-3.012193
 20
2.998799
 42
6.999487
  0
LWPOLYLINE
  5
F3
330
21
100
AcDbEntity
  8
default
100
AcDbPolyline
 90
        2
 70
     0
 43
0.005
 10
-3.012193
 20
2.998799
 42
0.0491268
 10
-3.023918
 20
2.995242
 42
6.999487
  0
LWPOLYLINE
  5
F4
330
21
100
AcDbEntity
  8
default
100
AcDbPolyline
 90
        2
 70
     0
 43
0.005
 10
-3.023918
 20
2.995242
 42
0.0491268
 10
-3.034723
 20
2.989467
 42
6.999487
  0
LWPOLYLINE
  5
F5
330
21
100
AcDbEntity
  8
default
100
AcDbPolyline
 90
        2
 70
     0
 43
0.005
 10
-3.034723
 20
2.989467
 42
0.0491268
 10
-3.044194
 20
2.981694
 42
6.999487
  0
LWPOLYLINE
  5
F6
330
21
100
AcDbEntity
  8
default
100
AcDbPolyline
 90
        2
 70
     0
 43
0.005
 10
-3.044194
 20
2.981694
 42
0.0491268
 10
-3.051967
 20
2.972223
 42
6.999487
  0
LWPOLYLINE
  5
F7
330
21
100
AcDbEntity
  8
default
100
AcDbPolyline
 90
        2
 70
     0
 43
0.005
 10
-3.051967
 20
2.972223
 42
0.0491268
 10
-3.057742
 20
2.961418
 42
6.999487
  0
LWPOLYLINE
  5
F8
330
21
100
AcDbEntity
  8
default
100
AcDbPolyline
 90
        2
 70
     0
 43
0.005
 10
-3.057742
 20
2.961418
 42
0.0491268
 10
-3.061299
 20
2.949693
 42
6.999487
  0
LWPOLYLINE
  5
F9
330
21
100
AcDbEntity
  8
default
100
AcDbPolyline
 90
        2
 70
     0
 43
0.005
 10
-3.061299
 20
2.949693
 42
0.0491268
 10
-3.0625
 20
2.9375
 42
6.999487
  0
LWPOLYLINE
  5
FA
330
21
100
AcDbEntity
  8
default
100
AcDbPolyline
 90
        2
 70
     0
 43
0.005
 10
-3.0625
 20
2.9375
 42
0.0491268
 10
-3.061299
 20
2.925307
 42
6.999487
  0
LWPOLYLINE
  5
FB
330
21
100
AcDbEntity
  8
default
100
AcDbPolyline
 90
        2
 70
     0
 43
0.005
 10
-3.061299
 20
2.925307
 42
0.0491268
 10
-3.057742
 20
2.913582
 42
6.999487
  0
LWPOLYLINE
  5
FC
330
21
100
AcDbEntity
  8
default
100
AcDbPolyline
 90
        2
 70
     0
 43
0.005
 10
-3.057742
 20
2.913582
 42
0.0491268
 10
-3.051967
 20
2.902777
 42
6.999487
  0
LWPOLYLINE
  5
FD
330
21
100
AcDbEntity
  8
default
100
AcDbPolyline
 90
        2
 70
     0
 43
0.005
 10
-3.051967
 20
2.902777
 42
0.0491268
 10
-3.044194
 20
2.893306
 42
6.999487
  0
LWPOLYLINE
  5
FE
330
21
100
AcDbEntity
  8
default
100
AcDbPolyline
 90
        2
 70
     0
 43
0.005
 10
-3.044194
 20
2.893306
 42
0.0491268
 10
-3.034723
 20
2.885533
 42
6.999487
  0
LWPOLYLINE
  5
FF
330
21
100
AcDbEntity
  8
default
100
AcDbPolyline
 90
        2
 70
     0
 43
0.005
 10
-3.034723
 20
2.885533
 42
0.0491268
 10
-3.023918
 20
2.879758
 42
6.999487
  0
LWPOLYLINE
  5
100
330
21
100
AcDbEntity
  8
default
100
AcDbPolyline
 90
        2
 70
     0
 43
0.005
 10
-3.023918
 20
2.879758
 42
0.0491268
 10
-3.012193
 20
2.876201
 42
6.999487
  0
LWPOLYLINE
  5
101
330
21
100
AcDbEntity
  8
default
100
AcDbPolyline
 90
        2
 70
     0
 43
0.005
 10
-3.012193
 20
2.876201
 42
0.0491268
 10
-3.0
 20
2.875
 42
6.999487
  0
LWPOLYLINE
  5
102
330
21
100
AcDbEntity
  8
default
100
AcDbPolyline
 90
        2
 70
     0
 43
0.005
 10
-3.0
 20
2.875
 42
0.0491268
 10
-2.987807
 20
2.876201
 42
6.999487
  0
LWPOLYLINE
  5
103
330
21
100
AcDbEntity
  8
default
100
AcDbPolyline
 90
        2
 70
     0
 43
0.005
 10
-2.987807
 20
2.876201
 42
0.0491268
 10
-2.976082
 20
2.879758
 42
6.999487
  0
LWPOLYLINE
  5
104
330
21
100
AcDbEntity
  8
default
100
AcDbPolyline
 90
        2
 70
     0
 43
0.005
 10
-2.976082
 20
2.879758
 42
0.0491268
 10
-2.965277
 20
2.885533
 42
6.999487
  0
LWPOLYLINE
  5
105
330
21
100
AcDbEntity
  8
default
100
AcDbPolyline
 90
        2
 70
     0
 43
0.005
 10
-2.965277
 20
2.885533
 42
0.0491268
 10
-2.955806
 20
2.893306
 42
6.999487
  0
LWPOLYLINE
  5
106
330
21
100
AcDbEntity
  8
default
100
AcDbPolyline
 90
        2
 70
     0
 43
0.005
 10
-2.955806
 20
2.893306
 42
0.0491268
 10
-2.948033
 20
2.902777
 42
6.999487
  0
LWPOLYLINE
  5
107
330
21
100
AcDbEntity
  8
default
100
AcDbPolyline
 90
        2
 70
     0
 43
0.005
 10
-2.948033
 20
2.902777
 42
0.0491268
 10
-2.942258
 20
2.913582
 42
6.999487
  0
LWPOLYLINE
  5
108
330
21
100
AcDbEntity
  8
default
100
AcDbPolyline
 90
        2
 70
     0
 43
0.005
 10
-2.942258
 20
2.913582
 42
0.0491268
 10
-2.938701
 20
2.925307
 42
6.999487
  0
LWPOLYLINE
  5
109
330
21
100
AcDbEntity
  8
default
100
AcDbPolyline
 90
        2
 70
     0
 43
0.005
 10
-2.938701
 20
2.925307
 42
0.0491268
 10
-2.9375
 20
2.9375
 42
6.999487
  0
LWPOLYLINE
  5
10A
330
21
100
AcDbEntity
  8
default
100
AcDbPolyline
 90
        2
 70
     0
 43
0.005
 10
-2.1875
 20
2.9375
 42
0.0491268
 10
-2.188701
 20
2.949693
 42
6.999487
  0
LWPOLYLINE
  5
10B
330
21
100
AcDbEntity
  8
default
100
AcDbPolyline
 90
        2
 70
     0
 43
0.005
 10
-2.188701
 20
2.949693
 42
0.0491268
 10
-2.192258
 20
2.961418
 42
6.999487
  0
LWPOLYLINE
  5
10C
330
21
100
AcDbEntity
  8
default
100
AcDbPolyline
 90
        2
 70
     0
 43
0.005
 10
-2.192258
 20
2.961418
 42
0.0491268
 10
-2.198033
 20
2.972223
 42
6.999487
  0
LWPOLYLINE
  5
10D
330
21
100
AcDbEntity
  8
default
100
AcDbPolyline
 90
        2
 70
     0
 43
0.005
 10
-2.198033
 20
2.972223
 42
0.0491268
 10
-2.205806
 20
2.981694
 42
6.999487
  0
LWPOLYLINE
  5
10E
330
21
100
AcDbEntity
  8
default
100
AcDbPolyline
 90
        2
 70
     0
 43
0.005
 10
-2.205806
 20
2.981694
 42
0.0491268
 10
-2.215277
 20
2.989467
 42
6.999487
  0
LWPOLYLINE
  5
10F
330
21
100
AcDbEntity
  8
default
100
AcDbPolyline
 90
        2
 70
     0
 43
0.005
 10
-2.215277
 20
2.989467
 42
0.0491268
 10
-2.226082
 20
2.995242
 42
6.999487
  0
LWPOLYLINE
  5
110
330
21
100
AcDbEntity
  8
default
100
AcDbPolyline
 90
        2
 70
     0
 43
0.005
 10
-2.226082
 20
2.995242
 42
0.0491268
 10
-2.237807
 20
2.998799
 42
6.999487
  0
LWPOLYLINE
  5
111
330
21
100
AcDbEntity
  8
default
100
AcDbPolyline
 90
        2
 70
     0
 43
0.005
 10
-2.237807
 20
2.998799
 42
0.0491268
 10
-2.25
 20
3.0
 42
6.999487
  0
LWPOLYLINE
  5
112
330
21
100
AcDbEntity
  8
default
100
AcDbPolyline
 90
        2
 70
     0
 43
0.005
 10
-2.25
 20
3.0
 42
0.0491268
 10
-2.262193
 20
2.998799
 42
6.999487
  0
LWPOLYLINE
  5
113
330
21
100
AcDbEntity
  8
default
100
AcDbPolyline
 90
        2
 70
     0
 43
0.005
 10
-2.262193
 20
2.998799
 42
0.0491268
 10
-2.273918
 20
2.995242
 42
6.999487
  0
LWPOLYLINE
  5
114
330
21
100
AcDbEntity
  8
default
100
AcDbPolyline
 90
        2
 70
     0
 43
0.005
 10
-2.273918
 20
2.995242
 42
0.0491268
 10
-2.284723
 20
2.989467
 42
6.999487
  0
LWPOLYLINE
  5
115
330
21
100
AcDbEntity
  8
default
100
AcDbPolyline
 90
        2
 70
     0
 43
0.005
 10
-2.284723
 20
2.989467
 42
0.0491268
 10
-2.294194
 20
2.981694
 42
6.999487
  0
LWPOLYLINE
  5
116
330
21
100
AcDbEntity
  8
default
100
AcDbPolyline
 90
        2
 70
     0
 43
0.005
 10
-2.294194
 20
2.981694
 42
0.0491268
 10
-2.301967
 20
2.972223
 42
6.999487
  0
LWPOLYLINE
  5
117
330
21
100
AcDbEntity
  8
default
100
AcDbPolyline
 90
        2
 70
     0
 43
0.005
 10
-2.301967
 20
2.972223
 42
0.0491268
 10
-2.307742
 20
2.961418
 42
6.999487
  0
LWPOLYLINE
  5
118
330
21
100
AcDbEntity
  8
default
100
AcDbPolyline
 90
        2
 70
     0
 43
0.005
 10
-2.307742
 20
2.961418
 42
0.0491268
 10
-2.311299
 20
2.949693
 42
6.999487
  0
LWPOLYLINE
  5
119
330
21
100
AcDbEntity
  8
default
100
AcDbPolyline
 90
        2
 70
     0
 43
0.005
 10
-2.311299
 20
2.949693
 42
0.0491268
 10
-2.3125
 20
2.9375
 42
6.999487
  0
LWPOLYLINE
  5
11A
330
21
100
AcDbEntity
  8
default
100
AcDbPolyline
 90
        2
 70
     0
 43
0.005
 10
-2.3125
 20
2.9375
 42
0.0491268
 10
-2.311299
 20
2.925307
 42
6.999487
  0
LWPOLYLINE
  5
11B
330
21
100
AcDbEntity
  8
default
100
AcDbPolyline
 90
        2
 70
     0
 43
0.005
 10
-2.311299
 20
2.925307
 42
0.0491268
 10
-2.307742
 20
2.913582
 42
6.999487
  0
LWPOLYLINE
  5
11C
330
21
100
AcDbEntity
  8
default
100
AcDbPolyline
 90
        2
 70
     0
 43
0.005
 10
-2.307742
 20
2.913582
 42
0.0491268
 10
-2.301967
 20
2.902777
 42
6.999487
  0
LWPOLYLINE
  5
11D
330
21
100
AcDbEntity
  8
default
100
AcDbPolyline
 90
        2
 70
     0
 43
0.005
 10
-2.301967
 20
2.902777
 42
0.0491268
 10
-2.294194
 20
2.893306
 42
6.999487
  0
LWPOLYLINE
  5
11E
330
21
100
AcDbEntity
  8
default
100
AcDbPolyline
 90
        2
 70
     0
 43
0.005
 10
-2.294194
 20
2.893306
 42
0.0491268
 10
-2.284723
 20
2.885533
 42
6.999487
  0
LWPOLYLINE
  5
11F
330
21
100
AcDbEntity
  8
default
100
AcDbPolyline
 90
        2
 70
     0
 43
0.005
 10
-2.284723
 20
2.885533
 42
0.0491268
 10
-2.273918
 20
2.879758
 42
6.999487
  0
LWPOLYLINE
  5
120
330
21
100
AcDbEntity
  8
default
100
AcDbPolyline
 90
        2
 70
     0
 43
0.005
 10
-2.273918
 20
2.879758
 42
0.0491268
 10
-2.262193
 20
2.876201
 42
6.999487
  0
LWPOLYLINE
  5
121
330
21
100
AcDbEntity
  8
default
100
AcDbPolyline
 90
        2
 70
     0
 43
0.005
 10
-2.262193
 20
2.876201
 42
0.0491268
 10
-2.25
 20
2.875
 42
6.999487
  0
LWPOLYLINE
  5
122
330
21
100
AcDbEntity
  8
default
100
AcDbPolyline
 90
        2
 70
     0
 43
0.005
 10
-2.25
 20
2.875
 42
0.0491268
 10
-2.237807
 20
2.876201
 42
6.999487
  0
LWPOLYLINE
  5
123
330
21
100
AcDbEntity
  8
default
100
AcDbPolyline
 90
        2
 70
     0
 43
0.005
 10
-2.237807
 20
2.876201
 42
0.0491268
 10
-2.226082
 20
2.879758
 42
6.999487
  0
LWPOLYLINE
  5
124
330
21
100
AcDbEntity
  8
default
100
AcDbPolyline
 90
        2
 70
     0
 43
0.005
 10
-2.226082
 20
2.879758
 42
0.0491268
 10
-2.215277
 20
2.885533
 42
6.999487
  0
LWPOLYLINE
  5
125
330
21
100
AcDbEntity
  8
default
100
AcDbPolyline
 90
        2
 70
     0
 43
0.005
 10
-2.215277
 20
2.885533
 42
0.0491268
 10
-2.205806
 20
2.893306
 42
6.999487
  0
LWPOLYLINE
  5
126
330
21
100
AcDbEntity
  8
default
100
AcDbPolyline
 90
        2
 70
     0
 43
0.005
 10
-2.205806
 20
2.893306
 42
0.0491268
 10
-2.198033
 20
2.902777
 42
6.999487
  0
LWPOLYLINE
  5
127
330
21
100
AcDbEntity
  8
default
100
AcDbPolyline
 90
        2
 70
     0
 43
0.005
 10
-2.198033
 20
2.902777
 42
0.0491268
 10
-2.192258
 20
2.913582
 42
6.999487
  0
LWPOLYLINE
  5
128
330
21
100
AcDbEntity
  8
default
100
AcDbPolyline
 90
        2
 70
     0
 43
0.005
 10
-2.192258
 20
2.913582
 42
0.0491268
 10
-2.188701
 20
2.925307
 42
6.999487
  0
LWPOLYLINE
  5
129
330
21
100
AcDbEntity
  8
default
100
AcDbPolyline
 90
        2
 70
     0
 43
0.005
 10
-2.188701
 20
2.925307
 42
0.0491268
 10
-2.1875
 20
2.9375
 42
6.999487
  0
LWPOLYLINE
  5
12A
330
21
100
AcDbEntity
  8
default
100
AcDbPolyline
 90
        2
 70
     0
 43
0.005
 10
-2.1875
 20
3.8125
 42
0.0491268
 10
-2.188701
 20
3.824693
 42
6.999487
  0
LWPOLYLINE
  5
12B
330
21
100
AcDbEntity
  8
default
100
AcDbPolyline
 90
        2
 70
     0
 43
0.005
 10
-2.188701
 20
3.824693
 42
0.0491268
 10
-2.192258
 20
3.836418
 42
6.999487
  0
LWPOLYLINE
  5
12C
330
21
100
AcDbEntity
  8
default
100
AcDbPolyline
 90
        2
 70
     0
 43
0.005
 10
-2.192258
 20
3.836418
 42
0.0491268
 10
-2.198033
 20
3.847223
 42
6.999487
  0
LWPOLYLINE
  5
12D
330
21
100
AcDbEntity
  8
default
100
AcDbPolyline
 90
        2
 70
     0
 43
0.005
 10
-2.198033
 20
3.847223
 42
0.0491268
 10
-2.205806
 20
3.856694
 42
6.999487
  0
LWPOLYLINE
  5
12E
330
21
100
AcDbEntity
  8
default
100
AcDbPolyline
 90
        2
 70
     0
 43
0.005
 10
-2.205806
 20
3.856694
 42
0.0491268
 10
-2.215277
 20
3.864467
 42
6.999487
  0
LWPOLYLINE
  5
12F
330
21
100
AcDbEntity
  8
default
100
AcDbPolyline
 90
        2
 70
     0
 43
0.005
 10
-2.215277
 20
3.864467
 42
0.0491268
 10
-2.226082
 20
3.870242
 42
6.999487
  0
LWPOLYLINE
  5
130
330
21
100
AcDbEntity
  8
default
100
AcDbPolyline
 90
        2
 70
     0
 43
0.005
 10
-2.226082
 20
3.870242
 42
0.0491268
 10
-2.237807
 20
3.873799
 42
6.999487
  0
LWPOLYLINE
  5
131
330
21
100
AcDbEntity
  8
default
100
AcDbPolyline
 90
        2
 70
     0
 43
0.005
 10
-2.237807
 20
3.873799
 42
0.0491268
 10
-2.25
 20
3.875
 42
6.999487
  0
LWPOLYLINE
  5
132
330
21
100
AcDbEntity
  8
default
100
AcDbPolyline
 90
        2
 70
     0
 43
0.005
 10
-2.25
 20
3.875
 42
0.0491268
 10
-2.262193
 20
3.873799
 42
6.999487
  0
LWPOLYLINE
  5
133
330
21
100
AcDbEntity
  8
default
100
AcDbPolyline
 90
        2
 70
     0
 43
0.005
 10
-2.262193
 20
3.873799
 42
0.0491268
 10
-2.273918
 20
3.870242
 42
6.999487
  0
LWPOLYLINE
  5
134
330
21
100
AcDbEntity
  8
default
100
AcDbPolyline
 90
        2
 70
     0
 43
0.005
 10
-2.273918
 20
3.870242
 42
0.0491268
 10
-2.284723
 20
3.864467
 42
6.999487
  0
LWPOLYLINE
  5
135
330
21
100
AcDbEntity
  8
default
100
AcDbPolyline
 90
        2
 70
     0
 43
0.005
 10
-2.284723
 20
3.864467
 42
0.0491268
 10
-2.294194
 20
3.856694
 42
6.999487
  0
LWPOLYLINE
  5
136
330
21
100
AcDbEntity
  8
default
100
AcDbPolyline
 90
        2
 70
     0
 43
0.005
 10
-2.294194
 20
3.856694
 42
0.0491268
 10
-2.301967
 20
3.847223
 42
6.999487
  0
LWPOLYLINE
  5
137
330
21
100
AcDbEntity
  8
default
100
AcDbPolyline
 90
        2
 70
     0
 43
0.005
 10
-2.301967
 20
3.847223
 42
0.0491268
 10
-2.307742
 20
3.836418
 42
6.999487
  0
LWPOLYLINE
  5
138
330
21
100
AcDbEntity
  8
default
100
AcDbPolyline
 90
        2
 70
     0
 43
0.005
 10
-2.307742
 20
3.836418
 42
0.0491268
 10
-2.311299
 20
3.824693
 42
6.999487
  0
LWPOLYLINE
  5
139
330
21
100
AcDbEntity
  8
default
100
AcDbPolyline
 90
        2
 70
     0
 43
0.005
 10
-2.311299
 20
3.824693
 42
0.0491268
 10
-2.3125
 20
3.8125
 42
6.999487
  0
LWPOLYLINE
  5
13A
330
21
100
AcDbEntity
  8
default
100
AcDbPolyline
 90
        2
 70
     0
 43
0.005
 10
-2.3125
 20
3.8125
 42
0.0491268
 10
-2.311299
 20
3.800307
 42
6.999487
  0
LWPOLYLINE
  5
13B
330
21
100
AcDbEntity
  8
default
100
AcDbPolyline
 90
        2
 70
     0
 43
0.005
 10
-2.311299
 20
3.800307
 42
0.0491268
 10
-2.307742
 20
3.788582
 42
6.999487
  0
LWPOLYLINE
  5
13C
330
21
100
AcDbEntity
  8
default
100
AcDbPolyline
 90
        2
 70
     0
 43
0.005
 10
-2.307742
 20
3.788582
 42
0.0491268
 10
-2.301967
 20
3.777777
 42
6.999487
  0
LWPOLYLINE
  5
13D
330
21
100
AcDbEntity
  8
default
100
AcDbPolyline
 90
        2
 70
     0
 43
0.005
 10
-2.301967
 20
3.777777
 42
0.0491268
 10
-2.294194
 20
3.768306
 42
6.999487
  0
LWPOLYLINE
  5
13E
330
21
100
AcDbEntity
  8
default
100
AcDbPolyline
 90
        2
 70
     0
 43
0.005
 10
-2.294194
 20
3.768306
 42
0.0491268
 10
-2.284723
 20
3.760533
 42
6.999487
  0
LWPOLYLINE
  5
13F
330
21
100
AcDbEntity
  8
default
100
AcDbPolyline
 90
        2
 70
     0
 43
0.005
 10
-2.284723
 20
3.760533
 42
0.0491268
 10
-2.273918
 20
3.754758
 42
6.999487
  0
LWPOLYLINE
  5
140
330
21
100
AcDbEntity
  8
default
100
AcDbPolyline
 90
        2
 70
     0
 43
0.005
 10
-2.273918
 20
3.754758
 42
0.0491268
 10
-2.262193
 20
3.751201
 42
6.999487
  0
LWPOLYLINE
  5
141
330
21
100
AcDbEntity
  8
default
100
AcDbPolyline
 90
        2
 70
     0
 43
0.005
 10
-2.262193
 20
3.751201
 42
0.0491268
 10
-2.25
 20
3.75
 42
6.999487
  0
LWPOLYLINE
  5
142
330
21
100
AcDbEntity
  8
default
100
AcDbPolyline
 90
        2
 70
     0
 43
0.005
 10
-2.25
 20
3.75
 42
0.0491268
 10
-2.237807
 20
3.751201
 42
6.999487
  0
LWPOLYLINE
  5
143
330
21
100
AcDbEntity
  8
default
100
AcDbPolyline
 90
        2
 70
     0
 43
0.005
 10
-2.237807
 20
3.751201
 42
0.0491268
 10
-2.226082
 20
3.754758
 42
6.999487
  0
LWPOLYLINE
  5
144
330
21
100
AcDbEntity
  8
default
100
AcDbPolyline
 90
        2
 70
     0
 43
0.005
 10
-2.226082
 20
3.754758
 42
0.0491268
 10
-2.215277
 20
3.760533
 42
6.999487
  0
LWPOLYLINE
  5
145
330
21
100
AcDbEntity
  8
default
100
AcDbPolyline
 90
        2
 70
     0
 43
0.005
 10
-2.215277
 20
3.760533
 42
0.0491268
 10
-2.205806
 20
3.768306
 42
6.999487
  0
LWPOLYLINE
  5
146
330
21
100
AcDbEntity
  8
default
100
AcDbPolyline
 90
        2
 70
     0
 43
0.005
 10
-2.205806
 20
3.768306
 42
0.0491268
 10
-2.198033
 20
3.777777
 42
6.999487
  0
LWPOLYLINE
  5
147
330
21
100
AcDbEntity
  8
default
100
AcDbPolyline
 90
        2
 70
     0
 43
0.005
 10
-2.198033
 20
3.777777
 42
0.0491268
 10
-2.192258
 20
3.788582
 42
6.999487
  0
LWPOLYLINE
  5
148
330
21
100
AcDbEntity
  8
default
100
AcDbPolyline
 90
        2
 70
     0
 43
0.005
 10
-2.192258
 20
3.788582
 42
0.0491268
 10
-2.188701
 20
3.800307
 42
6.999487
  0
LWPOLYLINE
  5
149
330
21
100
AcDbEntity
  8
default
100
AcDbPolyline
 90
        2
 70
     0
 43
0.005
 10
-2.188701
 20
3.800307
 42
0.0491268
 10
-2.1875
 20
3.8125
 42
6.999487
  0
LWPOLYLINE
  5
14A
330
21
100
AcDbEntity
  8
default
100
AcDbPolyline
 90
        2
 70
     0
 43
0.005
 10
0.198224
 20
5.114277
 42
0.0327366
 10
0.173637
 20
5.135838
 42
10.326553
  0
LWPOLYLINE
  5
14B
330
21
100
AcDbEntity
  8
default
100
AcDbPolyline
 90
        2
 70
     0
 43
0.005
 10
0.173637
 20
5.135838
 42
0.0327366
 10
0.146447
 20
5.154006
 42
10.326553
  0
LWPOLYLINE
  5
14C
330
21
100
AcDbEntity
  8
default
100
AcDbPolyline
 90
        2
 70
     0
 43
0.005
 10
0.146447
 20
5.154006
 42
0.0327366
 10
0.117118
 20
5.168469
 42
10.326553
  0
LWPOLYLINE
  5
14D
330
21
100
AcDbEntity
  8
default
100
AcDbPolyline
 90
        2
 70
     0
 43
0.005
 10
0.117118
 20
5.168469
 42
0.0327366
 10
0.0861518
 20
5.178981
 42
10.326553
  0
LWPOLYLINE
  5
14E
330
21
100
AcDbEntity
  8
default
100
AcDbPolyline
 90
        2
 70
     0
 43
0.005
 10
0.0861518
 20
5.178981
 42
0.0327366
 10
0.0540786
 20
5.185361
 42
10.326553
  0
LWPOLYLINE
  5
14F
330
21
100
AcDbEntity
  8
default
100
AcDbPolyline
 90
        2
 70
     0
 43
0.005
 10
0.0540786
 20
5.185361
 42
0.0327366
 10
0.021447
 20
5.1875
 42
10.326553
  0
LWPOLYLINE
  5
150
330
21
100
AcDbEntity
  8
default
100
AcDbPolyline
 90
        2
 70
     0
 43
0.005
 10
0.198223
 20
5.114277
 10
0.801777
 20
4.510723
  0
LWPOLYLINE
  5
151
330
21
100
AcDbEntity
  8
default
100
AcDbPolyline
 90
        2
 70
     0
 43
0.005
 10
0.875
 20
4.333947
 42
0.0327366
 10
0.872861
 20
4.366579
 42
10.326553
  0
LWPOLYLINE
  5
152
330
21
100
AcDbEntity
  8
default
100
AcDbPolyline
 90
        2
 70
     0
 43
0.005
 10
0.872861
 20
4.366579
 42
0.0327366
 10
0.866481
 20
4.398652
 42
10.326553
  0
LWPOLYLINE
  5
153
330
21
100
AcDbEntity
  8
default
100
AcDbPolyline
 90
        2
 70
     0
 43
0.005
 10
0.866481
 20
4.398652
 42
0.0327366
 10
0.855969
 20
4.429618
 42
10.326553
  0
LWPOLYLINE
  5
154
330
21
100
AcDbEntity
  8
default
100
AcDbPolyline
 90
        2
 70
     0
 43
0.005
 10
0.855969
 20
4.429618
 42
0.0327366
 10
0.841506
 20
4.458947
 42
10.326553
  0
LWPOLYLINE
  5
155
330
21
100
AcDbEntity
  8
default
100
AcDbPolyline
 90
        2
 70
     0
 43
0.005
 10
0.841506
 20
4.458947
 42
0.0327366
 10
0.823338
 20
4.486137
 42
10.326553
  0
LWPOLYLINE
  5
156
330
21
100
AcDbEntity
  8
default
100
AcDbPolyline
 90
        2
 70
     0
 43
0.005
 10
0.823338
 20
4.486137
 42
0.0327366
 10
0.801777
 20
4.510724
 42
10.326553
  0
LWPOLYLINE
  5
157
330
21
100
AcDbEntity
  8
default
100
AcDbPolyline
 90
        2
 70
     0
 43
0.005
 10
0.875
 20
3.3125
 10
0.875
 20
4.333947
  0
LWPOLYLINE
  5
158
330
21
100
AcDbEntity
  8
default
100
AcDbPolyline
 90
        2
 70
     0
 43
0.005
 10
0.875
 20
3.3125
 10
1.625
 20
3.3125
  0
LWPOLYLINE
  5
159
330
21
100
AcDbEntity
  8
default
100
AcDbPolyline
 90
        2
 70
     0
 43
0.005
 10
1.375
 20
1.8125
 42
0.0392901
 10
1.414108
 20
1.815578
 42
8.656428
  0
LWPOLYLINE
  5
15A
330
21
100
AcDbEntity
  8
default
100
AcDbPolyline
 90
        2
 70
     0
 43
0.005
 10
1.414108
 20
1.815578
 42
0.0392901
 10
1.452254
 20
1.824736
 42
8.656428
  0
LWPOLYLINE
  5
15B
330
21
100
AcDbEntity
  8
default
100
AcDbPolyline
 90
        2
 70
     0
 43
0.005
 10
1.452254
 20
1.824736
 42
0.0392901
 10
1.488497
 20
1.839749
 42
8.656428
  0
LWPOLYLINE
  5
15C
330
21
100
AcDbEntity
  8
default
100
AcDbPolyline
 90
        2
 70
     0
 43
0.005
 10
1.488497
 20
1.839749
 42
0.0392901
 10
1.521946
 20
1.860246
 42
8.656428
  0
LWPOLYLINE
  5
15D
330
21
100
AcDbEntity
  8
default
100
AcDbPolyline
 90
        2
 70
     0
 43
0.005
 10
1.521946
 20
1.860246
 42
0.0392901
 10
1.551776
 20
1.885724
 42
8.656428
  0
LWPOLYLINE
  5
15E
330
21
100
AcDbEntity
  8
default
100
AcDbPolyline
 90
        2
 70
     0
 43
0.005
 10
1.551776
 20
1.885724
 42
0.0392901
 10
1.577254
 20
1.915554
 42
8.656428
  0
LWPOLYLINE
  5
15F
330
21
100
AcDbEntity
  8
default
100
AcDbPolyline
 90
        2
 70
     0
 43
0.005
 10
1.577254
 20
1.915554
 42
0.0392901
 10
1.597751
 20
1.949003
 42
8.656428
  0
LWPOLYLINE
  5
160
330
21
100
AcDbEntity
  8
default
100
AcDbPolyline
 90
        2
 70
     0
 43
0.005
 10
1.597751
 20
1.949003
 42
0.0392901
 10
1.612764
 20
1.985246
 42
8.656428
  0
LWPOLYLINE
  5
161
330
21
100
AcDbEntity
  8
default
100
AcDbPolyline
 90
        2
 70
     0
 43
0.005
 10
1.612764
 20
1.985246
 42
0.0392901
 10
1.621922
 20
2.023392
 42
8.656428
  0
LWPOLYLINE
  5
162
330
21
100
AcDbEntity
  8
default
100
AcDbPolyline
 90
        2
 70
     0
 43
0.005
 10
1.621922
 20
2.023392
 42
0.0392901
 10
1.625
 20
2.0625
 42
8.656428
  0
LWPOLYLINE
  5
163
330
21
100
AcDbEntity
  8
default
100
AcDbPolyline
 90
        2
 70
     0
 43
0.005
 10
1.625
 20
2.0625
 10
1.625
 20
3.3125
  0
LWPOLYLINE
  5
164
330
21
100
AcDbEntity
  8
default
100
AcDbPolyline
 90
        2
 70
     0
 43
0.005
 10
0.875
 20
1.8125
 10
1.375
 20
1.8125
  0
LWPOLYLINE
  5
165
330
21
100
AcDbEntity
  8
default
100
AcDbPolyline
 90
        2
 70
     0
 43
0.005
 10
-3.125
 20
1.8125
 10
-2.625
 20
1.8125
  0
LWPOLYLINE
  5
166
330
21
100
AcDbEntity
  8
default
100
AcDbPolyline
 90
        2
 70
     0
 43
0.005
 10
-3.375
 20
2.0625
 42
0.0392901
 10
-3.371922
 20
2.023392
 42
8.656428
  0
LWPOLYLINE
  5
167
330
21
100
AcDbEntity
  8
default
100
AcDbPolyline
 90
        2
 70
     0
 43
0.005
 10
-3.371922
 20
2.023392
 42
0.0392901
 10
-3.362764
 20
1.985246
 42
8.656428
  0
LWPOLYLINE
  5
168
330
21
100
AcDbEntity
  8
default
100
AcDbPolyline
 90
        2
 70
     0
 43
0.005
 10
-3.362764
 20
1.985246
 42
0.0392901
 10
-3.347751
 20
1.949003
 42
8.656428
  0
LWPOLYLINE
  5
169
330
21
100
AcDbEntity
  8
default
100
AcDbPolyline
 90
        2
 70
     0
 43
0.005
 10
-3.347751
 20
1.949003
 42
0.0392901
 10
-3.327254
 20
1.915554
 42
8.656428
  0
LWPOLYLINE
  5
16A
330
21
100
AcDbEntity
  8
default
100
AcDbPolyline
 90
        2
 70
     0
 43
0.005
 10
-3.327254
 20
1.915554
 42
0.0392901
 10
-3.301776
 20
1.885724
 42
8.656428
  0
LWPOLYLINE
  5
16B
330
21
100
AcDbEntity
  8
default
100
AcDbPolyline
 90
        2
 70
     0
 43
0.005
 10
-3.301776
 20
1.885724
 42
0.0392901
 10
-3.271946
 20
1.860246
 42
8.656428
  0
LWPOLYLINE
  5
16C
330
21
100
AcDbEntity
  8
default
100
AcDbPolyline
 90
        2
 70
     0
 43
0.005
 10
-3.271946
 20
1.860246
 42
0.0392901
 10
-3.238497
 20
1.839749
 42
8.656428
  0
LWPOLYLINE
  5
16D
330
21
100
AcDbEntity
  8
default
100
AcDbPolyline
 90
        2
 70
     0
 43
0.005
 10
-3.238497
 20
1.839749
 42
0.0392901
 10
-3.202254
 20
1.824736
 42
8.656428
  0
LWPOLYLINE
  5
16E
330
21
100
AcDbEntity
  8
default
100
AcDbPolyline
 90
        2
 70
     0
 43
0.005
 10
-3.202254
 20
1.824736
 42
0.0392901
 10
-3.164108
 20
1.815578
 42
8.656428
  0
LWPOLYLINE
  5
16F
330
21
100
AcDbEntity
  8
default
100
AcDbPolyline
 90
        2
 70
     0
 43
0.005
 10
-3.164108
 20
1.815578
 42
0.0392901
 10
-3.125
 20
1.8125
 42
8.656428
  0
LWPOLYLINE
  5
170
330
21
100
AcDbEntity
  8
default
100
AcDbPolyline
 90
        2
 70
     0
 43
0.005
 10
-3.375
 20
2.0625
 10
-3.375
 20
3.3125
  0
LWPOLYLINE
  5
171
330
21
100
AcDbEntity
  8
default
100
AcDbPolyline
 90
        2
 70
     0
 43
0.005
 10
-3.375
 20
3.3125
 10
-2.625
 20
3.3125
  0
LWPOLYLINE
  5
172
330
21
100
AcDbEntity
  8
default
100
AcDbPolyline
 90
        2
 70
     0
 43
0.005
 10
-2.625
 20
3.3125
 10
-2.625
 20
4.333947
  0
LWPOLYLINE
  5
173
330
21
100
AcDbEntity
  8
default
100
AcDbPolyline
 90
        2
 70
     0
 43
0.005
 10
-2.551777
 20
4.510724
 42
0.0327366
 10
-2.573338
 20
4.486137
 42
10.326553
  0
LWPOLYLINE
  5
174
330
21
100
AcDbEntity
  8
default
100
AcDbPolyline
 90
        2
 70
     0
 43
0.005
 10
-2.573338
 20
4.486137
 42
0.0327366
 10
-2.591506
 20
4.458947
 42
10.326553
  0
LWPOLYLINE
  5
175
330
21
100
AcDbEntity
  8
default
100
AcDbPolyline
 90
        2
 70
     0
 43
0.005
 10
-2.591506
 20
4.458947
 42
0.0327366
 10
-2.605969
 20
4.429618
 42
10.326553
  0
LWPOLYLINE
  5
176
330
21
100
AcDbEntity
  8
default
100
AcDbPolyline
 90
        2
 70
     0
 43
0.005
 10
-2.605969
 20
4.429618
 42
0.0327366
 10
-2.616481
 20
4.398652
 42
10.326553
  0
LWPOLYLINE
  5
177
330
21
100
AcDbEntity
  8
default
100
AcDbPolyline
 90
        2
 70
     0
 43
0.005
 10
-2.616481
 20
4.398652
 42
0.0327366
 10
-2.622861
 20
4.366579
 42
10.326553
  0
LWPOLYLINE
  5
178
330
21
100
AcDbEntity
  8
default
100
AcDbPolyline
 90
        2
 70
     0
 43
0.005
 10
-2.622861
 20
4.366579
 42
0.0327366
 10
-2.625
 20
4.333947
 42
10.326553
  0
LWPOLYLINE
  5
179
330
21
100
AcDbEntity
  8
default
100
AcDbPolyline
 90
        2
 70
     0
 43
0.005
 10
-2.551777
 20
4.510723
 10
-1.948223
 20
5.114277
  0
LWPOLYLINE
  5
17A
330
21
100
AcDbEntity
  8
default
100
AcDbPolyline
 90
        2
 70
     0
 43
0.005
 10
-1.771447
 20
5.1875
 42
0.0327366
 10
-1.804079
 20
5.185361
 42
10.326553
  0
LWPOLYLINE
  5
17B
330
21
100
AcDbEntity
  8
default
100
AcDbPolyline
 90
        2
 70
     0
 43
0.005
 10
-1.804079
 20
5.185361
 42
0.0327366
 10
-1.836152
 20
5.178981
 42
10.326553
  0
LWPOLYLINE
  5
17C
330
21
100
AcDbEntity
  8
default
100
AcDbPolyline
 90
        2
 70
     0
 43
0.005
 10
-1.836152
 20
5.178981
 42
0.0327366
 10
-1.867118
 20
5.168469
 42
10.326553
  0
LWPOLYLINE
  5
17D
330
21
100
AcDbEntity
  8
default
100
AcDbPolyline
 90
        2
 70
     0
 43
0.005
 10
-1.867118
 20
5.168469
 42
0.0327366
 10
-1.896447
 20
5.154006
 42
10.326553
  0
LWPOLYLINE
  5
17E
330
21
100
AcDbEntity
  8
default
100
AcDbPolyline
 90
        2
 70
     0
 43
0.005
 10
-1.896447
 20
5.154006
 42
0.0327366
 10
-1.923637
 20
5.135838
 42
10.326553
  0
LWPOLYLINE
  5
17F
330
21
100
AcDbEntity
  8
default
100
AcDbPolyline
 90
        2
 70
     0
 43
0.005
 10
-1.923637
 20
5.135838
 42
0.0327366
 10
-1.948224
 20
5.114277
 42
10.326553
  0
LWPOLYLINE
  5
180
330
21
100
AcDbEntity
  8
default
100
AcDbPolyline
 90
        2
 70
     0
 43
0.005
 10
-1.771447
 20
5.1875
 10
0.021447
 20
5.1875
  0
LWPOLYLINE
  5
181
330
21
100
AcDbEntity
  8
default
100
AcDbPolyline
 90
        2
 70
     0
 43
0.005
 10
-2.625
 20
-0.9375
 10
-2.625
 20
1.8125
  0
LWPOLYLINE
  5
182
330
21
100
AcDbEntity
  8
default
100
AcDbPolyline
 90
        2
 70
     0
 43
0.005
 10
0.875
 20
-0.9375
 10
0.875
 20
1.8125
  0
ENDBLK
  5
183
330
21
100
AcDbEntity
  8
default
  6
Continuous
 62
     7
100
AcDbBlockEnd
  0
ENDSEC
  0
SECTION
  2
ENTITIES
  0
INSERT
  5
184
330
18
100
AcDbEntity
  8
default
100
AcDbBlockReference
  2
Group1
 10
-17.912958
 20
4.168503
 30
0.0
 41
-1.0
 50
360.0
  0
ENDSEC
  0
SECTION
  2
OBJECTS
  0
DICTIONARY
  5
C
330
0
100
AcDbDictionary
281
     1
  3
ACAD_DETAILVIEWSTYLE
350
1D6
  3
ACAD_GROUP
350
D
  3
ACAD_LAYOUT
350
1AA
  3
ACAD_MATERIAL
350
1C6
  3
ACAD_MLEADERSTYLE
350
1CC
  3
ACAD_MLINESTYLE
350
1B
  3
ACAD_PLOTSETTINGS
350
185
  3
ACAD_PLOTSTYLENAME
350
186
  3
ACAD_SCALELIST
350
188
  3
ACAD_SECTIONVIEWSTYLE
350
1D7
  3
ACAD_TABLESTYLE
350
1CA
  3
ACAD_VISUALSTYLE
350
1AD
  3
ACDB_RECOMPOSE_DATA
350
1D2
  3
AcDbVariableDictionary
350
1CE
  0
DICTIONARY
  5
1D6
102
{ACAD_REACTORS
330
C
102
}
330
C
100
AcDbDictionary
281
     1
  0
DICTIONARY
  5
D
102
{ACAD_REACTORS
330
C
102
}
330
C
100
AcDbDictionary
281
     1
  0
DICTIONARY
  5
1AA
102
{ACAD_REACTORS
330
C
102
}
330
C
100
AcDbDictionary
281
     1
  3
Layout1
350
1AC
  3
Model
350
1AB
  0
DICTIONARY
  5
1C6
102
{ACAD_REACTORS
330
C
102
}
330
C
100
AcDbDictionary
281
     1
  3
ByBlock
350
1C8
  3
ByLayer
350
1C7
  3
Global
350
1C9
  0
DICTIONARY
  5
1CC
102
{ACAD_REACTORS
330
C
102
}
330
C
100
AcDbDictionary
281
     1
  3
Standard
350
1CD
  0
DICTIONARY
  5
1B
102
{ACAD_REACTORS
330
C
102
}
330
C
100
AcDbDictionary
281
     1
  3
STANDARD
350
1C
  0
DICTIONARY
  5
185
102
{ACAD_REACTORS
330
C
102
}
330
C
100
AcDbDictionary
281
     1
  0
ACDBDICTIONARYWDFLT
  5
186
102
{ACAD_REACTORS
330
C
102
}
330
C
100
AcDbDictionary
281
     1
  3
Normal
350
187
100
AcDbDictionaryWithDefault
340
187
  0
DICTIONARY
  5
188
102
{ACAD_REACTORS
330
C
102
}
330
C
100
AcDbDictionary
281
     1
  3
A0
350
189
  3
A1
350
18A
  3
A2
350
18B
  3
A3
350
18C
  3
A4
350
18D
  3
A5
350
18E
  3
A6
350
18F
  3
A7
350
190
  3
A8
350
191
  3
A9
350
192
  3
B0
350
193
  3
B1
350
194
  3
B2
350
195
  3
B3
350
196
  3
B4
350
197
  3
B5
350
198
  3
B6
350
199
  3
B7
350
19A
  3
B8
350
19B
  3
B9
350
19C
  3
C0
350
19D
  3
C1
350
19E
  3
C2
350
19F
  3
C3
350
1A0
  3
C4
350
1A1
  3
C5
350
1A2
  3
C6
350
1A3
  3
C7
350
1A4
  3
C8
350
1A5
  3
C9
350
1A6
  3
D0
350
1A7
  3
D1
350
1A8
  3
D2
350
1A9
  0
DICTIONARY
  5
1D7
102
{ACAD_REACTORS
330
C
102
}
330
C
100
AcDbDictionary
281
     1
  0
DICTIONARY
  5
1CA
102
{ACAD_REACTORS
330
C
102
}
330
C
100
AcDbDictionary
281
     1
  3
Standard
350
1CB
  0
DICTIONARY
  5
1AD
102
{ACAD_REACTORS
330
C
102
}
330
C
100
AcDbDictionary
281
     1
  3
2dWireframe
350
1B2
  3
Basic
350
1B5
  3
Brighten
350
1B9
  3
ColorChange
350
1BD
  3
Conceptual
350
1B7
  3
Dim
350
1B8
  3
EdgeColorOff
350
1C0
  3
Facepattern
350
1BC
  3
Flat
350
1AE
  3
FlatWithEdges
350
1AF
  3
Gouraud
350
1B0
  3
GouraudWithEdges
350
1B1
  3
Hidden
350
1B4
  3
JitterOff
350
1BE
  3
Linepattern
350
1BB
  3
OverhangOff
350
1BF
  3
Realistic
350
1B6
  3
Shaded
350
1C5
  3
Shaded with edges
350
1C4
  3
Shades of Gray
350
1C1
  3
Sketchy
350
1C2
  3
Thicken
350
1BA
  3
Wireframe
350
1B3
  3
X-Ray
350
1C3
  0
XRECORD
  5
1D2
102
{ACAD_REACTORS
330
C
102
}
330
C
100
AcDbXrecord
280
     1
 90
        1
330
1CB
  0
DICTIONARY
  5
1CE
102
{ACAD_REACTORS
330
C
102
}
330
C
100
AcDbDictionary
281
     1
  3
CANNOSCALE
350
1CF
  3
CMLEADERSTYLE
350
1D4
  3
CTABLESTYLE
350
1D3
  3
MSLTSCALE
350
1D5
  0
LAYOUT
  5
1AC
102
{ACAD_REACTORS
330
1AA
102
}
330
1AA
100
AcDbPlotSettings
  1

  2
none_device
  4

  6

 40
0.0
 41
0.0
 42
0.0
 43
0.0
 44
0.0
 45
0.0
 46
0.0
 47
0.0
 48
0.0
 49
0.0
140
0.0
141
0.0
142
1.0
143
1.0
 70
   688
 72
     0
 73
     0
 74
     5
  7

 75
    16
 76
     0
 77
     2
 78
   300
147
1.0
148
0.0
149
0.0
100
AcDbLayout
  1
Layout1
 70
     1
 71
     1
 10
0.0
 20
0.0
 11
12.0
 21
9.0
 12
0.0
 22
0.0
 32
0.0
 14
1.000000000000000E+20
 24
1.000000000000000E+20
 34
1.000000000000000E+20
 15
-1.000000000000000E+20
 25
-1.000000000000000E+20
 35
-1.000000000000000E+20
146
0.0
 13
0.0
 23
0.0
 33
0.0
 16
1.0
 26
0.0
 36
0.0
 17
0.0
 27
1.0
 37
0.0
 76
     0
330
15
  0
LAYOUT
  5
1AB
102
{ACAD_REACTORS
330
1AA
102
}
330
1AA
100
AcDbPlotSettings
  1

  2
none_device
  4
Letter_(8.50_x_11.00_Inches)
  6

 40
6.35
 41
6.35
 42
6.35000508
 43
6.35000508
 44
215.9
 45
279.4
 46
0.0
 47
0.0
 48
0.0
 49
0.0
140
0.0
141
0.0
142
1.0
143
1.863276366204159
 70
  1712
 72
     0
 73
     0
 74
     0
  7

 75
     0
 76
     0
 77
     2
 78
   300
147
0.5366890377283036
148
237.5700170736205
149
-16.79432760000001
100
AcDbLayout
  1
Model
 70
     1
 71
     0
 10
0.0
 20
0.0
 11
-14.537958
 21
9.356003
 12
0.0
 22
0.0
 32
0.0
 14
-21.287958
 24
-1.018997
 34
0.0
 15
-14.537958
 25
9.356003
 35
0.0
146
0.0
 13
0.0
 23
0.0
 33
0.0
 16
1.0
 26
0.0
 36
0.0
 17
0.0
 27
1.0
 37
0.0
 76
     0
330
18
331
1E
  0
MATERIAL
  5
1C8
102
{ACAD_REACTORS
330
1C6
102
}
330
1C6
100
AcDbMaterial
  1
ByBlock
 72
     1
 94
      127
  0
MATERIAL
  5
1C7
102
{ACAD_REACTORS
330
1C6
102
}
330
1C6
100
AcDbMaterial
  1
ByLayer
 72
     1
 94
      127
  0
MATERIAL
  5
1C9
102
{ACAD_REACTORS
330
1C6
102
}
330
1C6
100
AcDbMaterial
  1
Global
 72
     1
 94
      127
  0
MLEADERSTYLE
  5
1CD
102
{ACAD_REACTORS
330
1CC
102
}
330
1CC
100
AcDbMLeaderStyle
179
     2
170
     2
171
     1
172
     0
 90
        2
 40
0.0
 41
0.0
173
     1
 91
-1056964608
340
12
 92
       -2
290
     1
 42
0.09
291
     1
 43
0.36
  3
Standard
341
0
 44
0.18
300

342
F
174
     1
178
     6
175
     1
176
     0
 93
-1056964608
 45
0.18
292
     0
297
     0
 46
0.18
343
0
 94
-1056964608
 47
1.0
 49
1.0
140
1.0
293
     1
141
0.0
294
     1
177
     0
142
1.0
295
     0
296
     0
143
0.125
271
     0
272
     9
273
     9
298
     0
  0
MLINESTYLE
  5
1C
102
{ACAD_REACTORS
330
1B
102
}
330
1B
100
AcDbMlineStyle
  2
STANDARD
 70
     0
  3

 62
   256
 51
90.0
 52
90.0
 71
     2
 49
0.5
 62
   256
  6
BYLAYER
 49
-0.5
 62
   256
  6
BYLAYER
  0
ACDBPLACEHOLDER
  5
187
102
{ACAD_REACTORS
330
186
102
}
330
186
  0
SCALE
  5
189
102
{ACAD_REACTORS
330
188
102
}
330
188
100
AcDbScale
 70
     0
300
1:1
140
1.0
141
1.0
290
     1
  0
SCALE
  5
18A
102
{ACAD_REACTORS
330
188
102
}
330
188
100
AcDbScale
 70
     0
300
1:2
140
1.0
141
2.0
290
     0
  0
SCALE
  5
18B
102
{ACAD_REACTORS
330
188
102
}
330
188
100
AcDbScale
 70
     0
300
1:4
140
1.0
141
4.0
290
     0
  0
SCALE
  5
18C
102
{ACAD_REACTORS
330
188
102
}
330
188
100
AcDbScale
 70
     0
300
1:5
140
1.0
141
5.0
290
     0
  0
SCALE
  5
18D
102
{ACAD_REACTORS
330
188
102
}
330
188
100
AcDbScale
 70
     0
300
1:8
140
1.0
141
8.0
290
     0
  0
SCALE
  5
18E
102
{ACAD_REACTORS
330
188
102
}
330
188
100
AcDbScale
 70
     0
300
1:10
140
1.0
141
10.0
290
     0
  0
SCALE
  5
18F
102
{ACAD_REACTORS
330
188
102
}
330
188
100
AcDbScale
 70
     0
300
1:16
140
1.0
141
16.0
290
     0
  0
SCALE
  5
190
102
{ACAD_REACTORS
330
188
102
}
330
188
100
AcDbScale
 70
     0
300
1:20
140
1.0
141
20.0
290
     0
  0
SCALE
  5
191
102
{ACAD_REACTORS
330
188
102
}
330
188
100
AcDbScale
 70
     0
300
1:30
140
1.0
141
30.0
290
     0
  0
SCALE
  5
192
102
{ACAD_REACTORS
330
188
102
}
330
188
100
AcDbScale
 70
     0
300
1:40
140
1.0
141
40.0
290
     0
  0
SCALE
  5
193
102
{ACAD_REACTORS
330
188
102
}
330
188
100
AcDbScale
 70
     0
300
1:50
140
1.0
141
50.0
290
     0
  0
SCALE
  5
194
102
{ACAD_REACTORS
330
188
102
}
330
188
100
AcDbScale
 70
     0
300
1:100
140
1.0
141
100.0
290
     0
  0
SCALE
  5
195
102
{ACAD_REACTORS
330
188
102
}
330
188
100
AcDbScale
 70
     0
300
2:1
140
2.0
141
1.0
290
     0
  0
SCALE
  5
196
102
{ACAD_REACTORS
330
188
102
}
330
188
100
AcDbScale
 70
     0
300
4:1
140
4.0
141
1.0
290
     0
  0
SCALE
  5
197
102
{ACAD_REACTORS
330
188
102
}
330
188
100
AcDbScale
 70
     0
300
8:1
140
8.0
141
1.0
290
     0
  0
SCALE
  5
198
102
{ACAD_REACTORS
330
188
102
}
330
188
100
AcDbScale
 70
     0
300
10:1
140
10.0
141
1.0
290
     0
  0
SCALE
  5
199
102
{ACAD_REACTORS
330
188
102
}
330
188
100
AcDbScale
 70
     0
300
100:1
140
100.0
141
1.0
290
     0
  0
SCALE
  5
19A
102
{ACAD_REACTORS
330
188
102
}
330
188
100
AcDbScale
 70
     0
300
1/128" = 1'-0"
140
0.0078125
141
12.0
290
     0
  0
SCALE
  5
19B
102
{ACAD_REACTORS
330
188
102
}
330
188
100
AcDbScale
 70
     0
300
1/64" = 1'-0"
140
0.015625
141
12.0
290
     0
  0
SCALE
  5
19C
102
{ACAD_REACTORS
330
188
102
}
330
188
100
AcDbScale
 70
     0
300
1/32" = 1'-0"
140
0.03125
141
12.0
290
     0
  0
SCALE
  5
19D
102
{ACAD_REACTORS
330
188
102
}
330
188
100
AcDbScale
 70
     0
300
1/16" = 1'-0"
140
0.0625
141
12.0
290
     0
  0
SCALE
  5
19E
102
{ACAD_REACTORS
330
188
102
}
330
188
100
AcDbScale
 70
     0
300
3/32" = 1'-0"
140
0.09375
141
12.0
290
     0
  0
SCALE
  5
19F
102
{ACAD_REACTORS
330
188
102
}
330
188
100
AcDbScale
 70
     0
300
1/8" = 1'-0"
140
0.125
141
12.0
290
     0
  0
SCALE
  5
1A0
102
{ACAD_REACTORS
330
188
102
}
330
188
100
AcDbScale
 70
     0
300
3/16" = 1'-0"
140
0.1875
141
12.0
290
     0
  0
SCALE
  5
1A1
102
{ACAD_REACTORS
330
188
102
}
330
188
100
AcDbScale
 70
     0
300
1/4" = 1'-0"
140
0.25
141
12.0
290
     0
  0
SCALE
  5
1A2
102
{ACAD_REACTORS
330
188
102
}
330
188
100
AcDbScale
 70
     0
300
3/8" = 1'-0"
140
0.375
141
12.0
290
     0
  0
SCALE
  5
1A3
102
{ACAD_REACTORS
330
188
102
}
330
188
100
AcDbScale
 70
     0
300
1/2" = 1'-0"
140
0.5
141
12.0
290
     0
  0
SCALE
  5
1A4
102
{ACAD_REACTORS
330
188
102
}
330
188
100
AcDbScale
 70
     0
300
3/4" = 1'-0"
140
0.75
141
12.0
290
     0
  0
SCALE
  5
1A5
102
{ACAD_REACTORS
330
188
102
}
330
188
100
AcDbScale
 70
     0
300
1" = 1'-0"
140
1.0
141
12.0
290
     0
  0
SCALE
  5
1A6
102
{ACAD_REACTORS
330
188
102
}
330
188
100
AcDbScale
 70
     0
300
1-1/2" = 1'-0"
140
1.5
141
12.0
290
     0
  0
SCALE
  5
1A7
102
{ACAD_REACTORS
330
188
102
}
330
188
100
AcDbScale
 70
     0
300
3" = 1'-0"
140
3.0
141
12.0
290
     0
  0
SCALE
  5
1A8
102
{ACAD_REACTORS
330
188
102
}
330
188
100
AcDbScale
 70
     0
300
6" = 1'-0"
140
6.0
141
12.0
290
     0
  0
SCALE
  5
1A9
102
{ACAD_REACTORS
330
188
102
}
330
188
100
AcDbScale
 70
     0
300
1'-0" = 1'-0"
140
12.0
141
12.0
290
     0
  0
TABLESTYLE
  5
1CB
102
{ACAD_REACTORS
330
1CA
102
}
102
{ACAD_XDICTIONARY
360
1D0
102
}
330
1CA
100
AcDbTableStyle
  3
Standard
 70
     0
 71
     0
 40
0.06
 41
0.06
280
     0
281
     0
  7
STANDARD
140
0.18
170
     2
 62
     0
 63
   257
283
     0
 90
        4
 91
        0
  1

274
    -2
284
     1
 64
     0
275
    -2
285
     1
 65
     0
276
    -2
286
     1
 66
     0
277
    -2
287
     1
 67
     0
278
    -2
288
     1
 68
     0
279
    -2
289
     1
 69
     0
  7
STANDARD
140
0.25
170
     5
 62
     0
 63
   257
283
     0
 90
        4
 91
        0
  1

274
    -2
284
     1
 64
     0
275
    -2
285
     1
 65
     0
276
    -2
286
     1
 66
     0
277
    -2
287
     1
 67
     0
278
    -2
288
     1
 68
     0
279
    -2
289
     1
 69
     0
  7
STANDARD
140
0.18
170
     5
 62
     0
 63
   257
283
     0
 90
        4
 91
        0
  1

274
    -2
284
     1
 64
     0
275
    -2
285
     1
 65
     0
276
    -2
286
     1
 66
     0
277
    -2
287
     1
 67
     0
278
    -2
288
     1
 68
     0
279
    -2
289
     1
 69
     0
  0
VISUALSTYLE
  5
1B2
102
{ACAD_REACTORS
330
1AD
102
}
330
1AD
100
AcDbVisualStyle
  2
2dWireframe
 70
     4
177
     3
291
     0
 70
    58
 90
        0
176
     1
 90
        2
176
     1
 90
        0
176
     1
 90
        0
176
     1
 40
0.6
176
     1
 40
30.0
176
     1
 62
     7
420
 16777215
176
     1
 90
        1
176
     1
 90
        4
176
     1
 62
     7
176
     1
 62
   257
176
     1
 90
        1
176
     1
 90
        1
176
     1
 40
1.0
176
     1
 90
        0
176
     1
 62
   257
176
     1
 40
1.0
176
     1
 90
        1
176
     1
 90
        6
176
     1
 90
        2
176
     1
 62
     7
176
     1
 90
        5
176
     1
 90
        0
176
     1
 90
        0
176
     1
290
     0
176
     1
 90
        1
176
     1
 40
0.0
176
     1
 90
        0
176
     1
290
     1
176
     1
290
     1
176
     1
290
     0
176
     1
290
     0
176
     1
290
     0
176
     1
290
     0
176
     1
290
     0
176
     1
290
     0
176
     1
290
     0
176
     1
 90
       50
176
     1
 40
0.0
176
     1
 40
1.0
176
     1
 90
        0
176
     1
 62
    18
420
        0
176
     1
 90
       50
176
     1
 90
        3
176
     1
 62
     5
420
      255
176
     1
290
     0
176
     1
 90
       50
176
     1
 90
       50
176
     1
 90
       50
176
     1
290
     0
176
     1
 90
       50
176
     1
 62
   256
176
     0
 40
1.0
176
     0
 90
        2
176
     1
  1
strokes_ogs.tif
176
     1
290
     0
176
     1
 40
1.0
176
     1
 40
1.0
176
     1
  0
VISUALSTYLE
  5
1B5
102
{ACAD_REACTORS
330
1AD
102
}
330
1AD
100
AcDbVisualStyle
  2
Basic
 70
     7
177
     3
291
     1
 70
    58
 90
        1
176
     1
 90
        0
176
     1
 90
        1
176
     1
 90
        0
176
     1
 40
0.6
176
     1
 40
30.0
176
     1
 62
     7
420
 16777215
176
     1
 90
        0
176
     1
 90
        4
176
     1
 62
     7
176
     1
 62
   257
176
     1
 90
        1
176
     1
 90
        1
176
     1
 40
1.0
176
     1
 90
        8
176
     1
 62
     7
176
     1
 40
1.0
176
     1
 90
        1
176
     1
 90
        6
176
     1
 90
        2
176
     1
 62
     7
176
     1
 90
        5
176
     1
 90
        0
176
     1
 90
        0
176
     1
290
     0
176
     1
 90
        1
176
     1
 40
0.0
176
     1
 90
        0
176
     1
290
     0
176
     1
290
     1
176
     1
290
     1
176
     1
290
     0
176
     1
290
     0
176
     1
290
     0
176
     1
290
     0
176
     1
290
     0
176
     1
290
     0
176
     1
 90
       50
176
     1
 40
0.0
176
     1
 40
1.0
176
     1
 90
        0
176
     1
 62
    18
420
        0
176
     1
 90
       50
176
     1
 90
        3
176
     1
 62
     5
420
      255
176
     1
290
     0
176
     1
 90
       50
176
     1
 90
       50
176
     1
 90
       50
176
     1
290
     0
176
     1
 90
       50
176
     1
 62
   256
176
     0
 40
1.0
176
     0
 90
        2
176
     1
  1
strokes_ogs.tif
176
     1
290
     0
176
     1
 40
1.0
176
     1
 40
1.0
176
     1
  0
VISUALSTYLE
  5
1B9
102
{ACAD_REACTORS
330
1AD
102
}
330
1AD
100
AcDbVisualStyle
  2
Brighten
 70
    12
177
     3
291
     1
 70
    58
 90
        2
176
     1
 90
        2
176
     1
 90
        0
176
     1
 90
        0
176
     1
 40
0.6
176
     1
 40
30.0
176
     1
 62
     7
420
 16777215
176
     1
 90
        1
176
     1
 90
        4
176
     1
 62
     7
176
     1
 62
   257
176
     1
 90
        1
176
     1
 90
        1
176
     1
 40
1.0
176
     1
 90
        8
176
     1
 62
     7
176
     1
 40
1.0
176
     1
 90
        1
176
     1
 90
        6
176
     1
 90
        2
176
     1
 62
     7
176
     1
 90
        5
176
     1
 90
        0
176
     1
 90
        0
176
     1
290
     0
176
     1
 90
        1
176
     1
 40
50.0
176
     1
 90
        0
176
     1
290
     0
176
     1
290
     1
176
     1
290
     1
176
     1
290
     0
176
     1
290
     0
176
     1
290
     0
176
     1
290
     0
176
     1
290
     0
176
     1
290
     0
176
     1
 90
       50
176
     1
 40
0.0
176
     1
 40
1.0
176
     1
 90
        0
176
     1
 62
    18
420
        0
176
     1
 90
       50
176
     1
 90
        3
176
     1
 62
     5
420
      255
176
     1
290
     0
176
     1
 90
       50
176
     1
 90
       50
176
     1
 90
       50
176
     1
290
     0
176
     1
 90
       50
176
     1
 62
   256
176
     0
 40
1.0
176
     0
 90
        2
176
     1
  1
strokes_ogs.tif
176
     1
290
     0
176
     1
 40
1.0
176
     1
 40
1.0
176
     1
  0
VISUALSTYLE
  5
1BD
102
{ACAD_REACTORS
330
1AD
102
}
330
1AD
100
AcDbVisualStyle
  2
ColorChange
 70
    16
177
     3
291
     1
 70
    58
 90
        2
176
     1
 90
        2
176
     1
 90
        3
176
     1
 90
        0
176
     1
 40
0.6
176
     1
 40
30.0
176
     1
 62
     8
420
  8421504
176
     1
 90
        1
176
     1
 90
        4
176
     1
 62
     7
176
     1
 62
   257
176
     1
 90
        1
176
     1
 90
        1
176
     1
 40
1.0
176
     1
 90
        8
176
     1
 62
     8
420
  8421504
176
     1
 40
1.0
176
     1
 90
        1
176
     1
 90
        6
176
     1
 90
        2
176
     1
 62
     7
176
     1
 90
        5
176
     1
 90
        0
176
     1
 90
        0
176
     1
290
     0
176
     1
 90
        1
176
     1
 40
0.0
176
     1
 90
        0
176
     1
290
     0
176
     1
290
     1
176
     1
290
     1
176
     1
290
     0
176
     1
290
     0
176
     1
290
     0
176
     1
290
     0
176
     1
290
     0
176
     1
290
     0
176
     1
 90
       50
176
     1
 40
0.0
176
     1
 40
1.0
176
     1
 90
        0
176
     1
 62
    18
420
        0
176
     1
 90
       50
176
     1
 90
        3
176
     1
 62
     5
420
      255
176
     1
290
     0
176
     1
 90
       50
176
     1
 90
       50
176
     1
 90
       50
176
     1
290
     0
176
     1
 90
       50
176
     1
 62
   256
176
     0
 40
1.0
176
     0
 90
        2
176
     1
  1
strokes_ogs.tif
176
     1
290
     0
176
     1
 40
1.0
176
     1
 40
1.0
176
     1
  0
VISUALSTYLE
  5
1B7
102
{ACAD_REACTORS
330
1AD
102
}
330
1AD
100
AcDbVisualStyle
  2
Conceptual
 70
     9
177
     3
291
     0
 70
    58
 90
        3
176
     1
 90
        2
176
     1
 90
        0
176
     1
 90
        0
176
     1
 40
0.6
176
     1
 40
30.0
176
     1
 62
     7
420
 16777215
176
     1
 90
        2
176
     1
 90
        2
176
     1
 62
     7
176
     1
 62
   257
176
     1
 90
        1
176
     1
 90
        1
176
     1
 40
179.0
176
     1
 90
        8
176
     1
 62
     7
176
     1
 40
1.0
176
     1
 90
        1
176
     1
 90
        6
176
     1
 90
        2
176
     1
 62
     7
176
     1
 90
        3
176
     1
 90
        0
176
     1
 90
        0
176
     1
290
     0
176
     1
 90
        1
176
     1
 40
0.0
176
     1
 90
        0
176
     1
290
     0
176
     1
290
     1
176
     1
290
     1
176
     1
290
     0
176
     1
290
     0
176
     1
290
     0
176
     1
290
     0
176
     1
290
     0
176
     1
290
     0
176
     1
 90
       50
176
     1
 40
0.0
176
     1
 40
1.0
176
     1
 90
        0
176
     1
 62
    18
420
        0
176
     1
 90
       50
176
     1
 90
        3
176
     1
 62
     5
420
      255
176
     1
290
     0
176
     1
 90
       50
176
     1
 90
       50
176
     1
 90
       50
176
     1
290
     0
176
     1
 90
       50
176
     1
 62
   256
176
     0
 40
1.0
176
     0
 90
        2
176
     1
  1
strokes_ogs.tif
176
     1
290
     0
176
     1
 40
1.0
176
     1
 40
1.0
176
     1
  0
VISUALSTYLE
  5
1B8
102
{ACAD_REACTORS
330
1AD
102
}
330
1AD
100
AcDbVisualStyle
  2
Dim
 70
    11
177
     3
291
     1
 70
    58
 90
        2
176
     1
 90
        2
176
     1
 90
        0
176
     1
 90
        0
176
     1
 40
0.6
176
     1
 40
30.0
176
     1
 62
     7
420
 16777215
176
     1
 90
        1
176
     1
 90
        4
176
     1
 62
     7
176
     1
 62
   257
176
     1
 90
        1
176
     1
 90
        1
176
     1
 40
1.0
176
     1
 90
        8
176
     1
 62
     7
176
     1
 40
1.0
176
     1
 90
        1
176
     1
 90
        6
176
     1
 90
        2
176
     1
 62
     7
176
     1
 90
        5
176
     1
 90
        0
176
     1
 90
        0
176
     1
290
     0
176
     1
 90
        1
176
     1
 40
-50.0
176
     1
 90
        0
176
     1
290
     0
176
     1
290
     1
176
     1
290
     1
176
     1
290
     0
176
     1
290
     0
176
     1
290
     0
176
     1
290
     0
176
     1
290
     0
176
     1
290
     0
176
     1
 90
       50
176
     1
 40
0.0
176
     1
 40
1.0
176
     1
 90
        0
176
     1
 62
    18
420
        0
176
     1
 90
       50
176
     1
 90
        3
176
     1
 62
     5
420
      255
176
     1
290
     0
176
     1
 90
       50
176
     1
 90
       50
176
     1
 90
       50
176
     1
290
     0
176
     1
 90
       50
176
     1
 62
   256
176
     0
 40
1.0
176
     0
 90
        2
176
     1
  1
strokes_ogs.tif
176
     1
290
     0
176
     1
 40
1.0
176
     1
 40
1.0
176
     1
  0
VISUALSTYLE
  5
1C0
102
{ACAD_REACTORS
330
1AD
102
}
330
1AD
100
AcDbVisualStyle
  2
EdgeColorOff
 70
    22
177
     3
291
     1
 70
    58
 90
        2
176
     0
 90
        2
176
     0
 90
        0
176
     0
 90
        0
176
     0
 40
0.6
176
     0
 40
30.0
176
     0
 62
     7
420
 16777215
176
     0
 90
        1
176
     0
 90
        4
176
     0
 62
     7
176
     0
 62
   257
176
     0
 90
        1
176
     0
 90
        1
176
     0
 40
1.0
176
     0
 90
        8
176
     2
 62
     7
176
     0
 40
1.0
176
     0
 90
        1
176
     0
 90
        6
176
     0
 90
        2
176
     0
 62
     7
176
     0
 90
        5
176
     0
 90
        0
176
     0
 90
        0
176
     0
290
     0
176
     0
 90
        1
176
     0
 40
0.0
176
     0
 90
        0
176
     0
290
     0
176
     0
290
     1
176
     0
290
     1
176
     0
290
     0
176
     0
290
     0
176
     0
290
     0
176
     0
290
     0
176
     0
290
     0
176
     0
290
     0
176
     0
 90
       50
176
     0
 40
0.0
176
     0
 40
1.0
176
     0
 90
        0
176
     0
 62
    18
420
        0
176
     0
 90
       50
176
     0
 90
        3
176
     0
 62
     5
420
      255
176
     0
290
     0
176
     0
 90
       50
176
     0
 90
       50
176
     0
 90
       50
176
     0
290
     0
176
     0
 90
       50
176
     0
 62
   256
176
     0
 40
1.0
176
     0
 90
        2
176
     0
  1
strokes_ogs.tif
176
     0
290
     0
176
     0
 40
1.0
176
     0
 40
1.0
176
     0
  0
VISUALSTYLE
  5
1BC
102
{ACAD_REACTORS
330
1AD
102
}
330
1AD
100
AcDbVisualStyle
  2
Facepattern
 70
    15
177
     3
291
     1
 70
    58
 90
        2
176
     1
 90
        2
176
     1
 90
        0
176
     1
 90
        0
176
     1
 40
0.6
176
     1
 40
30.0
176
     1
 62
     7
420
 16777215
176
     1
 90
        1
176
     1
 90
        4
176
     1
 62
     7
176
     1
 62
   257
176
     1
 90
        1
176
     1
 90
        1
176
     1
 40
1.0
176
     1
 90
        8
176
     1
 62
     7
176
     1
 40
1.0
176
     1
 90
        1
176
     1
 90
        6
176
     1
 90
        2
176
     1
 62
     7
176
     1
 90
        5
176
     1
 90
        0
176
     1
 90
        0
176
     1
290
     0
176
     1
 90
        1
176
     1
 40
0.0
176
     1
 90
        0
176
     1
290
     0
176
     1
290
     1
176
     1
290
     1
176
     1
290
     0
176
     1
290
     0
176
     1
290
     0
176
     1
290
     0
176
     1
290
     0
176
     1
290
     0
176
     1
 90
       50
176
     1
 40
0.0
176
     1
 40
1.0
176
     1
 90
        0
176
     1
 62
    18
420
        0
176
     1
 90
       50
176
     1
 90
        3
176
     1
 62
     5
420
      255
176
     1
290
     0
176
     1
 90
       50
176
     1
 90
       50
176
     1
 90
       50
176
     1
290
     0
176
     1
 90
       50
176
     1
 62
   256
176
     0
 40
1.0
176
     0
 90
        2
176
     1
  1
strokes_ogs.tif
176
     1
290
     0
176
     1
 40
1.0
176
     1
 40
1.0
176
     1
  0
VISUALSTYLE
  5
1AE
102
{ACAD_REACTORS
330
1AD
102
}
330
1AD
100
AcDbVisualStyle
  2
Flat
 70
     0
177
     3
291
     1
 70
    58
 90
        2
176
     1
 90
        1
176
     1
 90
        1
176
     1
 90
        2
176
     1
 40
0.6
176
     1
 40
30.0
176
     1
 62
     7
420
 16777215
176
     1
 90
        0
176
     1
 90
        0
176
     1
 62
     7
176
     1
 62
   257
176
     1
 90
        1
176
     1
 90
        1
176
     1
 40
1.0
176
     1
 90
        8
176
     1
 62
     7
176
     1
 40
1.0
176
     1
 90
        1
176
     1
 90
        6
176
     1
 90
        2
176
     1
 62
     7
176
     1
 90
        5
176
     1
 90
        0
176
     1
 90
        0
176
     1
290
     0
176
     1
 90
       13
176
     1
 40
0.0
176
     1
 90
        0
176
     1
290
     0
176
     1
290
     1
176
     1
290
     1
176
     1
290
     0
176
     1
290
     0
176
     1
290
     0
176
     1
290
     0
176
     1
290
     0
176
     1
290
     0
176
     1
 90
       50
176
     1
 40
0.0
176
     1
 40
1.0
176
     1
 90
        0
176
     1
 62
    18
420
        0
176
     1
 90
       50
176
     1
 90
        3
176
     1
 62
     5
420
      255
176
     1
290
     0
176
     1
 90
       50
176
     1
 90
       50
176
     1
 90
       50
176
     1
290
     0
176
     1
 90
       50
176
     1
 62
   256
176
     0
 40
1.0
176
     0
 90
        2
176
     1
  1
strokes_ogs.tif
176
     1
290
     0
176
     1
 40
1.0
176
     1
 40
1.0
176
     1
  0
VISUALSTYLE
  5
1AF
102
{ACAD_REACTORS
330
1AD
102
}
330
1AD
100
AcDbVisualStyle
  2
FlatWithEdges
 70
     1
177
     3
291
     1
 70
    58
 90
        2
176
     1
 90
        1
176
     1
 90
        1
176
     1
 90
        2
176
     1
 40
0.6
176
     1
 40
30.0
176
     1
 62
     7
420
 16777215
176
     1
 90
        1
176
     1
 90
        0
176
     1
 62
     7
176
     1
 62
   257
176
     1
 90
        1
176
     1
 90
        1
176
     1
 40
1.0
176
     1
 90
        0
176
     1
 62
   257
176
     1
 40
1.0
176
     1
 90
        1
176
     1
 90
        6
176
     1
 90
        2
176
     1
 62
     7
176
     1
 90
        5
176
     1
 90
        0
176
     1
 90
        0
176
     1
290
     0
176
     1
 90
       13
176
     1
 40
0.0
176
     1
 90
        0
176
     1
290
     0
176
     1
290
     1
176
     1
290
     1
176
     1
290
     0
176
     1
290
     0
176
     1
290
     0
176
     1
290
     0
176
     1
290
     0
176
     1
290
     0
176
     1
 90
       50
176
     1
 40
0.0
176
     1
 40
1.0
176
     1
 90
        0
176
     1
 62
    18
420
        0
176
     1
 90
       50
176
     1
 90
        3
176
     1
 62
     5
420
      255
176
     1
290
     0
176
     1
 90
       50
176
     1
 90
       50
176
     1
 90
       50
176
     1
290
     0
176
     1
 90
       50
176
     1
 62
   256
176
     0
 40
1.0
176
     0
 90
        2
176
     1
  1
strokes_ogs.tif
176
     1
290
     0
176
     1
 40
1.0
176
     1
 40
1.0
176
     1
  0
VISUALSTYLE
  5
1B0
102
{ACAD_REACTORS
330
1AD
102
}
330
1AD
100
AcDbVisualStyle
  2
Gouraud
 70
     2
177
     3
291
     1
 70
    58
 90
        2
176
     1
 90
        2
176
     1
 90
        1
176
     1
 90
        2
176
     1
 40
0.6
176
     1
 40
30.0
176
     1
 62
     7
420
 16777215
176
     1
 90
        0
176
     1
 90
        0
176
     1
 62
     7
176
     1
 62
   257
176
     1
 90
        1
176
     1
 90
        1
176
     1
 40
1.0
176
     1
 90
        0
176
     1
 62
     7
176
     1
 40
1.0
176
     1
 90
        1
176
     1
 90
        6
176
     1
 90
        2
176
     1
 62
     7
176
     1
 90
        5
176
     1
 90
        0
176
     1
 90
        0
176
     1
290
     0
176
     1
 90
       13
176
     1
 40
0.0
176
     1
 90
        0
176
     1
290
     0
176
     1
290
     1
176
     1
290
     1
176
     1
290
     0
176
     1
290
     0
176
     1
290
     0
176
     1
290
     0
176
     1
290
     0
176
     1
290
     0
176
     1
 90
       50
176
     1
 40
0.0
176
     1
 40
1.0
176
     1
 90
        0
176
     1
 62
    18
420
        0
176
     1
 90
       50
176
     1
 90
        3
176
     1
 62
     5
420
      255
176
     1
290
     0
176
     1
 90
       50
176
     1
 90
       50
176
     1
 90
       50
176
     1
290
     0
176
     1
 90
       50
176
     1
 62
   256
176
     0
 40
1.0
176
     0
 90
        2
176
     1
  1
strokes_ogs.tif
176
     1
290
     0
176
     1
 40
1.0
176
     1
 40
1.0
176
     1
  0
VISUALSTYLE
  5
1B1
102
{ACAD_REACTORS
330
1AD
102
}
330
1AD
100
AcDbVisualStyle
  2
GouraudWithEdges
 70
     3
177
     3
291
     1
 70
    58
 90
        2
176
     1
 90
        2
176
     1
 90
        1
176
     1
 90
        2
176
     1
 40
0.6
176
     1
 40
30.0
176
     1
 62
     7
420
 16777215
176
     1
 90
        1
176
     1
 90
        0
176
     1
 62
     7
176
     1
 62
   257
176
     1
 90
        1
176
     1
 90
        1
176
     1
 40
1.0
176
     1
 90
        0
176
     1
 62
   257
176
     1
 40
1.0
176
     1
 90
        1
176
     1
 90
        6
176
     1
 90
        2
176
     1
 62
     7
176
     1
 90
        5
176
     1
 90
        0
176
     1
 90
        0
176
     1
290
     0
176
     1
 90
       13
176
     1
 40
0.0
176
     1
 90
        0
176
     1
290
     0
176
     1
290
     1
176
     1
290
     1
176
     1
290
     0
176
     1
290
     0
176
     1
290
     0
176
     1
290
     0
176
     1
290
     0
176
     1
290
     0
176
     1
 90
       50
176
     1
 40
0.0
176
     1
 40
1.0
176
     1
 90
        0
176
     1
 62
    18
420
        0
176
     1
 90
       50
176
     1
 90
        3
176
     1
 62
     5
420
      255
176
     1
290
     0
176
     1
 90
       50
176
     1
 90
       50
176
     1
 90
       50
176
     1
290
     0
176
     1
 90
       50
176
     1
 62
   256
176
     0
 40
1.0
176
     0
 90
        2
176
     1
  1
strokes_ogs.tif
176
     1
290
     0
176
     1
 40
1.0
176
     1
 40
1.0
176
     1
  0
VISUALSTYLE
  5
1B4
102
{ACAD_REACTORS
330
1AD
102
}
330
1AD
100
AcDbVisualStyle
  2
Hidden
 70
     6
177
     3
291
     0
 70
    58
 90
        1
176
     1
 90
        2
176
     1
 90
        2
176
     1
 90
        0
176
     1
 40
0.6
176
     1
 40
30.0
176
     1
 62
     7
420
 16777215
176
     1
 90
        2
176
     1
 90
        2
176
     1
 62
     7
176
     1
 62
   257
176
     1
 90
        2
176
     1
 90
        1
176
     1
 40
40.0
176
     1
 90
        0
176
     1
 62
   257
176
     1
 40
1.0
176
     1
 90
        1
176
     1
 90
        6
176
     1
 90
        2
176
     1
 62
     7
176
     1
 90
        3
176
     1
 90
        0
176
     1
 90
        0
176
     1
290
     0
176
     1
 90
        1
176
     1
 40
0.0
176
     1
 90
        0
176
     1
290
     0
176
     1
290
     1
176
     1
290
     1
176
     1
290
     0
176
     1
290
     0
176
     1
290
     0
176
     1
290
     0
176
     1
290
     0
176
     1
290
     0
176
     1
 90
       50
176
     1
 40
0.0
176
     1
 40
1.0
176
     1
 90
        0
176
     1
 62
    18
420
        0
176
     1
 90
       50
176
     1
 90
        3
176
     1
 62
     5
420
      255
176
     1
290
     0
176
     1
 90
       50
176
     1
 90
       50
176
     1
 90
       50
176
     1
290
     0
176
     1
 90
       50
176
     1
 62
   256
176
     0
 40
1.0
176
     0
 90
        2
176
     1
  1
strokes_ogs.tif
176
     1
290
     0
176
     1
 40
1.0
176
     1
 40
1.0
176
     1
  0
VISUALSTYLE
  5
1BE
102
{ACAD_REACTORS
330
1AD
102
}
330
1AD
100
AcDbVisualStyle
  2
JitterOff
 70
    20
177
     3
291
     1
 70
    58
 90
        2
176
     0
 90
        2
176
     0
 90
        0
176
     0
 90
        0
176
     0
 40
0.6
176
     0
 40
30.0
176
     0
 62
     7
420
 16777215
176
     0
 90
        1
176
     0
 90
        4
176
     0
 62
     7
176
     0
 62
   257
176
     0
 90
        1
176
     0
 90
        1
176
     0
 40
1.0
176
     0
 90
       10
176
     2
 62
     7
176
     0
 40
1.0
176
     0
 90
        1
176
     0
 90
        6
176
     0
 90
        2
176
     0
 62
     7
176
     0
 90
        5
176
     0
 90
        0
176
     0
 90
        0
176
     0
290
     0
176
     0
 90
        1
176
     0
 40
0.0
176
     0
 90
        0
176
     0
290
     0
176
     0
290
     1
176
     0
290
     1
176
     0
290
     0
176
     0
290
     0
176
     0
290
     0
176
     0
290
     0
176
     0
290
     0
176
     0
290
     0
176
     0
 90
       50
176
     0
 40
0.0
176
     0
 40
1.0
176
     0
 90
        0
176
     0
 62
    18
420
        0
176
     0
 90
       50
176
     0
 90
        3
176
     0
 62
     5
420
      255
176
     0
290
     0
176
     0
 90
       50
176
     0
 90
       50
176
     0
 90
       50
176
     0
290
     0
176
     0
 90
       50
176
     0
 62
   256
176
     0
 40
1.0
176
     0
 90
        2
176
     0
  1
strokes_ogs.tif
176
     0
290
     0
176
     0
 40
1.0
176
     0
 40
1.0
176
     0
  0
VISUALSTYLE
  5
1BB
102
{ACAD_REACTORS
330
1AD
102
}
330
1AD
100
AcDbVisualStyle
  2
Linepattern
 70
    14
177
     3
291
     1
 70
    58
 90
        2
176
     1
 90
        2
176
     1
 90
        0
176
     1
 90
        0
176
     1
 40
0.6
176
     1
 40
30.0
176
     1
 62
     7
420
 16777215
176
     1
 90
        1
176
     1
 90
        4
176
     1
 62
     7
176
     1
 62
   257
176
     1
 90
        7
176
     1
 90
        7
176
     1
 40
1.0
176
     1
 90
        8
176
     1
 62
     7
176
     1
 40
1.0
176
     1
 90
        1
176
     1
 90
        6
176
     1
 90
        2
176
     1
 62
     7
176
     1
 90
        5
176
     1
 90
        0
176
     1
 90
        0
176
     1
290
     0
176
     1
 90
        1
176
     1
 40
0.0
176
     1
 90
        0
176
     1
290
     0
176
     1
290
     1
176
     1
290
     1
176
     1
290
     0
176
     1
290
     0
176
     1
290
     0
176
     1
290
     0
176
     1
290
     0
176
     1
290
     0
176
     1
 90
       50
176
     1
 40
0.0
176
     1
 40
1.0
176
     1
 90
        0
176
     1
 62
    18
420
        0
176
     1
 90
       50
176
     1
 90
        3
176
     1
 62
     5
420
      255
176
     1
290
     0
176
     1
 90
       50
176
     1
 90
       50
176
     1
 90
       50
176
     1
290
     0
176
     1
 90
       50
176
     1
 62
   256
176
     0
 40
1.0
176
     0
 90
        2
176
     1
  1
strokes_ogs.tif
176
     1
290
     0
176
     1
 40
1.0
176
     1
 40
1.0
176
     1
  0
VISUALSTYLE
  5
1BF
102
{ACAD_REACTORS
330
1AD
102
}
330
1AD
100
AcDbVisualStyle
  2
OverhangOff
 70
    21
177
     3
291
     1
 70
    58
 90
        2
176
     0
 90
        2
176
     0
 90
        0
176
     0
 90
        0
176
     0
 40
0.6
176
     0
 40
30.0
176
     0
 62
     7
420
 16777215
176
     0
 90
        1
176
     0
 90
        4
176
     0
 62
     7
176
     0
 62
   257
176
     0
 90
        1
176
     0
 90
        1
176
     0
 40
1.0
176
     0
 90
        9
176
     2
 62
     7
176
     0
 40
1.0
176
     0
 90
        1
176
     0
 90
        6
176
     0
 90
        2
176
     0
 62
     7
176
     0
 90
        5
176
     0
 90
        0
176
     0
 90
        0
176
     0
290
     0
176
     0
 90
        1
176
     0
 40
0.0
176
     0
 90
        0
176
     0
290
     0
176
     0
290
     1
176
     0
290
     1
176
     0
290
     0
176
     0
290
     0
176
     0
290
     0
176
     0
290
     0
176
     0
290
     0
176
     0
290
     0
176
     0
 90
       50
176
     0
 40
0.0
176
     0
 40
1.0
176
     0
 90
        0
176
     0
 62
    18
420
        0
176
     0
 90
       50
176
     0
 90
        3
176
     0
 62
     5
420
      255
176
     0
290
     0
176
     0
 90
       50
176
     0
 90
       50
176
     0
 90
       50
176
     0
290
     0
176
     0
 90
       50
176
     0
 62
   256
176
     0
 40
1.0
176
     0
 90
        2
176
     0
  1
strokes_ogs.tif
176
     0
290
     0
176
     0
 40
1.0
176
     0
 40
1.0
176
     0
  0
VISUALSTYLE
  5
1B6
102
{ACAD_REACTORS
330
1AD
102
}
330
1AD
100
AcDbVisualStyle
  2
Realistic
 70
     8
177
     3
291
     0
 70
    58
 90
        2
176
     1
 90
        3
176
     1
 90
        0
176
     1
 90
        2
176
     1
 40
0.6
176
     1
 40
30.0
176
     1
 62
     7
420
 16777215
176
     1
 90
        0
176
     1
 90
        0
176
     1
 62
     7
176
     1
 62
   257
176
     1
 90
        1
176
     1
 90
        1
176
     1
 40
1.0
176
     1
 90
        8
176
     1
 62
   257
176
     1
 40
1.0
176
     1
 90
        1
176
     1
 90
        6
176
     1
 90
        2
176
     1
 62
     7
176
     1
 90
        3
176
     1
 90
        0
176
     1
 90
        0
176
     1
290
     0
176
     1
 90
       13
176
     1
 40
0.0
176
     1
 90
        0
176
     1
290
     0
176
     1
290
     1
176
     1
290
     1
176
     1
290
     0
176
     1
290
     0
176
     1
290
     0
176
     1
290
     0
176
     1
290
     0
176
     1
290
     0
176
     1
 90
       50
176
     1
 40
0.0
176
     1
 40
1.0
176
     1
 90
        0
176
     1
 62
    18
420
        0
176
     1
 90
       50
176
     1
 90
        3
176
     1
 62
     5
420
      255
176
     1
290
     0
176
     1
 90
       50
176
     1
 90
       50
176
     1
 90
       50
176
     1
290
     0
176
     1
 90
       50
176
     1
 62
   256
176
     0
 40
1.0
176
     0
 90
        2
176
     1
  1
strokes_ogs.tif
176
     1
290
     0
176
     1
 40
1.0
176
     1
 40
1.0
176
     1
  0
VISUALSTYLE
  5
1C5
102
{ACAD_REACTORS
330
1AD
102
}
330
1AD
100
AcDbVisualStyle
  2
Shaded
 70
    27
177
     3
291
     0
 70
    58
 90
        2
176
     1
 90
        2
176
     1
 90
        1
176
     1
 90
        2
176
     1
 40
0.6
176
     1
 40
30.0
176
     1
 62
     7
420
 16777215
176
     1
 90
        0
176
     1
 90
        4
176
     1
 62
     7
176
     1
 62
   257
176
     1
 90
        1
176
     1
 90
        1
176
     1
 40
1.0
176
     1
 90
        8
176
     1
 62
   257
176
     1
 40
1.0
176
     1
 90
        1
176
     1
 90
        6
176
     1
 90
        2
176
     1
 62
     8
420
  7895160
176
     1
 90
        3
176
     1
 90
        0
176
     1
 90
        0
176
     1
290
     0
176
     1
 90
        5
176
     1
 40
0.0
176
     1
 90
        0
176
     1
290
     0
176
     1
290
     1
176
     1
290
     1
176
     1
290
     0
176
     1
290
     0
176
     1
290
     0
176
     1
290
     0
176
     1
290
     0
176
     1
290
     0
176
     1
 90
       50
176
     1
 40
0.0
176
     1
 40
1.0
176
     1
 90
        0
176
     1
 62
    18
420
        0
176
     1
 90
       50
176
     1
 90
        3
176
     1
 62
     5
420
      255
176
     1
290
     0
176
     1
 90
       50
176
     1
 90
       50
176
     1
 90
       50
176
     1
290
     0
176
     1
 90
       50
176
     1
 62
   256
176
     0
 40
1.0
176
     0
 90
        2
176
     1
  1
strokes_ogs.tif
176
     1
290
     0
176
     1
 40
1.0
176
     1
 40
1.0
176
     1
  0
VISUALSTYLE
  5
1C4
102
{ACAD_REACTORS
330
1AD
102
}
330
1AD
100
AcDbVisualStyle
  2
Shaded with edges
 70
    26
177
     3
291
     0
 70
    58
 90
        2
176
     1
 90
        2
176
     1
 90
        1
176
     1
 90
        2
176
     1
 40
0.6
176
     1
 40
30.0
176
     1
 62
     7
420
 16777215
176
     1
 90
        1
176
     1
 90
       10
176
     1
 62
     7
176
     1
 62
   257
176
     1
 90
        2
176
     1
 90
        1
176
     1
 40
1.0
176
     1
 90
        8
176
     1
 62
   257
176
     1
 40
1.0
176
     1
 90
        1
176
     1
 90
        6
176
     1
 90
        2
176
     1
 62
     7
176
     1
 90
        3
176
     1
 90
        0
176
     1
 90
        0
176
     1
290
     0
176
     1
 90
        5
176
     1
 40
0.0
176
     1
 90
        0
176
     1
290
     0
176
     1
290
     1
176
     1
290
     1
176
     1
290
     0
176
     1
290
     0
176
     1
290
     0
176
     1
290
     0
176
     1
290
     0
176
     1
290
     0
176
     1
 90
       50
176
     1
 40
0.0
176
     1
 40
1.0
176
     1
 90
        0
176
     1
 62
    18
420
        0
176
     1
 90
       50
176
     1
 90
        3
176
     1
 62
     5
420
      255
176
     1
290
     0
176
     1
 90
       50
176
     1
 90
       50
176
     1
 90
       50
176
     1
290
     0
176
     1
 90
       50
176
     1
 62
   256
176
     0
 40
1.0
176
     0
 90
        2
176
     1
  1
strokes_ogs.tif
176
     1
290
     0
176
     1
 40
1.0
176
     1
 40
1.0
176
     1
  0
VISUALSTYLE
  5
1C1
102
{ACAD_REACTORS
330
1AD
102
}
330
1AD
100
AcDbVisualStyle
  2
Shades of Gray
 70
    23
177
     3
291
     0
 70
    58
 90
        2
176
     1
 90
        2
176
     1
 90
        3
176
     1
 90
        0
176
     1
 40
0.6
176
     1
 40
30.0
176
     1
 62
     7
420
 16777215
176
     1
 90
        2
176
     1
 90
        2
176
     1
 62
     7
176
     1
 62
     7
176
     1
 90
        1
176
     1
 90
        1
176
     1
 40
40.0
176
     1
 90
        8
176
     1
 62
     7
176
     1
 40
1.0
176
     1
 90
        1
176
     1
 90
        6
176
     1
 90
        2
176
     1
 62
     7
176
     1
 90
        3
176
     1
 90
        0
176
     1
 90
        0
176
     1
290
     0
176
     1
 90
        1
176
     1
 40
0.0
176
     1
 90
        0
176
     1
290
     0
176
     1
290
     1
176
     1
290
     1
176
     1
290
     0
176
     1
290
     0
176
     1
290
     0
176
     1
290
     0
176
     1
290
     0
176
     1
290
     0
176
     1
 90
       50
176
     1
 40
0.0
176
     1
 40
1.0
176
     1
 90
        0
176
     1
 62
    18
420
        0
176
     1
 90
       50
176
     1
 90
        3
176
     1
 62
     5
420
      255
176
     1
290
     0
176
     1
 90
       50
176
     1
 90
       50
176
     1
 90
       50
176
     1
290
     0
176
     1
 90
       50
176
     1
 62
   256
176
     0
 40
1.0
176
     0
 90
        2
176
     1
  1
strokes_ogs.tif
176
     1
290
     0
176
     1
 40
1.0
176
     1
 40
1.0
176
     1
  0
VISUALSTYLE
  5
1C2
102
{ACAD_REACTORS
330
1AD
102
}
330
1AD
100
AcDbVisualStyle
  2
Sketchy
 70
    24
177
     3
291
     0
 70
    58
 90
        1
176
     1
 90
        2
176
     1
 90
        2
176
     1
 90
        0
176
     1
 40
0.6
176
     1
 40
30.0
176
     1
 62
     7
420
 16777215
176
     1
 90
        2
176
     1
 90
        2
176
     1
 62
     7
176
     1
 62
     7
176
     1
 90
        1
176
     1
 90
        1
176
     1
 40
40.0
176
     1
 90
       11
176
     1
 62
     7
176
     1
 40
1.0
176
     1
 90
        1
176
     1
 90
        6
176
     1
 90
        2
176
     1
 62
     7
176
     1
 90
        6
176
     1
 90
        0
176
     1
 90
        0
176
     1
290
     0
176
     1
 90
        1
176
     1
 40
0.0
176
     1
 90
        0
176
     1
290
     0
176
     1
290
     1
176
     1
290
     1
176
     1
290
     0
176
     1
290
     0
176
     1
290
     0
176
     1
290
     0
176
     1
290
     0
176
     1
290
     0
176
     1
 90
       50
176
     1
 40
0.0
176
     1
 40
1.0
176
     1
 90
        0
176
     1
 62
    18
420
        0
176
     1
 90
       50
176
     1
 90
        3
176
     1
 62
     5
420
      255
176
     1
290
     0
176
     1
 90
       50
176
     1
 90
       50
176
     1
 90
       50
176
     1
290
     0
176
     1
 90
       50
176
     1
 62
   256
176
     0
 40
1.0
176
     0
 90
        2
176
     1
  1
strokes_ogs.tif
176
     1
290
     0
176
     1
 40
1.0
176
     1
 40
1.0
176
     1
  0
VISUALSTYLE
  5
1BA
102
{ACAD_REACTORS
330
1AD
102
}
330
1AD
100
AcDbVisualStyle
  2
Thicken
 70
    13
177
     3
291
     1
 70
    58
 90
        2
176
     1
 90
        2
176
     1
 90
        0
176
     1
 90
        0
176
     1
 40
0.6
176
     1
 40
30.0
176
     1
 62
     7
420
 16777215
176
     1
 90
        1
176
     1
 90
        4
176
     1
 62
     7
176
     1
 62
   257
176
     1
 90
        1
176
     1
 90
        1
176
     1
 40
1.0
176
     1
 90
       12
176
     1
 62
     7
176
     1
 40
1.0
176
     1
 90
        1
176
     1
 90
        6
176
     1
 90
        2
176
     1
 62
     7
176
     1
 90
        5
176
     1
 90
        0
176
     1
 90
        0
176
     1
290
     0
176
     1
 90
        1
176
     1
 40
0.0
176
     1
 90
        0
176
     1
290
     0
176
     1
290
     1
176
     1
290
     1
176
     1
290
     0
176
     1
290
     0
176
     1
290
     0
176
     1
290
     0
176
     1
290
     0
176
     1
290
     0
176
     1
 90
       50
176
     1
 40
0.0
176
     1
 40
1.0
176
     1
 90
        0
176
     1
 62
    18
420
        0
176
     1
 90
       50
176
     1
 90
        3
176
     1
 62
     5
420
      255
176
     1
290
     0
176
     1
 90
       50
176
     1
 90
       50
176
     1
 90
       50
176
     1
290
     0
176
     1
 90
       50
176
     1
 62
   256
176
     0
 40
1.0
176
     0
 90
        2
176
     1
  1
strokes_ogs.tif
176
     1
290
     0
176
     1
 40
1.0
176
     1
 40
1.0
176
     1
  0
VISUALSTYLE
  5
1B3
102
{ACAD_REACTORS
330
1AD
102
}
330
1AD
100
AcDbVisualStyle
  2
Wireframe
 70
     5
177
     3
291
     0
 70
    58
 90
        0
176
     1
 90
        2
176
     1
 90
        0
176
     1
 90
        0
176
     1
 40
0.6
176
     1
 40
30.0
176
     1
 62
     7
420
 16777215
176
     1
 90
        1
176
     1
 90
        4
176
     1
 62
     7
176
     1
 62
   257
176
     1
 90
        1
176
     1
 90
        1
176
     1
 40
1.0
176
     1
 90
        0
176
     1
 62
   257
176
     1
 40
1.0
176
     1
 90
        1
176
     1
 90
        6
176
     1
 90
        2
176
     1
 62
     7
176
     1
 90
        3
176
     1
 90
        0
176
     1
 90
        0
176
     1
290
     0
176
     1
 90
        1
176
     1
 40
0.0
176
     1
 90
        0
176
     1
290
     0
176
     1
290
     1
176
     1
290
     1
176
     1
290
     0
176
     1
290
     0
176
     1
290
     0
176
     1
290
     0
176
     1
290
     0
176
     1
290
     0
176
     1
 90
       50
176
     1
 40
0.0
176
     1
 40
1.0
176
     1
 90
        0
176
     1
 62
    18
420
        0
176
     1
 90
       50
176
     1
 90
        3
176
     1
 62
     5
420
      255
176
     1
290
     0
176
     1
 90
       50
176
     1
 90
       50
176
     1
 90
       50
176
     1
290
     0
176
     1
 90
       50
176
     1
 62
   256
176
     0
 40
1.0
176
     0
 90
        2
176
     1
  1
strokes_ogs.tif
176
     1
290
     0
176
     1
 40
1.0
176
     1
 40
1.0
176
     1
  0
VISUALSTYLE
  5
1C3
102
{ACAD_REACTORS
330
1AD
102
}
330
1AD
100
AcDbVisualStyle
  2
X-Ray
 70
    25
177
     3
291
     0
 70
    58
 90
        2
176
     1
 90
        2
176
     1
 90
        1
176
     1
 90
        1
176
     1
 40
0.5
176
     1
 40
30.0
176
     1
 62
     7
420
 16777215
176
     1
 90
        1
176
     1
 90
        0
176
     1
 62
     7
176
     1
 62
   257
176
     1
 90
        1
176
     1
 90
        1
176
     1
 40
1.0
176
     1
 90
        8
176
     1
 62
     7
176
     1
 40
1.0
176
     1
 90
        1
176
     1
 90
        6
176
     1
 90
        2
176
     1
 62
     7
176
     1
 90
        3
176
     1
 90
        0
176
     1
 90
        0
176
     1
290
     0
176
     1
 90
       13
176
     1
 40
0.0
176
     1
 90
        0
176
     1
290
     0
176
     1
290
     1
176
     1
290
     1
176
     1
290
     0
176
     1
290
     0
176
     1
290
     0
176
     1
290
     0
176
     1
290
     0
176
     1
290
     0
176
     1
 90
       50
176
     1
 40
0.0
176
     1
 40
1.0
176
     1
 90
        0
176
     1
 62
    18
420
        0
176
     1
 90
       50
176
     1
 90
        3
176
     1
 62
     5
420
      255
176
     1
290
     0
176
     1
 90
       50
176
     1
 90
       50
176
     1
 90
       50
176
     1
290
     0
176
     1
 90
       50
176
     1
 62
   256
176
     0
 40
1.0
176
     0
 90
        2
176
     1
  1
strokes_ogs.tif
176
     1
290
     0
176
     1
 40
1.0
176
     1
 40
1.0
176
     1
  0
DICTIONARYVAR
  5
1CF
102
{ACAD_REACTORS
330
1CE
102
}
330
1CE
100
DictionaryVariables
280
     0
  1
1:1
  0
DICTIONARYVAR
  5
1D4
102
{ACAD_REACTORS
330
1CE
102
}
330
1CE
100
DictionaryVariables
280
     0
  1
Standard
  0
DICTIONARYVAR
  5
1D3
102
{ACAD_REACTORS
330
1CE
102
}
330
1CE
100
DictionaryVariables
280
     0
  1
Standard
  0
DICTIONARYVAR
  5
1D5
102
{ACAD_REACTORS
330
1CE
102
}
330
1CE
100
DictionaryVariables
280
     0
  1
0
  0
DICTIONARY
  5
1D0
330
1CB
100
AcDbDictionary
280
     1
281
     1
  3
ACAD_ROUNDTRIP_2008_TABLESTYLE_CELLSTYLEMAP
360
1D1
  0
CELLSTYLEMAP
  5
1D1
102
{ACAD_REACTORS
330
1D0
102
}
330
1D0
100
AcDbCellStyleMap
 90
        3
300
CELLSTYLE
  1
TABLEFORMAT_BEGIN
 90
        5
170
     1
 91
        0
 92
    32768
 62
   257
 93
        1
300
CONTENTFORMAT
  1
CONTENTFORMAT_BEGIN
 90
        0
 91
        0
 92
        4
 93
        0
300

 40
0.0
140
1.0
 94
        5
 62
     0
340
F
144
0.25
309
CONTENTFORMAT_END
171
     1
301
MARGIN
  1
CELLMARGIN_BEGIN
 40
0.06
 40
0.06
 40
0.06
 40
0.06
 40
0.06
 40
0.06
309
CELLMARGIN_END
 94
        6
 95
        1
302
GRIDFORMAT
  1
GRIDFORMAT_BEGIN
 90
        0
 91
        1
 62
     0
 92
       -2
340
12
 93
        0
 40
0.045
309
GRIDFORMAT_END
 95
        2
302
GRIDFORMAT
  1
GRIDFORMAT_BEGIN
 90
        0
 91
        1
 62
     0
 92
       -2
340
12
 93
        0
 40
0.045
309
GRIDFORMAT_END
 95
        4
302
GRIDFORMAT
  1
GRIDFORMAT_BEGIN
 90
        0
 91
        1
 62
     0
 92
       -2
340
12
 93
        0
 40
0.045
309
GRIDFORMAT_END
 95
        8
302
GRIDFORMAT
  1
GRIDFORMAT_BEGIN
 90
        0
 91
        1
 62
     0
 92
       -2
340
12
 93
        0
 40
0.045
309
GRIDFORMAT_END
 95
       16
302
GRIDFORMAT
  1
GRIDFORMAT_BEGIN
 90
        0
 91
        1
 62
     0
 92
       -2
340
12
 93
        0
 40
0.045
309
GRIDFORMAT_END
 95
       32
302
GRIDFORMAT
  1
GRIDFORMAT_BEGIN
 90
        0
 91
        1
 62
     0
 92
       -2
340
12
 93
        0
 40
0.045
309
GRIDFORMAT_END
309
TABLEFORMAT_END
  1
CELLSTYLE_BEGIN
 90
        1
 91
        1
300
_TITLE
309
CELLSTYLE_END
300
CELLSTYLE
  1
TABLEFORMAT_BEGIN
 90
        5
170
     1
 91
        0
 92
        0
 62
   257
 93
        1
300
CONTENTFORMAT
  1
CONTENTFORMAT_BEGIN
 90
        0
 91
        0
 92
        4
 93
        0
300

 40
0.0
140
1.0
 94
        5
 62
     0
340
F
144
0.18
309
CONTENTFORMAT_END
171
     1
301
MARGIN
  1
CELLMARGIN_BEGIN
 40
0.06
 40
0.06
 40
0.06
 40
0.06
 40
0.06
 40
0.06
309
CELLMARGIN_END
 94
        6
 95
        1
302
GRIDFORMAT
  1
GRIDFORMAT_BEGIN
 90
        0
 91
        1
 62
     0
 92
       -2
340
12
 93
        0
 40
0.045
309
GRIDFORMAT_END
 95
        2
302
GRIDFORMAT
  1
GRIDFORMAT_BEGIN
 90
        0
 91
        1
 62
     0
 92
       -2
340
12
 93
        0
 40
0.045
309
GRIDFORMAT_END
 95
        4
302
GRIDFORMAT
  1
GRIDFORMAT_BEGIN
 90
        0
 91
        1
 62
     0
 92
       -2
340
12
 93
        0
 40
0.045
309
GRIDFORMAT_END
 95
        8
302
GRIDFORMAT
  1
GRIDFORMAT_BEGIN
 90
        0
 91
        1
 62
     0
 92
       -2
340
12
 93
        0
 40
0.045
309
GRIDFORMAT_END
 95
       16
302
GRIDFORMAT
  1
GRIDFORMAT_BEGIN
 90
        0
 91
        1
 62
     0
 92
       -2
340
12
 93
        0
 40
0.045
309
GRIDFORMAT_END
 95
       32
302
GRIDFORMAT
  1
GRIDFORMAT_BEGIN
 90
        0
 91
        1
 62
     0
 92
       -2
340
12
 93
        0
 40
0.045
309
GRIDFORMAT_END
309
TABLEFORMAT_END
  1
CELLSTYLE_BEGIN
 90
        2
 91
        1
300
_HEADER
309
CELLSTYLE_END
300
CELLSTYLE
  1
TABLEFORMAT_BEGIN
 90
        5
170
     1
 91
        0
 92
        0
 62
   257
 93
        1
300
CONTENTFORMAT
  1
CONTENTFORMAT_BEGIN
 90
        0
 91
        0
 92
        4
 93
        0
300

 40
0.0
140
1.0
 94
        2
 62
     0
340
F
144
0.18
309
CONTENTFORMAT_END
171
     1
301
MARGIN
  1
CELLMARGIN_BEGIN
 40
0.06
 40
0.06
 40
0.06
 40
0.06
 40
0.06
 40
0.06
309
CELLMARGIN_END
 94
        6
 95
        1
302
GRIDFORMAT
  1
GRIDFORMAT_BEGIN
 90
        0
 91
        1
 62
     0
 92
       -2
340
12
 93
        0
 40
0.045
309
GRIDFORMAT_END
 95
        2
302
GRIDFORMAT
  1
GRIDFORMAT_BEGIN
 90
        0
 91
        1
 62
     0
 92
       -2
340
12
 93
        0
 40
0.045
309
GRIDFORMAT_END
 95
        4
302
GRIDFORMAT
  1
GRIDFORMAT_BEGIN
 90
        0
 91
        1
 62
     0
 92
       -2
340
12
 93
        0
 40
0.045
309
GRIDFORMAT_END
 95
        8
302
GRIDFORMAT
  1
GRIDFORMAT_BEGIN
 90
        0
 91
        1
 62
     0
 92
       -2
340
12
 93
        0
 40
0.045
309
GRIDFORMAT_END
 95
       16
302
GRIDFORMAT
  1
GRIDFORMAT_BEGIN
 90
        0
 91
        1
 62
     0
 92
       -2
340
12
 93
        0
 40
0.045
309
GRIDFORMAT_END
 95
       32
302
GRIDFORMAT
  1
GRIDFORMAT_BEGIN
 90
        0
 91
        1
 62
     0
 92
       -2
340
12
 93
        0
 40
0.045
309
GRIDFORMAT_END
309
TABLEFORMAT_END
  1
CELLSTYLE_BEGIN
 90
        3
 91
        2
300
_DATA
309
CELLSTYLE_END
  0
ENDSEC
  0
EOF
