  0
SECTION
  2
HEADER
  9
$EXTMIN
 10
0.250000
 20
0.250000
  9
$EXTMAX
 10
11.577559
 20
11.577559
  0
ENDSEC
  0
SECTION
  2
TABLES
  0
ENDSEC
  0
SECTION
  2
ENTITIES
  0
POLYLINE
  8
1
 66
1
 70
1
  0
VERTEX
  8
1
 10
0.951968
 20
0.251971
 42
-0.065459
  0
VERTEX
  8
1
 10
0.770798
 20
0.275828
 42
-0.065439
  0
VERTEX
  8
1
 10
0.601972
 20
0.345757
 42
-0.065452
  0
VERTEX
  8
1
 10
0.456999
 20
0.456999
 42
-0.065447
  0
VERTEX
  8
1
 10
0.345757
 20
0.601972
 42
-0.065448
  0
VERTEX
  8
1
 10
0.275827
 20
0.770797
 42
-0.065448
  0
VERTEX
  8
1
 10
0.251975
 20
0.951969
 42
-0.065448
  0
VERTEX
  8
1
 10
0.275827
 20
1.133140
 42
-0.065448
  0
VERTEX
  8
1
 10
0.345757
 20
1.301965
 42
-0.065448
  0
VERTEX
  8
1
 10
0.456999
 20
1.446938
 42
-0.065448
  0
VERTEX
  8
1
 10
0.601972
 20
1.558180
 42
-0.065448
  0
VERTEX
  8
1
 10
0.770797
 20
1.628110
 42
-0.065448
  0
VERTEX
  8
1
 10
0.951969
 20
1.651962
 42
-0.065448
  0
VERTEX
  8
1
 10
1.133140
 20
1.628110
 42
-0.065448
  0
VERTEX
  8
1
 10
1.301965
 20
1.558180
 42
-0.065448
  0
VERTEX
  8
1
 10
1.446938
 20
1.446938
 42
-0.065448
  0
VERTEX
  8
1
 10
1.558180
 20
1.301965
 42
-0.065448
  0
VERTEX
  8
1
 10
1.628110
 20
1.133140
 42
-0.065448
  0
VERTEX
  8
1
 10
1.651962
 20
0.951969
 42
-0.065448
  0
VERTEX
  8
1
 10
1.628110
 20
0.770797
 42
-0.065448
  0
VERTEX
  8
1
 10
1.558180
 20
0.601972
 42
-0.065445
  0
VERTEX
  8
1
 10
1.446939
 20
0.456998
 42
-0.065458
  0
VERTEX
  8
1
 10
1.301966
 20
0.345756
 42
-0.065436
  0
VERTEX
  8
1
 10
1.133138
 20
0.275832
 42
-0.065448
  0
SEQEND
  0
POLYLINE
  8
1
 66
1
 70
1
  0
VERTEX
  8
1
 10
2.605905
 20
0.251971
 42
-0.065459
  0
VERTEX
  8
1
 10
2.424735
 20
0.275828
 42
-0.065439
  0
VERTEX
  8
1
 10
2.255909
 20
0.345757
 42
-0.065452
  0
VERTEX
  8
1
 10
2.110936
 20
0.456999
 42
-0.065447
  0
VERTEX
  8
1
 10
1.999694
 20
0.601972
 42
-0.065448
  0
VERTEX
  8
1
 10
1.929764
 20
0.770797
 42
-0.065448
  0
VERTEX
  8
1
 10
1.905912
 20
0.951969
 42
-0.065448
  0
VERTEX
  8
1
 10
1.929764
 20
1.133140
 42
-0.065448
  0
VERTEX
  8
1
 10
1.999694
 20
1.301965
 42
-0.065448
  0
VERTEX
  8
1
 10
2.110936
 20
1.446938
 42
-0.065448
  0
VERTEX
  8
1
 10
2.255909
 20
1.558180
 42
-0.065448
  0
VERTEX
  8
1
 10
2.424734
 20
1.628110
 42
-0.065448
  0
VERTEX
  8
1
 10
2.605906
 20
1.651962
 42
-0.065448
  0
VERTEX
  8
1
 10
2.787077
 20
1.628110
 42
-0.065448
  0
VERTEX
  8
1
 10
2.955902
 20
1.558180
 42
-0.065448
  0
VERTEX
  8
1
 10
3.100875
 20
1.446938
 42
-0.065448
  0
VERTEX
  8
1
 10
3.212117
 20
1.301965
 42
-0.065448
  0
VERTEX
  8
1
 10
3.282047
 20
1.133140
 42
-0.065448
  0
VERTEX
  8
1
 10
3.305899
 20
0.951969
 42
-0.065448
  0
VERTEX
  8
1
 10
3.282047
 20
0.770797
 42
-0.065448
  0
VERTEX
  8
1
 10
3.212117
 20
0.601972
 42
-0.065445
  0
VERTEX
  8
1
 10
3.100876
 20
0.456998
 42
-0.065458
  0
VERTEX
  8
1
 10
2.955903
 20
0.345756
 42
-0.065436
  0
VERTEX
  8
1
 10
2.787075
 20
0.275832
 42
-0.065448
  0
SEQEND
  0
POLYLINE
  8
1
 66
1
 70
1
  0
VERTEX
  8
1
 10
4.259842
 20
0.251971
 42
-0.065459
  0
VERTEX
  8
1
 10
4.078672
 20
0.275828
 42
-0.065439
  0
VERTEX
  8
1
 10
3.909846
 20
0.345757
 42
-0.065452
  0
VERTEX
  8
1
 10
3.764873
 20
0.456999
 42
-0.065447
  0
VERTEX
  8
1
 10
3.653631
 20
0.601972
 42
-0.065448
  0
VERTEX
  8
1
 10
3.583701
 20
0.770797
 42
-0.065448
  0
VERTEX
  8
1
 10
3.559849
 20
0.951969
 42
-0.065448
  0
VERTEX
  8
1
 10
3.583701
 20
1.133140
 42
-0.065448
  0
VERTEX
  8
1
 10
3.653631
 20
1.301965
 42
-0.065448
  0
VERTEX
  8
1
 10
3.764873
 20
1.446938
 42
-0.065448
  0
VERTEX
  8
1
 10
3.909846
 20
1.558180
 42
-0.065448
  0
VERTEX
  8
1
 10
4.078671
 20
1.628110
 42
-0.065448
  0
VERTEX
  8
1
 10
4.259843
 20
1.651962
 42
-0.065448
  0
VERTEX
  8
1
 10
4.441014
 20
1.628110
 42
-0.065448
  0
VERTEX
  8
1
 10
4.609839
 20
1.558180
 42
-0.065448
  0
VERTEX
  8
1
 10
4.754812
 20
1.446938
 42
-0.065448
  0
VERTEX
  8
1
 10
4.866054
 20
1.301965
 42
-0.065448
  0
VERTEX
  8
1
 10
4.935984
 20
1.133140
 42
-0.065448
  0
VERTEX
  8
1
 10
4.959836
 20
0.951969
 42
-0.065448
  0
VERTEX
  8
1
 10
4.935984
 20
0.770797
 42
-0.065448
  0
VERTEX
  8
1
 10
4.866054
 20
0.601972
 42
-0.065445
  0
VERTEX
  8
1
 10
4.754813
 20
0.456998
 42
-0.065458
  0
VERTEX
  8
1
 10
4.609840
 20
0.345756
 42
-0.065436
  0
VERTEX
  8
1
 10
4.441012
 20
0.275832
 42
-0.065448
  0
SEQEND
  0
POLYLINE
  8
1
 66
1
 70
1
  0
VERTEX
  8
1
 10
5.913779
 20
0.251971
 42
-0.065459
  0
VERTEX
  8
1
 10
5.732609
 20
0.275828
 42
-0.065439
  0
VERTEX
  8
1
 10
5.563783
 20
0.345757
 42
-0.065452
  0
VERTEX
  8
1
 10
5.418810
 20
0.456999
 42
-0.065447
  0
VERTEX
  8
1
 10
5.307568
 20
0.601972
 42
-0.065448
  0
VERTEX
  8
1
 10
5.237638
 20
0.770797
 42
-0.065448
  0
VERTEX
  8
1
 10
5.213786
 20
0.951969
 42
-0.065448
  0
VERTEX
  8
1
 10
5.237638
 20
1.133140
 42
-0.065448
  0
VERTEX
  8
1
 10
5.307568
 20
1.301965
 42
-0.065448
  0
VERTEX
  8
1
 10
5.418810
 20
1.446938
 42
-0.065448
  0
VERTEX
  8
1
 10
5.563783
 20
1.558180
 42
-0.065448
  0
VERTEX
  8
1
 10
5.732608
 20
1.628110
 42
-0.065448
  0
VERTEX
  8
1
 10
5.913780
 20
1.651962
 42
-0.065448
  0
VERTEX
  8
1
 10
6.094951
 20
1.628110
 42
-0.065448
  0
VERTEX
  8
1
 10
6.263776
 20
1.558180
 42
-0.065448
  0
VERTEX
  8
1
 10
6.408749
 20
1.446938
 42
-0.065448
  0
VERTEX
  8
1
 10
6.519991
 20
1.301965
 42
-0.065448
  0
VERTEX
  8
1
 10
6.589921
 20
1.133140
 42
-0.065448
  0
VERTEX
  8
1
 10
6.613773
 20
0.951969
 42
-0.065448
  0
VERTEX
  8
1
 10
6.589921
 20
0.770797
 42
-0.065448
  0
VERTEX
  8
1
 10
6.519991
 20
0.601972
 42
-0.065445
  0
VERTEX
  8
1
 10
6.408750
 20
0.456998
 42
-0.065458
  0
VERTEX
  8
1
 10
6.263777
 20
0.345756
 42
-0.065436
  0
VERTEX
  8
1
 10
6.094949
 20
0.275832
 42
-0.065448
  0
SEQEND
  0
POLYLINE
  8
1
 66
1
 70
1
  0
VERTEX
  8
1
 10
7.567716
 20
0.251971
 42
-0.065459
  0
VERTEX
  8
1
 10
7.386546
 20
0.275828
 42
-0.065439
  0
VERTEX
  8
1
 10
7.217720
 20
0.345757
 42
-0.065452
  0
VERTEX
  8
1
 10
7.072747
 20
0.456999
 42
-0.065447
  0
VERTEX
  8
1
 10
6.961505
 20
0.601972
 42
-0.065448
  0
VERTEX
  8
1
 10
6.891575
 20
0.770797
 42
-0.065448
  0
VERTEX
  8
1
 10
6.867723
 20
0.951969
 42
-0.065448
  0
VERTEX
  8
1
 10
6.891575
 20
1.133140
 42
-0.065448
  0
VERTEX
  8
1
 10
6.961505
 20
1.301965
 42
-0.065448
  0
VERTEX
  8
1
 10
7.072747
 20
1.446938
 42
-0.065448
  0
VERTEX
  8
1
 10
7.217720
 20
1.558180
 42
-0.065448
  0
VERTEX
  8
1
 10
7.386545
 20
1.628110
 42
-0.065448
  0
VERTEX
  8
1
 10
7.567717
 20
1.651962
 42
-0.065448
  0
VERTEX
  8
1
 10
7.748888
 20
1.628110
 42
-0.065448
  0
VERTEX
  8
1
 10
7.917713
 20
1.558180
 42
-0.065448
  0
VERTEX
  8
1
 10
8.062686
 20
1.446938
 42
-0.065448
  0
VERTEX
  8
1
 10
8.173928
 20
1.301965
 42
-0.065448
  0
VERTEX
  8
1
 10
8.243858
 20
1.133140
 42
-0.065448
  0
VERTEX
  8
1
 10
8.267710
 20
0.951969
 42
-0.065448
  0
VERTEX
  8
1
 10
8.243858
 20
0.770797
 42
-0.065448
  0
VERTEX
  8
1
 10
8.173928
 20
0.601972
 42
-0.065445
  0
VERTEX
  8
1
 10
8.062687
 20
0.456998
 42
-0.065458
  0
VERTEX
  8
1
 10
7.917714
 20
0.345756
 42
-0.065436
  0
VERTEX
  8
1
 10
7.748886
 20
0.275832
 42
-0.065448
  0
SEQEND
  0
POLYLINE
  8
1
 66
1
 70
1
  0
VERTEX
  8
1
 10
9.221653
 20
0.251971
 42
-0.065459
  0
VERTEX
  8
1
 10
9.040483
 20
0.275828
 42
-0.065439
  0
VERTEX
  8
1
 10
8.871657
 20
0.345757
 42
-0.065452
  0
VERTEX
  8
1
 10
8.726684
 20
0.456999
 42
-0.065447
  0
VERTEX
  8
1
 10
8.615442
 20
0.601972
 42
-0.065448
  0
VERTEX
  8
1
 10
8.545512
 20
0.770797
 42
-0.065448
  0
VERTEX
  8
1
 10
8.521660
 20
0.951969
 42
-0.065448
  0
VERTEX
  8
1
 10
8.545512
 20
1.133140
 42
-0.065448
  0
VERTEX
  8
1
 10
8.615442
 20
1.301965
 42
-0.065448
  0
VERTEX
  8
1
 10
8.726684
 20
1.446938
 42
-0.065448
  0
VERTEX
  8
1
 10
8.871657
 20
1.558180
 42
-0.065448
  0
VERTEX
  8
1
 10
9.040482
 20
1.628110
 42
-0.065448
  0
VERTEX
  8
1
 10
9.221654
 20
1.651962
 42
-0.065448
  0
VERTEX
  8
1
 10
9.402825
 20
1.628110
 42
-0.065448
  0
VERTEX
  8
1
 10
9.571650
 20
1.558180
 42
-0.065448
  0
VERTEX
  8
1
 10
9.716623
 20
1.446938
 42
-0.065448
  0
VERTEX
  8
1
 10
9.827865
 20
1.301965
 42
-0.065448
  0
VERTEX
  8
1
 10
9.897795
 20
1.133140
 42
-0.065448
  0
VERTEX
  8
1
 10
9.921647
 20
0.951969
 42
-0.065448
  0
VERTEX
  8
1
 10
9.897795
 20
0.770797
 42
-0.065448
  0
VERTEX
  8
1
 10
9.827865
 20
0.601972
 42
-0.065445
  0
VERTEX
  8
1
 10
9.716624
 20
0.456998
 42
-0.065458
  0
VERTEX
  8
1
 10
9.571651
 20
0.345756
 42
-0.065436
  0
VERTEX
  8
1
 10
9.402823
 20
0.275832
 42
-0.065448
  0
SEQEND
  0
POLYLINE
  8
1
 66
1
 70
1
  0
VERTEX
  8
1
 10
10.875590
 20
0.251971
 42
-0.065459
  0
VERTEX
  8
1
 10
10.694420
 20
0.275828
 42
-0.065439
  0
VERTEX
  8
1
 10
10.525594
 20
0.345757
 42
-0.065452
  0
VERTEX
  8
1
 10
10.380621
 20
0.456999
 42
-0.065447
  0
VERTEX
  8
1
 10
10.269379
 20
0.601972
 42
-0.065448
  0
VERTEX
  8
1
 10
10.199449
 20
0.770797
 42
-0.065448
  0
VERTEX
  8
1
 10
10.175597
 20
0.951969
 42
-0.065448
  0
VERTEX
  8
1
 10
10.199449
 20
1.133140
 42
-0.065448
  0
VERTEX
  8
1
 10
10.269379
 20
1.301965
 42
-0.065448
  0
VERTEX
  8
1
 10
10.380621
 20
1.446938
 42
-0.065448
  0
VERTEX
  8
1
 10
10.525594
 20
1.558180
 42
-0.065448
  0
VERTEX
  8
1
 10
10.694419
 20
1.628110
 42
-0.065448
  0
VERTEX
  8
1
 10
10.875591
 20
1.651962
 42
-0.065448
  0
VERTEX
  8
1
 10
11.056762
 20
1.628110
 42
-0.065448
  0
VERTEX
  8
1
 10
11.225587
 20
1.558180
 42
-0.065448
  0
VERTEX
  8
1
 10
11.370560
 20
1.446938
 42
-0.065448
  0
VERTEX
  8
1
 10
11.481802
 20
1.301965
 42
-0.065448
  0
VERTEX
  8
1
 10
11.551732
 20
1.133140
 42
-0.065448
  0
VERTEX
  8
1
 10
11.575584
 20
0.951969
 42
-0.065448
  0
VERTEX
  8
1
 10
11.551732
 20
0.770797
 42
-0.065448
  0
VERTEX
  8
1
 10
11.481802
 20
0.601972
 42
-0.065445
  0
VERTEX
  8
1
 10
11.370561
 20
0.456998
 42
-0.065458
  0
VERTEX
  8
1
 10
11.225588
 20
0.345756
 42
-0.065436
  0
VERTEX
  8
1
 10
11.056761
 20
0.275832
 42
-0.065448
  0
SEQEND
  0
POLYLINE
  8
1
 66
1
 70
1
  0
VERTEX
  8
1
 10
0.951968
 20
1.905908
 42
-0.065459
  0
VERTEX
  8
1
 10
0.770798
 20
1.929765
 42
-0.065439
  0
VERTEX
  8
1
 10
0.601972
 20
1.999694
 42
-0.065452
  0
VERTEX
  8
1
 10
0.456999
 20
2.110936
 42
-0.065447
  0
VERTEX
  8
1
 10
0.345757
 20
2.255909
 42
-0.065448
  0
VERTEX
  8
1
 10
0.275827
 20
2.424734
 42
-0.065448
  0
VERTEX
  8
1
 10
0.251975
 20
2.605906
 42
-0.065448
  0
VERTEX
  8
1
 10
0.275827
 20
2.787077
 42
-0.065448
  0
VERTEX
  8
1
 10
0.345757
 20
2.955902
 42
-0.065448
  0
VERTEX
  8
1
 10
0.456999
 20
3.100875
 42
-0.065448
  0
VERTEX
  8
1
 10
0.601972
 20
3.212117
 42
-0.065448
  0
VERTEX
  8
1
 10
0.770797
 20
3.282047
 42
-0.065448
  0
VERTEX
  8
1
 10
0.951969
 20
3.305899
 42
-0.065448
  0
VERTEX
  8
1
 10
1.133140
 20
3.282047
 42
-0.065448
  0
VERTEX
  8
1
 10
1.301965
 20
3.212117
 42
-0.065448
  0
VERTEX
  8
1
 10
1.446938
 20
3.100875
 42
-0.065448
  0
VERTEX
  8
1
 10
1.558180
 20
2.955902
 42
-0.065448
  0
VERTEX
  8
1
 10
1.628110
 20
2.787077
 42
-0.065448
  0
VERTEX
  8
1
 10
1.651962
 20
2.605906
 42
-0.065448
  0
VERTEX
  8
1
 10
1.628110
 20
2.424734
 42
-0.065448
  0
VERTEX
  8
1
 10
1.558180
 20
2.255909
 42
-0.065445
  0
VERTEX
  8
1
 10
1.446939
 20
2.110935
 42
-0.065458
  0
VERTEX
  8
1
 10
1.301966
 20
1.999693
 42
-0.065436
  0
VERTEX
  8
1
 10
1.133138
 20
1.929769
 42
-0.065448
  0
SEQEND
  0
POLYLINE
  8
1
 66
1
 70
1
  0
VERTEX
  8
1
 10
2.605905
 20
1.905908
 42
-0.065459
  0
VERTEX
  8
1
 10
2.424735
 20
1.929765
 42
-0.065439
  0
VERTEX
  8
1
 10
2.255909
 20
1.999694
 42
-0.065452
  0
VERTEX
  8
1
 10
2.110936
 20
2.110936
 42
-0.065447
  0
VERTEX
  8
1
 10
1.999694
 20
2.255909
 42
-0.065448
  0
VERTEX
  8
1
 10
1.929764
 20
2.424734
 42
-0.065448
  0
VERTEX
  8
1
 10
1.905912
 20
2.605906
 42
-0.065448
  0
VERTEX
  8
1
 10
1.929764
 20
2.787077
 42
-0.065448
  0
VERTEX
  8
1
 10
1.999694
 20
2.955902
 42
-0.065448
  0
VERTEX
  8
1
 10
2.110936
 20
3.100875
 42
-0.065448
  0
VERTEX
  8
1
 10
2.255909
 20
3.212117
 42
-0.065448
  0
VERTEX
  8
1
 10
2.424734
 20
3.282047
 42
-0.065448
  0
VERTEX
  8
1
 10
2.605906
 20
3.305899
 42
-0.065448
  0
VERTEX
  8
1
 10
2.787077
 20
3.282047
 42
-0.065448
  0
VERTEX
  8
1
 10
2.955902
 20
3.212117
 42
-0.065448
  0
VERTEX
  8
1
 10
3.100875
 20
3.100875
 42
-0.065448
  0
VERTEX
  8
1
 10
3.212117
 20
2.955902
 42
-0.065448
  0
VERTEX
  8
1
 10
3.282047
 20
2.787077
 42
-0.065448
  0
VERTEX
  8
1
 10
3.305899
 20
2.605906
 42
-0.065448
  0
VERTEX
  8
1
 10
3.282047
 20
2.424734
 42
-0.065448
  0
VERTEX
  8
1
 10
3.212117
 20
2.255909
 42
-0.065445
  0
VERTEX
  8
1
 10
3.100876
 20
2.110935
 42
-0.065458
  0
VERTEX
  8
1
 10
2.955903
 20
1.999693
 42
-0.065436
  0
VERTEX
  8
1
 10
2.787075
 20
1.929769
 42
-0.065448
  0
SEQEND
  0
POLYLINE
  8
1
 66
1
 70
1
  0
VERTEX
  8
1
 10
4.259842
 20
1.905908
 42
-0.065459
  0
VERTEX
  8
1
 10
4.078672
 20
1.929765
 42
-0.065439
  0
VERTEX
  8
1
 10
3.909846
 20
1.999694
 42
-0.065452
  0
VERTEX
  8
1
 10
3.764873
 20
2.110936
 42
-0.065447
  0
VERTEX
  8
1
 10
3.653631
 20
2.255909
 42
-0.065448
  0
VERTEX
  8
1
 10
3.583701
 20
2.424734
 42
-0.065448
  0
VERTEX
  8
1
 10
3.559849
 20
2.605906
 42
-0.065448
  0
VERTEX
  8
1
 10
3.583701
 20
2.787077
 42
-0.065448
  0
VERTEX
  8
1
 10
3.653631
 20
2.955902
 42
-0.065448
  0
VERTEX
  8
1
 10
3.764873
 20
3.100875
 42
-0.065448
  0
VERTEX
  8
1
 10
3.909846
 20
3.212117
 42
-0.065448
  0
VERTEX
  8
1
 10
4.078671
 20
3.282047
 42
-0.065448
  0
VERTEX
  8
1
 10
4.259843
 20
3.305899
 42
-0.065448
  0
VERTEX
  8
1
 10
4.441014
 20
3.282047
 42
-0.065448
  0
VERTEX
  8
1
 10
4.609839
 20
3.212117
 42
-0.065448
  0
VERTEX
  8
1
 10
4.754812
 20
3.100875
 42
-0.065448
  0
VERTEX
  8
1
 10
4.866054
 20
2.955902
 42
-0.065448
  0
VERTEX
  8
1
 10
4.935984
 20
2.787077
 42
-0.065448
  0
VERTEX
  8
1
 10
4.959836
 20
2.605906
 42
-0.065448
  0
VERTEX
  8
1
 10
4.935984
 20
2.424734
 42
-0.065448
  0
VERTEX
  8
1
 10
4.866054
 20
2.255909
 42
-0.065445
  0
VERTEX
  8
1
 10
4.754813
 20
2.110935
 42
-0.065458
  0
VERTEX
  8
1
 10
4.609840
 20
1.999693
 42
-0.065436
  0
VERTEX
  8
1
 10
4.441012
 20
1.929769
 42
-0.065448
  0
SEQEND
  0
POLYLINE
  8
1
 66
1
 70
1
  0
VERTEX
  8
1
 10
5.913779
 20
1.905908
 42
-0.065459
  0
VERTEX
  8
1
 10
5.732609
 20
1.929765
 42
-0.065439
  0
VERTEX
  8
1
 10
5.563783
 20
1.999694
 42
-0.065452
  0
VERTEX
  8
1
 10
5.418810
 20
2.110936
 42
-0.065447
  0
VERTEX
  8
1
 10
5.307568
 20
2.255909
 42
-0.065448
  0
VERTEX
  8
1
 10
5.237638
 20
2.424734
 42
-0.065448
  0
VERTEX
  8
1
 10
5.213786
 20
2.605906
 42
-0.065448
  0
VERTEX
  8
1
 10
5.237638
 20
2.787077
 42
-0.065448
  0
VERTEX
  8
1
 10
5.307568
 20
2.955902
 42
-0.065448
  0
VERTEX
  8
1
 10
5.418810
 20
3.100875
 42
-0.065448
  0
VERTEX
  8
1
 10
5.563783
 20
3.212117
 42
-0.065448
  0
VERTEX
  8
1
 10
5.732608
 20
3.282047
 42
-0.065448
  0
VERTEX
  8
1
 10
5.913780
 20
3.305899
 42
-0.065448
  0
VERTEX
  8
1
 10
6.094951
 20
3.282047
 42
-0.065448
  0
VERTEX
  8
1
 10
6.263776
 20
3.212117
 42
-0.065448
  0
VERTEX
  8
1
 10
6.408749
 20
3.100875
 42
-0.065448
  0
VERTEX
  8
1
 10
6.519991
 20
2.955902
 42
-0.065448
  0
VERTEX
  8
1
 10
6.589921
 20
2.787077
 42
-0.065448
  0
VERTEX
  8
1
 10
6.613773
 20
2.605906
 42
-0.065448
  0
VERTEX
  8
1
 10
6.589921
 20
2.424734
 42
-0.065448
  0
VERTEX
  8
1
 10
6.519991
 20
2.255909
 42
-0.065445
  0
VERTEX
  8
1
 10
6.408750
 20
2.110935
 42
-0.065458
  0
VERTEX
  8
1
 10
6.263777
 20
1.999693
 42
-0.065436
  0
VERTEX
  8
1
 10
6.094949
 20
1.929769
 42
-0.065448
  0
SEQEND
  0
POLYLINE
  8
1
 66
1
 70
1
  0
VERTEX
  8
1
 10
7.567716
 20
1.905908
 42
-0.065459
  0
VERTEX
  8
1
 10
7.386546
 20
1.929765
 42
-0.065439
  0
VERTEX
  8
1
 10
7.217720
 20
1.999694
 42
-0.065452
  0
VERTEX
  8
1
 10
7.072747
 20
2.110936
 42
-0.065447
  0
VERTEX
  8
1
 10
6.961505
 20
2.255909
 42
-0.065448
  0
VERTEX
  8
1
 10
6.891575
 20
2.424734
 42
-0.065448
  0
VERTEX
  8
1
 10
6.867723
 20
2.605906
 42
-0.065448
  0
VERTEX
  8
1
 10
6.891575
 20
2.787077
 42
-0.065448
  0
VERTEX
  8
1
 10
6.961505
 20
2.955902
 42
-0.065448
  0
VERTEX
  8
1
 10
7.072747
 20
3.100875
 42
-0.065448
  0
VERTEX
  8
1
 10
7.217720
 20
3.212117
 42
-0.065448
  0
VERTEX
  8
1
 10
7.386545
 20
3.282047
 42
-0.065448
  0
VERTEX
  8
1
 10
7.567717
 20
3.305899
 42
-0.065448
  0
VERTEX
  8
1
 10
7.748888
 20
3.282047
 42
-0.065448
  0
VERTEX
  8
1
 10
7.917713
 20
3.212117
 42
-0.065448
  0
VERTEX
  8
1
 10
8.062686
 20
3.100875
 42
-0.065448
  0
VERTEX
  8
1
 10
8.173928
 20
2.955902
 42
-0.065448
  0
VERTEX
  8
1
 10
8.243858
 20
2.787077
 42
-0.065448
  0
VERTEX
  8
1
 10
8.267710
 20
2.605906
 42
-0.065448
  0
VERTEX
  8
1
 10
8.243858
 20
2.424734
 42
-0.065448
  0
VERTEX
  8
1
 10
8.173928
 20
2.255909
 42
-0.065445
  0
VERTEX
  8
1
 10
8.062687
 20
2.110935
 42
-0.065458
  0
VERTEX
  8
1
 10
7.917714
 20
1.999693
 42
-0.065436
  0
VERTEX
  8
1
 10
7.748886
 20
1.929769
 42
-0.065448
  0
SEQEND
  0
POLYLINE
  8
1
 66
1
 70
1
  0
VERTEX
  8
1
 10
9.221653
 20
1.905908
 42
-0.065459
  0
VERTEX
  8
1
 10
9.040483
 20
1.929765
 42
-0.065439
  0
VERTEX
  8
1
 10
8.871657
 20
1.999694
 42
-0.065452
  0
VERTEX
  8
1
 10
8.726684
 20
2.110936
 42
-0.065447
  0
VERTEX
  8
1
 10
8.615442
 20
2.255909
 42
-0.065448
  0
VERTEX
  8
1
 10
8.545512
 20
2.424734
 42
-0.065448
  0
VERTEX
  8
1
 10
8.521660
 20
2.605906
 42
-0.065448
  0
VERTEX
  8
1
 10
8.545512
 20
2.787077
 42
-0.065448
  0
VERTEX
  8
1
 10
8.615442
 20
2.955902
 42
-0.065448
  0
VERTEX
  8
1
 10
8.726684
 20
3.100875
 42
-0.065448
  0
VERTEX
  8
1
 10
8.871657
 20
3.212117
 42
-0.065448
  0
VERTEX
  8
1
 10
9.040482
 20
3.282047
 42
-0.065448
  0
VERTEX
  8
1
 10
9.221654
 20
3.305899
 42
-0.065448
  0
VERTEX
  8
1
 10
9.402825
 20
3.282047
 42
-0.065448
  0
VERTEX
  8
1
 10
9.571650
 20
3.212117
 42
-0.065448
  0
VERTEX
  8
1
 10
9.716623
 20
3.100875
 42
-0.065448
  0
VERTEX
  8
1
 10
9.827865
 20
2.955902
 42
-0.065448
  0
VERTEX
  8
1
 10
9.897795
 20
2.787077
 42
-0.065448
  0
VERTEX
  8
1
 10
9.921647
 20
2.605906
 42
-0.065448
  0
VERTEX
  8
1
 10
9.897795
 20
2.424734
 42
-0.065448
  0
VERTEX
  8
1
 10
9.827865
 20
2.255909
 42
-0.065445
  0
VERTEX
  8
1
 10
9.716624
 20
2.110935
 42
-0.065458
  0
VERTEX
  8
1
 10
9.571651
 20
1.999693
 42
-0.065436
  0
VERTEX
  8
1
 10
9.402823
 20
1.929769
 42
-0.065448
  0
SEQEND
  0
POLYLINE
  8
1
 66
1
 70
1
  0
VERTEX
  8
1
 10
10.875590
 20
1.905908
 42
-0.065459
  0
VERTEX
  8
1
 10
10.694420
 20
1.929765
 42
-0.065439
  0
VERTEX
  8
1
 10
10.525594
 20
1.999694
 42
-0.065452
  0
VERTEX
  8
1
 10
10.380621
 20
2.110936
 42
-0.065447
  0
VERTEX
  8
1
 10
10.269379
 20
2.255909
 42
-0.065448
  0
VERTEX
  8
1
 10
10.199449
 20
2.424734
 42
-0.065448
  0
VERTEX
  8
1
 10
10.175597
 20
2.605906
 42
-0.065448
  0
VERTEX
  8
1
 10
10.199449
 20
2.787077
 42
-0.065448
  0
VERTEX
  8
1
 10
10.269379
 20
2.955902
 42
-0.065448
  0
VERTEX
  8
1
 10
10.380621
 20
3.100875
 42
-0.065448
  0
VERTEX
  8
1
 10
10.525594
 20
3.212117
 42
-0.065448
  0
VERTEX
  8
1
 10
10.694419
 20
3.282047
 42
-0.065448
  0
VERTEX
  8
1
 10
10.875591
 20
3.305899
 42
-0.065448
  0
VERTEX
  8
1
 10
11.056762
 20
3.282047
 42
-0.065448
  0
VERTEX
  8
1
 10
11.225587
 20
3.212117
 42
-0.065448
  0
VERTEX
  8
1
 10
11.370560
 20
3.100875
 42
-0.065448
  0
VERTEX
  8
1
 10
11.481802
 20
2.955902
 42
-0.065448
  0
VERTEX
  8
1
 10
11.551732
 20
2.787077
 42
-0.065448
  0
VERTEX
  8
1
 10
11.575584
 20
2.605906
 42
-0.065448
  0
VERTEX
  8
1
 10
11.551732
 20
2.424734
 42
-0.065448
  0
VERTEX
  8
1
 10
11.481802
 20
2.255909
 42
-0.065445
  0
VERTEX
  8
1
 10
11.370561
 20
2.110935
 42
-0.065458
  0
VERTEX
  8
1
 10
11.225588
 20
1.999693
 42
-0.065436
  0
VERTEX
  8
1
 10
11.056761
 20
1.929769
 42
-0.065448
  0
SEQEND
  0
POLYLINE
  8
1
 66
1
 70
1
  0
VERTEX
  8
1
 10
0.951968
 20
3.559845
 42
-0.065459
  0
VERTEX
  8
1
 10
0.770798
 20
3.583702
 42
-0.065439
  0
VERTEX
  8
1
 10
0.601972
 20
3.653631
 42
-0.065452
  0
VERTEX
  8
1
 10
0.456999
 20
3.764873
 42
-0.065447
  0
VERTEX
  8
1
 10
0.345757
 20
3.909846
 42
-0.065448
  0
VERTEX
  8
1
 10
0.275827
 20
4.078671
 42
-0.065448
  0
VERTEX
  8
1
 10
0.251975
 20
4.259843
 42
-0.065448
  0
VERTEX
  8
1
 10
0.275827
 20
4.441014
 42
-0.065448
  0
VERTEX
  8
1
 10
0.345757
 20
4.609839
 42
-0.065448
  0
VERTEX
  8
1
 10
0.456999
 20
4.754812
 42
-0.065448
  0
VERTEX
  8
1
 10
0.601972
 20
4.866054
 42
-0.065448
  0
VERTEX
  8
1
 10
0.770797
 20
4.935984
 42
-0.065448
  0
VERTEX
  8
1
 10
0.951969
 20
4.959836
 42
-0.065448
  0
VERTEX
  8
1
 10
1.133140
 20
4.935984
 42
-0.065448
  0
VERTEX
  8
1
 10
1.301965
 20
4.866054
 42
-0.065448
  0
VERTEX
  8
1
 10
1.446938
 20
4.754812
 42
-0.065448
  0
VERTEX
  8
1
 10
1.558180
 20
4.609839
 42
-0.065448
  0
VERTEX
  8
1
 10
1.628110
 20
4.441014
 42
-0.065448
  0
VERTEX
  8
1
 10
1.651962
 20
4.259843
 42
-0.065448
  0
VERTEX
  8
1
 10
1.628110
 20
4.078671
 42
-0.065448
  0
VERTEX
  8
1
 10
1.558180
 20
3.909846
 42
-0.065445
  0
VERTEX
  8
1
 10
1.446939
 20
3.764872
 42
-0.065458
  0
VERTEX
  8
1
 10
1.301966
 20
3.653630
 42
-0.065436
  0
VERTEX
  8
1
 10
1.133138
 20
3.583706
 42
-0.065448
  0
SEQEND
  0
POLYLINE
  8
1
 66
1
 70
1
  0
VERTEX
  8
1
 10
2.605905
 20
3.559845
 42
-0.065459
  0
VERTEX
  8
1
 10
2.424735
 20
3.583702
 42
-0.065439
  0
VERTEX
  8
1
 10
2.255909
 20
3.653631
 42
-0.065452
  0
VERTEX
  8
1
 10
2.110936
 20
3.764873
 42
-0.065447
  0
VERTEX
  8
1
 10
1.999694
 20
3.909846
 42
-0.065448
  0
VERTEX
  8
1
 10
1.929764
 20
4.078671
 42
-0.065448
  0
VERTEX
  8
1
 10
1.905912
 20
4.259843
 42
-0.065448
  0
VERTEX
  8
1
 10
1.929764
 20
4.441014
 42
-0.065448
  0
VERTEX
  8
1
 10
1.999694
 20
4.609839
 42
-0.065448
  0
VERTEX
  8
1
 10
2.110936
 20
4.754812
 42
-0.065448
  0
VERTEX
  8
1
 10
2.255909
 20
4.866054
 42
-0.065448
  0
VERTEX
  8
1
 10
2.424734
 20
4.935984
 42
-0.065448
  0
VERTEX
  8
1
 10
2.605906
 20
4.959836
 42
-0.065448
  0
VERTEX
  8
1
 10
2.787077
 20
4.935984
 42
-0.065448
  0
VERTEX
  8
1
 10
2.955902
 20
4.866054
 42
-0.065448
  0
VERTEX
  8
1
 10
3.100875
 20
4.754812
 42
-0.065448
  0
VERTEX
  8
1
 10
3.212117
 20
4.609839
 42
-0.065448
  0
VERTEX
  8
1
 10
3.282047
 20
4.441014
 42
-0.065448
  0
VERTEX
  8
1
 10
3.305899
 20
4.259843
 42
-0.065448
  0
VERTEX
  8
1
 10
3.282047
 20
4.078671
 42
-0.065448
  0
VERTEX
  8
1
 10
3.212117
 20
3.909846
 42
-0.065445
  0
VERTEX
  8
1
 10
3.100876
 20
3.764872
 42
-0.065458
  0
VERTEX
  8
1
 10
2.955903
 20
3.653630
 42
-0.065436
  0
VERTEX
  8
1
 10
2.787075
 20
3.583706
 42
-0.065448
  0
SEQEND
  0
POLYLINE
  8
1
 66
1
 70
1
  0
VERTEX
  8
1
 10
4.259842
 20
3.559845
 42
-0.065459
  0
VERTEX
  8
1
 10
4.078672
 20
3.583702
 42
-0.065439
  0
VERTEX
  8
1
 10
3.909846
 20
3.653631
 42
-0.065452
  0
VERTEX
  8
1
 10
3.764873
 20
3.764873
 42
-0.065447
  0
VERTEX
  8
1
 10
3.653631
 20
3.909846
 42
-0.065448
  0
VERTEX
  8
1
 10
3.583701
 20
4.078671
 42
-0.065448
  0
VERTEX
  8
1
 10
3.559849
 20
4.259843
 42
-0.065448
  0
VERTEX
  8
1
 10
3.583701
 20
4.441014
 42
-0.065448
  0
VERTEX
  8
1
 10
3.653631
 20
4.609839
 42
-0.065448
  0
VERTEX
  8
1
 10
3.764873
 20
4.754812
 42
-0.065448
  0
VERTEX
  8
1
 10
3.909846
 20
4.866054
 42
-0.065448
  0
VERTEX
  8
1
 10
4.078671
 20
4.935984
 42
-0.065448
  0
VERTEX
  8
1
 10
4.259843
 20
4.959836
 42
-0.065448
  0
VERTEX
  8
1
 10
4.441014
 20
4.935984
 42
-0.065448
  0
VERTEX
  8
1
 10
4.609839
 20
4.866054
 42
-0.065448
  0
VERTEX
  8
1
 10
4.754812
 20
4.754812
 42
-0.065448
  0
VERTEX
  8
1
 10
4.866054
 20
4.609839
 42
-0.065448
  0
VERTEX
  8
1
 10
4.935984
 20
4.441014
 42
-0.065448
  0
VERTEX
  8
1
 10
4.959836
 20
4.259843
 42
-0.065448
  0
VERTEX
  8
1
 10
4.935984
 20
4.078671
 42
-0.065448
  0
VERTEX
  8
1
 10
4.866054
 20
3.909846
 42
-0.065445
  0
VERTEX
  8
1
 10
4.754813
 20
3.764872
 42
-0.065458
  0
VERTEX
  8
1
 10
4.609840
 20
3.653630
 42
-0.065436
  0
VERTEX
  8
1
 10
4.441012
 20
3.583706
 42
-0.065448
  0
SEQEND
  0
POLYLINE
  8
1
 66
1
 70
1
  0
VERTEX
  8
1
 10
5.913779
 20
3.559845
 42
-0.065459
  0
VERTEX
  8
1
 10
5.732609
 20
3.583702
 42
-0.065439
  0
VERTEX
  8
1
 10
5.563783
 20
3.653631
 42
-0.065452
  0
VERTEX
  8
1
 10
5.418810
 20
3.764873
 42
-0.065447
  0
VERTEX
  8
1
 10
5.307568
 20
3.909846
 42
-0.065448
  0
VERTEX
  8
1
 10
5.237638
 20
4.078671
 42
-0.065448
  0
VERTEX
  8
1
 10
5.213786
 20
4.259843
 42
-0.065448
  0
VERTEX
  8
1
 10
5.237638
 20
4.441014
 42
-0.065448
  0
VERTEX
  8
1
 10
5.307568
 20
4.609839
 42
-0.065448
  0
VERTEX
  8
1
 10
5.418810
 20
4.754812
 42
-0.065448
  0
VERTEX
  8
1
 10
5.563783
 20
4.866054
 42
-0.065448
  0
VERTEX
  8
1
 10
5.732608
 20
4.935984
 42
-0.065448
  0
VERTEX
  8
1
 10
5.913780
 20
4.959836
 42
-0.065448
  0
VERTEX
  8
1
 10
6.094951
 20
4.935984
 42
-0.065448
  0
VERTEX
  8
1
 10
6.263776
 20
4.866054
 42
-0.065448
  0
VERTEX
  8
1
 10
6.408749
 20
4.754812
 42
-0.065448
  0
VERTEX
  8
1
 10
6.519991
 20
4.609839
 42
-0.065448
  0
VERTEX
  8
1
 10
6.589921
 20
4.441014
 42
-0.065448
  0
VERTEX
  8
1
 10
6.613773
 20
4.259843
 42
-0.065448
  0
VERTEX
  8
1
 10
6.589921
 20
4.078671
 42
-0.065448
  0
VERTEX
  8
1
 10
6.519991
 20
3.909846
 42
-0.065445
  0
VERTEX
  8
1
 10
6.408750
 20
3.764872
 42
-0.065458
  0
VERTEX
  8
1
 10
6.263777
 20
3.653630
 42
-0.065436
  0
VERTEX
  8
1
 10
6.094949
 20
3.583706
 42
-0.065448
  0
SEQEND
  0
POLYLINE
  8
1
 66
1
 70
1
  0
VERTEX
  8
1
 10
7.567716
 20
3.559845
 42
-0.065459
  0
VERTEX
  8
1
 10
7.386546
 20
3.583702
 42
-0.065439
  0
VERTEX
  8
1
 10
7.217720
 20
3.653631
 42
-0.065452
  0
VERTEX
  8
1
 10
7.072747
 20
3.764873
 42
-0.065447
  0
VERTEX
  8
1
 10
6.961505
 20
3.909846
 42
-0.065448
  0
VERTEX
  8
1
 10
6.891575
 20
4.078671
 42
-0.065448
  0
VERTEX
  8
1
 10
6.867723
 20
4.259843
 42
-0.065448
  0
VERTEX
  8
1
 10
6.891575
 20
4.441014
 42
-0.065448
  0
VERTEX
  8
1
 10
6.961505
 20
4.609839
 42
-0.065448
  0
VERTEX
  8
1
 10
7.072747
 20
4.754812
 42
-0.065448
  0
VERTEX
  8
1
 10
7.217720
 20
4.866054
 42
-0.065448
  0
VERTEX
  8
1
 10
7.386545
 20
4.935984
 42
-0.065448
  0
VERTEX
  8
1
 10
7.567717
 20
4.959836
 42
-0.065448
  0
VERTEX
  8
1
 10
7.748888
 20
4.935984
 42
-0.065448
  0
VERTEX
  8
1
 10
7.917713
 20
4.866054
 42
-0.065448
  0
VERTEX
  8
1
 10
8.062686
 20
4.754812
 42
-0.065448
  0
VERTEX
  8
1
 10
8.173928
 20
4.609839
 42
-0.065448
  0
VERTEX
  8
1
 10
8.243858
 20
4.441014
 42
-0.065448
  0
VERTEX
  8
1
 10
8.267710
 20
4.259843
 42
-0.065448
  0
VERTEX
  8
1
 10
8.243858
 20
4.078671
 42
-0.065448
  0
VERTEX
  8
1
 10
8.173928
 20
3.909846
 42
-0.065445
  0
VERTEX
  8
1
 10
8.062687
 20
3.764872
 42
-0.065458
  0
VERTEX
  8
1
 10
7.917714
 20
3.653630
 42
-0.065436
  0
VERTEX
  8
1
 10
7.748886
 20
3.583706
 42
-0.065448
  0
SEQEND
  0
POLYLINE
  8
1
 66
1
 70
1
  0
VERTEX
  8
1
 10
9.221653
 20
3.559845
 42
-0.065459
  0
VERTEX
  8
1
 10
9.040483
 20
3.583702
 42
-0.065439
  0
VERTEX
  8
1
 10
8.871657
 20
3.653631
 42
-0.065452
  0
VERTEX
  8
1
 10
8.726684
 20
3.764873
 42
-0.065447
  0
VERTEX
  8
1
 10
8.615442
 20
3.909846
 42
-0.065448
  0
VERTEX
  8
1
 10
8.545512
 20
4.078671
 42
-0.065448
  0
VERTEX
  8
1
 10
8.521660
 20
4.259843
 42
-0.065448
  0
VERTEX
  8
1
 10
8.545512
 20
4.441014
 42
-0.065448
  0
VERTEX
  8
1
 10
8.615442
 20
4.609839
 42
-0.065448
  0
VERTEX
  8
1
 10
8.726684
 20
4.754812
 42
-0.065448
  0
VERTEX
  8
1
 10
8.871657
 20
4.866054
 42
-0.065448
  0
VERTEX
  8
1
 10
9.040482
 20
4.935984
 42
-0.065448
  0
VERTEX
  8
1
 10
9.221654
 20
4.959836
 42
-0.065448
  0
VERTEX
  8
1
 10
9.402825
 20
4.935984
 42
-0.065448
  0
VERTEX
  8
1
 10
9.571650
 20
4.866054
 42
-0.065448
  0
VERTEX
  8
1
 10
9.716623
 20
4.754812
 42
-0.065448
  0
VERTEX
  8
1
 10
9.827865
 20
4.609839
 42
-0.065448
  0
VERTEX
  8
1
 10
9.897795
 20
4.441014
 42
-0.065448
  0
VERTEX
  8
1
 10
9.921647
 20
4.259843
 42
-0.065448
  0
VERTEX
  8
1
 10
9.897795
 20
4.078671
 42
-0.065448
  0
VERTEX
  8
1
 10
9.827865
 20
3.909846
 42
-0.065445
  0
VERTEX
  8
1
 10
9.716624
 20
3.764872
 42
-0.065458
  0
VERTEX
  8
1
 10
9.571651
 20
3.653630
 42
-0.065436
  0
VERTEX
  8
1
 10
9.402823
 20
3.583706
 42
-0.065448
  0
SEQEND
  0
POLYLINE
  8
1
 66
1
 70
1
  0
VERTEX
  8
1
 10
10.875590
 20
3.559845
 42
-0.065459
  0
VERTEX
  8
1
 10
10.694420
 20
3.583702
 42
-0.065439
  0
VERTEX
  8
1
 10
10.525594
 20
3.653631
 42
-0.065452
  0
VERTEX
  8
1
 10
10.380621
 20
3.764873
 42
-0.065447
  0
VERTEX
  8
1
 10
10.269379
 20
3.909846
 42
-0.065448
  0
VERTEX
  8
1
 10
10.199449
 20
4.078671
 42
-0.065448
  0
VERTEX
  8
1
 10
10.175597
 20
4.259843
 42
-0.065448
  0
VERTEX
  8
1
 10
10.199449
 20
4.441014
 42
-0.065448
  0
VERTEX
  8
1
 10
10.269379
 20
4.609839
 42
-0.065448
  0
VERTEX
  8
1
 10
10.380621
 20
4.754812
 42
-0.065448
  0
VERTEX
  8
1
 10
10.525594
 20
4.866054
 42
-0.065448
  0
VERTEX
  8
1
 10
10.694419
 20
4.935984
 42
-0.065448
  0
VERTEX
  8
1
 10
10.875591
 20
4.959836
 42
-0.065448
  0
VERTEX
  8
1
 10
11.056762
 20
4.935984
 42
-0.065448
  0
VERTEX
  8
1
 10
11.225587
 20
4.866054
 42
-0.065448
  0
VERTEX
  8
1
 10
11.370560
 20
4.754812
 42
-0.065448
  0
VERTEX
  8
1
 10
11.481802
 20
4.609839
 42
-0.065448
  0
VERTEX
  8
1
 10
11.551732
 20
4.441014
 42
-0.065448
  0
VERTEX
  8
1
 10
11.575584
 20
4.259843
 42
-0.065448
  0
VERTEX
  8
1
 10
11.551732
 20
4.078671
 42
-0.065448
  0
VERTEX
  8
1
 10
11.481802
 20
3.909846
 42
-0.065445
  0
VERTEX
  8
1
 10
11.370561
 20
3.764872
 42
-0.065458
  0
VERTEX
  8
1
 10
11.225588
 20
3.653630
 42
-0.065436
  0
VERTEX
  8
1
 10
11.056761
 20
3.583706
 42
-0.065448
  0
SEQEND
  0
POLYLINE
  8
1
 66
1
 70
1
  0
VERTEX
  8
1
 10
0.951968
 20
5.213782
 42
-0.065459
  0
VERTEX
  8
1
 10
0.770798
 20
5.237639
 42
-0.065439
  0
VERTEX
  8
1
 10
0.601972
 20
5.307568
 42
-0.065452
  0
VERTEX
  8
1
 10
0.456999
 20
5.418810
 42
-0.065447
  0
VERTEX
  8
1
 10
0.345757
 20
5.563783
 42
-0.065448
  0
VERTEX
  8
1
 10
0.275827
 20
5.732608
 42
-0.065448
  0
VERTEX
  8
1
 10
0.251975
 20
5.913780
 42
-0.065448
  0
VERTEX
  8
1
 10
0.275827
 20
6.094951
 42
-0.065448
  0
VERTEX
  8
1
 10
0.345757
 20
6.263776
 42
-0.065448
  0
VERTEX
  8
1
 10
0.456999
 20
6.408749
 42
-0.065448
  0
VERTEX
  8
1
 10
0.601972
 20
6.519991
 42
-0.065448
  0
VERTEX
  8
1
 10
0.770797
 20
6.589921
 42
-0.065448
  0
VERTEX
  8
1
 10
0.951969
 20
6.613773
 42
-0.065448
  0
VERTEX
  8
1
 10
1.133140
 20
6.589921
 42
-0.065448
  0
VERTEX
  8
1
 10
1.301965
 20
6.519991
 42
-0.065448
  0
VERTEX
  8
1
 10
1.446938
 20
6.408749
 42
-0.065448
  0
VERTEX
  8
1
 10
1.558180
 20
6.263776
 42
-0.065448
  0
VERTEX
  8
1
 10
1.628110
 20
6.094951
 42
-0.065448
  0
VERTEX
  8
1
 10
1.651962
 20
5.913780
 42
-0.065448
  0
VERTEX
  8
1
 10
1.628110
 20
5.732608
 42
-0.065448
  0
VERTEX
  8
1
 10
1.558180
 20
5.563783
 42
-0.065445
  0
VERTEX
  8
1
 10
1.446939
 20
5.418809
 42
-0.065458
  0
VERTEX
  8
1
 10
1.301966
 20
5.307567
 42
-0.065436
  0
VERTEX
  8
1
 10
1.133138
 20
5.237643
 42
-0.065448
  0
SEQEND
  0
POLYLINE
  8
1
 66
1
 70
1
  0
VERTEX
  8
1
 10
2.605905
 20
5.213782
 42
-0.065459
  0
VERTEX
  8
1
 10
2.424735
 20
5.237639
 42
-0.065439
  0
VERTEX
  8
1
 10
2.255909
 20
5.307568
 42
-0.065452
  0
VERTEX
  8
1
 10
2.110936
 20
5.418810
 42
-0.065447
  0
VERTEX
  8
1
 10
1.999694
 20
5.563783
 42
-0.065448
  0
VERTEX
  8
1
 10
1.929764
 20
5.732608
 42
-0.065448
  0
VERTEX
  8
1
 10
1.905912
 20
5.913780
 42
-0.065448
  0
VERTEX
  8
1
 10
1.929764
 20
6.094951
 42
-0.065448
  0
VERTEX
  8
1
 10
1.999694
 20
6.263776
 42
-0.065448
  0
VERTEX
  8
1
 10
2.110936
 20
6.408749
 42
-0.065448
  0
VERTEX
  8
1
 10
2.255909
 20
6.519991
 42
-0.065448
  0
VERTEX
  8
1
 10
2.424734
 20
6.589921
 42
-0.065448
  0
VERTEX
  8
1
 10
2.605906
 20
6.613773
 42
-0.065448
  0
VERTEX
  8
1
 10
2.787077
 20
6.589921
 42
-0.065448
  0
VERTEX
  8
1
 10
2.955902
 20
6.519991
 42
-0.065448
  0
VERTEX
  8
1
 10
3.100875
 20
6.408749
 42
-0.065448
  0
VERTEX
  8
1
 10
3.212117
 20
6.263776
 42
-0.065448
  0
VERTEX
  8
1
 10
3.282047
 20
6.094951
 42
-0.065448
  0
VERTEX
  8
1
 10
3.305899
 20
5.913780
 42
-0.065448
  0
VERTEX
  8
1
 10
3.282047
 20
5.732608
 42
-0.065448
  0
VERTEX
  8
1
 10
3.212117
 20
5.563783
 42
-0.065445
  0
VERTEX
  8
1
 10
3.100876
 20
5.418809
 42
-0.065458
  0
VERTEX
  8
1
 10
2.955903
 20
5.307567
 42
-0.065436
  0
VERTEX
  8
1
 10
2.787075
 20
5.237643
 42
-0.065448
  0
SEQEND
  0
POLYLINE
  8
1
 66
1
 70
1
  0
VERTEX
  8
1
 10
4.259842
 20
5.213782
 42
-0.065459
  0
VERTEX
  8
1
 10
4.078672
 20
5.237639
 42
-0.065439
  0
VERTEX
  8
1
 10
3.909846
 20
5.307568
 42
-0.065452
  0
VERTEX
  8
1
 10
3.764873
 20
5.418810
 42
-0.065447
  0
VERTEX
  8
1
 10
3.653631
 20
5.563783
 42
-0.065448
  0
VERTEX
  8
1
 10
3.583701
 20
5.732608
 42
-0.065448
  0
VERTEX
  8
1
 10
3.559849
 20
5.913780
 42
-0.065448
  0
VERTEX
  8
1
 10
3.583701
 20
6.094951
 42
-0.065448
  0
VERTEX
  8
1
 10
3.653631
 20
6.263776
 42
-0.065448
  0
VERTEX
  8
1
 10
3.764873
 20
6.408749
 42
-0.065448
  0
VERTEX
  8
1
 10
3.909846
 20
6.519991
 42
-0.065448
  0
VERTEX
  8
1
 10
4.078671
 20
6.589921
 42
-0.065448
  0
VERTEX
  8
1
 10
4.259843
 20
6.613773
 42
-0.065448
  0
VERTEX
  8
1
 10
4.441014
 20
6.589921
 42
-0.065448
  0
VERTEX
  8
1
 10
4.609839
 20
6.519991
 42
-0.065448
  0
VERTEX
  8
1
 10
4.754812
 20
6.408749
 42
-0.065448
  0
VERTEX
  8
1
 10
4.866054
 20
6.263776
 42
-0.065448
  0
VERTEX
  8
1
 10
4.935984
 20
6.094951
 42
-0.065448
  0
VERTEX
  8
1
 10
4.959836
 20
5.913780
 42
-0.065448
  0
VERTEX
  8
1
 10
4.935984
 20
5.732608
 42
-0.065448
  0
VERTEX
  8
1
 10
4.866054
 20
5.563783
 42
-0.065445
  0
VERTEX
  8
1
 10
4.754813
 20
5.418809
 42
-0.065458
  0
VERTEX
  8
1
 10
4.609840
 20
5.307567
 42
-0.065436
  0
VERTEX
  8
1
 10
4.441012
 20
5.237643
 42
-0.065448
  0
SEQEND
  0
POLYLINE
  8
1
 66
1
 70
1
  0
VERTEX
  8
1
 10
5.913779
 20
5.213782
 42
-0.065459
  0
VERTEX
  8
1
 10
5.732609
 20
5.237639
 42
-0.065439
  0
VERTEX
  8
1
 10
5.563783
 20
5.307568
 42
-0.065452
  0
VERTEX
  8
1
 10
5.418810
 20
5.418810
 42
-0.065447
  0
VERTEX
  8
1
 10
5.307568
 20
5.563783
 42
-0.065448
  0
VERTEX
  8
1
 10
5.237638
 20
5.732608
 42
-0.065448
  0
VERTEX
  8
1
 10
5.213786
 20
5.913780
 42
-0.065448
  0
VERTEX
  8
1
 10
5.237638
 20
6.094951
 42
-0.065448
  0
VERTEX
  8
1
 10
5.307568
 20
6.263776
 42
-0.065448
  0
VERTEX
  8
1
 10
5.418810
 20
6.408749
 42
-0.065448
  0
VERTEX
  8
1
 10
5.563783
 20
6.519991
 42
-0.065448
  0
VERTEX
  8
1
 10
5.732608
 20
6.589921
 42
-0.065448
  0
VERTEX
  8
1
 10
5.913780
 20
6.613773
 42
-0.065448
  0
VERTEX
  8
1
 10
6.094951
 20
6.589921
 42
-0.065448
  0
VERTEX
  8
1
 10
6.263776
 20
6.519991
 42
-0.065448
  0
VERTEX
  8
1
 10
6.408749
 20
6.408749
 42
-0.065448
  0
VERTEX
  8
1
 10
6.519991
 20
6.263776
 42
-0.065448
  0
VERTEX
  8
1
 10
6.589921
 20
6.094951
 42
-0.065448
  0
VERTEX
  8
1
 10
6.613773
 20
5.913780
 42
-0.065448
  0
VERTEX
  8
1
 10
6.589921
 20
5.732608
 42
-0.065448
  0
VERTEX
  8
1
 10
6.519991
 20
5.563783
 42
-0.065445
  0
VERTEX
  8
1
 10
6.408750
 20
5.418809
 42
-0.065458
  0
VERTEX
  8
1
 10
6.263777
 20
5.307567
 42
-0.065436
  0
VERTEX
  8
1
 10
6.094949
 20
5.237643
 42
-0.065448
  0
SEQEND
  0
POLYLINE
  8
1
 66
1
 70
1
  0
VERTEX
  8
1
 10
7.567716
 20
5.213782
 42
-0.065459
  0
VERTEX
  8
1
 10
7.386546
 20
5.237639
 42
-0.065439
  0
VERTEX
  8
1
 10
7.217720
 20
5.307568
 42
-0.065452
  0
VERTEX
  8
1
 10
7.072747
 20
5.418810
 42
-0.065447
  0
VERTEX
  8
1
 10
6.961505
 20
5.563783
 42
-0.065448
  0
VERTEX
  8
1
 10
6.891575
 20
5.732608
 42
-0.065448
  0
VERTEX
  8
1
 10
6.867723
 20
5.913780
 42
-0.065448
  0
VERTEX
  8
1
 10
6.891575
 20
6.094951
 42
-0.065448
  0
VERTEX
  8
1
 10
6.961505
 20
6.263776
 42
-0.065448
  0
VERTEX
  8
1
 10
7.072747
 20
6.408749
 42
-0.065448
  0
VERTEX
  8
1
 10
7.217720
 20
6.519991
 42
-0.065448
  0
VERTEX
  8
1
 10
7.386545
 20
6.589921
 42
-0.065448
  0
VERTEX
  8
1
 10
7.567717
 20
6.613773
 42
-0.065448
  0
VERTEX
  8
1
 10
7.748888
 20
6.589921
 42
-0.065448
  0
VERTEX
  8
1
 10
7.917713
 20
6.519991
 42
-0.065448
  0
VERTEX
  8
1
 10
8.062686
 20
6.408749
 42
-0.065448
  0
VERTEX
  8
1
 10
8.173928
 20
6.263776
 42
-0.065448
  0
VERTEX
  8
1
 10
8.243858
 20
6.094951
 42
-0.065448
  0
VERTEX
  8
1
 10
8.267710
 20
5.913780
 42
-0.065448
  0
VERTEX
  8
1
 10
8.243858
 20
5.732608
 42
-0.065448
  0
VERTEX
  8
1
 10
8.173928
 20
5.563783
 42
-0.065445
  0
VERTEX
  8
1
 10
8.062687
 20
5.418809
 42
-0.065458
  0
VERTEX
  8
1
 10
7.917714
 20
5.307567
 42
-0.065436
  0
VERTEX
  8
1
 10
7.748886
 20
5.237643
 42
-0.065448
  0
SEQEND
  0
POLYLINE
  8
1
 66
1
 70
1
  0
VERTEX
  8
1
 10
9.221653
 20
5.213782
 42
-0.065459
  0
VERTEX
  8
1
 10
9.040483
 20
5.237639
 42
-0.065439
  0
VERTEX
  8
1
 10
8.871657
 20
5.307568
 42
-0.065452
  0
VERTEX
  8
1
 10
8.726684
 20
5.418810
 42
-0.065447
  0
VERTEX
  8
1
 10
8.615442
 20
5.563783
 42
-0.065448
  0
VERTEX
  8
1
 10
8.545512
 20
5.732608
 42
-0.065448
  0
VERTEX
  8
1
 10
8.521660
 20
5.913780
 42
-0.065448
  0
VERTEX
  8
1
 10
8.545512
 20
6.094951
 42
-0.065448
  0
VERTEX
  8
1
 10
8.615442
 20
6.263776
 42
-0.065448
  0
VERTEX
  8
1
 10
8.726684
 20
6.408749
 42
-0.065448
  0
VERTEX
  8
1
 10
8.871657
 20
6.519991
 42
-0.065448
  0
VERTEX
  8
1
 10
9.040482
 20
6.589921
 42
-0.065448
  0
VERTEX
  8
1
 10
9.221654
 20
6.613773
 42
-0.065448
  0
VERTEX
  8
1
 10
9.402825
 20
6.589921
 42
-0.065448
  0
VERTEX
  8
1
 10
9.571650
 20
6.519991
 42
-0.065448
  0
VERTEX
  8
1
 10
9.716623
 20
6.408749
 42
-0.065448
  0
VERTEX
  8
1
 10
9.827865
 20
6.263776
 42
-0.065448
  0
VERTEX
  8
1
 10
9.897795
 20
6.094951
 42
-0.065448
  0
VERTEX
  8
1
 10
9.921647
 20
5.913780
 42
-0.065448
  0
VERTEX
  8
1
 10
9.897795
 20
5.732608
 42
-0.065448
  0
VERTEX
  8
1
 10
9.827865
 20
5.563783
 42
-0.065445
  0
VERTEX
  8
1
 10
9.716624
 20
5.418809
 42
-0.065458
  0
VERTEX
  8
1
 10
9.571651
 20
5.307567
 42
-0.065436
  0
VERTEX
  8
1
 10
9.402823
 20
5.237643
 42
-0.065448
  0
SEQEND
  0
POLYLINE
  8
1
 66
1
 70
1
  0
VERTEX
  8
1
 10
10.875590
 20
5.213782
 42
-0.065459
  0
VERTEX
  8
1
 10
10.694420
 20
5.237639
 42
-0.065439
  0
VERTEX
  8
1
 10
10.525594
 20
5.307568
 42
-0.065452
  0
VERTEX
  8
1
 10
10.380621
 20
5.418810
 42
-0.065447
  0
VERTEX
  8
1
 10
10.269379
 20
5.563783
 42
-0.065448
  0
VERTEX
  8
1
 10
10.199449
 20
5.732608
 42
-0.065448
  0
VERTEX
  8
1
 10
10.175597
 20
5.913780
 42
-0.065448
  0
VERTEX
  8
1
 10
10.199449
 20
6.094951
 42
-0.065448
  0
VERTEX
  8
1
 10
10.269379
 20
6.263776
 42
-0.065448
  0
VERTEX
  8
1
 10
10.380621
 20
6.408749
 42
-0.065448
  0
VERTEX
  8
1
 10
10.525594
 20
6.519991
 42
-0.065448
  0
VERTEX
  8
1
 10
10.694419
 20
6.589921
 42
-0.065448
  0
VERTEX
  8
1
 10
10.875591
 20
6.613773
 42
-0.065448
  0
VERTEX
  8
1
 10
11.056762
 20
6.589921
 42
-0.065448
  0
VERTEX
  8
1
 10
11.225587
 20
6.519991
 42
-0.065448
  0
VERTEX
  8
1
 10
11.370560
 20
6.408749
 42
-0.065448
  0
VERTEX
  8
1
 10
11.481802
 20
6.263776
 42
-0.065448
  0
VERTEX
  8
1
 10
11.551732
 20
6.094951
 42
-0.065448
  0
VERTEX
  8
1
 10
11.575584
 20
5.913780
 42
-0.065448
  0
VERTEX
  8
1
 10
11.551732
 20
5.732608
 42
-0.065448
  0
VERTEX
  8
1
 10
11.481802
 20
5.563783
 42
-0.065445
  0
VERTEX
  8
1
 10
11.370561
 20
5.418809
 42
-0.065458
  0
VERTEX
  8
1
 10
11.225588
 20
5.307567
 42
-0.065436
  0
VERTEX
  8
1
 10
11.056761
 20
5.237643
 42
-0.065448
  0
SEQEND
  0
POLYLINE
  8
1
 66
1
 70
1
  0
VERTEX
  8
1
 10
0.951968
 20
6.867719
 42
-0.065459
  0
VERTEX
  8
1
 10
0.770798
 20
6.891576
 42
-0.065439
  0
VERTEX
  8
1
 10
0.601972
 20
6.961505
 42
-0.065452
  0
VERTEX
  8
1
 10
0.456999
 20
7.072747
 42
-0.065447
  0
VERTEX
  8
1
 10
0.345757
 20
7.217720
 42
-0.065448
  0
VERTEX
  8
1
 10
0.275827
 20
7.386545
 42
-0.065448
  0
VERTEX
  8
1
 10
0.251975
 20
7.567717
 42
-0.065448
  0
VERTEX
  8
1
 10
0.275827
 20
7.748888
 42
-0.065448
  0
VERTEX
  8
1
 10
0.345757
 20
7.917713
 42
-0.065448
  0
VERTEX
  8
1
 10
0.456999
 20
8.062686
 42
-0.065448
  0
VERTEX
  8
1
 10
0.601972
 20
8.173928
 42
-0.065448
  0
VERTEX
  8
1
 10
0.770797
 20
8.243858
 42
-0.065448
  0
VERTEX
  8
1
 10
0.951969
 20
8.267710
 42
-0.065448
  0
VERTEX
  8
1
 10
1.133140
 20
8.243858
 42
-0.065448
  0
VERTEX
  8
1
 10
1.301965
 20
8.173928
 42
-0.065448
  0
VERTEX
  8
1
 10
1.446938
 20
8.062686
 42
-0.065448
  0
VERTEX
  8
1
 10
1.558180
 20
7.917713
 42
-0.065448
  0
VERTEX
  8
1
 10
1.628110
 20
7.748888
 42
-0.065448
  0
VERTEX
  8
1
 10
1.651962
 20
7.567717
 42
-0.065448
  0
VERTEX
  8
1
 10
1.628110
 20
7.386545
 42
-0.065448
  0
VERTEX
  8
1
 10
1.558180
 20
7.217720
 42
-0.065445
  0
VERTEX
  8
1
 10
1.446939
 20
7.072746
 42
-0.065458
  0
VERTEX
  8
1
 10
1.301966
 20
6.961504
 42
-0.065436
  0
VERTEX
  8
1
 10
1.133138
 20
6.891580
 42
-0.065448
  0
SEQEND
  0
POLYLINE
  8
1
 66
1
 70
1
  0
VERTEX
  8
1
 10
2.605905
 20
6.867719
 42
-0.065459
  0
VERTEX
  8
1
 10
2.424735
 20
6.891576
 42
-0.065439
  0
VERTEX
  8
1
 10
2.255909
 20
6.961505
 42
-0.065452
  0
VERTEX
  8
1
 10
2.110936
 20
7.072747
 42
-0.065447
  0
VERTEX
  8
1
 10
1.999694
 20
7.217720
 42
-0.065448
  0
VERTEX
  8
1
 10
1.929764
 20
7.386545
 42
-0.065448
  0
VERTEX
  8
1
 10
1.905912
 20
7.567717
 42
-0.065448
  0
VERTEX
  8
1
 10
1.929764
 20
7.748888
 42
-0.065448
  0
VERTEX
  8
1
 10
1.999694
 20
7.917713
 42
-0.065448
  0
VERTEX
  8
1
 10
2.110936
 20
8.062686
 42
-0.065448
  0
VERTEX
  8
1
 10
2.255909
 20
8.173928
 42
-0.065448
  0
VERTEX
  8
1
 10
2.424734
 20
8.243858
 42
-0.065448
  0
VERTEX
  8
1
 10
2.605906
 20
8.267710
 42
-0.065448
  0
VERTEX
  8
1
 10
2.787077
 20
8.243858
 42
-0.065448
  0
VERTEX
  8
1
 10
2.955902
 20
8.173928
 42
-0.065448
  0
VERTEX
  8
1
 10
3.100875
 20
8.062686
 42
-0.065448
  0
VERTEX
  8
1
 10
3.212117
 20
7.917713
 42
-0.065448
  0
VERTEX
  8
1
 10
3.282047
 20
7.748888
 42
-0.065448
  0
VERTEX
  8
1
 10
3.305899
 20
7.567717
 42
-0.065448
  0
VERTEX
  8
1
 10
3.282047
 20
7.386545
 42
-0.065448
  0
VERTEX
  8
1
 10
3.212117
 20
7.217720
 42
-0.065445
  0
VERTEX
  8
1
 10
3.100876
 20
7.072746
 42
-0.065458
  0
VERTEX
  8
1
 10
2.955903
 20
6.961504
 42
-0.065436
  0
VERTEX
  8
1
 10
2.787075
 20
6.891580
 42
-0.065448
  0
SEQEND
  0
POLYLINE
  8
1
 66
1
 70
1
  0
VERTEX
  8
1
 10
4.259842
 20
6.867719
 42
-0.065459
  0
VERTEX
  8
1
 10
4.078672
 20
6.891576
 42
-0.065439
  0
VERTEX
  8
1
 10
3.909846
 20
6.961505
 42
-0.065452
  0
VERTEX
  8
1
 10
3.764873
 20
7.072747
 42
-0.065447
  0
VERTEX
  8
1
 10
3.653631
 20
7.217720
 42
-0.065448
  0
VERTEX
  8
1
 10
3.583701
 20
7.386545
 42
-0.065448
  0
VERTEX
  8
1
 10
3.559849
 20
7.567717
 42
-0.065448
  0
VERTEX
  8
1
 10
3.583701
 20
7.748888
 42
-0.065448
  0
VERTEX
  8
1
 10
3.653631
 20
7.917713
 42
-0.065448
  0
VERTEX
  8
1
 10
3.764873
 20
8.062686
 42
-0.065448
  0
VERTEX
  8
1
 10
3.909846
 20
8.173928
 42
-0.065448
  0
VERTEX
  8
1
 10
4.078671
 20
8.243858
 42
-0.065448
  0
VERTEX
  8
1
 10
4.259843
 20
8.267710
 42
-0.065448
  0
VERTEX
  8
1
 10
4.441014
 20
8.243858
 42
-0.065448
  0
VERTEX
  8
1
 10
4.609839
 20
8.173928
 42
-0.065448
  0
VERTEX
  8
1
 10
4.754812
 20
8.062686
 42
-0.065448
  0
VERTEX
  8
1
 10
4.866054
 20
7.917713
 42
-0.065448
  0
VERTEX
  8
1
 10
4.935984
 20
7.748888
 42
-0.065448
  0
VERTEX
  8
1
 10
4.959836
 20
7.567717
 42
-0.065448
  0
VERTEX
  8
1
 10
4.935984
 20
7.386545
 42
-0.065448
  0
VERTEX
  8
1
 10
4.866054
 20
7.217720
 42
-0.065445
  0
VERTEX
  8
1
 10
4.754813
 20
7.072746
 42
-0.065458
  0
VERTEX
  8
1
 10
4.609840
 20
6.961504
 42
-0.065436
  0
VERTEX
  8
1
 10
4.441012
 20
6.891580
 42
-0.065448
  0
SEQEND
  0
POLYLINE
  8
1
 66
1
 70
1
  0
VERTEX
  8
1
 10
5.913779
 20
6.867719
 42
-0.065459
  0
VERTEX
  8
1
 10
5.732609
 20
6.891576
 42
-0.065439
  0
VERTEX
  8
1
 10
5.563783
 20
6.961505
 42
-0.065452
  0
VERTEX
  8
1
 10
5.418810
 20
7.072747
 42
-0.065447
  0
VERTEX
  8
1
 10
5.307568
 20
7.217720
 42
-0.065448
  0
VERTEX
  8
1
 10
5.237638
 20
7.386545
 42
-0.065448
  0
VERTEX
  8
1
 10
5.213786
 20
7.567717
 42
-0.065448
  0
VERTEX
  8
1
 10
5.237638
 20
7.748888
 42
-0.065448
  0
VERTEX
  8
1
 10
5.307568
 20
7.917713
 42
-0.065448
  0
VERTEX
  8
1
 10
5.418810
 20
8.062686
 42
-0.065448
  0
VERTEX
  8
1
 10
5.563783
 20
8.173928
 42
-0.065448
  0
VERTEX
  8
1
 10
5.732608
 20
8.243858
 42
-0.065448
  0
VERTEX
  8
1
 10
5.913780
 20
8.267710
 42
-0.065448
  0
VERTEX
  8
1
 10
6.094951
 20
8.243858
 42
-0.065448
  0
VERTEX
  8
1
 10
6.263776
 20
8.173928
 42
-0.065448
  0
VERTEX
  8
1
 10
6.408749
 20
8.062686
 42
-0.065448
  0
VERTEX
  8
1
 10
6.519991
 20
7.917713
 42
-0.065448
  0
VERTEX
  8
1
 10
6.589921
 20
7.748888
 42
-0.065448
  0
VERTEX
  8
1
 10
6.613773
 20
7.567717
 42
-0.065448
  0
VERTEX
  8
1
 10
6.589921
 20
7.386545
 42
-0.065448
  0
VERTEX
  8
1
 10
6.519991
 20
7.217720
 42
-0.065445
  0
VERTEX
  8
1
 10
6.408750
 20
7.072746
 42
-0.065458
  0
VERTEX
  8
1
 10
6.263777
 20
6.961504
 42
-0.065436
  0
VERTEX
  8
1
 10
6.094949
 20
6.891580
 42
-0.065448
  0
SEQEND
  0
POLYLINE
  8
1
 66
1
 70
1
  0
VERTEX
  8
1
 10
7.567716
 20
6.867719
 42
-0.065459
  0
VERTEX
  8
1
 10
7.386546
 20
6.891576
 42
-0.065439
  0
VERTEX
  8
1
 10
7.217720
 20
6.961505
 42
-0.065452
  0
VERTEX
  8
1
 10
7.072747
 20
7.072747
 42
-0.065447
  0
VERTEX
  8
1
 10
6.961505
 20
7.217720
 42
-0.065448
  0
VERTEX
  8
1
 10
6.891575
 20
7.386545
 42
-0.065448
  0
VERTEX
  8
1
 10
6.867723
 20
7.567717
 42
-0.065448
  0
VERTEX
  8
1
 10
6.891575
 20
7.748888
 42
-0.065448
  0
VERTEX
  8
1
 10
6.961505
 20
7.917713
 42
-0.065448
  0
VERTEX
  8
1
 10
7.072747
 20
8.062686
 42
-0.065448
  0
VERTEX
  8
1
 10
7.217720
 20
8.173928
 42
-0.065448
  0
VERTEX
  8
1
 10
7.386545
 20
8.243858
 42
-0.065448
  0
VERTEX
  8
1
 10
7.567717
 20
8.267710
 42
-0.065448
  0
VERTEX
  8
1
 10
7.748888
 20
8.243858
 42
-0.065448
  0
VERTEX
  8
1
 10
7.917713
 20
8.173928
 42
-0.065448
  0
VERTEX
  8
1
 10
8.062686
 20
8.062686
 42
-0.065448
  0
VERTEX
  8
1
 10
8.173928
 20
7.917713
 42
-0.065448
  0
VERTEX
  8
1
 10
8.243858
 20
7.748888
 42
-0.065448
  0
VERTEX
  8
1
 10
8.267710
 20
7.567717
 42
-0.065448
  0
VERTEX
  8
1
 10
8.243858
 20
7.386545
 42
-0.065448
  0
VERTEX
  8
1
 10
8.173928
 20
7.217720
 42
-0.065445
  0
VERTEX
  8
1
 10
8.062687
 20
7.072746
 42
-0.065458
  0
VERTEX
  8
1
 10
7.917714
 20
6.961504
 42
-0.065436
  0
VERTEX
  8
1
 10
7.748886
 20
6.891580
 42
-0.065448
  0
SEQEND
  0
POLYLINE
  8
1
 66
1
 70
1
  0
VERTEX
  8
1
 10
9.221653
 20
6.867719
 42
-0.065459
  0
VERTEX
  8
1
 10
9.040483
 20
6.891576
 42
-0.065439
  0
VERTEX
  8
1
 10
8.871657
 20
6.961505
 42
-0.065452
  0
VERTEX
  8
1
 10
8.726684
 20
7.072747
 42
-0.065447
  0
VERTEX
  8
1
 10
8.615442
 20
7.217720
 42
-0.065448
  0
VERTEX
  8
1
 10
8.545512
 20
7.386545
 42
-0.065448
  0
VERTEX
  8
1
 10
8.521660
 20
7.567717
 42
-0.065448
  0
VERTEX
  8
1
 10
8.545512
 20
7.748888
 42
-0.065448
  0
VERTEX
  8
1
 10
8.615442
 20
7.917713
 42
-0.065448
  0
VERTEX
  8
1
 10
8.726684
 20
8.062686
 42
-0.065448
  0
VERTEX
  8
1
 10
8.871657
 20
8.173928
 42
-0.065448
  0
VERTEX
  8
1
 10
9.040482
 20
8.243858
 42
-0.065448
  0
VERTEX
  8
1
 10
9.221654
 20
8.267710
 42
-0.065448
  0
VERTEX
  8
1
 10
9.402825
 20
8.243858
 42
-0.065448
  0
VERTEX
  8
1
 10
9.571650
 20
8.173928
 42
-0.065448
  0
VERTEX
  8
1
 10
9.716623
 20
8.062686
 42
-0.065448
  0
VERTEX
  8
1
 10
9.827865
 20
7.917713
 42
-0.065448
  0
VERTEX
  8
1
 10
9.897795
 20
7.748888
 42
-0.065448
  0
VERTEX
  8
1
 10
9.921647
 20
7.567717
 42
-0.065448
  0
VERTEX
  8
1
 10
9.897795
 20
7.386545
 42
-0.065448
  0
VERTEX
  8
1
 10
9.827865
 20
7.217720
 42
-0.065445
  0
VERTEX
  8
1
 10
9.716624
 20
7.072746
 42
-0.065458
  0
VERTEX
  8
1
 10
9.571651
 20
6.961504
 42
-0.065436
  0
VERTEX
  8
1
 10
9.402823
 20
6.891580
 42
-0.065448
  0
SEQEND
  0
POLYLINE
  8
1
 66
1
 70
1
  0
VERTEX
  8
1
 10
10.875590
 20
6.867719
 42
-0.065459
  0
VERTEX
  8
1
 10
10.694420
 20
6.891576
 42
-0.065439
  0
VERTEX
  8
1
 10
10.525594
 20
6.961505
 42
-0.065452
  0
VERTEX
  8
1
 10
10.380621
 20
7.072747
 42
-0.065447
  0
VERTEX
  8
1
 10
10.269379
 20
7.217720
 42
-0.065448
  0
VERTEX
  8
1
 10
10.199449
 20
7.386545
 42
-0.065448
  0
VERTEX
  8
1
 10
10.175597
 20
7.567717
 42
-0.065448
  0
VERTEX
  8
1
 10
10.199449
 20
7.748888
 42
-0.065448
  0
VERTEX
  8
1
 10
10.269379
 20
7.917713
 42
-0.065448
  0
VERTEX
  8
1
 10
10.380621
 20
8.062686
 42
-0.065448
  0
VERTEX
  8
1
 10
10.525594
 20
8.173928
 42
-0.065448
  0
VERTEX
  8
1
 10
10.694419
 20
8.243858
 42
-0.065448
  0
VERTEX
  8
1
 10
10.875591
 20
8.267710
 42
-0.065448
  0
VERTEX
  8
1
 10
11.056762
 20
8.243858
 42
-0.065448
  0
VERTEX
  8
1
 10
11.225587
 20
8.173928
 42
-0.065448
  0
VERTEX
  8
1
 10
11.370560
 20
8.062686
 42
-0.065448
  0
VERTEX
  8
1
 10
11.481802
 20
7.917713
 42
-0.065448
  0
VERTEX
  8
1
 10
11.551732
 20
7.748888
 42
-0.065448
  0
VERTEX
  8
1
 10
11.575584
 20
7.567717
 42
-0.065448
  0
VERTEX
  8
1
 10
11.551732
 20
7.386545
 42
-0.065448
  0
VERTEX
  8
1
 10
11.481802
 20
7.217720
 42
-0.065445
  0
VERTEX
  8
1
 10
11.370561
 20
7.072746
 42
-0.065458
  0
VERTEX
  8
1
 10
11.225588
 20
6.961504
 42
-0.065436
  0
VERTEX
  8
1
 10
11.056761
 20
6.891580
 42
-0.065448
  0
SEQEND
  0
POLYLINE
  8
1
 66
1
 70
1
  0
VERTEX
  8
1
 10
0.951968
 20
8.521656
 42
-0.065459
  0
VERTEX
  8
1
 10
0.770798
 20
8.545513
 42
-0.065439
  0
VERTEX
  8
1
 10
0.601972
 20
8.615442
 42
-0.065452
  0
VERTEX
  8
1
 10
0.456999
 20
8.726684
 42
-0.065447
  0
VERTEX
  8
1
 10
0.345757
 20
8.871657
 42
-0.065448
  0
VERTEX
  8
1
 10
0.275827
 20
9.040482
 42
-0.065448
  0
VERTEX
  8
1
 10
0.251975
 20
9.221654
 42
-0.065448
  0
VERTEX
  8
1
 10
0.275827
 20
9.402825
 42
-0.065448
  0
VERTEX
  8
1
 10
0.345757
 20
9.571650
 42
-0.065448
  0
VERTEX
  8
1
 10
0.456999
 20
9.716623
 42
-0.065448
  0
VERTEX
  8
1
 10
0.601972
 20
9.827865
 42
-0.065448
  0
VERTEX
  8
1
 10
0.770797
 20
9.897795
 42
-0.065448
  0
VERTEX
  8
1
 10
0.951969
 20
9.921647
 42
-0.065448
  0
VERTEX
  8
1
 10
1.133140
 20
9.897795
 42
-0.065448
  0
VERTEX
  8
1
 10
1.301965
 20
9.827865
 42
-0.065448
  0
VERTEX
  8
1
 10
1.446938
 20
9.716623
 42
-0.065448
  0
VERTEX
  8
1
 10
1.558180
 20
9.571650
 42
-0.065448
  0
VERTEX
  8
1
 10
1.628110
 20
9.402825
 42
-0.065448
  0
VERTEX
  8
1
 10
1.651962
 20
9.221654
 42
-0.065448
  0
VERTEX
  8
1
 10
1.628110
 20
9.040482
 42
-0.065448
  0
VERTEX
  8
1
 10
1.558180
 20
8.871657
 42
-0.065445
  0
VERTEX
  8
1
 10
1.446939
 20
8.726683
 42
-0.065458
  0
VERTEX
  8
1
 10
1.301966
 20
8.615441
 42
-0.065436
  0
VERTEX
  8
1
 10
1.133138
 20
8.545517
 42
-0.065448
  0
SEQEND
  0
POLYLINE
  8
1
 66
1
 70
1
  0
VERTEX
  8
1
 10
2.605905
 20
8.521656
 42
-0.065459
  0
VERTEX
  8
1
 10
2.424735
 20
8.545513
 42
-0.065439
  0
VERTEX
  8
1
 10
2.255909
 20
8.615442
 42
-0.065452
  0
VERTEX
  8
1
 10
2.110936
 20
8.726684
 42
-0.065447
  0
VERTEX
  8
1
 10
1.999694
 20
8.871657
 42
-0.065448
  0
VERTEX
  8
1
 10
1.929764
 20
9.040482
 42
-0.065448
  0
VERTEX
  8
1
 10
1.905912
 20
9.221654
 42
-0.065448
  0
VERTEX
  8
1
 10
1.929764
 20
9.402825
 42
-0.065448
  0
VERTEX
  8
1
 10
1.999694
 20
9.571650
 42
-0.065448
  0
VERTEX
  8
1
 10
2.110936
 20
9.716623
 42
-0.065448
  0
VERTEX
  8
1
 10
2.255909
 20
9.827865
 42
-0.065448
  0
VERTEX
  8
1
 10
2.424734
 20
9.897795
 42
-0.065448
  0
VERTEX
  8
1
 10
2.605906
 20
9.921647
 42
-0.065448
  0
VERTEX
  8
1
 10
2.787077
 20
9.897795
 42
-0.065448
  0
VERTEX
  8
1
 10
2.955902
 20
9.827865
 42
-0.065448
  0
VERTEX
  8
1
 10
3.100875
 20
9.716623
 42
-0.065448
  0
VERTEX
  8
1
 10
3.212117
 20
9.571650
 42
-0.065448
  0
VERTEX
  8
1
 10
3.282047
 20
9.402825
 42
-0.065448
  0
VERTEX
  8
1
 10
3.305899
 20
9.221654
 42
-0.065448
  0
VERTEX
  8
1
 10
3.282047
 20
9.040482
 42
-0.065448
  0
VERTEX
  8
1
 10
3.212117
 20
8.871657
 42
-0.065445
  0
VERTEX
  8
1
 10
3.100876
 20
8.726683
 42
-0.065458
  0
VERTEX
  8
1
 10
2.955903
 20
8.615441
 42
-0.065436
  0
VERTEX
  8
1
 10
2.787075
 20
8.545517
 42
-0.065448
  0
SEQEND
  0
POLYLINE
  8
1
 66
1
 70
1
  0
VERTEX
  8
1
 10
4.259842
 20
8.521656
 42
-0.065459
  0
VERTEX
  8
1
 10
4.078672
 20
8.545513
 42
-0.065439
  0
VERTEX
  8
1
 10
3.909846
 20
8.615442
 42
-0.065452
  0
VERTEX
  8
1
 10
3.764873
 20
8.726684
 42
-0.065447
  0
VERTEX
  8
1
 10
3.653631
 20
8.871657
 42
-0.065448
  0
VERTEX
  8
1
 10
3.583701
 20
9.040482
 42
-0.065448
  0
VERTEX
  8
1
 10
3.559849
 20
9.221654
 42
-0.065448
  0
VERTEX
  8
1
 10
3.583701
 20
9.402825
 42
-0.065448
  0
VERTEX
  8
1
 10
3.653631
 20
9.571650
 42
-0.065448
  0
VERTEX
  8
1
 10
3.764873
 20
9.716623
 42
-0.065448
  0
VERTEX
  8
1
 10
3.909846
 20
9.827865
 42
-0.065448
  0
VERTEX
  8
1
 10
4.078671
 20
9.897795
 42
-0.065448
  0
VERTEX
  8
1
 10
4.259843
 20
9.921647
 42
-0.065448
  0
VERTEX
  8
1
 10
4.441014
 20
9.897795
 42
-0.065448
  0
VERTEX
  8
1
 10
4.609839
 20
9.827865
 42
-0.065448
  0
VERTEX
  8
1
 10
4.754812
 20
9.716623
 42
-0.065448
  0
VERTEX
  8
1
 10
4.866054
 20
9.571650
 42
-0.065448
  0
VERTEX
  8
1
 10
4.935984
 20
9.402825
 42
-0.065448
  0
VERTEX
  8
1
 10
4.959836
 20
9.221654
 42
-0.065448
  0
VERTEX
  8
1
 10
4.935984
 20
9.040482
 42
-0.065448
  0
VERTEX
  8
1
 10
4.866054
 20
8.871657
 42
-0.065445
  0
VERTEX
  8
1
 10
4.754813
 20
8.726683
 42
-0.065458
  0
VERTEX
  8
1
 10
4.609840
 20
8.615441
 42
-0.065436
  0
VERTEX
  8
1
 10
4.441012
 20
8.545517
 42
-0.065448
  0
SEQEND
  0
POLYLINE
  8
1
 66
1
 70
1
  0
VERTEX
  8
1
 10
5.913779
 20
8.521656
 42
-0.065459
  0
VERTEX
  8
1
 10
5.732609
 20
8.545513
 42
-0.065439
  0
VERTEX
  8
1
 10
5.563783
 20
8.615442
 42
-0.065452
  0
VERTEX
  8
1
 10
5.418810
 20
8.726684
 42
-0.065447
  0
VERTEX
  8
1
 10
5.307568
 20
8.871657
 42
-0.065448
  0
VERTEX
  8
1
 10
5.237638
 20
9.040482
 42
-0.065448
  0
VERTEX
  8
1
 10
5.213786
 20
9.221654
 42
-0.065448
  0
VERTEX
  8
1
 10
5.237638
 20
9.402825
 42
-0.065448
  0
VERTEX
  8
1
 10
5.307568
 20
9.571650
 42
-0.065448
  0
VERTEX
  8
1
 10
5.418810
 20
9.716623
 42
-0.065448
  0
VERTEX
  8
1
 10
5.563783
 20
9.827865
 42
-0.065448
  0
VERTEX
  8
1
 10
5.732608
 20
9.897795
 42
-0.065448
  0
VERTEX
  8
1
 10
5.913780
 20
9.921647
 42
-0.065448
  0
VERTEX
  8
1
 10
6.094951
 20
9.897795
 42
-0.065448
  0
VERTEX
  8
1
 10
6.263776
 20
9.827865
 42
-0.065448
  0
VERTEX
  8
1
 10
6.408749
 20
9.716623
 42
-0.065448
  0
VERTEX
  8
1
 10
6.519991
 20
9.571650
 42
-0.065448
  0
VERTEX
  8
1
 10
6.589921
 20
9.402825
 42
-0.065448
  0
VERTEX
  8
1
 10
6.613773
 20
9.221654
 42
-0.065448
  0
VERTEX
  8
1
 10
6.589921
 20
9.040482
 42
-0.065448
  0
VERTEX
  8
1
 10
6.519991
 20
8.871657
 42
-0.065445
  0
VERTEX
  8
1
 10
6.408750
 20
8.726683
 42
-0.065458
  0
VERTEX
  8
1
 10
6.263777
 20
8.615441
 42
-0.065436
  0
VERTEX
  8
1
 10
6.094949
 20
8.545517
 42
-0.065448
  0
SEQEND
  0
POLYLINE
  8
1
 66
1
 70
1
  0
VERTEX
  8
1
 10
7.567716
 20
8.521656
 42
-0.065459
  0
VERTEX
  8
1
 10
7.386546
 20
8.545513
 42
-0.065439
  0
VERTEX
  8
1
 10
7.217720
 20
8.615442
 42
-0.065452
  0
VERTEX
  8
1
 10
7.072747
 20
8.726684
 42
-0.065447
  0
VERTEX
  8
1
 10
6.961505
 20
8.871657
 42
-0.065448
  0
VERTEX
  8
1
 10
6.891575
 20
9.040482
 42
-0.065448
  0
VERTEX
  8
1
 10
6.867723
 20
9.221654
 42
-0.065448
  0
VERTEX
  8
1
 10
6.891575
 20
9.402825
 42
-0.065448
  0
VERTEX
  8
1
 10
6.961505
 20
9.571650
 42
-0.065448
  0
VERTEX
  8
1
 10
7.072747
 20
9.716623
 42
-0.065448
  0
VERTEX
  8
1
 10
7.217720
 20
9.827865
 42
-0.065448
  0
VERTEX
  8
1
 10
7.386545
 20
9.897795
 42
-0.065448
  0
VERTEX
  8
1
 10
7.567717
 20
9.921647
 42
-0.065448
  0
VERTEX
  8
1
 10
7.748888
 20
9.897795
 42
-0.065448
  0
VERTEX
  8
1
 10
7.917713
 20
9.827865
 42
-0.065448
  0
VERTEX
  8
1
 10
8.062686
 20
9.716623
 42
-0.065448
  0
VERTEX
  8
1
 10
8.173928
 20
9.571650
 42
-0.065448
  0
VERTEX
  8
1
 10
8.243858
 20
9.402825
 42
-0.065448
  0
VERTEX
  8
1
 10
8.267710
 20
9.221654
 42
-0.065448
  0
VERTEX
  8
1
 10
8.243858
 20
9.040482
 42
-0.065448
  0
VERTEX
  8
1
 10
8.173928
 20
8.871657
 42
-0.065445
  0
VERTEX
  8
1
 10
8.062687
 20
8.726683
 42
-0.065458
  0
VERTEX
  8
1
 10
7.917714
 20
8.615441
 42
-0.065436
  0
VERTEX
  8
1
 10
7.748886
 20
8.545517
 42
-0.065448
  0
SEQEND
  0
POLYLINE
  8
1
 66
1
 70
1
  0
VERTEX
  8
1
 10
9.221653
 20
8.521656
 42
-0.065459
  0
VERTEX
  8
1
 10
9.040483
 20
8.545513
 42
-0.065439
  0
VERTEX
  8
1
 10
8.871657
 20
8.615442
 42
-0.065452
  0
VERTEX
  8
1
 10
8.726684
 20
8.726684
 42
-0.065447
  0
VERTEX
  8
1
 10
8.615442
 20
8.871657
 42
-0.065448
  0
VERTEX
  8
1
 10
8.545512
 20
9.040482
 42
-0.065448
  0
VERTEX
  8
1
 10
8.521660
 20
9.221654
 42
-0.065448
  0
VERTEX
  8
1
 10
8.545512
 20
9.402825
 42
-0.065448
  0
VERTEX
  8
1
 10
8.615442
 20
9.571650
 42
-0.065448
  0
VERTEX
  8
1
 10
8.726684
 20
9.716623
 42
-0.065448
  0
VERTEX
  8
1
 10
8.871657
 20
9.827865
 42
-0.065448
  0
VERTEX
  8
1
 10
9.040482
 20
9.897795
 42
-0.065448
  0
VERTEX
  8
1
 10
9.221654
 20
9.921647
 42
-0.065448
  0
VERTEX
  8
1
 10
9.402825
 20
9.897795
 42
-0.065448
  0
VERTEX
  8
1
 10
9.571650
 20
9.827865
 42
-0.065448
  0
VERTEX
  8
1
 10
9.716623
 20
9.716623
 42
-0.065448
  0
VERTEX
  8
1
 10
9.827865
 20
9.571650
 42
-0.065448
  0
VERTEX
  8
1
 10
9.897795
 20
9.402825
 42
-0.065448
  0
VERTEX
  8
1
 10
9.921647
 20
9.221654
 42
-0.065448
  0
VERTEX
  8
1
 10
9.897795
 20
9.040482
 42
-0.065448
  0
VERTEX
  8
1
 10
9.827865
 20
8.871657
 42
-0.065445
  0
VERTEX
  8
1
 10
9.716624
 20
8.726683
 42
-0.065458
  0
VERTEX
  8
1
 10
9.571651
 20
8.615441
 42
-0.065436
  0
VERTEX
  8
1
 10
9.402823
 20
8.545517
 42
-0.065448
  0
SEQEND
  0
POLYLINE
  8
1
 66
1
 70
1
  0
VERTEX
  8
1
 10
10.875590
 20
8.521656
 42
-0.065459
  0
VERTEX
  8
1
 10
10.694420
 20
8.545513
 42
-0.065439
  0
VERTEX
  8
1
 10
10.525594
 20
8.615442
 42
-0.065452
  0
VERTEX
  8
1
 10
10.380621
 20
8.726684
 42
-0.065447
  0
VERTEX
  8
1
 10
10.269379
 20
8.871657
 42
-0.065448
  0
VERTEX
  8
1
 10
10.199449
 20
9.040482
 42
-0.065448
  0
VERTEX
  8
1
 10
10.175597
 20
9.221654
 42
-0.065448
  0
VERTEX
  8
1
 10
10.199449
 20
9.402825
 42
-0.065448
  0
VERTEX
  8
1
 10
10.269379
 20
9.571650
 42
-0.065448
  0
VERTEX
  8
1
 10
10.380621
 20
9.716623
 42
-0.065448
  0
VERTEX
  8
1
 10
10.525594
 20
9.827865
 42
-0.065448
  0
VERTEX
  8
1
 10
10.694419
 20
9.897795
 42
-0.065448
  0
VERTEX
  8
1
 10
10.875591
 20
9.921647
 42
-0.065448
  0
VERTEX
  8
1
 10
11.056762
 20
9.897795
 42
-0.065448
  0
VERTEX
  8
1
 10
11.225587
 20
9.827865
 42
-0.065448
  0
VERTEX
  8
1
 10
11.370560
 20
9.716623
 42
-0.065448
  0
VERTEX
  8
1
 10
11.481802
 20
9.571650
 42
-0.065448
  0
VERTEX
  8
1
 10
11.551732
 20
9.402825
 42
-0.065448
  0
VERTEX
  8
1
 10
11.575584
 20
9.221654
 42
-0.065448
  0
VERTEX
  8
1
 10
11.551732
 20
9.040482
 42
-0.065448
  0
VERTEX
  8
1
 10
11.481802
 20
8.871657
 42
-0.065445
  0
VERTEX
  8
1
 10
11.370561
 20
8.726683
 42
-0.065458
  0
VERTEX
  8
1
 10
11.225588
 20
8.615441
 42
-0.065436
  0
VERTEX
  8
1
 10
11.056761
 20
8.545517
 42
-0.065448
  0
SEQEND
  0
POLYLINE
  8
1
 66
1
 70
1
  0
VERTEX
  8
1
 10
0.951968
 20
10.175593
 42
-0.065459
  0
VERTEX
  8
1
 10
0.770798
 20
10.199450
 42
-0.065439
  0
VERTEX
  8
1
 10
0.601972
 20
10.269379
 42
-0.065452
  0
VERTEX
  8
1
 10
0.456999
 20
10.380621
 42
-0.065447
  0
VERTEX
  8
1
 10
0.345757
 20
10.525594
 42
-0.065448
  0
VERTEX
  8
1
 10
0.275827
 20
10.694419
 42
-0.065448
  0
VERTEX
  8
1
 10
0.251975
 20
10.875591
 42
-0.065448
  0
VERTEX
  8
1
 10
0.275827
 20
11.056762
 42
-0.065448
  0
VERTEX
  8
1
 10
0.345757
 20
11.225587
 42
-0.065448
  0
VERTEX
  8
1
 10
0.456999
 20
11.370560
 42
-0.065448
  0
VERTEX
  8
1
 10
0.601972
 20
11.481802
 42
-0.065448
  0
VERTEX
  8
1
 10
0.770797
 20
11.551732
 42
-0.065448
  0
VERTEX
  8
1
 10
0.951969
 20
11.575584
 42
-0.065448
  0
VERTEX
  8
1
 10
1.133140
 20
11.551732
 42
-0.065448
  0
VERTEX
  8
1
 10
1.301965
 20
11.481802
 42
-0.065448
  0
VERTEX
  8
1
 10
1.446938
 20
11.370560
 42
-0.065448
  0
VERTEX
  8
1
 10
1.558180
 20
11.225587
 42
-0.065448
  0
VERTEX
  8
1
 10
1.628110
 20
11.056762
 42
-0.065448
  0
VERTEX
  8
1
 10
1.651962
 20
10.875591
 42
-0.065448
  0
VERTEX
  8
1
 10
1.628110
 20
10.694419
 42
-0.065448
  0
VERTEX
  8
1
 10
1.558180
 20
10.525594
 42
-0.065445
  0
VERTEX
  8
1
 10
1.446939
 20
10.380620
 42
-0.065458
  0
VERTEX
  8
1
 10
1.301966
 20
10.269378
 42
-0.065436
  0
VERTEX
  8
1
 10
1.133138
 20
10.199454
 42
-0.065448
  0
SEQEND
  0
POLYLINE
  8
1
 66
1
 70
1
  0
VERTEX
  8
1
 10
2.605905
 20
10.175593
 42
-0.065459
  0
VERTEX
  8
1
 10
2.424735
 20
10.199450
 42
-0.065439
  0
VERTEX
  8
1
 10
2.255909
 20
10.269379
 42
-0.065452
  0
VERTEX
  8
1
 10
2.110936
 20
10.380621
 42
-0.065447
  0
VERTEX
  8
1
 10
1.999694
 20
10.525594
 42
-0.065448
  0
VERTEX
  8
1
 10
1.929764
 20
10.694419
 42
-0.065448
  0
VERTEX
  8
1
 10
1.905912
 20
10.875591
 42
-0.065448
  0
VERTEX
  8
1
 10
1.929764
 20
11.056762
 42
-0.065448
  0
VERTEX
  8
1
 10
1.999694
 20
11.225587
 42
-0.065448
  0
VERTEX
  8
1
 10
2.110936
 20
11.370560
 42
-0.065448
  0
VERTEX
  8
1
 10
2.255909
 20
11.481802
 42
-0.065448
  0
VERTEX
  8
1
 10
2.424734
 20
11.551732
 42
-0.065448
  0
VERTEX
  8
1
 10
2.605906
 20
11.575584
 42
-0.065448
  0
VERTEX
  8
1
 10
2.787077
 20
11.551732
 42
-0.065448
  0
VERTEX
  8
1
 10
2.955902
 20
11.481802
 42
-0.065448
  0
VERTEX
  8
1
 10
3.100875
 20
11.370560
 42
-0.065448
  0
VERTEX
  8
1
 10
3.212117
 20
11.225587
 42
-0.065448
  0
VERTEX
  8
1
 10
3.282047
 20
11.056762
 42
-0.065448
  0
VERTEX
  8
1
 10
3.305899
 20
10.875591
 42
-0.065448
  0
VERTEX
  8
1
 10
3.282047
 20
10.694419
 42
-0.065448
  0
VERTEX
  8
1
 10
3.212117
 20
10.525594
 42
-0.065445
  0
VERTEX
  8
1
 10
3.100876
 20
10.380620
 42
-0.065458
  0
VERTEX
  8
1
 10
2.955903
 20
10.269378
 42
-0.065436
  0
VERTEX
  8
1
 10
2.787075
 20
10.199454
 42
-0.065448
  0
SEQEND
  0
POLYLINE
  8
1
 66
1
 70
1
  0
VERTEX
  8
1
 10
4.259842
 20
10.175593
 42
-0.065459
  0
VERTEX
  8
1
 10
4.078672
 20
10.199450
 42
-0.065439
  0
VERTEX
  8
1
 10
3.909846
 20
10.269379
 42
-0.065452
  0
VERTEX
  8
1
 10
3.764873
 20
10.380621
 42
-0.065447
  0
VERTEX
  8
1
 10
3.653631
 20
10.525594
 42
-0.065448
  0
VERTEX
  8
1
 10
3.583701
 20
10.694419
 42
-0.065448
  0
VERTEX
  8
1
 10
3.559849
 20
10.875591
 42
-0.065448
  0
VERTEX
  8
1
 10
3.583701
 20
11.056762
 42
-0.065448
  0
VERTEX
  8
1
 10
3.653631
 20
11.225587
 42
-0.065448
  0
VERTEX
  8
1
 10
3.764873
 20
11.370560
 42
-0.065448
  0
VERTEX
  8
1
 10
3.909846
 20
11.481802
 42
-0.065448
  0
VERTEX
  8
1
 10
4.078671
 20
11.551732
 42
-0.065448
  0
VERTEX
  8
1
 10
4.259843
 20
11.575584
 42
-0.065448
  0
VERTEX
  8
1
 10
4.441014
 20
11.551732
 42
-0.065448
  0
VERTEX
  8
1
 10
4.609839
 20
11.481802
 42
-0.065448
  0
VERTEX
  8
1
 10
4.754812
 20
11.370560
 42
-0.065448
  0
VERTEX
  8
1
 10
4.866054
 20
11.225587
 42
-0.065448
  0
VERTEX
  8
1
 10
4.935984
 20
11.056762
 42
-0.065448
  0
VERTEX
  8
1
 10
4.959836
 20
10.875591
 42
-0.065448
  0
VERTEX
  8
1
 10
4.935984
 20
10.694419
 42
-0.065448
  0
VERTEX
  8
1
 10
4.866054
 20
10.525594
 42
-0.065445
  0
VERTEX
  8
1
 10
4.754813
 20
10.380620
 42
-0.065458
  0
VERTEX
  8
1
 10
4.609840
 20
10.269378
 42
-0.065436
  0
VERTEX
  8
1
 10
4.441012
 20
10.199454
 42
-0.065448
  0
SEQEND
  0
POLYLINE
  8
1
 66
1
 70
1
  0
VERTEX
  8
1
 10
5.913779
 20
10.175593
 42
-0.065459
  0
VERTEX
  8
1
 10
5.732609
 20
10.199450
 42
-0.065439
  0
VERTEX
  8
1
 10
5.563783
 20
10.269379
 42
-0.065452
  0
VERTEX
  8
1
 10
5.418810
 20
10.380621
 42
-0.065447
  0
VERTEX
  8
1
 10
5.307568
 20
10.525594
 42
-0.065448
  0
VERTEX
  8
1
 10
5.237638
 20
10.694419
 42
-0.065448
  0
VERTEX
  8
1
 10
5.213786
 20
10.875591
 42
-0.065448
  0
VERTEX
  8
1
 10
5.237638
 20
11.056762
 42
-0.065448
  0
VERTEX
  8
1
 10
5.307568
 20
11.225587
 42
-0.065448
  0
VERTEX
  8
1
 10
5.418810
 20
11.370560
 42
-0.065448
  0
VERTEX
  8
1
 10
5.563783
 20
11.481802
 42
-0.065448
  0
VERTEX
  8
1
 10
5.732608
 20
11.551732
 42
-0.065448
  0
VERTEX
  8
1
 10
5.913780
 20
11.575584
 42
-0.065448
  0
VERTEX
  8
1
 10
6.094951
 20
11.551732
 42
-0.065448
  0
VERTEX
  8
1
 10
6.263776
 20
11.481802
 42
-0.065448
  0
VERTEX
  8
1
 10
6.408749
 20
11.370560
 42
-0.065448
  0
VERTEX
  8
1
 10
6.519991
 20
11.225587
 42
-0.065448
  0
VERTEX
  8
1
 10
6.589921
 20
11.056762
 42
-0.065448
  0
VERTEX
  8
1
 10
6.613773
 20
10.875591
 42
-0.065448
  0
VERTEX
  8
1
 10
6.589921
 20
10.694419
 42
-0.065448
  0
VERTEX
  8
1
 10
6.519991
 20
10.525594
 42
-0.065445
  0
VERTEX
  8
1
 10
6.408750
 20
10.380620
 42
-0.065458
  0
VERTEX
  8
1
 10
6.263777
 20
10.269378
 42
-0.065436
  0
VERTEX
  8
1
 10
6.094949
 20
10.199454
 42
-0.065448
  0
SEQEND
  0
POLYLINE
  8
1
 66
1
 70
1
  0
VERTEX
  8
1
 10
7.567716
 20
10.175593
 42
-0.065459
  0
VERTEX
  8
1
 10
7.386546
 20
10.199450
 42
-0.065439
  0
VERTEX
  8
1
 10
7.217720
 20
10.269379
 42
-0.065452
  0
VERTEX
  8
1
 10
7.072747
 20
10.380621
 42
-0.065447
  0
VERTEX
  8
1
 10
6.961505
 20
10.525594
 42
-0.065448
  0
VERTEX
  8
1
 10
6.891575
 20
10.694419
 42
-0.065448
  0
VERTEX
  8
1
 10
6.867723
 20
10.875591
 42
-0.065448
  0
VERTEX
  8
1
 10
6.891575
 20
11.056762
 42
-0.065448
  0
VERTEX
  8
1
 10
6.961505
 20
11.225587
 42
-0.065448
  0
VERTEX
  8
1
 10
7.072747
 20
11.370560
 42
-0.065448
  0
VERTEX
  8
1
 10
7.217720
 20
11.481802
 42
-0.065448
  0
VERTEX
  8
1
 10
7.386545
 20
11.551732
 42
-0.065448
  0
VERTEX
  8
1
 10
7.567717
 20
11.575584
 42
-0.065448
  0
VERTEX
  8
1
 10
7.748888
 20
11.551732
 42
-0.065448
  0
VERTEX
  8
1
 10
7.917713
 20
11.481802
 42
-0.065448
  0
VERTEX
  8
1
 10
8.062686
 20
11.370560
 42
-0.065448
  0
VERTEX
  8
1
 10
8.173928
 20
11.225587
 42
-0.065448
  0
VERTEX
  8
1
 10
8.243858
 20
11.056762
 42
-0.065448
  0
VERTEX
  8
1
 10
8.267710
 20
10.875591
 42
-0.065448
  0
VERTEX
  8
1
 10
8.243858
 20
10.694419
 42
-0.065448
  0
VERTEX
  8
1
 10
8.173928
 20
10.525594
 42
-0.065445
  0
VERTEX
  8
1
 10
8.062687
 20
10.380620
 42
-0.065458
  0
VERTEX
  8
1
 10
7.917714
 20
10.269378
 42
-0.065436
  0
VERTEX
  8
1
 10
7.748886
 20
10.199454
 42
-0.065448
  0
SEQEND
  0
POLYLINE
  8
1
 66
1
 70
1
  0
VERTEX
  8
1
 10
9.221653
 20
10.175593
 42
-0.065459
  0
VERTEX
  8
1
 10
9.040483
 20
10.199450
 42
-0.065439
  0
VERTEX
  8
1
 10
8.871657
 20
10.269379
 42
-0.065452
  0
VERTEX
  8
1
 10
8.726684
 20
10.380621
 42
-0.065447
  0
VERTEX
  8
1
 10
8.615442
 20
10.525594
 42
-0.065448
  0
VERTEX
  8
1
 10
8.545512
 20
10.694419
 42
-0.065448
  0
VERTEX
  8
1
 10
8.521660
 20
10.875591
 42
-0.065448
  0
VERTEX
  8
1
 10
8.545512
 20
11.056762
 42
-0.065448
  0
VERTEX
  8
1
 10
8.615442
 20
11.225587
 42
-0.065448
  0
VERTEX
  8
1
 10
8.726684
 20
11.370560
 42
-0.065448
  0
VERTEX
  8
1
 10
8.871657
 20
11.481802
 42
-0.065448
  0
VERTEX
  8
1
 10
9.040482
 20
11.551732
 42
-0.065448
  0
VERTEX
  8
1
 10
9.221654
 20
11.575584
 42
-0.065448
  0
VERTEX
  8
1
 10
9.402825
 20
11.551732
 42
-0.065448
  0
VERTEX
  8
1
 10
9.571650
 20
11.481802
 42
-0.065448
  0
VERTEX
  8
1
 10
9.716623
 20
11.370560
 42
-0.065448
  0
VERTEX
  8
1
 10
9.827865
 20
11.225587
 42
-0.065448
  0
VERTEX
  8
1
 10
9.897795
 20
11.056762
 42
-0.065448
  0
VERTEX
  8
1
 10
9.921647
 20
10.875591
 42
-0.065448
  0
VERTEX
  8
1
 10
9.897795
 20
10.694419
 42
-0.065448
  0
VERTEX
  8
1
 10
9.827865
 20
10.525594
 42
-0.065445
  0
VERTEX
  8
1
 10
9.716624
 20
10.380620
 42
-0.065458
  0
VERTEX
  8
1
 10
9.571651
 20
10.269378
 42
-0.065436
  0
VERTEX
  8
1
 10
9.402823
 20
10.199454
 42
-0.065448
  0
SEQEND
  0
POLYLINE
  8
1
 66
1
 70
1
  0
VERTEX
  8
1
 10
10.875590
 20
10.175593
 42
-0.065459
  0
VERTEX
  8
1
 10
10.694420
 20
10.199450
 42
-0.065439
  0
VERTEX
  8
1
 10
10.525594
 20
10.269379
 42
-0.065452
  0
VERTEX
  8
1
 10
10.380621
 20
10.380621
 42
-0.065447
  0
VERTEX
  8
1
 10
10.269379
 20
10.525594
 42
-0.065448
  0
VERTEX
  8
1
 10
10.199449
 20
10.694419
 42
-0.065448
  0
VERTEX
  8
1
 10
10.175597
 20
10.875591
 42
-0.065448
  0
VERTEX
  8
1
 10
10.199449
 20
11.056762
 42
-0.065448
  0
VERTEX
  8
1
 10
10.269379
 20
11.225587
 42
-0.065448
  0
VERTEX
  8
1
 10
10.380621
 20
11.370560
 42
-0.065448
  0
VERTEX
  8
1
 10
10.525594
 20
11.481802
 42
-0.065448
  0
VERTEX
  8
1
 10
10.694419
 20
11.551732
 42
-0.065448
  0
VERTEX
  8
1
 10
10.875591
 20
11.575584
 42
-0.065448
  0
VERTEX
  8
1
 10
11.056762
 20
11.551732
 42
-0.065448
  0
VERTEX
  8
1
 10
11.225587
 20
11.481802
 42
-0.065448
  0
VERTEX
  8
1
 10
11.370560
 20
11.370560
 42
-0.065448
  0
VERTEX
  8
1
 10
11.481802
 20
11.225587
 42
-0.065448
  0
VERTEX
  8
1
 10
11.551732
 20
11.056762
 42
-0.065448
  0
VERTEX
  8
1
 10
11.575584
 20
10.875591
 42
-0.065448
  0
VERTEX
  8
1
 10
11.551732
 20
10.694419
 42
-0.065448
  0
VERTEX
  8
1
 10
11.481802
 20
10.525594
 42
-0.065445
  0
VERTEX
  8
1
 10
11.370561
 20
10.380620
 42
-0.065458
  0
VERTEX
  8
1
 10
11.225588
 20
10.269378
 42
-0.065436
  0
VERTEX
  8
1
 10
11.056761
 20
10.199454
 42
-0.065448
  0
SEQEND
  0
ENDSEC
   0
EOF
