  0
SECTION
  2
HEADER
  9
$ACADVER
  1
AC1014
  9
$HANDSEED
  5
FFFF
  9
$MEASUREMENT
 70
     1
  0
ENDSEC
  0
SECTION
  2
TABLES
  0
TABLE
  2
VPORT
  5
8
330
0
100
AcDbSymbolTable
 70
     4
  0
VPORT
  5
2E
330
8
100
AcDbSymbolTableRecord
100
AcDbViewportTableRecord
  2
*ACTIVE
 70
     0
 10
0.0
 20
0.0
 11
1.0
 21
1.0
 12
210.0
 22
148.5
 13
0.0
 23
0.0
 14
10.0
 24
10.0
 15
10.0
 25
10.0
 16
0.0
 26
0.0
 36
1.0
 17
0.0
 27
0.0
 37
0.0
 40
341.0
 41
1.24
 42
50.0
 43
0.0
 44
0.0
 50
0.0
 51
0.0
 71
     0
 72
   100
 73
     1
 74
     3
 75
     0
 76
     0
 77
     0
 78
     0
  0
ENDTAB
  0
TABLE
  2
LTYPE
  5
5
330
0
100
AcDbSymbolTable
 70
     1
  0
LTYPE
  5
14
330
5
100
AcDbSymbolTableRecord
100
AcDbLinetypeTableRecord
  2
BYBLOCK
 70
     0
  3

 72
    65
 73
     0
 40
0.0
  0
LTYPE
  5
15
330
5
100
AcDbSymbolTableRecord
100
AcDbLinetypeTableRecord
  2
BYLAYER
 70
     0
  3

 72
    65
 73
     0
 40
0.0
  0
LTYPE
  5
16
330
5
100
AcDbSymbolTableRecord
100
AcDbLinetypeTableRecord
  2
CONTINUOUS
 70
     0
  3
Solid line
 72
    65
 73
     0
 40
0.0
  0
ENDTAB
  0
TABLE
  2
LAYER
  5
2
100
AcDbSymbolTable
 70
1
  0
LAYER
  5
50
100
AcDbSymbolTableRecord
100
AcDbLayerTableRecord
  2
0
 70
0
  6
CONTINUOUS
  0
ENDTAB
  0
TABLE
  2
STYLE
  5
3
330
0
100
AcDbSymbolTable
 70
     1
  0
STYLE
  5
11
330
3
100
AcDbSymbolTableRecord
100
AcDbTextStyleTableRecord
  2
STANDARD
 70
     0
 40
0.0
 41
1.0
 50
0.0
 71
     0
 42
2.5
  3
txt
  4

  0
ENDTAB
  0
TABLE
  2
VIEW
  5
6
330
0
100
AcDbSymbolTable
 70
     0
  0
ENDTAB
  0
TABLE
  2
UCS
  5
7
330
0
100
AcDbSymbolTable
 70
     0
  0
ENDTAB
  0
TABLE
  2
APPID
  5
9
330
0
100
AcDbSymbolTable
 70
     2
  0
APPID
  5
12
330
9
100
AcDbSymbolTableRecord
100
AcDbRegAppTableRecord
  2
ACAD
 70
     0
  0
ENDTAB
  0
TABLE
  2
DIMSTYLE
  5
A
330
0
100
AcDbSymbolTable
 70
     1
  0
DIMSTYLE
105
27
330
A
100
AcDbSymbolTableRecord
100
AcDbDimStyleTableRecord
  2
ISO-25
 70
     0
  3

  4

  5

  6

  7

 40
1.0
 41
2.5
 42
0.625
 43
3.75
 44
1.25
 45
0.0
 46
0.0
 47
0.0
 48
0.0
140
2.5
141
2.5
142
0.0
143
0.03937007874016
144
1.0
145
0.0
146
1.0
147
0.625
 71
     0
 72
     0
 73
     0
 74
     0
 75
     0
 76
     0
 77
     1
 78
     8
170
     0
171
     3
172
     1
173
     0
174
     0
175
     0
176
     0
177
     0
178
     0
270
     2
271
     2
272
     2
273
     2
274
     3
340
11
275
     0
280
     0
281
     0
282
     0
283
     0
284
     8
285
     0
286
     0
287
     3
288
     0
  0
ENDTAB
  0
TABLE
  2
BLOCK_RECORD
  5
1
330
0
100
AcDbSymbolTable
 70
     1
  0
BLOCK_RECORD
  5
1F
330
1
100
AcDbSymbolTableRecord
100
AcDbBlockTableRecord
  2
*MODEL_SPACE
  0
BLOCK_RECORD
  5
1B
330
1
100
AcDbSymbolTableRecord
100
AcDbBlockTableRecord
  2
*PAPER_SPACE
  0
ENDTAB
  0
ENDSEC
  0
SECTION
  2
BLOCKS
  0
BLOCK
  5
20
330
1F
100
AcDbEntity
  8
0
100
AcDbBlockBegin
  2
*MODEL_SPACE
 70
     0
 10
0.0
 20
0.0
 30
0.0
  3
*MODEL_SPACE
  1

  0
ENDBLK
  5
21
330
1F
100
AcDbEntity
  8
0
100
AcDbBlockEnd
  0
BLOCK
  5
1C
330
1B
100
AcDbEntity
 67
     1
  8
0
100
AcDbBlockBegin
  2
*PAPER_SPACE
  1

  0
ENDBLK
  5
1D
330
1B
100
AcDbEntity
 67
     1
  8
0
100
AcDbBlockEnd
  0
ENDSEC
  0
SECTION
  2
ENTITIES
  0
SPLINE
  5
100
100
AcDbEntity
  8
0
 62
7
100
AcDbSpline
 70
0
 71
3
 72
19
 73
15
 74
13
 40
0.000000
 40
0.000000
 40
0.000000
 40
0.000000
 40
3.983409
 40
7.893938
 40
11.877346
 40
15.860755
 40
19.771284
 40
23.754692
 40
27.738101
 40
31.648630
 40
35.632039
 40
39.615447
 40
43.525976
 40
47.509385
 40
47.509385
 40
47.509385
 40
47.509385
 10
28.569316
 20
69.212429
 30
0.0
 10
27.435374
 20
69.937199
 30
0.0
 10
25.188238
 20
71.373478
 30
0.0
 10
21.084249
 20
71.658533
 30
0.0
 10
17.226513
 20
70.437699
 30
0.0
 10
14.140063
 20
67.779456
 30
0.0
 10
12.327831
 20
64.145778
 30
0.0
 10
12.061676
 20
60.087294
 30
0.0
 10
13.401240
 20
56.247020
 30
0.0
 10
16.117446
 20
53.228739
 30
0.0
 10
19.801352
 20
51.490559
 30
0.0
 10
23.844981
 20
51.343488
 30
0.0
 10
27.724064
 20
52.713410
 30
0.0
 10
29.506417
 20
54.697280
 30
0.0
 10
30.405821
 20
55.698373
 30
0.0
 11
28.569316
 21
69.212429
 31
0.0
 11
25.045148
 21
71.069249
 31
0.0
 11
21.149596
 21
71.411171
 31
0.0
 11
17.355850
 21
70.196661
 31
0.0
 11
14.336770
 21
67.598065
 31
0.0
 11
12.591118
 21
64.098788
 31
0.0
 11
12.330938
 21
60.123885
 31
0.0
 11
13.642439
 21
56.362568
 31
0.0
 11
16.258612
 21
53.456045
 31
0.0
 11
19.861673
 21
51.757371
 31
0.0
 11
23.841945
 21
51.599318
 31
0.0
 11
27.504976
 21
52.968420
 31
0.0
 11
30.405821
 21
55.698373
 31
0.0
  0
SPLINE
  5
101
100
AcDbEntity
  8
0
 62
7
100
AcDbSpline
 70
0
 71
3
 72
28
 73
24
 74
22
 40
0.000000
 40
0.000000
 40
0.000000
 40
0.000000
 40
0.396644
 40
0.793288
 40
1.189930
 40
1.586959
 40
1.983988
 40
2.381018
 40
2.778441
 40
3.175863
 40
3.573286
 40
4.414248
 40
5.255213
 40
6.096178
 40
6.940678
 40
7.785178
 40
8.629681
 40
9.477816
 40
10.325948
 40
11.174073
 40
12.025916
 40
12.877764
 40
13.729618
 40
13.729618
 40
13.729618
 40
13.729618
 10
27.462321
 20
82.895519
 30
0.0
 10
27.469405
 20
82.763494
 30
0.0
 10
27.483573
 20
82.499445
 30
0.0
 10
27.505103
 20
82.103386
 30
0.0
 10
27.527199
 20
81.707230
 30
0.0
 10
27.550137
 20
81.310993
 30
0.0
 10
27.573861
 20
80.914673
 30
0.0
 10
27.598279
 20
80.518263
 30
0.0
 10
27.623328
 20
80.121762
 30
0.0
 10
27.649008
 20
79.725170
 30
0.0
 10
27.685134
 20
79.181099
 30
0.0
 10
27.732865
 20
78.489626
 30
0.0
 10
27.793749
 20
77.650867
 30
0.0
 10
27.857690
 20
76.811152
 30
0.0
 10
27.924704
 20
75.970496
 30
0.0
 10
27.994706
 20
75.128900
 30
0.0
 10
28.067613
 20
74.286334
 30
0.0
 10
28.143338
 20
73.442802
 30
0.0
 10
28.222209
 20
72.598344
 30
0.0
 10
28.304546
 20
71.752975
 30
0.0
 10
28.390676
 20
70.906739
 30
0.0
 10
28.479387
 20
70.059522
 30
0.0
 10
28.539347
 20
69.494796
 30
0.0
 10
28.569327
 20
69.212432
 30
0.0
 11
27.462321
 21
82.895519
 31
0.0
 11
27.483619
 21
82.499447
 31
0.0
 11
27.505196
 21
82.103391
 31
0.0
 11
27.527331
 21
81.707366
 31
0.0
 11
27.550267
 21
81.311001
 31
0.0
 11
27.573975
 21
80.914680
 31
0.0
 11
27.598375
 21
80.518401
 31
0.0
 11
27.623432
 21
80.121769
 31
0.0
 11
27.649117
 21
79.725177
 31
0.0
 11
27.675450
 21
79.328628
 31
0.0
 11
27.733360
 21
78.489662
 31
0.0
 11
27.794244
 21
77.650903
 31
0.0
 11
27.858095
 21
76.812366
 31
0.0
 11
27.925186
 21
75.970535
 31
0.0
 11
27.995173
 21
75.128940
 31
0.0
 11
28.067959
 21
74.287580
 31
0.0
 11
28.143844
 21
73.442847
 31
0.0
 11
28.222767
 21
72.598395
 31
0.0
 11
28.305035
 21
71.754269
 31
0.0
 11
28.391085
 21
70.906783
 31
0.0
 11
28.479591
 21
70.059545
 31
0.0
 11
28.569327
 21
69.212432
 31
0.0
  0
SPLINE
  5
102
100
AcDbEntity
  8
0
 62
7
100
AcDbSpline
 70
0
 71
3
 72
19
 73
15
 74
13
 40
0.000000
 40
0.000000
 40
0.000000
 40
0.000000
 40
3.978405
 40
7.884190
 40
11.862594
 40
15.840999
 40
19.746784
 40
23.725189
 40
27.703594
 40
31.609378
 40
35.587783
 40
39.566188
 40
43.471973
 40
47.450378
 40
47.450378
 40
47.450378
 40
47.450378
 10
27.148467
 20
96.574153
 30
0.0
 10
26.101679
 20
97.417170
 30
0.0
 10
24.027210
 20
99.087816
 30
0.0
 10
19.984634
 20
99.820229
 30
0.0
 10
16.021058
 20
99.032767
 30
0.0
 10
12.663841
 20
96.735380
 30
0.0
 10
10.461841
 20
93.330090
 30
0.0
 10
9.745201
 20
89.331935
 30
0.0
 10
10.644458
 20
85.370856
 30
0.0
 10
13.000320
 20
82.070141
 30
0.0
 10
16.459371
 20
79.929147
 30
0.0
 10
20.454892
 20
79.324298
 30
0.0
 10
24.459623
 20
80.241348
 30
0.0
 10
26.455287
 20
82.005379
 30
0.0
 10
27.462310
 20
82.895519
 30
0.0
 11
27.148467
 21
96.574153
 31
0.0
 11
23.852186
 21
98.801760
 31
0.0
 11
20.022267
 21
99.567839
 31
0.0
 11
16.122737
 21
98.779572
 31
0.0
 11
12.838788
 21
96.533824
 31
0.0
 11
10.717598
 21
93.254234
 31
0.0
 11
10.016166
 21
89.338152
 31
0.0
 11
10.896466
 21
85.458361
 31
0.0
 11
13.165839
 21
82.279509
 31
0.0
 11
16.549330
 21
80.186738
 31
0.0
 11
20.480911
 21
79.578148
 31
0.0
 11
24.271664
 21
80.519076
 31
0.0
 11
27.462310
 21
82.895519
 31
0.0
  0
SPLINE
  5
103
100
AcDbEntity
  8
0
 62
7
100
AcDbSpline
 70
0
 71
3
 72
31
 73
27
 74
25
 40
0.000000
 40
0.000000
 40
0.000000
 40
0.000000
 40
0.446499
 40
0.892996
 40
1.339492
 40
1.785334
 40
2.231176
 40
2.677017
 40
3.122218
 40
3.567419
 40
4.012621
 40
4.457193
 40
4.901766
 40
5.346340
 40
5.790301
 40
6.234263
 40
6.678224
 40
7.453882
 40
8.229540
 40
9.005201
 40
9.780447
 40
10.555691
 40
11.330931
 40
12.105828
 40
12.880730
 40
13.655636
 40
13.655636
 40
13.655636
 40
13.655636
 10
27.635436
 20
110.219180
 30
0.0
 10
27.626059
 20
110.070642
 30
0.0
 10
27.607305
 20
109.773568
 30
0.0
 10
27.579543
 20
109.327935
 30
0.0
 10
27.552503
 20
108.882476
 30
0.0
 10
27.526518
 20
108.437173
 30
0.0
 10
27.501523
 20
107.992032
 30
0.0
 10
27.477410
 20
107.547057
 30
0.0
 10
27.454080
 20
107.102254
 30
0.0
 10
27.431567
 20
106.657622
 30
0.0
 10
27.409892
 20
106.213158
 30
0.0
 10
27.389087
 20
105.768862
 30
0.0
 10
27.369138
 20
105.324737
 30
0.0
 10
27.350030
 20
104.880778
 30
0.0
 10
27.331780
 20
104.436987
 30
0.0
 10
27.314358
 20
103.993367
 30
0.0
 10
27.293670
 20
103.439226
 30
0.0
 10
27.270628
 20
102.774532
 30
0.0
 10
27.246329
 20
101.999253
 30
0.0
 10
27.224503
 20
101.224037
 30
0.0
 10
27.205061
 20
100.448895
 30
0.0
 10
27.188308
 20
99.673831
 30
0.0
 10
27.174535
 20
98.898824
 30
0.0
 10
27.164034
 20
98.123881
 30
0.0
 10
27.155718
 20
97.349024
 30
0.0
 10
27.150901
 20
96.832443
 30
0.0
 10
27.148493
 20
96.574153
 30
0.0
 11
27.635436
 21
110.219180
 31
0.0
 11
27.607366
 21
109.773564
 31
0.0
 11
27.579661
 21
109.327927
 31
0.0
 11
27.552663
 21
108.882248
 31
0.0
 11
27.526681
 21
108.437164
 31
0.0
 11
27.501668
 21
107.992024
 31
0.0
 11
27.477527
 21
107.546837
 31
0.0
 11
27.454214
 21
107.102247
 31
0.0
 11
27.431705
 21
106.657615
 31
0.0
 11
27.410025
 21
106.212942
 31
0.0
 11
27.389228
 21
105.768856
 31
0.0
 11
27.369277
 21
105.324731
 31
0.0
 11
27.350163
 21
104.880568
 31
0.0
 11
27.331916
 21
104.436982
 31
0.0
 11
27.314501
 21
103.993362
 31
0.0
 11
27.297938
 21
103.549710
 31
0.0
 11
27.271057
 21
102.774518
 31
0.0
 11
27.246740
 21
101.999241
 31
0.0
 11
27.224896
 21
101.223888
 31
0.0
 11
27.205509
 21
100.448884
 31
0.0
 11
27.188804
 21
99.673820
 31
0.0
 11
27.175078
 21
98.898702
 31
0.0
 11
27.164398
 21
98.123878
 31
0.0
 11
27.155900
 21
97.349023
 31
0.0
 11
27.148493
 21
96.574153
 31
0.0
  0
SPLINE
  5
104
100
AcDbEntity
  8
0
 62
7
100
AcDbSpline
 70
0
 71
3
 72
19
 73
15
 74
13
 40
0.000000
 40
0.000000
 40
0.000000
 40
0.000000
 40
3.971911
 40
7.871537
 40
11.843448
 40
15.815359
 40
19.714986
 40
23.686897
 40
27.658808
 40
31.558434
 40
35.530345
 40
39.502256
 40
43.401883
 40
47.373794
 40
47.373794
 40
47.373794
 40
47.373794
 10
28.909724
 20
123.899058
 30
0.0
 10
27.965410
 20
124.852296
 30
0.0
 10
26.093967
 20
126.741423
 30
0.0
 10
22.166475
 20
127.922607
 30
0.0
 10
18.146004
 20
127.589850
 30
0.0
 10
14.554999
 20
125.693228
 30
0.0
 10
11.981639
 20
122.568021
 30
0.0
 10
10.811037
 20
118.685705
 30
0.0
 10
11.244425
 20
114.653974
 30
0.0
 10
13.196276
 20
111.107232
 30
0.0
 10
16.375185
 20
108.579975
 30
0.0
 10
20.265021
 20
107.510353
 30
0.0
 10
24.343106
 20
107.945796
 30
0.0
 10
26.531276
 20
109.456760
 30
0.0
 10
27.635408
 20
110.219180
 30
0.0
 11
28.909724
 21
123.899058
 31
0.0
 11
25.888650
 21
126.477660
 31
0.0
 11
22.175279
 21
127.668443
 31
0.0
 11
18.218018
 21
127.327615
 31
0.0
 11
14.705292
 21
125.473746
 31
0.0
 11
12.226164
 21
122.463595
 31
0.0
 11
11.080000
 21
118.660651
 31
0.0
 11
11.504030
 21
114.711439
 31
0.0
 11
13.384521
 21
111.295178
 31
0.0
 11
16.494396
 21
108.824397
 31
0.0
 11
20.320618
 21
107.758517
 31
0.0
 11
24.190039
 21
108.242944
 31
0.0
 11
27.635408
 21
110.219180
 31
0.0
  0
SPLINE
  5
105
100
AcDbEntity
  8
0
 62
7
100
AcDbSpline
 70
0
 71
3
 72
31
 73
27
 74
25
 40
0.000000
 40
0.000000
 40
0.000000
 40
0.000000
 40
0.556609
 40
1.113217
 40
1.669821
 40
2.223662
 40
2.777505
 40
3.331347
 40
3.882441
 40
4.433534
 40
4.984627
 40
5.532993
 40
6.081359
 40
6.629725
 40
7.175385
 40
7.721044
 40
8.266702
 40
8.809673
 40
9.352645
 40
9.895619
 40
10.531457
 40
11.167296
 40
11.803133
 40
12.436465
 40
13.069801
 40
13.703137
 40
13.703137
 40
13.703137
 40
13.703137
 10
30.907888
 20
137.454242
 30
0.0
 10
30.876577
 20
137.271367
 30
0.0
 10
30.813953
 20
136.905617
 30
0.0
 10
30.720473
 20
136.356916
 30
0.0
 10
30.628058
 20
135.808970
 30
0.0
 10
30.537158
 20
135.261704
 30
0.0
 10
30.447648
 20
134.715143
 30
0.0
 10
30.359410
 20
134.169302
 30
0.0
 10
30.272322
 20
133.624205
 30
0.0
 10
30.186421
 20
133.079847
 30
0.0
 10
30.101740
 20
132.536219
 30
0.0
 10
30.018306
 20
131.993318
 30
0.0
 10
29.936111
 20
131.451146
 30
0.0
 10
29.855142
 20
130.909703
 30
0.0
 10
29.775394
 20
130.368990
 30
0.0
 10
29.696872
 20
129.829010
 30
0.0
 10
29.619592
 20
129.289756
 30
0.0
 10
29.543565
 20
128.751228
 30
0.0
 10
29.468753
 20
128.213434
 30
0.0
 10
29.390793
 20
127.644826
 30
0.0
 10
29.309870
 20
127.045379
 30
0.0
 10
29.226399
 20
126.415043
 30
0.0
 10
29.144813
 20
125.785302
 30
0.0
 10
29.065301
 20
125.156138
 30
0.0
 10
28.987194
 20
124.527637
 30
0.0
 10
28.935557
 20
124.108583
 30
0.0
 10
28.909738
 20
123.899055
 30
0.0
 11
30.907888
 21
137.454242
 31
0.0
 11
30.814029
 21
136.905604
 31
0.0
 11
30.720625
 21
136.356889
 31
0.0
 11
30.628133
 21
135.808023
 31
0.0
 11
30.537364
 21
135.261671
 31
0.0
 11
30.447835
 21
134.715113
 31
0.0
 11
30.359432
 21
134.168371
 31
0.0
 11
30.272496
 21
133.624177
 31
0.0
 11
30.186601
 21
133.079819
 31
0.0
 11
30.101786
 21
132.535292
 31
0.0
 11
30.018489
 21
131.993290
 31
0.0
 11
29.936293
 21
131.451119
 31
0.0
 11
29.855191
 21
130.908783
 31
0.0
 11
29.775576
 21
130.368963
 31
0.0
 11
29.697058
 21
129.828983
 31
0.0
 11
29.619654
 21
129.288842
 31
0.0
 11
29.543747
 21
128.751203
 31
0.0
 11
29.468929
 21
128.213411
 31
0.0
 11
29.395169
 21
127.675471
 31
0.0
 11
29.310135
 21
127.045343
 31
0.0
 11
29.226695
 21
126.415004
 31
0.0
 11
29.145035
 21
125.784432
 31
0.0
 11
29.065518
 21
125.156111
 31
0.0
 11
28.987303
 21
124.527624
 31
0.0
 11
28.909738
 21
123.899055
 31
0.0
  0
SPLINE
  5
106
100
AcDbEntity
  8
0
 62
7
100
AcDbSpline
 70
0
 71
3
 72
19
 73
15
 74
13
 40
0.000000
 40
0.000000
 40
0.000000
 40
0.000000
 40
3.964907
 40
7.857890
 40
11.822797
 40
15.787704
 40
19.680687
 40
23.645594
 40
27.610501
 40
31.503485
 40
35.468392
 40
39.433299
 40
43.326282
 40
47.291189
 40
47.291189
 40
47.291189
 40
47.291189
 10
33.570607
 20
150.995126
 30
0.0
 10
32.724877
 20
152.033690
 30
0.0
 10
31.048758
 20
154.091980
 30
0.0
 10
27.263000
 20
155.649383
 30
0.0
 10
23.236672
 20
155.714792
 30
0.0
 10
19.481913
 20
154.187193
 30
0.0
 10
16.614015
 20
151.340389
 30
0.0
 10
15.061076
 20
147.602656
 30
0.0
 10
15.083112
 20
143.555215
 30
0.0
 10
16.659545
 20
139.834463
 30
0.0
 10
19.556314
 20
136.998885
 30
0.0
 10
23.307617
 20
135.534876
 30
0.0
 10
27.401197
 20
135.542860
 30
0.0
 10
29.731877
 20
136.813239
 30
0.0
 10
30.907883
 20
137.454242
 30
0.0
 11
33.570607
 21
150.995126
 31
0.0
 11
30.819543
 21
153.850321
 31
0.0
 11
27.246786
 21
155.396517
 31
0.0
 11
23.282209
 21
155.447676
 31
0.0
 11
19.609142
 21
153.954670
 31
0.0
 11
16.845973
 21
151.212369
 31
0.0
 11
15.325169
 21
147.550724
 31
0.0
 11
15.346274
 21
143.585873
 31
0.0
 11
16.865344
 21
140.001498
 31
0.0
 11
19.699603
 21
137.228871
 31
0.0
 11
23.388356
 21
135.775053
 31
0.0
 11
27.280553
 21
135.853316
 31
0.0
 11
30.907883
 21
137.454242
 31
0.0
  0
SPLINE
  5
107
100
AcDbEntity
  8
0
 62
7
100
AcDbSpline
 70
0
 71
3
 72
19
 73
15
 74
13
 40
0.000000
 40
0.000000
 40
0.000000
 40
0.000000
 40
0.391935
 40
0.783869
 40
1.175803
 40
3.231247
 40
5.286704
 40
7.342171
 40
9.333133
 40
11.324083
 40
13.315015
 40
13.490257
 40
13.665498
 40
13.840737
 40
13.840737
 40
13.840737
 40
13.840737
 10
36.793198
 20
164.454673
 30
0.0
 10
36.760632
 20
164.328153
 30
0.0
 10
36.695499
 20
164.075111
 30
0.0
 10
36.597933
 20
163.695515
 30
0.0
 10
36.362969
 20
162.778707
 30
0.0
 10
35.995102
 20
161.323532
 30
0.0
 10
35.502143
 20
159.328054
 30
0.0
 10
35.024934
 20
157.350856
 30
0.0
 10
34.562981
 20
155.392124
 30
0.0
 10
34.116606
 20
153.451850
 30
0.0
 10
33.813840
 20
152.099613
 30
0.0
 10
33.645874
 20
151.337430
 30
0.0
 10
33.608225
 20
151.166281
 30
0.0
 10
33.583146
 20
151.052178
 30
0.0
 10
33.570607
 20
150.995126
 30
0.0
 11
36.793198
 21
164.454673
 31
0.0
 11
36.695521
 21
164.075105
 31
0.0
 11
36.597977
 21
163.695503
 31
0.0
 11
36.500697
 21
163.315833
 31
0.0
 11
35.996906
 21
161.323086
 31
0.0
 11
35.503929
 21
159.327622
 31
0.0
 11
35.021655
 21
157.329533
 31
0.0
 11
34.564753
 21
155.391707
 31
0.0
 11
34.118499
 21
153.451413
 31
0.0
 11
33.683603
 21
151.508562
 31
0.0
 11
33.645885
 21
151.337427
 31
0.0
 11
33.608230
 21
151.166279
 31
0.0
 11
33.570607
 21
150.995126
 31
0.0
  0
SPLINE
  5
108
100
AcDbEntity
  8
0
 62
7
100
AcDbSpline
 70
0
 71
3
 72
19
 73
15
 74
13
 40
0.000000
 40
0.000000
 40
0.000000
 40
0.000000
 40
3.957741
 40
7.843927
 40
11.801668
 40
15.759409
 40
19.645595
 40
23.603336
 40
27.561077
 40
31.447263
 40
35.405004
 40
39.362745
 40
43.248931
 40
47.206672
 40
47.206672
 40
47.206672
 40
47.206672
 10
40.461215
 20
177.823049
 30
0.0
 10
39.691114
 20
178.915829
 30
0.0
 10
38.164835
 20
181.081630
 30
0.0
 10
34.505058
 20
182.898020
 30
0.0
 10
30.501052
 20
183.248668
 30
0.0
 10
26.653618
 20
181.996853
 30
0.0
 10
23.592668
 20
179.370353
 30
0.0
 10
21.773752
 20
175.763121
 30
0.0
 10
21.497054
 20
171.732734
 30
0.0
 10
22.788978
 20
167.911890
 30
0.0
 10
25.458814
 20
164.871863
 30
0.0
 10
29.081099
 20
163.130005
 30
0.0
 10
33.155383
 20
162.824319
 30
0.0
 10
35.573237
 20
163.907927
 30
0.0
 10
36.793193
 20
164.454673
 30
0.0
 11
40.461215
 21
177.823049
 31
0.0
 11
37.920216
 21
180.857359
 31
0.0
 11
34.471089
 21
182.647880
 31
0.0
 11
30.527305
 21
182.979971
 31
0.0
 11
26.763369
 21
181.756657
 31
0.0
 11
23.813857
 21
179.226278
 31
0.0
 11
22.032347
 21
175.692168
 31
0.0
 11
21.760798
 21
171.743753
 31
0.0
 11
23.005943
 21
168.062442
 31
0.0
 11
25.618518
 21
165.089537
 31
0.0
 11
29.179543
 21
163.362454
 31
0.0
 11
33.059472
 21
163.142025
 31
0.0
 11
36.793193
 21
164.454673
 31
0.0
  0
SPLINE
  5
109
100
AcDbEntity
  8
0
 62
7
100
AcDbSpline
 70
0
 71
3
 72
25
 73
21
 74
19
 40
0.000000
 40
0.000000
 40
0.000000
 40
0.000000
 40
1.079744
 40
2.159487
 40
3.239228
 40
4.273176
 40
5.307123
 40
6.341070
 40
7.329232
 40
8.317393
 40
9.305553
 40
10.247938
 40
11.190323
 40
12.132709
 40
13.688984
 40
15.245259
 40
16.801531
 40
18.293362
 40
19.785198
 40
21.277039
 40
21.277039
 40
21.277039
 40
21.277039
 10
46.675940
 20
198.171585
 30
0.0
 10
46.567088
 20
197.828525
 30
0.0
 10
46.349385
 20
197.142406
 30
0.0
 10
46.023245
 20
196.113097
 30
0.0
 10
45.702533
 20
195.098082
 30
0.0
 10
45.387607
 20
194.097248
 30
0.0
 10
45.078349
 20
193.110634
 30
0.0
 10
44.774672
 20
192.138266
 30
0.0
 10
44.476474
 20
191.180176
 30
0.0
 10
44.183791
 20
190.236354
 30
0.0
 10
43.896682
 20
189.306781
 30
0.0
 10
43.615168
 20
188.391449
 30
0.0
 10
43.339182
 20
187.490382
 30
0.0
 10
43.004522
 20
186.393273
 30
0.0
 10
42.612096
 20
185.099848
 30
0.0
 10
42.163652
 20
183.609582
 30
0.0
 10
41.725347
 20
182.138703
 30
0.0
 10
41.297573
 20
180.687108
 30
0.0
 10
40.878703
 20
179.255282
 30
0.0
 10
40.600400
 20
178.300455
 30
0.0
 10
40.461249
 20
177.823041
 30
0.0
 11
46.675940
 21
198.171585
 31
0.0
 11
46.349454
 21
197.142384
 31
0.0
 11
46.023383
 21
196.113053
 31
0.0
 11
45.698142
 21
195.083461
 31
0.0
 11
45.387788
 21
194.097191
 31
0.0
 11
45.078521
 21
193.110581
 31
0.0
 11
44.770286
 21
192.123647
 31
0.0
 11
44.476637
 21
191.180125
 31
0.0
 11
44.183969
 21
190.236299
 31
0.0
 11
43.892371
 21
189.292143
 31
0.0
 11
43.615342
 21
188.391396
 31
0.0
 11
43.339354
 21
187.490330
 31
0.0
 11
43.064396
 21
186.588948
 31
0.0
 11
42.612662
 21
185.099677
 31
0.0
 11
42.164319
 21
183.609381
 31
0.0
 11
41.719983
 21
182.117890
 31
0.0
 11
41.298046
 21
180.686971
 31
0.0
 11
40.878939
 21
179.255215
 31
0.0
 11
40.461249
 21
177.823041
 31
0.0
  0
SPLINE
  5
10a
100
AcDbEntity
  8
0
 62
7
100
AcDbSpline
 70
0
 71
3
 72
13
 73
9
 74
7
 40
0.000000
 40
0.000000
 40
0.000000
 40
0.000000
 40
1.912216
 40
3.804053
 40
5.716269
 40
7.628486
 40
9.520322
 40
11.432539
 40
11.432539
 40
11.432539
 40
11.432539
 10
56.675940
 20
198.171585
 30
0.0
 10
56.232715
 20
198.636379
 30
0.0
 10
55.350987
 20
199.561015
 30
0.0
 10
53.583466
 20
200.377904
 30
0.0
 10
51.675940
 20
200.673638
 30
0.0
 10
49.768414
 20
200.377904
 30
0.0
 10
48.000893
 20
199.561015
 30
0.0
 10
47.119166
 20
198.636379
 30
0.0
 10
46.675940
 20
198.171585
 30
0.0
 11
56.675940
 21
198.171585
 31
0.0
 11
55.271843
 21
199.469692
 31
0.0
 11
53.566724
 21
200.289214
 31
0.0
 11
51.675940
 21
200.574709
 31
0.0
 11
49.785156
 21
200.289214
 31
0.0
 11
48.080038
 21
199.469692
 31
0.0
 11
46.675940
 21
198.171585
 31
0.0
  0
SPLINE
  5
10b
100
AcDbEntity
  8
0
 62
7
100
AcDbSpline
 70
0
 71
3
 72
13
 73
9
 74
7
 40
0.000000
 40
0.000000
 40
0.000000
 40
0.000000
 40
1.137000
 40
2.273998
 40
3.410996
 40
4.604197
 40
5.797401
 40
6.990607
 40
6.990607
 40
6.990607
 40
6.990607
 10
58.774655
 20
191.503464
 30
0.0
 10
58.661747
 20
191.865255
 30
0.0
 10
58.435931
 20
192.588836
 30
0.0
 10
58.096642
 20
193.674031
 30
0.0
 10
57.750616
 20
194.776749
 30
0.0
 10
57.397184
 20
195.896775
 30
0.0
 10
57.036873
 20
197.034278
 30
0.0
 10
56.796251
 20
197.792482
 30
0.0
 10
56.675940
 20
198.171585
 30
0.0
 11
58.774655
 21
191.503464
 31
0.0
 11
58.435837
 21
192.588807
 31
0.0
 11
58.096454
 21
193.673973
 31
0.0
 11
57.755942
 21
194.758784
 31
0.0
 11
57.396977
 21
195.896709
 31
0.0
 11
57.036770
 21
197.034244
 31
0.0
 11
56.675940
 21
198.171585
 31
0.0
  0
SPLINE
  5
10c
100
AcDbEntity
  8
0
 62
7
100
AcDbSpline
 70
0
 71
3
 72
19
 73
15
 74
13
 40
0.000000
 40
0.000000
 40
0.000000
 40
0.000000
 40
3.957852
 40
7.844142
 40
11.801994
 40
15.759845
 40
19.646136
 40
23.603988
 40
27.561839
 40
31.448130
 40
35.405981
 40
39.363833
 40
43.250124
 40
47.207975
 40
47.207975
 40
47.207975
 40
47.207975
 10
62.772346
 20
178.230948
 30
0.0
 10
64.005466
 20
177.714478
 30
0.0
 10
66.449410
 20
176.690877
 30
0.0
 10
70.515018
 20
177.097146
 30
0.0
 10
74.093245
 20
178.928060
 30
0.0
 10
76.687163
 20
182.033271
 30
0.0
 10
77.884199
 20
185.885019
 30
0.0
 10
77.507818
 20
189.907440
 30
0.0
 10
75.600080
 20
193.468629
 30
0.0
 10
72.474911
 20
196.018567
 30
0.0
 10
68.597522
 20
197.174675
 30
0.0
 10
64.603325
 20
196.724840
 30
0.0
 10
60.989626
 20
194.818168
 30
0.0
 10
59.517530
 20
192.615089
 30
0.0
 10
58.774767
 20
191.503500
 30
0.0
 11
62.772346
 21
178.230948
 31
0.0
 11
66.537450
 21
177.010873
 31
0.0
 11
70.410853
 21
177.327104
 31
0.0
 11
73.928199
 21
179.141731
 31
0.0
 11
76.466529
 21
182.178418
 31
0.0
 11
77.620248
 21
185.889508
 31
0.0
 11
77.251044
 21
189.830102
 31
0.0
 11
75.382515
 21
193.319111
 31
0.0
 11
72.371141
 21
195.775711
 31
0.0
 11
68.577936
 21
196.905395
 31
0.0
 11
64.643489
 21
196.475605
 31
0.0
 11
61.239749
 21
194.600023
 31
0.0
 11
58.774767
 21
191.503500
 31
0.0
  0
SPLINE
  5
10d
100
AcDbEntity
  8
0
 62
7
100
AcDbSpline
 70
0
 71
3
 72
28
 73
24
 74
22
 40
0.000000
 40
0.000000
 40
0.000000
 40
0.000000
 40
0.685050
 40
1.370098
 40
2.055145
 40
2.750507
 40
3.445870
 40
4.141234
 40
4.846925
 40
5.552616
 40
6.258305
 40
6.974340
 40
7.690374
 40
8.406407
 40
9.132798
 40
9.859187
 40
10.585576
 40
11.143702
 40
11.701827
 40
12.259952
 40
12.827938
 40
13.395923
 40
13.963909
 40
13.963909
 40
13.963909
 40
13.963909
 10
66.477182
 20
164.767968
 30
0.0
 10
66.419587
 20
164.988936
 30
0.0
 10
66.304398
 20
165.430870
 30
0.0
 10
66.131179
 20
166.093657
 30
0.0
 10
65.956213
 20
166.759540
 30
0.0
 10
65.779039
 20
167.428396
 30
0.0
 10
65.599776
 20
168.100255
 30
0.0
 10
65.418552
 20
168.775154
 30
0.0
 10
65.235485
 20
169.453121
 30
0.0
 10
65.050545
 20
170.134147
 30
0.0
 10
64.863703
 20
170.818229
 30
0.0
 10
64.674923
 20
171.505354
 30
0.0
 10
64.484209
 20
172.195523
 30
0.0
 10
64.291567
 20
172.888740
 30
0.0
 10
64.097000
 20
173.585004
 30
0.0
 10
63.900524
 20
174.284317
 30
0.0
 10
63.718345
 20
174.929387
 30
0.0
 10
63.550728
 20
175.520287
 30
0.0
 10
63.397831
 20
176.057061
 30
0.0
 10
63.243397
 20
176.596814
 30
0.0
 10
63.087365
 20
177.139528
 30
0.0
 10
62.929954
 20
177.685266
 30
0.0
 10
62.824858
 20
178.049046
 30
0.0
 10
62.772310
 20
178.230936
 30
0.0
 11
66.477182
 21
164.767968
 31
0.0
 11
66.304325
 21
165.430852
 31
0.0
 11
66.131033
 21
166.093619
 31
0.0
 11
65.956869
 21
166.756156
 31
0.0
 11
65.778838
 21
167.428342
 31
0.0
 11
65.599598
 21
168.100207
 31
0.0
 11
65.419289
 21
168.771787
 31
0.0
 11
65.235322
 21
169.453077
 31
0.0
 11
65.050379
 21
170.134102
 31
0.0
 11
64.864443
 21
170.814856
 31
0.0
 11
64.674753
 21
171.505308
 31
0.0
 11
64.484042
 21
172.195477
 31
0.0
 11
64.292328
 21
172.885368
 31
0.0
 11
64.096837
 21
173.584958
 31
0.0
 11
63.900366
 21
174.284273
 31
0.0
 11
63.702949
 21
174.983321
 31
0.0
 11
63.550630
 21
175.520259
 31
0.0
 11
63.397726
 21
176.057031
 31
0.0
 11
63.244188
 21
176.593621
 31
0.0
 11
63.087286
 21
177.139506
 31
0.0
 11
62.929915
 21
177.685255
 31
0.0
 11
62.772310
 21
178.230936
 31
0.0
  0
SPLINE
  5
10e
100
AcDbEntity
  8
0
 62
7
100
AcDbSpline
 70
0
 71
3
 72
19
 73
15
 74
13
 40
0.000000
 40
0.000000
 40
0.000000
 40
0.000000
 40
3.965286
 40
7.858628
 40
11.823913
 40
15.789199
 40
19.682541
 40
23.647827
 40
27.613112
 40
31.506455
 40
35.471740
 40
39.437026
 40
43.330368
 40
47.295654
 40
47.295654
 40
47.295654
 40
47.295654
 10
69.701946
 20
151.353218
 30
0.0
 10
70.903670
 20
150.761535
 30
0.0
 10
73.285313
 20
149.588905
 30
0.0
 10
77.376103
 20
149.751094
 30
0.0
 10
81.063617
 20
151.370058
 30
0.0
 10
83.840077
 20
154.324092
 30
0.0
 10
85.260207
 20
158.107689
 30
0.0
 10
85.113369
 20
162.152929
 30
0.0
 10
83.405549
 20
165.822926
 30
0.0
 10
80.420888
 20
168.547660
 30
0.0
 10
76.605137
 20
169.916999
 30
0.0
 10
72.584681
 20
169.683051
 30
0.0
 10
68.867133
 20
167.968203
 30
0.0
 10
67.278683
 20
165.841206
 30
0.0
 10
66.477188
 20
164.767971
 30
0.0
 11
69.701946
 21
151.353218
 31
0.0
 11
73.392981
 21
149.904165
 31
0.0
 11
77.285425
 21
149.987753
 31
0.0
 11
80.910850
 21
151.593923
 31
0.0
 11
83.627458
 21
154.482441
 31
0.0
 11
84.995945
 21
158.127350
 31
0.0
 11
84.851623
 21
162.090008
 31
0.0
 11
83.179096
 21
165.685303
 31
0.0
 11
80.303472
 21
168.309974
 31
0.0
 11
76.570812
 21
169.648159
 31
0.0
 11
72.611475
 21
169.431036
 31
0.0
 11
69.106326
 21
167.736324
 31
0.0
 11
66.477188
 21
164.767971
 31
0.0
  0
SPLINE
  5
10f
100
AcDbEntity
  8
0
 62
7
100
AcDbSpline
 70
0
 71
3
 72
25
 73
21
 74
19
 40
0.000000
 40
0.000000
 40
0.000000
 40
0.000000
 40
0.310438
 40
0.620877
 40
0.931315
 40
1.242623
 40
1.553932
 40
1.865241
 40
2.841756
 40
3.818273
 40
4.794788
 40
5.783367
 40
6.771946
 40
7.760527
 40
8.761265
 40
9.762000
 40
10.762729
 40
11.775699
 40
12.788673
 40
13.801652
 40
13.801652
 40
13.801652
 40
13.801652
 10
72.380565
 20
137.815139
 30
0.0
 10
72.362706
 20
137.917066
 30
0.0
 10
72.326988
 20
138.120920
 30
0.0
 10
72.273271
 20
138.426675
 30
0.0
 10
72.219229
 20
138.732668
 30
0.0
 10
72.164722
 20
139.038873
 30
0.0
 10
72.109785
 20
139.345296
 30
0.0
 10
72.015125
 20
139.869868
 30
0.0
 10
71.879516
 20
140.612367
 30
0.0
 10
71.700963
 20
141.572422
 30
0.0
 10
71.518523
 20
142.535839
 30
0.0
 10
71.332106
 20
143.502589
 30
0.0
 10
71.141819
 20
144.472684
 30
0.0
 10
70.947763
 20
145.446165
 30
0.0
 10
70.750047
 20
146.423043
 30
0.0
 10
70.548329
 20
147.403238
 30
0.0
 10
70.342284
 20
148.386699
 30
0.0
 10
70.131561
 20
149.373341
 30
0.0
 10
69.917400
 20
150.363418
 30
0.0
 10
69.773764
 20
151.023284
 30
0.0
 10
69.701946
 20
151.353218
 30
0.0
 11
72.380565
 21
137.815139
 31
0.0
 11
72.326965
 21
138.120915
 31
0.0
 11
72.273225
 21
138.426667
 31
0.0
 11
72.219210
 21
138.732370
 31
0.0
 11
72.164659
 21
139.038862
 31
0.0
 11
72.109727
 21
139.345285
 31
0.0
 11
72.054449
 21
139.651647
 31
0.0
 11
71.878998
 21
140.612272
 31
0.0
 11
71.700440
 21
141.572325
 31
0.0
 11
71.518740
 21
142.531787
 31
0.0
 11
71.331588
 21
143.502489
 31
0.0
 11
71.141323
 21
144.472585
 31
0.0
 11
70.948084
 21
145.442096
 31
0.0
 11
70.749514
 21
146.422936
 31
0.0
 11
70.547746
 21
147.403119
 31
0.0
 11
70.342489
 21
148.382572
 31
0.0
 11
70.131130
 21
149.373246
 31
0.0
 11
69.917185
 21
150.363370
 31
0.0
 11
69.701946
 21
151.353218
 31
0.0
  0
SPLINE
  5
110
100
AcDbEntity
  8
0
 62
7
100
AcDbSpline
 70
0
 71
3
 72
19
 73
15
 74
13
 40
0.000000
 40
0.000000
 40
0.000000
 40
0.000000
 40
3.972947
 40
7.873557
 40
11.846504
 40
15.819451
 40
19.720060
 40
23.693008
 40
27.665955
 40
31.566564
 40
35.539511
 40
39.512459
 40
43.413068
 40
47.386015
 40
47.386015
 40
47.386015
 40
47.386015
 10
74.400404
 20
124.234479
 30
0.0
 10
75.544503
 20
123.532771
 30
0.0
 10
77.811869
 20
122.142131
 30
0.0
 10
81.908711
 20
121.928588
 30
0.0
 10
85.735670
 20
123.208467
 30
0.0
 10
88.773013
 20
125.905879
 30
0.0
 10
90.528852
 20
129.554853
 30
0.0
 10
90.741190
 20
133.605352
 30
0.0
 10
89.359269
 20
137.418740
 30
0.0
 10
86.617504
 20
140.398792
 30
0.0
 10
82.926627
 20
142.095526
 30
0.0
 10
78.892840
 20
142.206288
 30
0.0
 10
75.035466
 20
140.809728
 30
0.0
 10
73.270942
 20
138.819431
 30
0.0
 10
72.380574
 20
137.815139
 30
0.0
 11
74.400404
 21
124.234479
 31
0.0
 11
77.948683
 21
122.447295
 31
0.0
 11
81.839671
 21
122.173497
 31
0.0
 11
85.603263
 21
123.446165
 31
0.0
 11
88.574697
 21
126.083378
 31
0.0
 11
90.266357
 21
129.598067
 31
0.0
 11
90.473858
 21
133.565592
 31
0.0
 11
89.120711
 21
137.301004
 31
0.0
 11
86.479428
 21
140.171262
 31
0.0
 11
82.869126
 21
141.829583
 31
0.0
 11
78.898062
 21
141.951888
 31
0.0
 11
75.255168
 21
140.557587
 31
0.0
 11
72.380574
 21
137.815139
 31
0.0
  0
SPLINE
  5
111
100
AcDbEntity
  8
0
 62
7
100
AcDbSpline
 70
0
 71
3
 72
28
 73
24
 74
22
 40
0.000000
 40
0.000000
 40
0.000000
 40
0.000000
 40
0.421004
 40
0.842006
 40
1.263009
 40
1.684635
 40
2.106261
 40
2.527889
 40
2.950151
 40
3.372413
 40
3.794675
 40
4.217582
 40
4.640489
 40
5.063396
 40
6.018100
 40
6.972806
 40
7.927516
 40
8.887858
 40
9.848196
 40
10.808525
 40
11.774606
 40
12.740693
 40
13.706788
 40
13.706788
 40
13.706788
 40
13.706788
 10
75.691049
 20
110.590353
 30
0.0
 10
75.681554
 20
110.730366
 30
0.0
 10
75.662564
 20
111.010391
 30
0.0
 10
75.633766
 20
111.430408
 30
0.0
 10
75.604330
 20
111.850589
 30
0.0
 10
75.573947
 20
112.270911
 30
0.0
 10
75.542697
 20
112.691378
 30
0.0
 10
75.510663
 20
113.111999
 30
0.0
 10
75.477929
 20
113.532778
 30
0.0
 10
75.444475
 20
113.953713
 30
0.0
 10
75.410279
 20
114.374804
 30
0.0
 10
75.375324
 20
114.796049
 30
0.0
 10
75.339605
 20
115.217445
 30
0.0
 10
75.287856
 20
115.815383
 30
0.0
 10
75.218579
 20
116.589731
 30
0.0
 10
75.129830
 20
117.540306
 30
0.0
 10
75.037356
 20
118.492414
 30
0.0
 10
74.941275
 20
119.446052
 30
0.0
 10
74.841176
 20
120.401160
 30
0.0
 10
74.736654
 20
121.357719
 30
0.0
 10
74.627295
 20
122.315666
 30
0.0
 10
74.514617
 20
123.275161
 30
0.0
 10
74.438466
 20
123.914704
 30
0.0
 10
74.400390
 20
124.234476
 30
0.0
 11
75.691049
 21
110.590353
 31
0.0
 11
75.662512
 21
111.010388
 31
0.0
 11
75.633662
 21
111.430401
 31
0.0
 11
75.604189
 21
111.850370
 31
0.0
 11
75.573805
 21
112.270900
 31
0.0
 11
75.542569
 21
112.691368
 31
0.0
 11
75.510565
 21
113.111780
 31
0.0
 11
75.477812
 21
113.532769
 31
0.0
 11
75.444354
 21
113.953703
 31
0.0
 11
75.410173
 21
114.374580
 31
0.0
 11
75.375200
 21
114.796038
 31
0.0
 11
75.339481
 21
115.217434
 31
0.0
 11
75.303016
 21
115.638766
 31
0.0
 11
75.217966
 21
116.589674
 31
0.0
 11
75.129239
 21
117.540249
 31
0.0
 11
75.036971
 21
118.490489
 31
0.0
 11
74.940637
 21
119.445988
 31
0.0
 11
74.840474
 21
120.401087
 31
0.0
 11
74.736096
 21
121.355728
 31
0.0
 11
74.626778
 21
122.315603
 31
0.0
 11
74.514359
 21
123.275128
 31
0.0
 11
74.400390
 21
124.234476
 31
0.0
  0
SPLINE
  5
112
100
AcDbEntity
  8
0
 62
7
100
AcDbSpline
 70
0
 71
3
 72
19
 73
15
 74
13
 40
0.000000
 40
0.000000
 40
0.000000
 40
0.000000
 40
3.980423
 40
7.888120
 40
11.868543
 40
15.848965
 40
19.756663
 40
23.737086
 40
27.717508
 40
31.625206
 40
35.605629
 40
39.586051
 40
43.493749
 40
47.474171
 40
47.474171
 40
47.474171
 40
47.474171
 10
76.199582
 20
96.935298
 30
0.0
 10
77.257900
 20
96.105665
 30
0.0
 10
79.355198
 20
94.461557
 30
0.0
 10
83.409392
 20
93.782921
 30
0.0
 10
87.363989
 20
94.624550
 30
0.0
 10
90.690999
 20
96.969212
 30
0.0
 10
92.846317
 20
100.406761
 30
0.0
 10
93.506545
 20
104.416795
 30
0.0
 10
92.549897
 20
108.366617
 30
0.0
 10
90.144880
 20
111.634342
 30
0.0
 10
86.652698
 20
113.725062
 30
0.0
 10
82.646458
 20
114.270235
 30
0.0
 10
78.653967
 20
113.291946
 30
0.0
 10
76.684759
 20
111.496403
 30
0.0
 10
75.691077
 20
110.590355
 30
0.0
 11
76.199582
 21
96.935298
 31
0.0
 11
79.526604
 21
94.750192
 31
0.0
 11
83.368305
 21
94.035044
 31
0.0
 11
87.258750
 21
94.876590
 31
0.0
 11
90.513095
 21
97.168533
 31
0.0
 11
92.589251
 21
100.479073
 31
0.0
 11
93.235414
 21
104.406698
 31
0.0
 11
92.298922
 21
108.275386
 31
0.0
 11
89.982293
 21
111.422342
 31
0.0
 11
86.566497
 21
113.465893
 31
0.0
 11
82.624237
 21
114.015754
 31
0.0
 11
78.846366
 21
113.016859
 31
0.0
 11
75.691077
 21
110.590355
 31
0.0
  0
SPLINE
  5
113
100
AcDbEntity
  8
0
 62
7
100
AcDbSpline
 70
0
 71
3
 72
31
 73
27
 74
25
 40
0.000000
 40
0.000000
 40
0.000000
 40
0.000000
 40
0.457890
 40
0.915780
 40
1.373669
 40
1.831095
 40
2.288523
 40
2.745950
 40
3.202931
 40
3.659910
 40
4.116890
 40
4.573439
 40
5.029988
 40
5.486537
 40
5.942670
 40
6.398803
 40
6.854937
 40
7.310668
 40
7.766401
 40
8.222136
 40
9.138556
 40
10.054975
 40
10.971388
 40
11.888122
 40
12.804863
 40
13.721611
 40
13.721611
 40
13.721611
 40
13.721611
 10
75.904849
 20
83.218822
 30
0.0
 10
75.912339
 20
83.371268
 30
0.0
 10
75.927319
 20
83.676160
 30
0.0
 10
75.949426
 20
84.133515
 30
0.0
 10
75.970770
 20
84.590753
 30
0.0
 10
75.990985
 20
85.047888
 30
0.0
 10
76.010163
 20
85.504913
 30
0.0
 10
76.028405
 20
85.961828
 30
0.0
 10
76.045833
 20
86.418625
 30
0.0
 10
76.062382
 20
86.875305
 30
0.0
 10
76.078047
 20
87.331873
 30
0.0
 10
76.092809
 20
87.788327
 30
0.0
 10
76.106658
 20
88.244667
 30
0.0
 10
76.119614
 20
88.700893
 30
0.0
 10
76.131684
 20
89.157006
 30
0.0
 10
76.142867
 20
89.613002
 30
0.0
 10
76.153136
 20
90.068886
 30
0.0
 10
76.162476
 20
90.524657
 30
0.0
 10
76.170946
 20
90.980311
 30
0.0
 10
76.181149
 20
91.589522
 30
0.0
 10
76.191858
 20
92.352307
 30
0.0
 10
76.201042
 20
93.268681
 30
0.0
 10
76.206024
 20
94.185193
 30
0.0
 10
76.206545
 20
95.101825
 30
0.0
 10
76.203856
 20
96.018563
 30
0.0
 10
76.201005
 20
96.629719
 30
0.0
 10
76.199579
 20
96.935298
 30
0.0
 11
75.904849
 21
83.218822
 31
0.0
 11
75.927258
 21
83.676163
 31
0.0
 11
75.949300
 21
84.133522
 31
0.0
 11
75.970590
 21
84.590915
 31
0.0
 11
75.990813
 21
85.047895
 31
0.0
 11
76.010008
 21
85.504920
 31
0.0
 11
76.028276
 21
85.961982
 31
0.0
 11
76.045687
 21
86.418631
 31
0.0
 11
76.062235
 21
86.875311
 31
0.0
 11
76.077902
 21
87.332021
 31
0.0
 11
76.092658
 21
87.788332
 31
0.0
 11
76.106510
 21
88.244671
 31
0.0
 11
76.119471
 21
88.701036
 31
0.0
 11
76.131537
 21
89.157009
 31
0.0
 11
76.142715
 21
89.613005
 31
0.0
 11
76.152985
 21
90.069024
 31
0.0
 11
76.162331
 21
90.524659
 31
0.0
 11
76.170806
 21
90.980313
 31
0.0
 11
76.178441
 21
91.435984
 31
0.0
 11
76.191245
 21
92.352314
 31
0.0
 11
76.200341
 21
93.268688
 31
0.0
 11
76.205280
 21
94.185088
 31
0.0
 11
76.206010
 21
95.101822
 31
0.0
 11
76.203591
 21
96.018559
 31
0.0
 11
76.199579
 21
96.935298
 31
0.0
  0
SPLINE
  5
114
100
AcDbEntity
  8
0
 62
7
100
AcDbSpline
 70
0
 71
3
 72
19
 73
15
 74
13
 40
0.000000
 40
0.000000
 40
0.000000
 40
0.000000
 40
3.986759
 40
7.900465
 40
11.887224
 40
15.873983
 40
19.787689
 40
23.774448
 40
27.761207
 40
31.674913
 40
35.661672
 40
39.648431
 40
43.562137
 40
47.548896
 40
47.548896
 40
47.548896
 40
47.548896
 10
74.828716
 20
69.652673
 30
0.0
 10
75.781659
 20
68.700756
 30
0.0
 10
77.670083
 20
66.814365
 30
0.0
 10
81.621449
 20
65.656376
 30
0.0
 10
85.654485
 20
66.024752
 30
0.0
 10
89.240283
 20
67.964770
 30
0.0
 10
91.787401
 20
71.131600
 30
0.0
 10
92.911934
 20
75.043966
 30
0.0
 10
92.418286
 20
79.084695
 30
0.0
 10
90.402304
 20
82.613496
 30
0.0
 10
87.167214
 20
85.094587
 30
0.0
 10
83.242694
 20
86.094201
 30
0.0
 10
79.158178
 20
85.573664
 30
0.0
 10
76.995964
 20
84.008593
 30
0.0
 10
75.904860
 20
83.218822
 30
0.0
 11
74.828716
 21
69.652673
 31
0.0
 11
77.875403
 21
67.081302
 31
0.0
 11
81.610486
 21
65.912437
 31
0.0
 11
85.579488
 21
66.288302
 31
0.0
 11
89.086532
 21
68.184320
 31
0.0
 11
91.539730
 21
71.233732
 31
0.0
 11
92.640580
 21
75.065491
 31
0.0
 11
92.157610
 21
79.022888
 31
0.0
 11
90.215862
 21
82.420932
 31
0.0
 11
87.051603
 21
84.846157
 31
0.0
 11
83.191498
 21
85.843071
 31
0.0
 11
79.318845
 21
85.277695
 31
0.0
 11
75.904860
 21
83.218822
 31
0.0
  0
SPLINE
  5
115
100
AcDbEntity
  8
0
 62
7
100
AcDbSpline
 70
0
 71
3
 72
34
 73
30
 74
28
 40
0.000000
 40
0.000000
 40
0.000000
 40
0.000000
 40
0.552695
 40
1.105391
 40
1.658086
 40
2.208399
 40
2.758713
 40
3.309028
 40
3.856979
 40
4.404930
 40
4.952880
 40
5.498491
 40
6.044101
 40
6.589712
 40
7.133000
 40
7.676289
 40
8.219578
 40
8.760566
 40
9.301554
 40
9.842543
 40
10.381254
 40
10.919964
 40
11.458674
 40
11.858478
 40
12.258281
 40
12.658084
 40
13.057063
 40
13.456041
 40
13.855020
 40
13.855020
 40
13.855020
 40
13.855020
 10
72.980691
 20
55.923070
 30
0.0
 10
73.009675
 20
56.105008
 30
0.0
 10
73.067642
 20
56.468883
 30
0.0
 10
73.154129
 20
57.014770
 30
0.0
 10
73.239565
 20
57.560018
 30
0.0
 10
73.323488
 20
58.104699
 30
0.0
 10
73.406024
 20
58.648789
 30
0.0
 10
73.487300
 20
59.192272
 30
0.0
 10
73.567427
 20
59.735130
 30
0.0
 10
73.646383
 20
60.277363
 30
0.0
 10
73.724132
 20
60.818982
 30
0.0
 10
73.800638
 20
61.359990
 30
0.0
 10
73.875915
 20
61.900382
 30
0.0
 10
73.949969
 20
62.440163
 30
0.0
 10
74.022804
 20
62.979329
 30
0.0
 10
74.094426
 20
63.517876
 30
0.0
 10
74.164830
 20
64.055811
 30
0.0
 10
74.234022
 20
64.593130
 30
0.0
 10
74.301988
 20
65.129832
 30
0.0
 10
74.368721
 20
65.665925
 30
0.0
 10
74.434218
 20
66.201404
 30
0.0
 10
74.498508
 20
66.736265
 30
0.0
 10
74.556274
 20
67.225273
 30
0.0
 10
74.607839
 20
67.668389
 30
0.0
 10
74.653393
 20
68.065589
 30
0.0
 10
74.698189
 20
68.462598
 30
0.0
 10
74.742156
 20
68.859423
 30
0.0
 10
74.785564
 20
69.256034
 30
0.0
 10
74.814327
 20
69.520460
 30
0.0
 10
74.828708
 20
69.652673
 30
0.0
 11
72.980691
 21
55.923070
 31
0.0
 11
73.067564
 21
56.468895
 31
0.0
 11
73.153974
 21
57.014794
 31
0.0
 11
73.239455
 21
57.560839
 31
0.0
 11
73.323277
 21
58.104730
 31
0.0
 11
73.405833
 21
58.648817
 31
0.0
 11
73.487243
 21
59.193077
 31
0.0
 11
73.567251
 21
59.735156
 31
0.0
 11
73.646200
 21
60.277390
 31
0.0
 11
73.724053
 21
60.819781
 31
0.0
 11
73.800451
 21
61.360016
 31
0.0
 11
73.875728
 21
61.900408
 31
0.0
 11
73.949887
 21
62.440955
 31
0.0
 11
74.022619
 21
62.979353
 31
0.0
 11
74.094239
 21
63.517901
 31
0.0
 11
74.164743
 21
64.056596
 31
0.0
 11
74.233834
 21
64.593154
 31
0.0
 11
74.301798
 21
65.129856
 31
0.0
 11
74.368623
 21
65.666702
 31
0.0
 11
74.434032
 21
66.201427
 31
0.0
 11
74.498326
 21
66.736286
 31
0.0
 11
74.561528
 21
67.271276
 31
0.0
 11
74.607729
 21
67.668402
 31
0.0
 11
74.653272
 21
68.065603
 31
0.0
 11
74.698087
 21
68.462886
 31
0.0
 11
74.742068
 21
68.859433
 31
0.0
 11
74.785520
 21
69.256038
 31
0.0
 11
74.828708
 21
69.652673
 31
0.0
  0
SPLINE
  5
116
100
AcDbEntity
  8
0
 62
7
100
AcDbSpline
 70
0
 71
3
 72
19
 73
15
 74
13
 40
0.000000
 40
0.000000
 40
0.000000
 40
0.000000
 40
3.990933
 40
7.908595
 40
11.899528
 40
15.890460
 40
19.808123
 40
23.799055
 40
27.789988
 40
31.707650
 40
35.698583
 40
39.689516
 40
43.607178
 40
47.598111
 40
47.598111
 40
47.598111
 40
47.598111
 10
70.510239
 20
42.577876
 30
0.0
 10
71.357745
 20
41.529122
 30
0.0
 10
73.037198
 20
39.450870
 30
0.0
 10
76.848480
 20
37.880491
 30
0.0
 10
80.902280
 20
37.822654
 30
0.0
 10
84.675676
 20
39.378129
 30
0.0
 10
87.542385
 20
42.265091
 30
0.0
 10
89.069038
 20
46.043547
 30
0.0
 10
88.996130
 20
50.118112
 30
0.0
 10
87.352839
 20
53.839961
 30
0.0
 10
84.386311
 20
56.643126
 30
0.0
 10
80.580442
 20
58.040265
 30
0.0
 10
76.459573
 20
57.938280
 30
0.0
 10
74.147459
 20
56.598943
 30
0.0
 10
72.980691
 20
55.923070
 30
0.0
 11
70.510239
 21
42.577876
 31
0.0
 11
73.270125
 21
39.695069
 31
0.0
 11
76.864564
 21
38.136839
 31
0.0
 11
80.855258
 21
38.093195
 31
0.0
 11
84.545457
 21
39.613056
 31
0.0
 11
87.306185
 21
42.392707
 31
0.0
 11
88.800803
 21
46.093202
 31
0.0
 11
88.729899
 21
50.083505
 31
0.0
 11
87.147152
 21
53.667217
 31
0.0
 11
84.245560
 21
56.407345
 31
0.0
 11
80.503695
 21
57.795146
 31
0.0
 11
76.589648
 21
57.626882
 31
0.0
 11
72.980691
 21
55.923070
 31
0.0
  0
SPLINE
  5
117
100
AcDbEntity
  8
0
 62
7
100
AcDbSpline
 70
0
 71
3
 72
25
 73
21
 74
19
 40
0.000000
 40
0.000000
 40
0.000000
 40
0.000000
 40
0.463174
 40
0.926347
 40
1.389520
 40
1.848539
 40
2.307558
 40
2.766578
 40
3.727475
 40
4.688373
 40
5.649270
 40
6.597441
 40
7.545614
 40
8.493787
 40
9.429301
 40
10.364812
 40
11.300318
 40
12.223221
 40
13.146127
 40
14.069038
 40
14.069038
 40
14.069038
 40
14.069038
 10
67.361472
 20
28.866660
 30
0.0
 10
67.398746
 20
29.016484
 30
0.0
 10
67.473294
 20
29.316132
 30
0.0
 10
67.584890
 20
29.765661
 30
0.0
 10
67.695702
 20
30.213957
 30
0.0
 10
67.805514
 20
30.661073
 30
0.0
 10
67.914382
 20
31.106995
 30
0.0
 10
68.062157
 20
31.715625
 30
0.0
 10
68.248031
 20
32.487156
 30
0.0
 10
68.470734
 20
33.421891
 30
0.0
 10
68.690009
 20
34.353078
 30
0.0
 10
68.905791
 20
35.280727
 30
0.0
 10
69.118181
 20
36.204807
 30
0.0
 10
69.327264
 20
37.125314
 30
0.0
 10
69.533132
 20
38.042221
 30
0.0
 10
69.735489
 20
38.955585
 30
0.0
 10
69.934021
 20
39.865486
 30
0.0
 10
70.128448
 20
40.771977
 30
0.0
 10
70.319873
 20
41.674813
 30
0.0
 10
70.446784
 20
42.276855
 30
0.0
 10
70.510239
 20
42.577876
 30
0.0
 11
67.361472
 21
28.866660
 31
0.0
 11
67.473256
 21
29.316142
 31
0.0
 11
67.584815
 21
29.765680
 31
0.0
 11
67.695922
 21
30.215329
 31
0.0
 11
67.805412
 21
30.661098
 31
0.0
 11
67.914288
 21
31.107018
 31
0.0
 11
68.022600
 21
31.553077
 31
0.0
 11
68.247639
 21
32.487250
 31
0.0
 11
68.470325
 21
33.421988
 31
0.0
 11
68.690555
 21
34.357307
 31
0.0
 11
68.905386
 21
35.280821
 31
0.0
 11
69.117785
 21
36.204897
 31
0.0
 11
69.327813
 21
37.129517
 31
0.0
 11
69.532701
 21
38.042318
 31
0.0
 11
69.735001
 21
38.955694
 31
0.0
 11
69.934373
 21
39.869708
 31
0.0
 11
70.128094
 21
40.772051
 31
0.0
 11
70.319696
 21
41.674849
 31
0.0
 11
70.510239
 21
42.577876
 31
0.0
  0
SPLINE
  5
118
100
AcDbEntity
  8
0
 62
7
100
AcDbSpline
 70
0
 71
3
 72
19
 73
15
 74
13
 40
0.000000
 40
0.000000
 40
0.000000
 40
0.000000
 40
3.992294
 40
7.911246
 40
11.903540
 40
15.895833
 40
19.814786
 40
23.807079
 40
27.799373
 40
31.718325
 40
35.710619
 40
39.702912
 40
43.621865
 40
47.614158
 40
47.614158
 40
47.614158
 40
47.614158
 10
63.868831
 20
15.764279
 30
0.0
 10
64.632040
 20
14.652102
 30
0.0
 10
66.144439
 20
12.448181
 30
0.0
 10
69.822964
 20
10.584655
 30
0.0
 10
73.861378
 20
10.211226
 30
0.0
 10
77.745643
 20
11.469157
 30
0.0
 10
80.828797
 20
14.125931
 30
0.0
 10
82.644169
 20
17.776088
 30
0.0
 10
82.886594
 20
21.845542
 30
0.0
 10
81.534985
 20
25.684480
 30
0.0
 10
78.792269
 20
28.708948
 30
0.0
 10
75.103823
 20
30.395248
 30
0.0
 10
70.985795
 20
30.610028
 30
0.0
 10
68.577040
 20
29.451359
 30
0.0
 10
67.361497
 20
28.866654
 30
0.0
 11
63.868831
 21
15.764279
 31
0.0
 11
66.395900
 21
12.673595
 31
0.0
 11
69.858992
 21
10.839152
 31
0.0
 11
73.835528
 21
10.484794
 31
0.0
 11
77.633989
 21
11.713659
 31
0.0
 11
80.603042
 21
14.271570
 31
0.0
 11
82.380396
 21
17.846402
 31
0.0
 11
82.618300
 21
21.831600
 31
0.0
 11
81.316441
 21
25.527997
 31
0.0
 11
78.633676
 21
28.484546
 31
0.0
 11
75.008391
 21
30.156586
 31
0.0
 11
71.091688
 21
30.289356
 31
0.0
 11
67.361497
 21
28.866654
 31
0.0
  0
SPLINE
  5
119
100
AcDbEntity
  8
0
 62
7
100
AcDbSpline
 70
0
 71
3
 72
19
 73
15
 74
13
 40
0.000000
 40
0.000000
 40
0.000000
 40
0.000000
 40
0.673077
 40
1.346157
 40
2.019247
 40
2.681810
 40
3.344373
 40
4.006948
 40
4.659015
 40
5.311082
 40
5.963153
 40
6.604721
 40
7.246295
 40
7.887882
 40
7.887882
 40
7.887882
 40
7.887882
 10
61.674841
 20
8.187741
 30
0.0
 10
61.738468
 20
8.402888
 30
0.0
 10
61.865722
 20
8.833185
 30
0.0
 10
62.056301
 20
9.478723
 30
0.0
 10
62.245278
 20
10.121080
 30
0.0
 10
62.432378
 20
10.760334
 30
0.0
 10
62.617698
 20
11.396457
 30
0.0
 10
62.801327
 20
12.029427
 30
0.0
 10
62.983376
 20
12.659213
 30
0.0
 10
63.163733
 20
13.285842
 30
0.0
 10
63.342285
 20
13.909349
 30
0.0
 10
63.518940
 20
14.529760
 30
0.0
 10
63.694018
 20
15.146986
 30
0.0
 10
63.810529
 20
15.558532
 30
0.0
 10
63.868785
 20
15.764307
 30
0.0
 11
61.674841
 21
8.187741
 31
0.0
 11
61.865671
 21
8.833199
 31
0.0
 11
62.056198
 21
9.478751
 31
0.0
 11
62.246118
 21
10.124491
 31
0.0
 11
62.432245
 21
10.760373
 31
0.0
 11
62.617577
 21
11.396487
 31
0.0
 11
62.802200
 21
12.032821
 31
0.0
 11
62.983256
 21
12.659248
 31
0.0
 11
63.163592
 21
13.285881
 31
0.0
 11
63.343090
 21
13.912760
 31
0.0
 11
63.518836
 21
14.529787
 31
0.0
 11
63.693965
 21
15.146997
 31
0.0
 11
63.868785
 21
15.764307
 31
0.0
  0
SPLINE
  5
11a
100
AcDbEntity
  8
0
 62
7
100
AcDbSpline
 70
0
 71
3
 72
13
 73
9
 74
7
 40
0.000000
 40
0.000000
 40
0.000000
 40
0.000000
 40
4.197894
 40
8.324286
 40
12.522179
 40
16.720073
 40
20.846465
 40
25.044359
 40
25.044359
 40
25.044359
 40
25.044359
 10
41.674841
 20
8.187741
 30
0.0
 10
42.394715
 20
6.967347
 30
0.0
 10
43.822202
 20
4.547347
 30
0.0
 10
47.491706
 20
2.260837
 30
0.0
 10
51.674841
 20
1.428357
 30
0.0
 10
55.857976
 20
2.260837
 30
0.0
 10
59.527480
 20
4.547347
 30
0.0
 10
60.954967
 20
6.967347
 30
0.0
 10
61.674841
 20
8.187741
 30
0.0
 11
41.674841
 21
8.187741
 31
0.0
 11
44.091794
 21
4.755445
 31
0.0
 11
47.554654
 21
2.511406
 31
0.0
 11
51.674841
 21
1.707435
 31
0.0
 11
55.795028
 21
2.511406
 31
0.0
 11
59.257888
 21
4.755445
 31
0.0
 11
61.674841
 21
8.187741
 31
0.0
  0
SPLINE
  5
11b
100
AcDbEntity
  8
0
 62
7
100
AcDbSpline
 70
0
 71
3
 72
31
 73
27
 74
25
 40
0.000000
 40
0.000000
 40
0.000000
 40
0.000000
 40
0.604205
 40
1.208409
 40
1.812612
 40
2.423789
 40
3.034966
 40
3.646144
 40
4.264304
 40
4.882464
 40
5.500625
 40
6.125779
 40
6.750934
 40
7.376088
 40
8.008249
 40
8.640409
 40
9.272569
 40
10.567787
 40
11.863010
 40
13.158241
 40
14.498739
 40
15.839240
 40
17.179744
 40
18.565613
 40
19.951485
 40
21.337368
 40
21.337368
 40
21.337368
 40
21.337368
 10
36.015329
 20
28.759127
 30
0.0
 10
36.064458
 20
28.563810
 30
0.0
 10
36.162716
 20
28.173175
 30
0.0
 10
36.310466
 20
27.587315
 30
0.0
 10
36.459515
 20
26.999385
 30
0.0
 10
36.610245
 20
26.409485
 30
0.0
 10
36.762555
 20
25.817590
 30
0.0
 10
36.916342
 20
25.223672
 30
0.0
 10
37.071504
 20
24.627707
 30
0.0
 10
37.228069
 20
24.029702
 30
0.0
 10
37.386065
 20
23.429662
 30
0.0
 10
37.545518
 20
22.827596
 30
0.0
 10
37.706423
 20
22.223503
 30
0.0
 10
37.868766
 20
21.617378
 30
0.0
 10
38.032542
 20
21.009219
 30
0.0
 10
38.197760
 20
20.399031
 30
0.0
 10
38.421864
 20
19.575809
 30
0.0
 10
38.706187
 20
18.539918
 30
0.0
 10
39.052308
 20
17.291796
 30
0.0
 10
39.405585
 20
16.030000
 30
0.0
 10
39.765956
 20
14.754520
 30
0.0
 10
40.133729
 20
13.465455
 30
0.0
 10
40.509201
 20
12.162863
 30
0.0
 10
40.892721
 20
10.846859
 30
0.0
 10
41.283122
 20
9.517108
 30
0.0
 10
41.544268
 20
8.630865
 30
0.0
 10
41.674841
 20
8.187741
 30
0.0
 11
36.015329
 21
28.759127
 31
0.0
 11
36.162776
 21
28.173190
 31
0.0
 11
36.310587
 21
27.587345
 31
0.0
 11
36.459126
 21
27.001684
 31
0.0
 11
36.610412
 21
26.409528
 31
0.0
 11
36.762704
 21
25.817628
 31
0.0
 11
36.915889
 21
25.225959
 31
0.0
 11
37.071640
 21
24.627742
 31
0.0
 11
37.228209
 21
24.029739
 31
0.0
 11
37.385614
 21
23.431954
 31
0.0
 11
37.545661
 21
22.827634
 31
0.0
 11
37.706562
 21
22.223541
 31
0.0
 11
37.868298
 21
21.619670
 31
0.0
 11
38.032681
 21
21.009256
 31
0.0
 11
38.197898
 21
20.399068
 31
0.0
 11
38.363948
 21
19.789106
 31
0.0
 11
38.706736
 21
18.540071
 31
0.0
 11
39.052822
 21
17.291942
 31
0.0
 11
39.402001
 21
16.044666
 31
0.0
 11
39.766506
 21
14.754678
 31
0.0
 11
40.134314
 21
13.465624
 31
0.0
 11
40.505631
 21
12.177573
 31
0.0
 11
40.893162
 21
10.846989
 31
0.0
 11
41.283340
 21
9.517177
 31
0.0
 11
41.674841
 21
8.187741
 31
0.0
  0
SPLINE
  5
11c
100
AcDbEntity
  8
0
 62
7
100
AcDbSpline
 70
0
 71
3
 72
19
 73
15
 74
13
 40
0.000000
 40
0.000000
 40
0.000000
 40
0.000000
 40
3.985859
 40
7.898712
 40
11.884571
 40
15.870431
 40
19.783284
 40
23.769143
 40
27.755002
 40
31.667855
 40
35.653714
 40
39.639574
 40
43.552426
 40
47.538286
 40
47.538286
 40
47.538286
 40
47.538286
 10
32.954928
 20
42.027447
 30
0.0
 10
31.759543
 20
42.647495
 30
0.0
 10
29.390669
 20
43.876236
 30
0.0
 10
25.275028
 20
43.789080
 30
0.0
 10
21.541443
 20
42.222630
 30
0.0
 10
18.707527
 20
39.293005
 30
0.0
 10
17.233013
 20
35.506888
 30
0.0
 10
17.338851
 20
31.438451
 30
0.0
 10
19.025694
 20
27.734678
 30
0.0
 10
22.009575
 20
24.976902
 30
0.0
 10
25.840376
 20
23.584512
 30
0.0
 10
29.882879
 20
23.811638
 30
0.0
 10
33.620906
 20
25.535952
 30
0.0
 10
35.212268
 20
27.678132
 30
0.0
 10
36.015303
 20
28.759122
 30
0.0
 11
32.954928
 21
42.027447
 31
0.0
 11
29.275458
 21
43.559953
 31
0.0
 11
25.362622
 21
43.548346
 31
0.0
 11
21.692309
 21
41.994038
 31
0.0
 11
18.920184
 21
39.130055
 31
0.0
 11
17.499822
 21
35.484100
 31
0.0
 11
17.603970
 21
31.499602
 31
0.0
 11
19.255567
 21
27.872027
 31
0.0
 11
22.129376
 21
25.216534
 31
0.0
 11
25.875876
 21
23.856090
 31
0.0
 11
29.856182
 21
24.066418
 31
0.0
 11
33.378801
 21
25.769819
 31
0.0
 11
36.015303
 21
28.759122
 31
0.0
  0
SPLINE
  5
11d
100
AcDbEntity
  8
0
 62
7
100
AcDbSpline
 70
0
 71
3
 72
19
 73
15
 74
13
 40
0.000000
 40
0.000000
 40
0.000000
 40
0.000000
 40
0.142912
 40
0.285823
 40
0.428733
 40
2.427077
 40
4.425447
 40
6.423834
 40
8.466877
 40
10.509902
 40
12.552902
 40
13.004532
 40
13.456161
 40
13.907790
 40
13.907790
 40
13.907790
 40
13.907790
 10
30.405821
 20
55.698373
 30
0.0
 10
30.413459
 20
55.651352
 30
0.0
 10
30.428735
 20
55.557310
 30
0.0
 10
30.451668
 20
55.416251
 30
0.0
 10
30.574125
 20
54.664775
 30
0.0
 10
30.801587
 20
53.303763
 30
0.0
 10
31.145094
 20
51.335125
 30
0.0
 10
31.504663
 20
49.354213
 30
0.0
 10
31.879898
 20
47.361060
 30
0.0
 10
32.271452
 20
45.355894
 30
0.0
 10
32.571621
 20
43.873411
 30
0.0
 10
32.770688
 20
42.911712
 30
0.0
 10
32.862695
 20
42.469554
 30
0.0
 10
32.924187
 20
42.174814
 30
0.0
 10
32.954934
 20
42.027444
 30
0.0
 11
30.405821
 21
55.698373
 31
0.0
 11
30.428738
 21
55.557311
 31
0.0
 11
30.451677
 21
55.416253
 31
0.0
 11
30.474666
 21
55.275203
 31
0.0
 11
30.803934
 21
53.304174
 31
0.0
 11
31.147326
 21
51.335528
 31
0.0
 11
31.504117
 21
49.369249
 31
0.0
 11
31.882160
 21
47.361488
 31
0.0
 11
32.273768
 21
45.356346
 31
0.0
 11
32.679259
 21
43.353990
 31
0.0
 11
32.770765
 21
42.911727
 31
0.0
 11
32.862734
 21
42.469562
 31
0.0
 11
32.954934
 21
42.027444
 31
0.0
  0
SPLINE
  5
11e
100
AcDbEntity
  8
0
 62
7
100
AcDbSpline
 70
0
 71
3
 72
22
 73
18
 74
16
 40
0.000000
 40
0.000000
 40
0.000000
 40
0.000000
 40
1.302175
 40
2.565728
 40
3.867903
 40
5.170079
 40
6.433633
 40
7.735809
 40
8.387758
 40
9.034311
 40
9.686260
 40
10.338208
 40
10.984761
 40
11.636710
 40
12.938886
 40
14.202440
 40
15.504616
 40
15.504616
 40
15.504616
 40
15.504616
 10
54.261585
 20
194.027329
 30
0.0
 10
54.193134
 20
193.588295
 30
0.0
 10
54.058261
 20
192.723249
 30
0.0
 10
53.066764
 20
191.770934
 30
0.0
 10
51.773355
 20
191.417958
 30
0.0
 10
50.466522
 20
191.771217
 30
0.0
 10
49.514496
 20
192.722137
 30
0.0
 10
49.222161
 20
193.811503
 30
0.0
 10
49.338091
 20
194.679054
 30
0.0
 10
49.589479
 20
195.286890
 30
0.0
 10
49.989726
 20
195.808685
 30
0.0
 10
50.511589
 20
196.208949
 30
0.0
 10
51.119168
 20
196.460337
 30
0.0
 10
51.988007
 20
196.576243
 30
0.0
 10
53.067674
 20
196.284093
 30
0.0
 10
54.058030
 20
195.331317
 30
0.0
 10
54.193056
 20
194.466332
 30
0.0
 10
54.261585
 20
194.027329
 30
0.0
 11
54.261585
 21
194.027329
 31
0.0
 11
53.921560
 21
192.770332
 31
0.0
 11
53.028093
 21
191.876865
 31
0.0
 11
51.771096
 21
191.536839
 31
0.0
 11
50.514097
 21
191.876864
 31
0.0
 11
49.620629
 21
192.770331
 31
0.0
 11
49.280603
 21
194.027329
 31
0.0
 11
49.365928
 21
194.673670
 31
0.0
 11
49.613353
 21
195.271007
 31
0.0
 11
50.010051
 21
195.788374
 31
0.0
 11
50.527417
 21
196.185071
 31
0.0
 11
51.124755
 21
196.432496
 31
0.0
 11
51.771096
 21
196.517822
 31
0.0
 11
53.028094
 21
196.177796
 31
0.0
 11
53.921561
 21
195.284328
 31
0.0
 11
54.261585
 21
194.027329
 31
0.0
  0
SPLINE
  5
11f
100
AcDbEntity
  8
0
 62
7
100
AcDbSpline
 70
0
 71
3
 72
19
 73
15
 74
13
 40
0.000000
 40
0.000000
 40
0.000000
 40
0.000000
 40
3.983409
 40
7.893938
 40
11.877346
 40
15.860755
 40
19.771284
 40
23.754692
 40
27.738101
 40
31.648630
 40
35.632039
 40
39.615447
 40
43.525976
 40
47.509385
 40
47.509385
 40
47.509385
 40
47.509385
 10
107.591538
 20
69.212429
 30
0.0
 10
106.457597
 20
69.937199
 30
0.0
 10
104.210460
 20
71.373478
 30
0.0
 10
100.106472
 20
71.658533
 30
0.0
 10
96.248735
 20
70.437699
 30
0.0
 10
93.162285
 20
67.779456
 30
0.0
 10
91.350053
 20
64.145778
 30
0.0
 10
91.083898
 20
60.087294
 30
0.0
 10
92.423462
 20
56.247020
 30
0.0
 10
95.139668
 20
53.228739
 30
0.0
 10
98.823574
 20
51.490559
 30
0.0
 10
102.867203
 20
51.343488
 30
0.0
 10
106.746286
 20
52.713410
 30
0.0
 10
108.528639
 20
54.697280
 30
0.0
 10
109.428043
 20
55.698373
 30
0.0
 11
107.591538
 21
69.212429
 31
0.0
 11
104.067370
 21
71.069249
 31
0.0
 11
100.171818
 21
71.411171
 31
0.0
 11
96.378072
 21
70.196661
 31
0.0
 11
93.358992
 21
67.598065
 31
0.0
 11
91.613340
 21
64.098788
 31
0.0
 11
91.353160
 21
60.123885
 31
0.0
 11
92.664661
 21
56.362568
 31
0.0
 11
95.280834
 21
53.456045
 31
0.0
 11
98.883896
 21
51.757371
 31
0.0
 11
102.864167
 21
51.599318
 31
0.0
 11
106.527198
 21
52.968420
 31
0.0
 11
109.428043
 21
55.698373
 31
0.0
  0
SPLINE
  5
120
100
AcDbEntity
  8
0
 62
7
100
AcDbSpline
 70
0
 71
3
 72
28
 73
24
 74
22
 40
0.000000
 40
0.000000
 40
0.000000
 40
0.000000
 40
0.396644
 40
0.793288
 40
1.189930
 40
1.586959
 40
1.983988
 40
2.381018
 40
2.778441
 40
3.175863
 40
3.573286
 40
4.414248
 40
5.255213
 40
6.096178
 40
6.940678
 40
7.785178
 40
8.629681
 40
9.477816
 40
10.325947
 40
11.174073
 40
12.025916
 40
12.877764
 40
13.729618
 40
13.729618
 40
13.729618
 40
13.729618
 10
106.484544
 20
82.895519
 30
0.0
 10
106.491628
 20
82.763494
 30
0.0
 10
106.505796
 20
82.499445
 30
0.0
 10
106.527326
 20
82.103386
 30
0.0
 10
106.549423
 20
81.707230
 30
0.0
 10
106.572360
 20
81.310993
 30
0.0
 10
106.596084
 20
80.914673
 30
0.0
 10
106.620502
 20
80.518263
 30
0.0
 10
106.645552
 20
80.121762
 30
0.0
 10
106.671231
 20
79.725170
 30
0.0
 10
106.707357
 20
79.181099
 30
0.0
 10
106.755088
 20
78.489626
 30
0.0
 10
106.815972
 20
77.650867
 30
0.0
 10
106.879913
 20
76.811152
 30
0.0
 10
106.946927
 20
75.970496
 30
0.0
 10
107.016929
 20
75.128900
 30
0.0
 10
107.089836
 20
74.286334
 30
0.0
 10
107.165561
 20
73.442802
 30
0.0
 10
107.244432
 20
72.598344
 30
0.0
 10
107.326768
 20
71.752975
 30
0.0
 10
107.412898
 20
70.906739
 30
0.0
 10
107.501609
 20
70.059522
 30
0.0
 10
107.561569
 20
69.494796
 30
0.0
 10
107.591550
 20
69.212432
 30
0.0
 11
106.484544
 21
82.895519
 31
0.0
 11
106.505842
 21
82.499447
 31
0.0
 11
106.527419
 21
82.103391
 31
0.0
 11
106.549554
 21
81.707366
 31
0.0
 11
106.572490
 21
81.311001
 31
0.0
 11
106.596199
 21
80.914680
 31
0.0
 11
106.620598
 21
80.518401
 31
0.0
 11
106.645655
 21
80.121769
 31
0.0
 11
106.671340
 21
79.725177
 31
0.0
 11
106.697673
 21
79.328628
 31
0.0
 11
106.755583
 21
78.489662
 31
0.0
 11
106.816467
 21
77.650903
 31
0.0
 11
106.880319
 21
76.812366
 31
0.0
 11
106.947409
 21
75.970535
 31
0.0
 11
107.017396
 21
75.128940
 31
0.0
 11
107.090182
 21
74.287580
 31
0.0
 11
107.166067
 21
73.442847
 31
0.0
 11
107.244989
 21
72.598395
 31
0.0
 11
107.327257
 21
71.754269
 31
0.0
 11
107.413307
 21
70.906783
 31
0.0
 11
107.501814
 21
70.059545
 31
0.0
 11
107.591550
 21
69.212432
 31
0.0
  0
SPLINE
  5
121
100
AcDbEntity
  8
0
 62
7
100
AcDbSpline
 70
0
 71
3
 72
19
 73
15
 74
13
 40
0.000000
 40
0.000000
 40
0.000000
 40
0.000000
 40
3.978405
 40
7.884190
 40
11.862594
 40
15.840999
 40
19.746784
 40
23.725189
 40
27.703594
 40
31.609378
 40
35.587783
 40
39.566188
 40
43.471973
 40
47.450378
 40
47.450378
 40
47.450378
 40
47.450378
 10
106.170690
 20
96.574153
 30
0.0
 10
105.123902
 20
97.417170
 30
0.0
 10
103.049433
 20
99.087816
 30
0.0
 10
99.006857
 20
99.820229
 30
0.0
 10
95.043281
 20
99.032767
 30
0.0
 10
91.686064
 20
96.735380
 30
0.0
 10
89.484064
 20
93.330090
 30
0.0
 10
88.767424
 20
89.331935
 30
0.0
 10
89.666681
 20
85.370856
 30
0.0
 10
92.022543
 20
82.070141
 30
0.0
 10
95.481595
 20
79.929147
 30
0.0
 10
99.477115
 20
79.324298
 30
0.0
 10
103.481846
 20
80.241348
 30
0.0
 10
105.477510
 20
82.005379
 30
0.0
 10
106.484533
 20
82.895519
 30
0.0
 11
106.170690
 21
96.574153
 31
0.0
 11
102.874409
 21
98.801760
 31
0.0
 11
99.044491
 21
99.567839
 31
0.0
 11
95.144960
 21
98.779572
 31
0.0
 11
91.861011
 21
96.533824
 31
0.0
 11
89.739821
 21
93.254234
 31
0.0
 11
89.038389
 21
89.338152
 31
0.0
 11
89.918689
 21
85.458361
 31
0.0
 11
92.188062
 21
82.279509
 31
0.0
 11
95.571553
 21
80.186738
 31
0.0
 11
99.503134
 21
79.578148
 31
0.0
 11
103.293887
 21
80.519076
 31
0.0
 11
106.484533
 21
82.895519
 31
0.0
  0
SPLINE
  5
122
100
AcDbEntity
  8
0
 62
7
100
AcDbSpline
 70
0
 71
3
 72
31
 73
27
 74
25
 40
0.000000
 40
0.000000
 40
0.000000
 40
0.000000
 40
0.446499
 40
0.892996
 40
1.339492
 40
1.785334
 40
2.231176
 40
2.677017
 40
3.122218
 40
3.567419
 40
4.012621
 40
4.457193
 40
4.901766
 40
5.346340
 40
5.790301
 40
6.234263
 40
6.678224
 40
7.453882
 40
8.229540
 40
9.005201
 40
9.780447
 40
10.555691
 40
11.330931
 40
12.105828
 40
12.880730
 40
13.655636
 40
13.655636
 40
13.655636
 40
13.655636
 10
106.657659
 20
110.219180
 30
0.0
 10
106.648282
 20
110.070642
 30
0.0
 10
106.629528
 20
109.773568
 30
0.0
 10
106.601766
 20
109.327935
 30
0.0
 10
106.574726
 20
108.882476
 30
0.0
 10
106.548741
 20
108.437173
 30
0.0
 10
106.523746
 20
107.992032
 30
0.0
 10
106.499633
 20
107.547057
 30
0.0
 10
106.476303
 20
107.102254
 30
0.0
 10
106.453791
 20
106.657622
 30
0.0
 10
106.432115
 20
106.213158
 30
0.0
 10
106.411310
 20
105.768862
 30
0.0
 10
106.391361
 20
105.324737
 30
0.0
 10
106.372253
 20
104.880778
 30
0.0
 10
106.354003
 20
104.436987
 30
0.0
 10
106.336581
 20
103.993367
 30
0.0
 10
106.315893
 20
103.439226
 30
0.0
 10
106.292851
 20
102.774532
 30
0.0
 10
106.268552
 20
101.999253
 30
0.0
 10
106.246726
 20
101.224037
 30
0.0
 10
106.227284
 20
100.448895
 30
0.0
 10
106.210531
 20
99.673831
 30
0.0
 10
106.196758
 20
98.898824
 30
0.0
 10
106.186257
 20
98.123881
 30
0.0
 10
106.177941
 20
97.349024
 30
0.0
 10
106.173124
 20
96.832443
 30
0.0
 10
106.170716
 20
96.574153
 30
0.0
 11
106.657659
 21
110.219180
 31
0.0
 11
106.629589
 21
109.773564
 31
0.0
 11
106.601884
 21
109.327927
 31
0.0
 11
106.574886
 21
108.882248
 31
0.0
 11
106.548904
 21
108.437164
 31
0.0
 11
106.523891
 21
107.992024
 31
0.0
 11
106.499750
 21
107.546837
 31
0.0
 11
106.476437
 21
107.102247
 31
0.0
 11
106.453928
 21
106.657615
 31
0.0
 11
106.432248
 21
106.212942
 31
0.0
 11
106.411451
 21
105.768856
 31
0.0
 11
106.391500
 21
105.324731
 31
0.0
 11
106.372386
 21
104.880568
 31
0.0
 11
106.354140
 21
104.436982
 31
0.0
 11
106.336724
 21
103.993362
 31
0.0
 11
106.320161
 21
103.549710
 31
0.0
 11
106.293280
 21
102.774518
 31
0.0
 11
106.268963
 21
101.999241
 31
0.0
 11
106.247119
 21
101.223888
 31
0.0
 11
106.227732
 21
100.448884
 31
0.0
 11
106.211027
 21
99.673820
 31
0.0
 11
106.197301
 21
98.898702
 31
0.0
 11
106.186621
 21
98.123878
 31
0.0
 11
106.178123
 21
97.349023
 31
0.0
 11
106.170716
 21
96.574153
 31
0.0
  0
SPLINE
  5
123
100
AcDbEntity
  8
0
 62
7
100
AcDbSpline
 70
0
 71
3
 72
19
 73
15
 74
13
 40
0.000000
 40
0.000000
 40
0.000000
 40
0.000000
 40
3.971911
 40
7.871537
 40
11.843448
 40
15.815359
 40
19.714986
 40
23.686897
 40
27.658808
 40
31.558434
 40
35.530345
 40
39.502256
 40
43.401883
 40
47.373794
 40
47.373794
 40
47.373794
 40
47.373794
 10
107.931946
 20
123.899058
 30
0.0
 10
106.987632
 20
124.852296
 30
0.0
 10
105.116189
 20
126.741423
 30
0.0
 10
101.188697
 20
127.922606
 30
0.0
 10
97.168226
 20
127.589850
 30
0.0
 10
93.577221
 20
125.693227
 30
0.0
 10
91.003862
 20
122.568020
 30
0.0
 10
89.833259
 20
118.685704
 30
0.0
 10
90.266648
 20
114.653973
 30
0.0
 10
92.218499
 20
111.107231
 30
0.0
 10
95.397408
 20
108.579974
 30
0.0
 10
99.287244
 20
107.510352
 30
0.0
 10
103.365329
 20
107.945795
 30
0.0
 10
105.553499
 20
109.456760
 30
0.0
 10
106.657631
 20
110.219180
 30
0.0
 11
107.931946
 21
123.899058
 31
0.0
 11
104.910872
 21
126.477660
 31
0.0
 11
101.197501
 21
127.668443
 31
0.0
 11
97.240240
 21
127.327614
 31
0.0
 11
93.727514
 21
125.473745
 31
0.0
 11
91.248386
 21
122.463594
 31
0.0
 11
90.102223
 21
118.660650
 31
0.0
 11
90.526253
 21
114.711438
 31
0.0
 11
92.406744
 21
111.295177
 31
0.0
 11
95.516619
 21
108.824396
 31
0.0
 11
99.342841
 21
107.758517
 31
0.0
 11
103.212262
 21
108.242943
 31
0.0
 11
106.657631
 21
110.219180
 31
0.0
  0
SPLINE
  5
124
100
AcDbEntity
  8
0
 62
7
100
AcDbSpline
 70
0
 71
3
 72
31
 73
27
 74
25
 40
0.000000
 40
0.000000
 40
0.000000
 40
0.000000
 40
0.556609
 40
1.113217
 40
1.669821
 40
2.223662
 40
2.777505
 40
3.331347
 40
3.882441
 40
4.433534
 40
4.984627
 40
5.532993
 40
6.081359
 40
6.629725
 40
7.175385
 40
7.721044
 40
8.266702
 40
8.809673
 40
9.352645
 40
9.895619
 40
10.531457
 40
11.167296
 40
11.803133
 40
12.436465
 40
13.069801
 40
13.703137
 40
13.703137
 40
13.703137
 40
13.703137
 10
109.930111
 20
137.454242
 30
0.0
 10
109.898799
 20
137.271367
 30
0.0
 10
109.836175
 20
136.905617
 30
0.0
 10
109.742695
 20
136.356916
 30
0.0
 10
109.650280
 20
135.808970
 30
0.0
 10
109.559380
 20
135.261704
 30
0.0
 10
109.469870
 20
134.715143
 30
0.0
 10
109.381632
 20
134.169302
 30
0.0
 10
109.294545
 20
133.624205
 30
0.0
 10
109.208643
 20
133.079847
 30
0.0
 10
109.123962
 20
132.536219
 30
0.0
 10
109.040528
 20
131.993318
 30
0.0
 10
108.958334
 20
131.451146
 30
0.0
 10
108.877364
 20
130.909703
 30
0.0
 10
108.797616
 20
130.368990
 30
0.0
 10
108.719094
 20
129.829010
 30
0.0
 10
108.641815
 20
129.289756
 30
0.0
 10
108.565787
 20
128.751228
 30
0.0
 10
108.490975
 20
128.213434
 30
0.0
 10
108.413015
 20
127.644826
 30
0.0
 10
108.332092
 20
127.045379
 30
0.0
 10
108.248621
 20
126.415043
 30
0.0
 10
108.167036
 20
125.785302
 30
0.0
 10
108.087523
 20
125.156138
 30
0.0
 10
108.009416
 20
124.527637
 30
0.0
 10
107.957779
 20
124.108583
 30
0.0
 10
107.931960
 20
123.899055
 30
0.0
 11
109.930111
 21
137.454242
 31
0.0
 11
109.836251
 21
136.905604
 31
0.0
 11
109.742847
 21
136.356889
 31
0.0
 11
109.650355
 21
135.808023
 31
0.0
 11
109.559587
 21
135.261671
 31
0.0
 11
109.470057
 21
134.715113
 31
0.0
 11
109.381654
 21
134.168371
 31
0.0
 11
109.294718
 21
133.624177
 31
0.0
 11
109.208823
 21
133.079819
 31
0.0
 11
109.124008
 21
132.535292
 31
0.0
 11
109.040712
 21
131.993290
 31
0.0
 11
108.958516
 21
131.451119
 31
0.0
 11
108.877413
 21
130.908783
 31
0.0
 11
108.797799
 21
130.368963
 31
0.0
 11
108.719280
 21
129.828983
 31
0.0
 11
108.641876
 21
129.288842
 31
0.0
 11
108.565969
 21
128.751203
 31
0.0
 11
108.491151
 21
128.213411
 31
0.0
 11
108.417391
 21
127.675471
 31
0.0
 11
108.332358
 21
127.045343
 31
0.0
 11
108.248917
 21
126.415004
 31
0.0
 11
108.167257
 21
125.784432
 31
0.0
 11
108.087740
 21
125.156111
 31
0.0
 11
108.009525
 21
124.527624
 31
0.0
 11
107.931960
 21
123.899055
 31
0.0
  0
SPLINE
  5
125
100
AcDbEntity
  8
0
 62
7
100
AcDbSpline
 70
0
 71
3
 72
19
 73
15
 74
13
 40
0.000000
 40
0.000000
 40
0.000000
 40
0.000000
 40
3.964907
 40
7.857890
 40
11.822797
 40
15.787704
 40
19.680687
 40
23.645594
 40
27.610501
 40
31.503485
 40
35.468392
 40
39.433299
 40
43.326282
 40
47.291189
 40
47.291189
 40
47.291189
 40
47.291189
 10
112.592829
 20
150.995126
 30
0.0
 10
111.747099
 20
152.033690
 30
0.0
 10
110.070980
 20
154.091980
 30
0.0
 10
106.285222
 20
155.649383
 30
0.0
 10
102.258894
 20
155.714792
 30
0.0
 10
98.504136
 20
154.187193
 30
0.0
 10
95.636237
 20
151.340389
 30
0.0
 10
94.083298
 20
147.602656
 30
0.0
 10
94.105335
 20
143.555215
 30
0.0
 10
95.681767
 20
139.834463
 30
0.0
 10
98.578536
 20
136.998885
 30
0.0
 10
102.329839
 20
135.534876
 30
0.0
 10
106.423420
 20
135.542860
 30
0.0
 10
108.754099
 20
136.813239
 30
0.0
 10
109.930105
 20
137.454242
 30
0.0
 11
112.592829
 21
150.995126
 31
0.0
 11
109.841766
 21
153.850321
 31
0.0
 11
106.269008
 21
155.396517
 31
0.0
 11
102.304431
 21
155.447676
 31
0.0
 11
98.631364
 21
153.954670
 31
0.0
 11
95.868196
 21
151.212369
 31
0.0
 11
94.347391
 21
147.550724
 31
0.0
 11
94.368496
 21
143.585873
 31
0.0
 11
95.887566
 21
140.001498
 31
0.0
 11
98.721825
 21
137.228871
 31
0.0
 11
102.410578
 21
135.775053
 31
0.0
 11
106.302775
 21
135.853316
 31
0.0
 11
109.930105
 21
137.454242
 31
0.0
  0
SPLINE
  5
126
100
AcDbEntity
  8
0
 62
7
100
AcDbSpline
 70
0
 71
3
 72
19
 73
15
 74
13
 40
0.000000
 40
0.000000
 40
0.000000
 40
0.000000
 40
0.391935
 40
0.783869
 40
1.175803
 40
3.231247
 40
5.286704
 40
7.342171
 40
9.333133
 40
11.324083
 40
13.315015
 40
13.490257
 40
13.665498
 40
13.840737
 40
13.840737
 40
13.840737
 40
13.840737
 10
115.815420
 20
164.454673
 30
0.0
 10
115.782854
 20
164.328153
 30
0.0
 10
115.717721
 20
164.075111
 30
0.0
 10
115.620156
 20
163.695515
 30
0.0
 10
115.385191
 20
162.778707
 30
0.0
 10
115.017325
 20
161.323532
 30
0.0
 10
114.524366
 20
159.328054
 30
0.0
 10
114.047157
 20
157.350856
 30
0.0
 10
113.585203
 20
155.392124
 30
0.0
 10
113.138828
 20
153.451850
 30
0.0
 10
112.836062
 20
152.099613
 30
0.0
 10
112.668096
 20
151.337430
 30
0.0
 10
112.630447
 20
151.166281
 30
0.0
 10
112.605368
 20
151.052178
 30
0.0
 10
112.592829
 20
150.995126
 30
0.0
 11
115.815420
 21
164.454673
 31
0.0
 11
115.717744
 21
164.075105
 31
0.0
 11
115.620200
 21
163.695503
 31
0.0
 11
115.522920
 21
163.315833
 31
0.0
 11
115.019128
 21
161.323086
 31
0.0
 11
114.526151
 21
159.327622
 31
0.0
 11
114.043878
 21
157.329533
 31
0.0
 11
113.586976
 21
155.391707
 31
0.0
 11
113.140722
 21
153.451413
 31
0.0
 11
112.705825
 21
151.508562
 31
0.0
 11
112.668107
 21
151.337427
 31
0.0
 11
112.630452
 21
151.166279
 31
0.0
 11
112.592829
 21
150.995126
 31
0.0
  0
SPLINE
  5
127
100
AcDbEntity
  8
0
 62
7
100
AcDbSpline
 70
0
 71
3
 72
19
 73
15
 74
13
 40
0.000000
 40
0.000000
 40
0.000000
 40
0.000000
 40
3.957741
 40
7.843927
 40
11.801668
 40
15.759409
 40
19.645595
 40
23.603336
 40
27.561077
 40
31.447263
 40
35.405004
 40
39.362745
 40
43.248931
 40
47.206672
 40
47.206672
 40
47.206672
 40
47.206672
 10
119.483437
 20
177.823049
 30
0.0
 10
118.713336
 20
178.915829
 30
0.0
 10
117.187057
 20
181.081630
 30
0.0
 10
113.527281
 20
182.898020
 30
0.0
 10
109.523274
 20
183.248668
 30
0.0
 10
105.675841
 20
181.996853
 30
0.0
 10
102.614890
 20
179.370353
 30
0.0
 10
100.795974
 20
175.763121
 30
0.0
 10
100.519276
 20
171.732734
 30
0.0
 10
101.811201
 20
167.911890
 30
0.0
 10
104.481036
 20
164.871863
 30
0.0
 10
108.103322
 20
163.130005
 30
0.0
 10
112.177605
 20
162.824319
 30
0.0
 10
114.595459
 20
163.907927
 30
0.0
 10
115.815415
 20
164.454673
 30
0.0
 11
119.483437
 21
177.823049
 31
0.0
 11
116.942438
 21
180.857359
 31
0.0
 11
113.493311
 21
182.647880
 31
0.0
 11
109.549528
 21
182.979971
 31
0.0
 11
105.785591
 21
181.756657
 31
0.0
 11
102.836079
 21
179.226278
 31
0.0
 11
101.054569
 21
175.692168
 31
0.0
 11
100.783020
 21
171.743753
 31
0.0
 11
102.028165
 21
168.062442
 31
0.0
 11
104.640740
 21
165.089537
 31
0.0
 11
108.201765
 21
163.362454
 31
0.0
 11
112.081694
 21
163.142025
 31
0.0
 11
115.815415
 21
164.454673
 31
0.0
  0
SPLINE
  5
128
100
AcDbEntity
  8
0
 62
7
100
AcDbSpline
 70
0
 71
3
 72
25
 73
21
 74
19
 40
0.000000
 40
0.000000
 40
0.000000
 40
0.000000
 40
1.079744
 40
2.159487
 40
3.239228
 40
4.273176
 40
5.307123
 40
6.341070
 40
7.329232
 40
8.317393
 40
9.305553
 40
10.247938
 40
11.190323
 40
12.132709
 40
13.688984
 40
15.245259
 40
16.801531
 40
18.293362
 40
19.785198
 40
21.277039
 40
21.277039
 40
21.277039
 40
21.277039
 10
125.698163
 20
198.171585
 30
0.0
 10
125.589311
 20
197.828525
 30
0.0
 10
125.371607
 20
197.142406
 30
0.0
 10
125.045467
 20
196.113097
 30
0.0
 10
124.724755
 20
195.098082
 30
0.0
 10
124.409829
 20
194.097248
 30
0.0
 10
124.100571
 20
193.110634
 30
0.0
 10
123.796894
 20
192.138266
 30
0.0
 10
123.498696
 20
191.180176
 30
0.0
 10
123.206013
 20
190.236354
 30
0.0
 10
122.918904
 20
189.306781
 30
0.0
 10
122.637390
 20
188.391449
 30
0.0
 10
122.361405
 20
187.490382
 30
0.0
 10
122.026745
 20
186.393273
 30
0.0
 10
121.634318
 20
185.099848
 30
0.0
 10
121.185874
 20
183.609582
 30
0.0
 10
120.747570
 20
182.138703
 30
0.0
 10
120.319795
 20
180.687108
 30
0.0
 10
119.900925
 20
179.255282
 30
0.0
 10
119.622623
 20
178.300455
 30
0.0
 10
119.483471
 20
177.823041
 30
0.0
 11
125.698163
 21
198.171585
 31
0.0
 11
125.371676
 21
197.142384
 31
0.0
 11
125.045605
 21
196.113053
 31
0.0
 11
124.720364
 21
195.083461
 31
0.0
 11
124.410010
 21
194.097191
 31
0.0
 11
124.100743
 21
193.110581
 31
0.0
 11
123.792508
 21
192.123647
 31
0.0
 11
123.498859
 21
191.180125
 31
0.0
 11
123.206191
 21
190.236299
 31
0.0
 11
122.914593
 21
189.292143
 31
0.0
 11
122.637564
 21
188.391396
 31
0.0
 11
122.361576
 21
187.490330
 31
0.0
 11
122.086618
 21
186.588948
 31
0.0
 11
121.634884
 21
185.099677
 31
0.0
 11
121.186541
 21
183.609381
 31
0.0
 11
120.742205
 21
182.117890
 31
0.0
 11
120.320268
 21
180.686971
 31
0.0
 11
119.901162
 21
179.255215
 31
0.0
 11
119.483471
 21
177.823041
 31
0.0
  0
SPLINE
  5
129
100
AcDbEntity
  8
0
 62
7
100
AcDbSpline
 70
0
 71
3
 72
13
 73
9
 74
7
 40
0.000000
 40
0.000000
 40
0.000000
 40
0.000000
 40
1.912216
 40
3.804053
 40
5.716269
 40
7.628486
 40
9.520322
 40
11.432539
 40
11.432539
 40
11.432539
 40
11.432539
 10
135.698162
 20
198.171585
 30
0.0
 10
135.254937
 20
198.636379
 30
0.0
 10
134.373210
 20
199.561015
 30
0.0
 10
132.605688
 20
200.377904
 30
0.0
 10
130.698162
 20
200.673638
 30
0.0
 10
128.790636
 20
200.377904
 30
0.0
 10
127.023115
 20
199.561015
 30
0.0
 10
126.141388
 20
198.636379
 30
0.0
 10
125.698163
 20
198.171585
 30
0.0
 11
135.698162
 21
198.171585
 31
0.0
 11
134.294065
 21
199.469692
 31
0.0
 11
132.588946
 21
200.289214
 31
0.0
 11
130.698162
 21
200.574709
 31
0.0
 11
128.807378
 21
200.289214
 31
0.0
 11
127.102260
 21
199.469692
 31
0.0
 11
125.698163
 21
198.171585
 31
0.0
  0
SPLINE
  5
12a
100
AcDbEntity
  8
0
 62
7
100
AcDbSpline
 70
0
 71
3
 72
13
 73
9
 74
7
 40
0.000000
 40
0.000000
 40
0.000000
 40
0.000000
 40
1.137000
 40
2.273998
 40
3.410996
 40
4.604197
 40
5.797401
 40
6.990607
 40
6.990607
 40
6.990607
 40
6.990607
 10
137.796877
 20
191.503464
 30
0.0
 10
137.683969
 20
191.865255
 30
0.0
 10
137.458153
 20
192.588836
 30
0.0
 10
137.118864
 20
193.674031
 30
0.0
 10
136.772839
 20
194.776749
 30
0.0
 10
136.419406
 20
195.896775
 30
0.0
 10
136.059095
 20
197.034278
 30
0.0
 10
135.818473
 20
197.792482
 30
0.0
 10
135.698162
 20
198.171585
 30
0.0
 11
137.796877
 21
191.503464
 31
0.0
 11
137.458059
 21
192.588807
 31
0.0
 11
137.118676
 21
193.673973
 31
0.0
 11
136.778165
 21
194.758784
 31
0.0
 11
136.419199
 21
195.896709
 31
0.0
 11
136.058992
 21
197.034244
 31
0.0
 11
135.698162
 21
198.171585
 31
0.0
  0
SPLINE
  5
12b
100
AcDbEntity
  8
0
 62
7
100
AcDbSpline
 70
0
 71
3
 72
19
 73
15
 74
13
 40
0.000000
 40
0.000000
 40
0.000000
 40
0.000000
 40
3.957852
 40
7.844142
 40
11.801994
 40
15.759845
 40
19.646136
 40
23.603988
 40
27.561839
 40
31.448130
 40
35.405981
 40
39.363833
 40
43.250124
 40
47.207975
 40
47.207975
 40
47.207975
 40
47.207975
 10
141.794569
 20
178.230948
 30
0.0
 10
143.027688
 20
177.714478
 30
0.0
 10
145.471632
 20
176.690877
 30
0.0
 10
149.537240
 20
177.097146
 30
0.0
 10
153.115468
 20
178.928060
 30
0.0
 10
155.709385
 20
182.033271
 30
0.0
 10
156.906421
 20
185.885019
 30
0.0
 10
156.530040
 20
189.907440
 30
0.0
 10
154.622303
 20
193.468629
 30
0.0
 10
151.497134
 20
196.018567
 30
0.0
 10
147.619744
 20
197.174675
 30
0.0
 10
143.625547
 20
196.724840
 30
0.0
 10
140.011848
 20
194.818168
 30
0.0
 10
138.539752
 20
192.615089
 30
0.0
 10
137.796990
 20
191.503500
 30
0.0
 11
141.794569
 21
178.230948
 31
0.0
 11
145.559673
 21
177.010873
 31
0.0
 11
149.433076
 21
177.327104
 31
0.0
 11
152.950421
 21
179.141731
 31
0.0
 11
155.488751
 21
182.178418
 31
0.0
 11
156.642470
 21
185.889508
 31
0.0
 11
156.273266
 21
189.830102
 31
0.0
 11
154.404737
 21
193.319111
 31
0.0
 11
151.393363
 21
195.775711
 31
0.0
 11
147.600158
 21
196.905395
 31
0.0
 11
143.665711
 21
196.475605
 31
0.0
 11
140.261971
 21
194.600023
 31
0.0
 11
137.796990
 21
191.503500
 31
0.0
  0
SPLINE
  5
12c
100
AcDbEntity
  8
0
 62
7
100
AcDbSpline
 70
0
 71
3
 72
28
 73
24
 74
22
 40
0.000000
 40
0.000000
 40
0.000000
 40
0.000000
 40
0.685050
 40
1.370098
 40
2.055145
 40
2.750507
 40
3.445870
 40
4.141234
 40
4.846925
 40
5.552616
 40
6.258305
 40
6.974340
 40
7.690374
 40
8.406407
 40
9.132798
 40
9.859187
 40
10.585576
 40
11.143702
 40
11.701827
 40
12.259952
 40
12.827938
 40
13.395923
 40
13.963909
 40
13.963909
 40
13.963909
 40
13.963909
 10
145.499404
 20
164.767968
 30
0.0
 10
145.441809
 20
164.988936
 30
0.0
 10
145.326620
 20
165.430870
 30
0.0
 10
145.153401
 20
166.093657
 30
0.0
 10
144.978436
 20
166.759540
 30
0.0
 10
144.801261
 20
167.428396
 30
0.0
 10
144.621998
 20
168.100255
 30
0.0
 10
144.440774
 20
168.775154
 30
0.0
 10
144.257707
 20
169.453121
 30
0.0
 10
144.072767
 20
170.134147
 30
0.0
 10
143.885925
 20
170.818229
 30
0.0
 10
143.697145
 20
171.505354
 30
0.0
 10
143.506431
 20
172.195523
 30
0.0
 10
143.313790
 20
172.888740
 30
0.0
 10
143.119222
 20
173.585004
 30
0.0
 10
142.922746
 20
174.284317
 30
0.0
 10
142.740567
 20
174.929387
 30
0.0
 10
142.572950
 20
175.520287
 30
0.0
 10
142.420054
 20
176.057061
 30
0.0
 10
142.265619
 20
176.596814
 30
0.0
 10
142.109587
 20
177.139528
 30
0.0
 10
141.952176
 20
177.685266
 30
0.0
 10
141.847080
 20
178.049046
 30
0.0
 10
141.794532
 20
178.230936
 30
0.0
 11
145.499404
 21
164.767968
 31
0.0
 11
145.326547
 21
165.430852
 31
0.0
 11
145.153255
 21
166.093619
 31
0.0
 11
144.979091
 21
166.756156
 31
0.0
 11
144.801060
 21
167.428342
 31
0.0
 11
144.621820
 21
168.100207
 31
0.0
 11
144.441511
 21
168.771787
 31
0.0
 11
144.257545
 21
169.453077
 31
0.0
 11
144.072602
 21
170.134102
 31
0.0
 11
143.886665
 21
170.814856
 31
0.0
 11
143.696975
 21
171.505308
 31
0.0
 11
143.506264
 21
172.195477
 31
0.0
 11
143.314550
 21
172.885368
 31
0.0
 11
143.119059
 21
173.584958
 31
0.0
 11
142.922589
 21
174.284273
 31
0.0
 11
142.725171
 21
174.983321
 31
0.0
 11
142.572852
 21
175.520259
 31
0.0
 11
142.419948
 21
176.057031
 31
0.0
 11
142.266410
 21
176.593621
 31
0.0
 11
142.109509
 21
177.139506
 31
0.0
 11
141.952137
 21
177.685255
 31
0.0
 11
141.794532
 21
178.230936
 31
0.0
  0
SPLINE
  5
12d
100
AcDbEntity
  8
0
 62
7
100
AcDbSpline
 70
0
 71
3
 72
19
 73
15
 74
13
 40
0.000000
 40
0.000000
 40
0.000000
 40
0.000000
 40
3.965286
 40
7.858628
 40
11.823913
 40
15.789199
 40
19.682541
 40
23.647827
 40
27.613112
 40
31.506455
 40
35.471740
 40
39.437026
 40
43.330368
 40
47.295654
 40
47.295654
 40
47.295654
 40
47.295654
 10
148.724168
 20
151.353218
 30
0.0
 10
149.925892
 20
150.761535
 30
0.0
 10
152.307536
 20
149.588905
 30
0.0
 10
156.398325
 20
149.751094
 30
0.0
 10
160.085839
 20
151.370058
 30
0.0
 10
162.862299
 20
154.324092
 30
0.0
 10
164.282429
 20
158.107689
 30
0.0
 10
164.135591
 20
162.152929
 30
0.0
 10
162.427771
 20
165.822926
 30
0.0
 10
159.443110
 20
168.547660
 30
0.0
 10
155.627359
 20
169.916999
 30
0.0
 10
151.606903
 20
169.683051
 30
0.0
 10
147.889355
 20
167.968203
 30
0.0
 10
146.300906
 20
165.841206
 30
0.0
 10
145.499410
 20
164.767971
 30
0.0
 11
148.724168
 21
151.353218
 31
0.0
 11
152.415203
 21
149.904165
 31
0.0
 11
156.307648
 21
149.987753
 31
0.0
 11
159.933073
 21
151.593923
 31
0.0
 11
162.649680
 21
154.482441
 31
0.0
 11
164.018167
 21
158.127350
 31
0.0
 11
163.873845
 21
162.090008
 31
0.0
 11
162.201318
 21
165.685303
 31
0.0
 11
159.325694
 21
168.309974
 31
0.0
 11
155.593034
 21
169.648159
 31
0.0
 11
151.633697
 21
169.431036
 31
0.0
 11
148.128548
 21
167.736324
 31
0.0
 11
145.499410
 21
164.767971
 31
0.0
  0
SPLINE
  5
12e
100
AcDbEntity
  8
0
 62
7
100
AcDbSpline
 70
0
 71
3
 72
25
 73
21
 74
19
 40
0.000000
 40
0.000000
 40
0.000000
 40
0.000000
 40
0.310438
 40
0.620877
 40
0.931315
 40
1.242623
 40
1.553932
 40
1.865241
 40
2.841756
 40
3.818273
 40
4.794788
 40
5.783367
 40
6.771946
 40
7.760527
 40
8.761265
 40
9.762000
 40
10.762729
 40
11.775699
 40
12.788673
 40
13.801652
 40
13.801652
 40
13.801652
 40
13.801652
 10
151.402788
 20
137.815139
 30
0.0
 10
151.384928
 20
137.917066
 30
0.0
 10
151.349210
 20
138.120920
 30
0.0
 10
151.295493
 20
138.426675
 30
0.0
 10
151.241451
 20
138.732668
 30
0.0
 10
151.186944
 20
139.038873
 30
0.0
 10
151.132007
 20
139.345296
 30
0.0
 10
151.037347
 20
139.869868
 30
0.0
 10
150.901738
 20
140.612367
 30
0.0
 10
150.723185
 20
141.572422
 30
0.0
 10
150.540745
 20
142.535839
 30
0.0
 10
150.354329
 20
143.502589
 30
0.0
 10
150.164041
 20
144.472684
 30
0.0
 10
149.969986
 20
145.446165
 30
0.0
 10
149.772269
 20
146.423043
 30
0.0
 10
149.570551
 20
147.403238
 30
0.0
 10
149.364506
 20
148.386699
 30
0.0
 10
149.153783
 20
149.373341
 30
0.0
 10
148.939622
 20
150.363418
 30
0.0
 10
148.795986
 20
151.023284
 30
0.0
 10
148.724168
 20
151.353218
 30
0.0
 11
151.402788
 21
137.815139
 31
0.0
 11
151.349187
 21
138.120915
 31
0.0
 11
151.295447
 21
138.426667
 31
0.0
 11
151.241433
 21
138.732370
 31
0.0
 11
151.186881
 21
139.038862
 31
0.0
 11
151.131949
 21
139.345285
 31
0.0
 11
151.076671
 21
139.651647
 31
0.0
 11
150.901220
 21
140.612272
 31
0.0
 11
150.722662
 21
141.572325
 31
0.0
 11
150.540963
 21
142.531787
 31
0.0
 11
150.353810
 21
143.502489
 31
0.0
 11
150.163545
 21
144.472585
 31
0.0
 11
149.970307
 21
145.442096
 31
0.0
 11
149.771736
 21
146.422936
 31
0.0
 11
149.569969
 21
147.403119
 31
0.0
 11
149.364711
 21
148.382572
 31
0.0
 11
149.153352
 21
149.373246
 31
0.0
 11
148.939407
 21
150.363370
 31
0.0
 11
148.724168
 21
151.353218
 31
0.0
  0
SPLINE
  5
12f
100
AcDbEntity
  8
0
 62
7
100
AcDbSpline
 70
0
 71
3
 72
19
 73
15
 74
13
 40
0.000000
 40
0.000000
 40
0.000000
 40
0.000000
 40
3.972947
 40
7.873557
 40
11.846504
 40
15.819451
 40
19.720060
 40
23.693008
 40
27.665955
 40
31.566564
 40
35.539511
 40
39.512459
 40
43.413068
 40
47.386015
 40
47.386015
 40
47.386015
 40
47.386015
 10
153.422627
 20
124.234479
 30
0.0
 10
154.566725
 20
123.532771
 30
0.0
 10
156.834091
 20
122.142131
 30
0.0
 10
160.930933
 20
121.928588
 30
0.0
 10
164.757892
 20
123.208467
 30
0.0
 10
167.795235
 20
125.905879
 30
0.0
 10
169.551075
 20
129.554853
 30
0.0
 10
169.763412
 20
133.605352
 30
0.0
 10
168.381491
 20
137.418740
 30
0.0
 10
165.639726
 20
140.398792
 30
0.0
 10
161.948849
 20
142.095526
 30
0.0
 10
157.915062
 20
142.206288
 30
0.0
 10
154.057688
 20
140.809728
 30
0.0
 10
152.293164
 20
138.819431
 30
0.0
 10
151.402796
 20
137.815139
 30
0.0
 11
153.422627
 21
124.234479
 31
0.0
 11
156.970906
 21
122.447295
 31
0.0
 11
160.861893
 21
122.173497
 31
0.0
 11
164.625486
 21
123.446165
 31
0.0
 11
167.596919
 21
126.083378
 31
0.0
 11
169.288579
 21
129.598067
 31
0.0
 11
169.496080
 21
133.565592
 31
0.0
 11
168.142933
 21
137.301004
 31
0.0
 11
165.501650
 21
140.171262
 31
0.0
 11
161.891348
 21
141.829583
 31
0.0
 11
157.920284
 21
141.951888
 31
0.0
 11
154.277390
 21
140.557587
 31
0.0
 11
151.402796
 21
137.815139
 31
0.0
  0
SPLINE
  5
130
100
AcDbEntity
  8
0
 62
7
100
AcDbSpline
 70
0
 71
3
 72
28
 73
24
 74
22
 40
0.000000
 40
0.000000
 40
0.000000
 40
0.000000
 40
0.421004
 40
0.842006
 40
1.263009
 40
1.684635
 40
2.106261
 40
2.527889
 40
2.950151
 40
3.372413
 40
3.794675
 40
4.217582
 40
4.640489
 40
5.063396
 40
6.018100
 40
6.972806
 40
7.927516
 40
8.887858
 40
9.848196
 40
10.808525
 40
11.774606
 40
12.740693
 40
13.706788
 40
13.706788
 40
13.706788
 40
13.706788
 10
154.713271
 20
110.590353
 30
0.0
 10
154.703776
 20
110.730366
 30
0.0
 10
154.684786
 20
111.010391
 30
0.0
 10
154.655988
 20
111.430408
 30
0.0
 10
154.626552
 20
111.850589
 30
0.0
 10
154.596170
 20
112.270911
 30
0.0
 10
154.564919
 20
112.691378
 30
0.0
 10
154.532885
 20
113.111999
 30
0.0
 10
154.500151
 20
113.532778
 30
0.0
 10
154.466697
 20
113.953713
 30
0.0
 10
154.432501
 20
114.374804
 30
0.0
 10
154.397546
 20
114.796049
 30
0.0
 10
154.361828
 20
115.217445
 30
0.0
 10
154.310079
 20
115.815383
 30
0.0
 10
154.240801
 20
116.589731
 30
0.0
 10
154.152052
 20
117.540306
 30
0.0
 10
154.059578
 20
118.492414
 30
0.0
 10
153.963498
 20
119.446052
 30
0.0
 10
153.863399
 20
120.401160
 30
0.0
 10
153.758877
 20
121.357719
 30
0.0
 10
153.649517
 20
122.315666
 30
0.0
 10
153.536839
 20
123.275161
 30
0.0
 10
153.460688
 20
123.914704
 30
0.0
 10
153.422612
 20
124.234476
 30
0.0
 11
154.713271
 21
110.590353
 31
0.0
 11
154.684734
 21
111.010388
 31
0.0
 11
154.655884
 21
111.430401
 31
0.0
 11
154.626412
 21
111.850370
 31
0.0
 11
154.596028
 21
112.270900
 31
0.0
 11
154.564791
 21
112.691368
 31
0.0
 11
154.532787
 21
113.111780
 31
0.0
 11
154.500034
 21
113.532769
 31
0.0
 11
154.466576
 21
113.953703
 31
0.0
 11
154.432395
 21
114.374580
 31
0.0
 11
154.397422
 21
114.796038
 31
0.0
 11
154.361703
 21
115.217434
 31
0.0
 11
154.325238
 21
115.638766
 31
0.0
 11
154.240189
 21
116.589674
 31
0.0
 11
154.151462
 21
117.540249
 31
0.0
 11
154.059193
 21
118.490489
 31
0.0
 11
153.962859
 21
119.445988
 31
0.0
 11
153.862696
 21
120.401087
 31
0.0
 11
153.758319
 21
121.355728
 31
0.0
 11
153.649001
 21
122.315603
 31
0.0
 11
153.536581
 21
123.275128
 31
0.0
 11
153.422612
 21
124.234476
 31
0.0
  0
SPLINE
  5
131
100
AcDbEntity
  8
0
 62
7
100
AcDbSpline
 70
0
 71
3
 72
19
 73
15
 74
13
 40
0.000000
 40
0.000000
 40
0.000000
 40
0.000000
 40
3.980423
 40
7.888120
 40
11.868543
 40
15.848965
 40
19.756663
 40
23.737086
 40
27.717508
 40
31.625206
 40
35.605629
 40
39.586051
 40
43.493749
 40
47.474171
 40
47.474171
 40
47.474171
 40
47.474171
 10
155.221805
 20
96.935298
 30
0.0
 10
156.280122
 20
96.105665
 30
0.0
 10
158.377420
 20
94.461557
 30
0.0
 10
162.431614
 20
93.782921
 30
0.0
 10
166.386211
 20
94.624550
 30
0.0
 10
169.713222
 20
96.969212
 30
0.0
 10
171.868539
 20
100.406761
 30
0.0
 10
172.528767
 20
104.416795
 30
0.0
 10
171.572119
 20
108.366617
 30
0.0
 10
169.167102
 20
111.634342
 30
0.0
 10
165.674920
 20
113.725062
 30
0.0
 10
161.668680
 20
114.270235
 30
0.0
 10
157.676189
 20
113.291946
 30
0.0
 10
155.706981
 20
111.496403
 30
0.0
 10
154.713299
 20
110.590355
 30
0.0
 11
155.221805
 21
96.935298
 31
0.0
 11
158.548826
 21
94.750192
 31
0.0
 11
162.390527
 21
94.035044
 31
0.0
 11
166.280972
 21
94.876590
 31
0.0
 11
169.535318
 21
97.168533
 31
0.0
 11
171.611473
 21
100.479073
 31
0.0
 11
172.257636
 21
104.406698
 31
0.0
 11
171.321144
 21
108.275386
 31
0.0
 11
169.004515
 21
111.422342
 31
0.0
 11
165.588719
 21
113.465893
 31
0.0
 11
161.646459
 21
114.015754
 31
0.0
 11
157.868588
 21
113.016859
 31
0.0
 11
154.713299
 21
110.590355
 31
0.0
  0
SPLINE
  5
132
100
AcDbEntity
  8
0
 62
7
100
AcDbSpline
 70
0
 71
3
 72
31
 73
27
 74
25
 40
0.000000
 40
0.000000
 40
0.000000
 40
0.000000
 40
0.457890
 40
0.915780
 40
1.373669
 40
1.831095
 40
2.288523
 40
2.745950
 40
3.202931
 40
3.659910
 40
4.116890
 40
4.573439
 40
5.029988
 40
5.486537
 40
5.942670
 40
6.398803
 40
6.854937
 40
7.310668
 40
7.766401
 40
8.222136
 40
9.138556
 40
10.054975
 40
10.971388
 40
11.888122
 40
12.804863
 40
13.721611
 40
13.721611
 40
13.721611
 40
13.721611
 10
154.927071
 20
83.218822
 30
0.0
 10
154.934561
 20
83.371268
 30
0.0
 10
154.949541
 20
83.676160
 30
0.0
 10
154.971649
 20
84.133515
 30
0.0
 10
154.992992
 20
84.590753
 30
0.0
 10
155.013207
 20
85.047888
 30
0.0
 10
155.032385
 20
85.504913
 30
0.0
 10
155.050628
 20
85.961828
 30
0.0
 10
155.068055
 20
86.418625
 30
0.0
 10
155.084604
 20
86.875305
 30
0.0
 10
155.100269
 20
87.331873
 30
0.0
 10
155.115032
 20
87.788327
 30
0.0
 10
155.128880
 20
88.244667
 30
0.0
 10
155.141836
 20
88.700893
 30
0.0
 10
155.153906
 20
89.157006
 30
0.0
 10
155.165090
 20
89.613002
 30
0.0
 10
155.175358
 20
90.068886
 30
0.0
 10
155.184698
 20
90.524657
 30
0.0
 10
155.193168
 20
90.980311
 30
0.0
 10
155.203371
 20
91.589522
 30
0.0
 10
155.214080
 20
92.352307
 30
0.0
 10
155.223264
 20
93.268681
 30
0.0
 10
155.228247
 20
94.185193
 30
0.0
 10
155.228767
 20
95.101825
 30
0.0
 10
155.226078
 20
96.018563
 30
0.0
 10
155.223227
 20
96.629719
 30
0.0
 10
155.221802
 20
96.935298
 30
0.0
 11
154.927071
 21
83.218822
 31
0.0
 11
154.949481
 21
83.676163
 31
0.0
 11
154.971522
 21
84.133522
 31
0.0
 11
154.992812
 21
84.590915
 31
0.0
 11
155.013035
 21
85.047895
 31
0.0
 11
155.032230
 21
85.504920
 31
0.0
 11
155.050498
 21
85.961982
 31
0.0
 11
155.067909
 21
86.418631
 31
0.0
 11
155.084458
 21
86.875311
 31
0.0
 11
155.100124
 21
87.332021
 31
0.0
 11
155.114880
 21
87.788332
 31
0.0
 11
155.128732
 21
88.244671
 31
0.0
 11
155.141693
 21
88.701036
 31
0.0
 11
155.153759
 21
89.157009
 31
0.0
 11
155.164938
 21
89.613005
 31
0.0
 11
155.175207
 21
90.069024
 31
0.0
 11
155.184554
 21
90.524659
 31
0.0
 11
155.193029
 21
90.980313
 31
0.0
 11
155.200663
 21
91.435984
 31
0.0
 11
155.213467
 21
92.352314
 31
0.0
 11
155.222564
 21
93.268688
 31
0.0
 11
155.227503
 21
94.185088
 31
0.0
 11
155.228232
 21
95.101822
 31
0.0
 11
155.225813
 21
96.018559
 31
0.0
 11
155.221802
 21
96.935298
 31
0.0
  0
SPLINE
  5
133
100
AcDbEntity
  8
0
 62
7
100
AcDbSpline
 70
0
 71
3
 72
19
 73
15
 74
13
 40
0.000000
 40
0.000000
 40
0.000000
 40
0.000000
 40
3.986759
 40
7.900465
 40
11.887224
 40
15.873983
 40
19.787689
 40
23.774448
 40
27.761207
 40
31.674913
 40
35.661672
 40
39.648431
 40
43.562137
 40
47.548896
 40
47.548896
 40
47.548896
 40
47.548896
 10
153.850938
 20
69.652673
 30
0.0
 10
154.803881
 20
68.700756
 30
0.0
 10
156.692305
 20
66.814365
 30
0.0
 10
160.643671
 20
65.656376
 30
0.0
 10
164.676707
 20
66.024752
 30
0.0
 10
168.262506
 20
67.964770
 30
0.0
 10
170.809623
 20
71.131600
 30
0.0
 10
171.934156
 20
75.043966
 30
0.0
 10
171.440508
 20
79.084695
 30
0.0
 10
169.424526
 20
82.613496
 30
0.0
 10
166.189436
 20
85.094587
 30
0.0
 10
162.264916
 20
86.094201
 30
0.0
 10
158.180400
 20
85.573664
 30
0.0
 10
156.018186
 20
84.008593
 30
0.0
 10
154.927083
 20
83.218822
 30
0.0
 11
153.850938
 21
69.652673
 31
0.0
 11
156.897625
 21
67.081302
 31
0.0
 11
160.632708
 21
65.912437
 31
0.0
 11
164.601710
 21
66.288302
 31
0.0
 11
168.108755
 21
68.184320
 31
0.0
 11
170.561952
 21
71.233732
 31
0.0
 11
171.662802
 21
75.065491
 31
0.0
 11
171.179832
 21
79.022888
 31
0.0
 11
169.238084
 21
82.420932
 31
0.0
 11
166.073825
 21
84.846157
 31
0.0
 11
162.213720
 21
85.843071
 31
0.0
 11
158.341067
 21
85.277695
 31
0.0
 11
154.927083
 21
83.218822
 31
0.0
  0
SPLINE
  5
134
100
AcDbEntity
  8
0
 62
7
100
AcDbSpline
 70
0
 71
3
 72
34
 73
30
 74
28
 40
0.000000
 40
0.000000
 40
0.000000
 40
0.000000
 40
0.552695
 40
1.105391
 40
1.658086
 40
2.208399
 40
2.758713
 40
3.309028
 40
3.856979
 40
4.404930
 40
4.952880
 40
5.498491
 40
6.044101
 40
6.589712
 40
7.133000
 40
7.676289
 40
8.219578
 40
8.760566
 40
9.301554
 40
9.842543
 40
10.381254
 40
10.919964
 40
11.458674
 40
11.858478
 40
12.258281
 40
12.658084
 40
13.057063
 40
13.456041
 40
13.855020
 40
13.855020
 40
13.855020
 40
13.855020
 10
152.002913
 20
55.923070
 30
0.0
 10
152.031897
 20
56.105008
 30
0.0
 10
152.089864
 20
56.468883
 30
0.0
 10
152.176351
 20
57.014770
 30
0.0
 10
152.261787
 20
57.560018
 30
0.0
 10
152.345710
 20
58.104699
 30
0.0
 10
152.428246
 20
58.648789
 30
0.0
 10
152.509522
 20
59.192272
 30
0.0
 10
152.589649
 20
59.735130
 30
0.0
 10
152.668605
 20
60.277363
 30
0.0
 10
152.746354
 20
60.818982
 30
0.0
 10
152.822860
 20
61.359990
 30
0.0
 10
152.898137
 20
61.900382
 30
0.0
 10
152.972191
 20
62.440163
 30
0.0
 10
153.045026
 20
62.979329
 30
0.0
 10
153.116648
 20
63.517876
 30
0.0
 10
153.187052
 20
64.055811
 30
0.0
 10
153.256244
 20
64.593130
 30
0.0
 10
153.324210
 20
65.129832
 30
0.0
 10
153.390943
 20
65.665925
 30
0.0
 10
153.456441
 20
66.201404
 30
0.0
 10
153.520730
 20
66.736265
 30
0.0
 10
153.578496
 20
67.225273
 30
0.0
 10
153.630061
 20
67.668389
 30
0.0
 10
153.675615
 20
68.065589
 30
0.0
 10
153.720411
 20
68.462598
 30
0.0
 10
153.764378
 20
68.859423
 30
0.0
 10
153.807787
 20
69.256034
 30
0.0
 10
153.836549
 20
69.520460
 30
0.0
 10
153.850930
 20
69.652673
 30
0.0
 11
152.002913
 21
55.923070
 31
0.0
 11
152.089787
 21
56.468895
 31
0.0
 11
152.176196
 21
57.014794
 31
0.0
 11
152.261677
 21
57.560839
 31
0.0
 11
152.345499
 21
58.104730
 31
0.0
 11
152.428056
 21
58.648817
 31
0.0
 11
152.509466
 21
59.193077
 31
0.0
 11
152.589473
 21
59.735156
 31
0.0
 11
152.668422
 21
60.277390
 31
0.0
 11
152.746275
 21
60.819781
 31
0.0
 11
152.822673
 21
61.360016
 31
0.0
 11
152.897951
 21
61.900408
 31
0.0
 11
152.972110
 21
62.440955
 31
0.0
 11
153.044841
 21
62.979353
 31
0.0
 11
153.116462
 21
63.517901
 31
0.0
 11
153.186965
 21
64.056596
 31
0.0
 11
153.256056
 21
64.593154
 31
0.0
 11
153.324020
 21
65.129856
 31
0.0
 11
153.390846
 21
65.666702
 31
0.0
 11
153.456255
 21
66.201427
 31
0.0
 11
153.520548
 21
66.736286
 31
0.0
 11
153.583750
 21
67.271276
 31
0.0
 11
153.629951
 21
67.668402
 31
0.0
 11
153.675494
 21
68.065603
 31
0.0
 11
153.720309
 21
68.462886
 31
0.0
 11
153.764290
 21
68.859433
 31
0.0
 11
153.807742
 21
69.256038
 31
0.0
 11
153.850930
 21
69.652673
 31
0.0
  0
SPLINE
  5
135
100
AcDbEntity
  8
0
 62
7
100
AcDbSpline
 70
0
 71
3
 72
19
 73
15
 74
13
 40
0.000000
 40
0.000000
 40
0.000000
 40
0.000000
 40
3.990933
 40
7.908595
 40
11.899528
 40
15.890460
 40
19.808123
 40
23.799055
 40
27.789988
 40
31.707650
 40
35.698583
 40
39.689516
 40
43.607178
 40
47.598111
 40
47.598111
 40
47.598111
 40
47.598111
 10
149.532461
 20
42.577876
 30
0.0
 10
150.379967
 20
41.529122
 30
0.0
 10
152.059420
 20
39.450870
 30
0.0
 10
155.870702
 20
37.880491
 30
0.0
 10
159.924502
 20
37.822654
 30
0.0
 10
163.697899
 20
39.378129
 30
0.0
 10
166.564607
 20
42.265091
 30
0.0
 10
168.091260
 20
46.043547
 30
0.0
 10
168.018352
 20
50.118112
 30
0.0
 10
166.375062
 20
53.839961
 30
0.0
 10
163.408534
 20
56.643126
 30
0.0
 10
159.602664
 20
58.040265
 30
0.0
 10
155.481795
 20
57.938280
 30
0.0
 10
153.169681
 20
56.598943
 30
0.0
 10
152.002913
 20
55.923070
 30
0.0
 11
149.532461
 21
42.577876
 31
0.0
 11
152.292347
 21
39.695069
 31
0.0
 11
155.886787
 21
38.136839
 31
0.0
 11
159.877481
 21
38.093195
 31
0.0
 11
163.567679
 21
39.613056
 31
0.0
 11
166.328407
 21
42.392707
 31
0.0
 11
167.823025
 21
46.093202
 31
0.0
 11
167.752121
 21
50.083505
 31
0.0
 11
166.169374
 21
53.667217
 31
0.0
 11
163.267782
 21
56.407345
 31
0.0
 11
159.525917
 21
57.795146
 31
0.0
 11
155.611870
 21
57.626882
 31
0.0
 11
152.002913
 21
55.923070
 31
0.0
  0
SPLINE
  5
136
100
AcDbEntity
  8
0
 62
7
100
AcDbSpline
 70
0
 71
3
 72
25
 73
21
 74
19
 40
0.000000
 40
0.000000
 40
0.000000
 40
0.000000
 40
0.463174
 40
0.926347
 40
1.389520
 40
1.848539
 40
2.307558
 40
2.766578
 40
3.727475
 40
4.688373
 40
5.649270
 40
6.597441
 40
7.545614
 40
8.493787
 40
9.429301
 40
10.364812
 40
11.300318
 40
12.223221
 40
13.146127
 40
14.069038
 40
14.069038
 40
14.069038
 40
14.069038
 10
146.383694
 20
28.866660
 30
0.0
 10
146.420968
 20
29.016484
 30
0.0
 10
146.495516
 20
29.316132
 30
0.0
 10
146.607112
 20
29.765661
 30
0.0
 10
146.717924
 20
30.213957
 30
0.0
 10
146.827736
 20
30.661073
 30
0.0
 10
146.936604
 20
31.106995
 30
0.0
 10
147.084379
 20
31.715625
 30
0.0
 10
147.270254
 20
32.487156
 30
0.0
 10
147.492956
 20
33.421891
 30
0.0
 10
147.712232
 20
34.353078
 30
0.0
 10
147.928013
 20
35.280727
 30
0.0
 10
148.140403
 20
36.204807
 30
0.0
 10
148.349486
 20
37.125314
 30
0.0
 10
148.555355
 20
38.042221
 30
0.0
 10
148.757711
 20
38.955585
 30
0.0
 10
148.956243
 20
39.865486
 30
0.0
 10
149.150670
 20
40.771977
 30
0.0
 10
149.342095
 20
41.674813
 30
0.0
 10
149.469006
 20
42.276855
 30
0.0
 10
149.532461
 20
42.577876
 30
0.0
 11
146.383694
 21
28.866660
 31
0.0
 11
146.495478
 21
29.316142
 31
0.0
 11
146.607037
 21
29.765680
 31
0.0
 11
146.718144
 21
30.215329
 31
0.0
 11
146.827634
 21
30.661098
 31
0.0
 11
146.936510
 21
31.107018
 31
0.0
 11
147.044822
 21
31.553077
 31
0.0
 11
147.269861
 21
32.487250
 31
0.0
 11
147.492547
 21
33.421988
 31
0.0
 11
147.712777
 21
34.357307
 31
0.0
 11
147.927608
 21
35.280821
 31
0.0
 11
148.140007
 21
36.204897
 31
0.0
 11
148.350035
 21
37.129517
 31
0.0
 11
148.554924
 21
38.042318
 31
0.0
 11
148.757223
 21
38.955694
 31
0.0
 11
148.956595
 21
39.869708
 31
0.0
 11
149.150316
 21
40.772051
 31
0.0
 11
149.341918
 21
41.674849
 31
0.0
 11
149.532461
 21
42.577876
 31
0.0
  0
SPLINE
  5
137
100
AcDbEntity
  8
0
 62
7
100
AcDbSpline
 70
0
 71
3
 72
19
 73
15
 74
13
 40
0.000000
 40
0.000000
 40
0.000000
 40
0.000000
 40
3.992294
 40
7.911246
 40
11.903540
 40
15.895833
 40
19.814786
 40
23.807079
 40
27.799373
 40
31.718325
 40
35.710619
 40
39.702912
 40
43.621865
 40
47.614158
 40
47.614158
 40
47.614158
 40
47.614158
 10
142.891053
 20
15.764279
 30
0.0
 10
143.654262
 20
14.652102
 30
0.0
 10
145.166661
 20
12.448181
 30
0.0
 10
148.845186
 20
10.584655
 30
0.0
 10
152.883601
 20
10.211226
 30
0.0
 10
156.767865
 20
11.469157
 30
0.0
 10
159.851020
 20
14.125931
 30
0.0
 10
161.666391
 20
17.776088
 30
0.0
 10
161.908816
 20
21.845542
 30
0.0
 10
160.557207
 20
25.684480
 30
0.0
 10
157.814491
 20
28.708948
 30
0.0
 10
154.126045
 20
30.395248
 30
0.0
 10
150.008018
 20
30.610028
 30
0.0
 10
147.599262
 20
29.451359
 30
0.0
 10
146.383719
 20
28.866654
 30
0.0
 11
142.891053
 21
15.764279
 31
0.0
 11
145.418123
 21
12.673595
 31
0.0
 11
148.881215
 21
10.839152
 31
0.0
 11
152.857751
 21
10.484794
 31
0.0
 11
156.656211
 21
11.713659
 31
0.0
 11
159.625265
 21
14.271570
 31
0.0
 11
161.402618
 21
17.846402
 31
0.0
 11
161.640522
 21
21.831600
 31
0.0
 11
160.338663
 21
25.527997
 31
0.0
 11
157.655898
 21
28.484546
 31
0.0
 11
154.030613
 21
30.156586
 31
0.0
 11
150.113911
 21
30.289356
 31
0.0
 11
146.383719
 21
28.866654
 31
0.0
  0
SPLINE
  5
138
100
AcDbEntity
  8
0
 62
7
100
AcDbSpline
 70
0
 71
3
 72
19
 73
15
 74
13
 40
0.000000
 40
0.000000
 40
0.000000
 40
0.000000
 40
0.673077
 40
1.346157
 40
2.019247
 40
2.681810
 40
3.344373
 40
4.006948
 40
4.659015
 40
5.311082
 40
5.963153
 40
6.604721
 40
7.246295
 40
7.887882
 40
7.887882
 40
7.887882
 40
7.887882
 10
140.697063
 20
8.187741
 30
0.0
 10
140.760690
 20
8.402888
 30
0.0
 10
140.887944
 20
8.833185
 30
0.0
 10
141.078523
 20
9.478723
 30
0.0
 10
141.267500
 20
10.121080
 30
0.0
 10
141.454600
 20
10.760334
 30
0.0
 10
141.639920
 20
11.396457
 30
0.0
 10
141.823549
 20
12.029427
 30
0.0
 10
142.005598
 20
12.659213
 30
0.0
 10
142.185955
 20
13.285842
 30
0.0
 10
142.364507
 20
13.909349
 30
0.0
 10
142.541162
 20
14.529760
 30
0.0
 10
142.716241
 20
15.146986
 30
0.0
 10
142.832752
 20
15.558532
 30
0.0
 10
142.891008
 20
15.764307
 30
0.0
 11
140.697063
 21
8.187741
 31
0.0
 11
140.887893
 21
8.833199
 31
0.0
 11
141.078420
 21
9.478751
 31
0.0
 11
141.268340
 21
10.124491
 31
0.0
 11
141.454468
 21
10.760373
 31
0.0
 11
141.639800
 21
11.396487
 31
0.0
 11
141.824422
 21
12.032821
 31
0.0
 11
142.005478
 21
12.659248
 31
0.0
 11
142.185814
 21
13.285881
 31
0.0
 11
142.365312
 21
13.912760
 31
0.0
 11
142.541058
 21
14.529787
 31
0.0
 11
142.716187
 21
15.146997
 31
0.0
 11
142.891008
 21
15.764307
 31
0.0
  0
SPLINE
  5
139
100
AcDbEntity
  8
0
 62
7
100
AcDbSpline
 70
0
 71
3
 72
13
 73
9
 74
7
 40
0.000000
 40
0.000000
 40
0.000000
 40
0.000000
 40
4.197894
 40
8.324286
 40
12.522179
 40
16.720073
 40
20.846465
 40
25.044359
 40
25.044359
 40
25.044359
 40
25.044359
 10
120.697063
 20
8.187741
 30
0.0
 10
121.416937
 20
6.967347
 30
0.0
 10
122.844424
 20
4.547347
 30
0.0
 10
126.513928
 20
2.260837
 30
0.0
 10
130.697063
 20
1.428357
 30
0.0
 10
134.880198
 20
2.260837
 30
0.0
 10
138.549702
 20
4.547347
 30
0.0
 10
139.977189
 20
6.967347
 30
0.0
 10
140.697063
 20
8.187741
 30
0.0
 11
120.697063
 21
8.187741
 31
0.0
 11
123.114016
 21
4.755445
 31
0.0
 11
126.576876
 21
2.511406
 31
0.0
 11
130.697063
 21
1.707435
 31
0.0
 11
134.817250
 21
2.511406
 31
0.0
 11
138.280110
 21
4.755445
 31
0.0
 11
140.697063
 21
8.187741
 31
0.0
  0
SPLINE
  5
13a
100
AcDbEntity
  8
0
 62
7
100
AcDbSpline
 70
0
 71
3
 72
31
 73
27
 74
25
 40
0.000000
 40
0.000000
 40
0.000000
 40
0.000000
 40
0.604205
 40
1.208409
 40
1.812612
 40
2.423789
 40
3.034966
 40
3.646144
 40
4.264304
 40
4.882464
 40
5.500625
 40
6.125779
 40
6.750934
 40
7.376088
 40
8.008249
 40
8.640409
 40
9.272569
 40
10.567787
 40
11.863010
 40
13.158241
 40
14.498739
 40
15.839240
 40
17.179744
 40
18.565613
 40
19.951485
 40
21.337368
 40
21.337368
 40
21.337368
 40
21.337368
 10
115.037551
 20
28.759127
 30
0.0
 10
115.086680
 20
28.563810
 30
0.0
 10
115.184938
 20
28.173175
 30
0.0
 10
115.332688
 20
27.587315
 30
0.0
 10
115.481737
 20
26.999385
 30
0.0
 10
115.632467
 20
26.409485
 30
0.0
 10
115.784777
 20
25.817590
 30
0.0
 10
115.938564
 20
25.223672
 30
0.0
 10
116.093726
 20
24.627707
 30
0.0
 10
116.250291
 20
24.029702
 30
0.0
 10
116.408288
 20
23.429662
 30
0.0
 10
116.567740
 20
22.827596
 30
0.0
 10
116.728645
 20
22.223503
 30
0.0
 10
116.890988
 20
21.617378
 30
0.0
 10
117.054765
 20
21.009219
 30
0.0
 10
117.219982
 20
20.399031
 30
0.0
 10
117.444087
 20
19.575809
 30
0.0
 10
117.728409
 20
18.539918
 30
0.0
 10
118.074530
 20
17.291796
 30
0.0
 10
118.427807
 20
16.030000
 30
0.0
 10
118.788178
 20
14.754520
 30
0.0
 10
119.155951
 20
13.465455
 30
0.0
 10
119.531423
 20
12.162863
 30
0.0
 10
119.914943
 20
10.846859
 30
0.0
 10
120.305344
 20
9.517108
 30
0.0
 10
120.566490
 20
8.630865
 30
0.0
 10
120.697063
 20
8.187741
 30
0.0
 11
115.037551
 21
28.759127
 31
0.0
 11
115.184999
 21
28.173190
 31
0.0
 11
115.332809
 21
27.587345
 31
0.0
 11
115.481348
 21
27.001684
 31
0.0
 11
115.632635
 21
26.409528
 31
0.0
 11
115.784926
 21
25.817628
 31
0.0
 11
115.938111
 21
25.225959
 31
0.0
 11
116.093862
 21
24.627742
 31
0.0
 11
116.250431
 21
24.029739
 31
0.0
 11
116.407836
 21
23.431954
 31
0.0
 11
116.567883
 21
22.827634
 31
0.0
 11
116.728784
 21
22.223541
 31
0.0
 11
116.890521
 21
21.619670
 31
0.0
 11
117.054904
 21
21.009256
 31
0.0
 11
117.220121
 21
20.399068
 31
0.0
 11
117.386171
 21
19.789106
 31
0.0
 11
117.728959
 21
18.540071
 31
0.0
 11
118.075044
 21
17.291942
 31
0.0
 11
118.424223
 21
16.044666
 31
0.0
 11
118.788728
 21
14.754678
 31
0.0
 11
119.156536
 21
13.465624
 31
0.0
 11
119.527853
 21
12.177573
 31
0.0
 11
119.915385
 21
10.846989
 31
0.0
 11
120.305562
 21
9.517177
 31
0.0
 11
120.697063
 21
8.187741
 31
0.0
  0
SPLINE
  5
13b
100
AcDbEntity
  8
0
 62
7
100
AcDbSpline
 70
0
 71
3
 72
19
 73
15
 74
13
 40
0.000000
 40
0.000000
 40
0.000000
 40
0.000000
 40
3.985859
 40
7.898712
 40
11.884571
 40
15.870431
 40
19.783284
 40
23.769143
 40
27.755002
 40
31.667855
 40
35.653714
 40
39.639574
 40
43.552426
 40
47.538286
 40
47.538286
 40
47.538286
 40
47.538286
 10
111.977150
 20
42.027447
 30
0.0
 10
110.781766
 20
42.647495
 30
0.0
 10
108.412892
 20
43.876236
 30
0.0
 10
104.297250
 20
43.789080
 30
0.0
 10
100.563665
 20
42.222630
 30
0.0
 10
97.729749
 20
39.293005
 30
0.0
 10
96.255235
 20
35.506888
 30
0.0
 10
96.361073
 20
31.438451
 30
0.0
 10
98.047916
 20
27.734678
 30
0.0
 10
101.031797
 20
24.976902
 30
0.0
 10
104.862598
 20
23.584512
 30
0.0
 10
108.905101
 20
23.811638
 30
0.0
 10
112.643128
 20
25.535952
 30
0.0
 10
114.234490
 20
27.678132
 30
0.0
 10
115.037526
 20
28.759122
 30
0.0
 11
111.977150
 21
42.027447
 31
0.0
 11
108.297680
 21
43.559953
 31
0.0
 11
104.384845
 21
43.548346
 31
0.0
 11
100.714531
 21
41.994038
 31
0.0
 11
97.942406
 21
39.130055
 31
0.0
 11
96.522044
 21
35.484100
 31
0.0
 11
96.626192
 21
31.499602
 31
0.0
 11
98.277790
 21
27.872027
 31
0.0
 11
101.151598
 21
25.216534
 31
0.0
 11
104.898098
 21
23.856090
 31
0.0
 11
108.878405
 21
24.066418
 31
0.0
 11
112.401023
 21
25.769819
 31
0.0
 11
115.037526
 21
28.759122
 31
0.0
  0
SPLINE
  5
13c
100
AcDbEntity
  8
0
 62
7
100
AcDbSpline
 70
0
 71
3
 72
19
 73
15
 74
13
 40
0.000000
 40
0.000000
 40
0.000000
 40
0.000000
 40
0.142912
 40
0.285823
 40
0.428733
 40
2.427077
 40
4.425447
 40
6.423834
 40
8.466877
 40
10.509902
 40
12.552902
 40
13.004532
 40
13.456161
 40
13.907790
 40
13.907790
 40
13.907790
 40
13.907790
 10
109.428043
 20
55.698373
 30
0.0
 10
109.435681
 20
55.651352
 30
0.0
 10
109.450957
 20
55.557310
 30
0.0
 10
109.473891
 20
55.416251
 30
0.0
 10
109.596348
 20
54.664775
 30
0.0
 10
109.823810
 20
53.303763
 30
0.0
 10
110.167316
 20
51.335125
 30
0.0
 10
110.526885
 20
49.354213
 30
0.0
 10
110.902120
 20
47.361060
 30
0.0
 10
111.293674
 20
45.355894
 30
0.0
 10
111.593843
 20
43.873411
 30
0.0
 10
111.792910
 20
42.911712
 30
0.0
 10
111.884917
 20
42.469554
 30
0.0
 10
111.946410
 20
42.174814
 30
0.0
 10
111.977156
 20
42.027444
 30
0.0
 11
109.428043
 21
55.698373
 31
0.0
 11
109.450960
 21
55.557311
 31
0.0
 11
109.473899
 21
55.416253
 31
0.0
 11
109.496888
 21
55.275203
 31
0.0
 11
109.826156
 21
53.304174
 31
0.0
 11
110.169548
 21
51.335528
 31
0.0
 11
110.526339
 21
49.369249
 31
0.0
 11
110.904383
 21
47.361488
 31
0.0
 11
111.295991
 21
45.356346
 31
0.0
 11
111.701481
 21
43.353990
 31
0.0
 11
111.792987
 21
42.911727
 31
0.0
 11
111.884956
 21
42.469562
 31
0.0
 11
111.977156
 21
42.027444
 31
0.0
  0
LWPOLYLINE
  5
13d
100
AcDbEntity
  8
0
 62
7
100
AcDbPolyline
 90
2
 70
1
 10
54.261585
 20
194.027329
 30
0.0
 10
54.261585
 20
194.027329
 30
0.0
  0
SPLINE
  5
13e
100
AcDbEntity
  8
0
 62
7
100
AcDbSpline
 70
0
 71
3
 72
22
 73
18
 74
16
 40
0.000000
 40
0.000000
 40
0.000000
 40
0.000000
 40
1.302175
 40
2.565728
 40
3.867903
 40
5.170079
 40
6.433633
 40
7.735809
 40
8.387758
 40
9.034311
 40
9.686260
 40
10.338208
 40
10.984761
 40
11.636710
 40
12.938886
 40
14.202440
 40
15.504616
 40
15.504616
 40
15.504616
 40
15.504616
 10
133.283808
 20
194.027329
 30
0.0
 10
133.215356
 20
193.588295
 30
0.0
 10
133.080484
 20
192.723249
 30
0.0
 10
132.088986
 20
191.770934
 30
0.0
 10
130.795577
 20
191.417958
 30
0.0
 10
129.488744
 20
191.771217
 30
0.0
 10
128.536718
 20
192.722137
 30
0.0
 10
128.244384
 20
193.811503
 30
0.0
 10
128.360313
 20
194.679054
 30
0.0
 10
128.611701
 20
195.286890
 30
0.0
 10
129.011948
 20
195.808685
 30
0.0
 10
129.533811
 20
196.208949
 30
0.0
 10
130.141390
 20
196.460337
 30
0.0
 10
131.010230
 20
196.576243
 30
0.0
 10
132.089896
 20
196.284093
 30
0.0
 10
133.080252
 20
195.331317
 30
0.0
 10
133.215278
 20
194.466332
 30
0.0
 10
133.283808
 20
194.027329
 30
0.0
 11
133.283808
 21
194.027329
 31
0.0
 11
132.943782
 21
192.770332
 31
0.0
 11
132.050315
 21
191.876865
 31
0.0
 11
130.793318
 21
191.536839
 31
0.0
 11
129.536319
 21
191.876864
 31
0.0
 11
128.642851
 21
192.770331
 31
0.0
 11
128.302825
 21
194.027329
 31
0.0
 11
128.388151
 21
194.673670
 31
0.0
 11
128.635576
 21
195.271007
 31
0.0
 11
129.032273
 21
195.788374
 31
0.0
 11
129.549640
 21
196.185071
 31
0.0
 11
130.146977
 21
196.432496
 31
0.0
 11
130.793318
 21
196.517822
 31
0.0
 11
132.050316
 21
196.177796
 31
0.0
 11
132.943783
 21
195.284328
 31
0.0
 11
133.283808
 21
194.027329
 31
0.0
  0
SPLINE
  5
13f
100
AcDbEntity
  8
0
 62
7
100
AcDbSpline
 70
0
 71
3
 72
19
 73
15
 74
13
 40
0.000000
 40
0.000000
 40
0.000000
 40
0.000000
 40
3.983409
 40
7.893938
 40
11.877346
 40
15.860755
 40
19.771284
 40
23.754692
 40
27.738101
 40
31.648630
 40
35.632039
 40
39.615447
 40
43.525976
 40
47.509385
 40
47.509385
 40
47.509385
 40
47.509385
 10
186.613760
 20
69.212429
 30
0.0
 10
185.479819
 20
69.937199
 30
0.0
 10
183.232682
 20
71.373478
 30
0.0
 10
179.128694
 20
71.658533
 30
0.0
 10
175.270958
 20
70.437699
 30
0.0
 10
172.184507
 20
67.779456
 30
0.0
 10
170.372275
 20
64.145778
 30
0.0
 10
170.106120
 20
60.087294
 30
0.0
 10
171.445684
 20
56.247020
 30
0.0
 10
174.161890
 20
53.228739
 30
0.0
 10
177.845796
 20
51.490559
 30
0.0
 10
181.889425
 20
51.343488
 30
0.0
 10
185.768509
 20
52.713410
 30
0.0
 10
187.550861
 20
54.697280
 30
0.0
 10
188.450265
 20
55.698373
 30
0.0
 11
186.613760
 21
69.212429
 31
0.0
 11
183.089592
 21
71.069249
 31
0.0
 11
179.194040
 21
71.411171
 31
0.0
 11
175.400294
 21
70.196661
 31
0.0
 11
172.381214
 21
67.598065
 31
0.0
 11
170.635563
 21
64.098788
 31
0.0
 11
170.375382
 21
60.123885
 31
0.0
 11
171.686883
 21
56.362568
 31
0.0
 11
174.303057
 21
53.456045
 31
0.0
 11
177.906118
 21
51.757371
 31
0.0
 11
181.886390
 21
51.599318
 31
0.0
 11
185.549421
 21
52.968420
 31
0.0
 11
188.450265
 21
55.698373
 31
0.0
  0
SPLINE
  5
140
100
AcDbEntity
  8
0
 62
7
100
AcDbSpline
 70
0
 71
3
 72
28
 73
24
 74
22
 40
0.000000
 40
0.000000
 40
0.000000
 40
0.000000
 40
0.396644
 40
0.793288
 40
1.189930
 40
1.586959
 40
1.983988
 40
2.381018
 40
2.778441
 40
3.175863
 40
3.573286
 40
4.414248
 40
5.255213
 40
6.096178
 40
6.940678
 40
7.785178
 40
8.629681
 40
9.477816
 40
10.325947
 40
11.174073
 40
12.025916
 40
12.877764
 40
13.729618
 40
13.729618
 40
13.729618
 40
13.729618
 10
185.506766
 20
82.895519
 30
0.0
 10
185.513850
 20
82.763494
 30
0.0
 10
185.528018
 20
82.499445
 30
0.0
 10
185.549548
 20
82.103386
 30
0.0
 10
185.571645
 20
81.707230
 30
0.0
 10
185.594582
 20
81.310993
 30
0.0
 10
185.618307
 20
80.914673
 30
0.0
 10
185.642724
 20
80.518263
 30
0.0
 10
185.667774
 20
80.121762
 30
0.0
 10
185.693454
 20
79.725170
 30
0.0
 10
185.729579
 20
79.181099
 30
0.0
 10
185.777310
 20
78.489626
 30
0.0
 10
185.838194
 20
77.650867
 30
0.0
 10
185.902135
 20
76.811152
 30
0.0
 10
185.969149
 20
75.970496
 30
0.0
 10
186.039151
 20
75.128900
 30
0.0
 10
186.112059
 20
74.286334
 30
0.0
 10
186.187783
 20
73.442802
 30
0.0
 10
186.266654
 20
72.598344
 30
0.0
 10
186.348990
 20
71.752975
 30
0.0
 10
186.435120
 20
70.906739
 30
0.0
 10
186.523831
 20
70.059522
 30
0.0
 10
186.583792
 20
69.494796
 30
0.0
 10
186.613772
 20
69.212432
 30
0.0
 11
185.506766
 21
82.895519
 31
0.0
 11
185.528064
 21
82.499447
 31
0.0
 11
185.549641
 21
82.103391
 31
0.0
 11
185.571776
 21
81.707366
 31
0.0
 11
185.594712
 21
81.311001
 31
0.0
 11
185.618421
 21
80.914680
 31
0.0
 11
185.642820
 21
80.518401
 31
0.0
 11
185.667877
 21
80.121769
 31
0.0
 11
185.693562
 21
79.725177
 31
0.0
 11
185.719895
 21
79.328628
 31
0.0
 11
185.777805
 21
78.489662
 31
0.0
 11
185.838689
 21
77.650903
 31
0.0
 11
185.902541
 21
76.812366
 31
0.0
 11
185.969632
 21
75.970535
 31
0.0
 11
186.039618
 21
75.128940
 31
0.0
 11
186.112404
 21
74.287580
 31
0.0
 11
186.188289
 21
73.442847
 31
0.0
 11
186.267212
 21
72.598395
 31
0.0
 11
186.349479
 21
71.754269
 31
0.0
 11
186.435529
 21
70.906783
 31
0.0
 11
186.524036
 21
70.059545
 31
0.0
 11
186.613772
 21
69.212432
 31
0.0
  0
SPLINE
  5
141
100
AcDbEntity
  8
0
 62
7
100
AcDbSpline
 70
0
 71
3
 72
19
 73
15
 74
13
 40
0.000000
 40
0.000000
 40
0.000000
 40
0.000000
 40
3.978405
 40
7.884190
 40
11.862594
 40
15.840999
 40
19.746784
 40
23.725189
 40
27.703594
 40
31.609378
 40
35.587783
 40
39.566188
 40
43.471973
 40
47.450378
 40
47.450378
 40
47.450378
 40
47.450378
 10
185.192913
 20
96.574153
 30
0.0
 10
184.146124
 20
97.417170
 30
0.0
 10
182.071655
 20
99.087816
 30
0.0
 10
178.029079
 20
99.820229
 30
0.0
 10
174.065504
 20
99.032767
 30
0.0
 10
170.708286
 20
96.735380
 30
0.0
 10
168.506286
 20
93.330090
 30
0.0
 10
167.789647
 20
89.331935
 30
0.0
 10
168.688903
 20
85.370856
 30
0.0
 10
171.044765
 20
82.070141
 30
0.0
 10
174.503817
 20
79.929147
 30
0.0
 10
178.499338
 20
79.324298
 30
0.0
 10
182.504068
 20
80.241348
 30
0.0
 10
184.499732
 20
82.005379
 30
0.0
 10
185.506755
 20
82.895519
 30
0.0
 11
185.192913
 21
96.574153
 31
0.0
 11
181.896631
 21
98.801760
 31
0.0
 11
178.066713
 21
99.567839
 31
0.0
 11
174.167182
 21
98.779572
 31
0.0
 11
170.883233
 21
96.533824
 31
0.0
 11
168.762043
 21
93.254234
 31
0.0
 11
168.060611
 21
89.338152
 31
0.0
 11
168.940912
 21
85.458361
 31
0.0
 11
171.210284
 21
82.279509
 31
0.0
 11
174.593776
 21
80.186738
 31
0.0
 11
178.525356
 21
79.578148
 31
0.0
 11
182.316109
 21
80.519076
 31
0.0
 11
185.506755
 21
82.895519
 31
0.0
  0
SPLINE
  5
142
100
AcDbEntity
  8
0
 62
7
100
AcDbSpline
 70
0
 71
3
 72
31
 73
27
 74
25
 40
0.000000
 40
0.000000
 40
0.000000
 40
0.000000
 40
0.446499
 40
0.892996
 40
1.339492
 40
1.785334
 40
2.231176
 40
2.677017
 40
3.122218
 40
3.567419
 40
4.012621
 40
4.457193
 40
4.901766
 40
5.346340
 40
5.790301
 40
6.234263
 40
6.678224
 40
7.453882
 40
8.229540
 40
9.005201
 40
9.780447
 40
10.555691
 40
11.330931
 40
12.105828
 40
12.880730
 40
13.655636
 40
13.655636
 40
13.655636
 40
13.655636
 10
185.679882
 20
110.219180
 30
0.0
 10
185.670504
 20
110.070642
 30
0.0
 10
185.651750
 20
109.773568
 30
0.0
 10
185.623988
 20
109.327935
 30
0.0
 10
185.596948
 20
108.882476
 30
0.0
 10
185.570963
 20
108.437173
 30
0.0
 10
185.545968
 20
107.992032
 30
0.0
 10
185.521855
 20
107.547057
 30
0.0
 10
185.498525
 20
107.102254
 30
0.0
 10
185.476013
 20
106.657622
 30
0.0
 10
185.454337
 20
106.213158
 30
0.0
 10
185.433532
 20
105.768862
 30
0.0
 10
185.413583
 20
105.324737
 30
0.0
 10
185.394476
 20
104.880778
 30
0.0
 10
185.376225
 20
104.436987
 30
0.0
 10
185.358803
 20
103.993367
 30
0.0
 10
185.338115
 20
103.439226
 30
0.0
 10
185.315074
 20
102.774532
 30
0.0
 10
185.290774
 20
101.999253
 30
0.0
 10
185.268948
 20
101.224037
 30
0.0
 10
185.249506
 20
100.448895
 30
0.0
 10
185.232753
 20
99.673831
 30
0.0
 10
185.218980
 20
98.898824
 30
0.0
 10
185.208479
 20
98.123881
 30
0.0
 10
185.200163
 20
97.349024
 30
0.0
 10
185.195346
 20
96.832443
 30
0.0
 10
185.192938
 20
96.574153
 30
0.0
 11
185.679882
 21
110.219180
 31
0.0
 11
185.651812
 21
109.773564
 31
0.0
 11
185.624106
 21
109.327927
 31
0.0
 11
185.597109
 21
108.882248
 31
0.0
 11
185.571126
 21
108.437164
 31
0.0
 11
185.546113
 21
107.992024
 31
0.0
 11
185.521973
 21
107.546837
 31
0.0
 11
185.498660
 21
107.102247
 31
0.0
 11
185.476151
 21
106.657615
 31
0.0
 11
185.454471
 21
106.212942
 31
0.0
 11
185.433673
 21
105.768856
 31
0.0
 11
185.413722
 21
105.324731
 31
0.0
 11
185.394608
 21
104.880568
 31
0.0
 11
185.376362
 21
104.436982
 31
0.0
 11
185.358946
 21
103.993362
 31
0.0
 11
185.342383
 21
103.549710
 31
0.0
 11
185.315502
 21
102.774518
 31
0.0
 11
185.291186
 21
101.999241
 31
0.0
 11
185.269341
 21
101.223888
 31
0.0
 11
185.249954
 21
100.448884
 31
0.0
 11
185.233249
 21
99.673820
 31
0.0
 11
185.219523
 21
98.898702
 31
0.0
 11
185.208843
 21
98.123878
 31
0.0
 11
185.200345
 21
97.349023
 31
0.0
 11
185.192938
 21
96.574153
 31
0.0
  0
SPLINE
  5
143
100
AcDbEntity
  8
0
 62
7
100
AcDbSpline
 70
0
 71
3
 72
19
 73
15
 74
13
 40
0.000000
 40
0.000000
 40
0.000000
 40
0.000000
 40
3.971911
 40
7.871537
 40
11.843448
 40
15.815359
 40
19.714986
 40
23.686897
 40
27.658808
 40
31.558434
 40
35.530345
 40
39.502256
 40
43.401883
 40
47.373794
 40
47.373794
 40
47.373794
 40
47.373794
 10
186.954168
 20
123.899058
 30
0.0
 10
186.009854
 20
124.852296
 30
0.0
 10
184.138412
 20
126.741423
 30
0.0
 10
180.210919
 20
127.922606
 30
0.0
 10
176.190448
 20
127.589850
 30
0.0
 10
172.599444
 20
125.693227
 30
0.0
 10
170.026084
 20
122.568020
 30
0.0
 10
168.855481
 20
118.685704
 30
0.0
 10
169.288870
 20
114.653973
 30
0.0
 10
171.240721
 20
111.107231
 30
0.0
 10
174.419630
 20
108.579974
 30
0.0
 10
178.309466
 20
107.510352
 30
0.0
 10
182.387552
 20
107.945795
 30
0.0
 10
184.575721
 20
109.456760
 30
0.0
 10
185.679853
 20
110.219180
 30
0.0
 11
186.954168
 21
123.899058
 31
0.0
 11
183.933094
 21
126.477660
 31
0.0
 11
180.219723
 21
127.668443
 31
0.0
 11
176.262463
 21
127.327614
 31
0.0
 11
172.749736
 21
125.473745
 31
0.0
 11
170.270608
 21
122.463594
 31
0.0
 11
169.124445
 21
118.660650
 31
0.0
 11
169.548475
 21
114.711438
 31
0.0
 11
171.428967
 21
111.295177
 31
0.0
 11
174.538841
 21
108.824396
 31
0.0
 11
178.365064
 21
107.758517
 31
0.0
 11
182.234484
 21
108.242943
 31
0.0
 11
185.679853
 21
110.219180
 31
0.0
  0
SPLINE
  5
144
100
AcDbEntity
  8
0
 62
7
100
AcDbSpline
 70
0
 71
3
 72
31
 73
27
 74
25
 40
0.000000
 40
0.000000
 40
0.000000
 40
0.000000
 40
0.556609
 40
1.113217
 40
1.669821
 40
2.223662
 40
2.777505
 40
3.331347
 40
3.882441
 40
4.433534
 40
4.984627
 40
5.532993
 40
6.081359
 40
6.629725
 40
7.175385
 40
7.721044
 40
8.266702
 40
8.809673
 40
9.352645
 40
9.895619
 40
10.531457
 40
11.167296
 40
11.803133
 40
12.436465
 40
13.069801
 40
13.703137
 40
13.703137
 40
13.703137
 40
13.703137
 10
188.952333
 20
137.454242
 30
0.0
 10
188.921021
 20
137.271367
 30
0.0
 10
188.858398
 20
136.905617
 30
0.0
 10
188.764917
 20
136.356916
 30
0.0
 10
188.672502
 20
135.808970
 30
0.0
 10
188.581602
 20
135.261704
 30
0.0
 10
188.492092
 20
134.715143
 30
0.0
 10
188.403854
 20
134.169302
 30
0.0
 10
188.316767
 20
133.624205
 30
0.0
 10
188.230865
 20
133.079847
 30
0.0
 10
188.146184
 20
132.536219
 30
0.0
 10
188.062750
 20
131.993318
 30
0.0
 10
187.980556
 20
131.451146
 30
0.0
 10
187.899587
 20
130.909703
 30
0.0
 10
187.819838
 20
130.368990
 30
0.0
 10
187.741317
 20
129.829010
 30
0.0
 10
187.664037
 20
129.289756
 30
0.0
 10
187.588010
 20
128.751228
 30
0.0
 10
187.513197
 20
128.213434
 30
0.0
 10
187.435237
 20
127.644826
 30
0.0
 10
187.354315
 20
127.045379
 30
0.0
 10
187.270843
 20
126.415043
 30
0.0
 10
187.189258
 20
125.785302
 30
0.0
 10
187.109745
 20
125.156138
 30
0.0
 10
187.031638
 20
124.527637
 30
0.0
 10
186.980001
 20
124.108583
 30
0.0
 10
186.954183
 20
123.899055
 30
0.0
 11
188.952333
 21
137.454242
 31
0.0
 11
188.858473
 21
136.905604
 31
0.0
 11
188.765069
 21
136.356889
 31
0.0
 11
188.672577
 21
135.808023
 31
0.0
 11
188.581809
 21
135.261671
 31
0.0
 11
188.492280
 21
134.715113
 31
0.0
 11
188.403876
 21
134.168371
 31
0.0
 11
188.316940
 21
133.624177
 31
0.0
 11
188.231045
 21
133.079819
 31
0.0
 11
188.146230
 21
132.535292
 31
0.0
 11
188.062934
 21
131.993290
 31
0.0
 11
187.980738
 21
131.451119
 31
0.0
 11
187.899635
 21
130.908783
 31
0.0
 11
187.820021
 21
130.368963
 31
0.0
 11
187.741502
 21
129.828983
 31
0.0
 11
187.664098
 21
129.288842
 31
0.0
 11
187.588191
 21
128.751203
 31
0.0
 11
187.513374
 21
128.213411
 31
0.0
 11
187.439613
 21
127.675471
 31
0.0
 11
187.354580
 21
127.045343
 31
0.0
 11
187.271140
 21
126.415004
 31
0.0
 11
187.189480
 21
125.784432
 31
0.0
 11
187.109962
 21
125.156111
 31
0.0
 11
187.031747
 21
124.527624
 31
0.0
 11
186.954183
 21
123.899055
 31
0.0
  0
SPLINE
  5
145
100
AcDbEntity
  8
0
 62
7
100
AcDbSpline
 70
0
 71
3
 72
19
 73
15
 74
13
 40
0.000000
 40
0.000000
 40
0.000000
 40
0.000000
 40
3.964907
 40
7.857890
 40
11.822797
 40
15.787704
 40
19.680687
 40
23.645594
 40
27.610501
 40
31.503485
 40
35.468392
 40
39.433299
 40
43.326282
 40
47.291189
 40
47.291189
 40
47.291189
 40
47.291189
 10
191.615052
 20
150.995126
 30
0.0
 10
190.769321
 20
152.033690
 30
0.0
 10
189.093202
 20
154.091980
 30
0.0
 10
185.307444
 20
155.649383
 30
0.0
 10
181.281117
 20
155.714792
 30
0.0
 10
177.526358
 20
154.187193
 30
0.0
 10
174.658459
 20
151.340389
 30
0.0
 10
173.105520
 20
147.602656
 30
0.0
 10
173.127557
 20
143.555215
 30
0.0
 10
174.703989
 20
139.834463
 30
0.0
 10
177.600758
 20
136.998885
 30
0.0
 10
181.352061
 20
135.534876
 30
0.0
 10
185.445642
 20
135.542860
 30
0.0
 10
187.776321
 20
136.813239
 30
0.0
 10
188.952327
 20
137.454242
 30
0.0
 11
191.615052
 21
150.995126
 31
0.0
 11
188.863988
 21
153.850321
 31
0.0
 11
185.291230
 21
155.396517
 31
0.0
 11
181.326653
 21
155.447676
 31
0.0
 11
177.653586
 21
153.954670
 31
0.0
 11
174.890418
 21
151.212369
 31
0.0
 11
173.369613
 21
147.550724
 31
0.0
 11
173.390719
 21
143.585873
 31
0.0
 11
174.909788
 21
140.001498
 31
0.0
 11
177.744047
 21
137.228871
 31
0.0
 11
181.432801
 21
135.775053
 31
0.0
 11
185.324997
 21
135.853316
 31
0.0
 11
188.952327
 21
137.454242
 31
0.0
  0
SPLINE
  5
146
100
AcDbEntity
  8
0
 62
7
100
AcDbSpline
 70
0
 71
3
 72
19
 73
15
 74
13
 40
0.000000
 40
0.000000
 40
0.000000
 40
0.000000
 40
0.391935
 40
0.783869
 40
1.175803
 40
3.231247
 40
5.286704
 40
7.342171
 40
9.333133
 40
11.324083
 40
13.315015
 40
13.490257
 40
13.665498
 40
13.840737
 40
13.840737
 40
13.840737
 40
13.840737
 10
194.837643
 20
164.454673
 30
0.0
 10
194.805076
 20
164.328153
 30
0.0
 10
194.739944
 20
164.075111
 30
0.0
 10
194.642378
 20
163.695515
 30
0.0
 10
194.407414
 20
162.778707
 30
0.0
 10
194.039547
 20
161.323532
 30
0.0
 10
193.546588
 20
159.328054
 30
0.0
 10
193.069379
 20
157.350856
 30
0.0
 10
192.607425
 20
155.392124
 30
0.0
 10
192.161051
 20
153.451850
 30
0.0
 10
191.858284
 20
152.099613
 30
0.0
 10
191.690318
 20
151.337430
 30
0.0
 10
191.652669
 20
151.166281
 30
0.0
 10
191.627591
 20
151.052178
 30
0.0
 10
191.615052
 20
150.995126
 30
0.0
 11
194.837643
 21
164.454673
 31
0.0
 11
194.739966
 21
164.075105
 31
0.0
 11
194.642422
 21
163.695503
 31
0.0
 11
194.545142
 21
163.315833
 31
0.0
 11
194.041350
 21
161.323086
 31
0.0
 11
193.548373
 21
159.327622
 31
0.0
 11
193.066100
 21
157.329533
 31
0.0
 11
192.609198
 21
155.391707
 31
0.0
 11
192.162944
 21
153.451413
 31
0.0
 11
191.728048
 21
151.508562
 31
0.0
 11
191.690329
 21
151.337427
 31
0.0
 11
191.652674
 21
151.166279
 31
0.0
 11
191.615052
 21
150.995126
 31
0.0
  0
SPLINE
  5
147
100
AcDbEntity
  8
0
 62
7
100
AcDbSpline
 70
0
 71
3
 72
19
 73
15
 74
13
 40
0.000000
 40
0.000000
 40
0.000000
 40
0.000000
 40
3.957741
 40
7.843927
 40
11.801668
 40
15.759409
 40
19.645595
 40
23.603336
 40
27.561077
 40
31.447263
 40
35.405004
 40
39.362745
 40
43.248931
 40
47.206672
 40
47.206672
 40
47.206672
 40
47.206672
 10
198.505659
 20
177.823049
 30
0.0
 10
197.735558
 20
178.915829
 30
0.0
 10
196.209279
 20
181.081630
 30
0.0
 10
192.549503
 20
182.898020
 30
0.0
 10
188.545496
 20
183.248668
 30
0.0
 10
184.698063
 20
181.996853
 30
0.0
 10
181.637112
 20
179.370353
 30
0.0
 10
179.818196
 20
175.763121
 30
0.0
 10
179.541498
 20
171.732734
 30
0.0
 10
180.833423
 20
167.911890
 30
0.0
 10
183.503258
 20
164.871863
 30
0.0
 10
187.125544
 20
163.130005
 30
0.0
 10
191.199828
 20
162.824319
 30
0.0
 10
193.617682
 20
163.907927
 30
0.0
 10
194.837637
 20
164.454673
 30
0.0
 11
198.505659
 21
177.823049
 31
0.0
 11
195.964660
 21
180.857359
 31
0.0
 11
192.515534
 21
182.647880
 31
0.0
 11
188.571750
 21
182.979971
 31
0.0
 11
184.807813
 21
181.756657
 31
0.0
 11
181.858301
 21
179.226278
 31
0.0
 11
180.076791
 21
175.692168
 31
0.0
 11
179.805242
 21
171.743753
 31
0.0
 11
181.050387
 21
168.062442
 31
0.0
 11
183.662962
 21
165.089537
 31
0.0
 11
187.223987
 21
163.362454
 31
0.0
 11
191.103917
 21
163.142025
 31
0.0
 11
194.837637
 21
164.454673
 31
0.0
  0
SPLINE
  5
148
100
AcDbEntity
  8
0
 62
7
100
AcDbSpline
 70
0
 71
3
 72
25
 73
21
 74
19
 40
0.000000
 40
0.000000
 40
0.000000
 40
0.000000
 40
1.079744
 40
2.159487
 40
3.239228
 40
4.273176
 40
5.307123
 40
6.341070
 40
7.329232
 40
8.317393
 40
9.305553
 40
10.247938
 40
11.190323
 40
12.132709
 40
13.688984
 40
15.245259
 40
16.801531
 40
18.293362
 40
19.785198
 40
21.277039
 40
21.277039
 40
21.277039
 40
21.277039
 10
204.720385
 20
198.171585
 30
0.0
 10
204.611533
 20
197.828525
 30
0.0
 10
204.393829
 20
197.142406
 30
0.0
 10
204.067689
 20
196.113097
 30
0.0
 10
203.746977
 20
195.098082
 30
0.0
 10
203.432051
 20
194.097248
 30
0.0
 10
203.122793
 20
193.110634
 30
0.0
 10
202.819117
 20
192.138266
 30
0.0
 10
202.520918
 20
191.180176
 30
0.0
 10
202.228235
 20
190.236354
 30
0.0
 10
201.941126
 20
189.306781
 30
0.0
 10
201.659612
 20
188.391449
 30
0.0
 10
201.383627
 20
187.490382
 30
0.0
 10
201.048967
 20
186.393273
 30
0.0
 10
200.656541
 20
185.099848
 30
0.0
 10
200.208097
 20
183.609582
 30
0.0
 10
199.769792
 20
182.138703
 30
0.0
 10
199.342017
 20
180.687108
 30
0.0
 10
198.923147
 20
179.255282
 30
0.0
 10
198.644845
 20
178.300455
 30
0.0
 10
198.505693
 20
177.823041
 30
0.0
 11
204.720385
 21
198.171585
 31
0.0
 11
204.393898
 21
197.142384
 31
0.0
 11
204.067827
 21
196.113053
 31
0.0
 11
203.742586
 21
195.083461
 31
0.0
 11
203.432232
 21
194.097191
 31
0.0
 11
203.122965
 21
193.110581
 31
0.0
 11
202.814730
 21
192.123647
 31
0.0
 11
202.521081
 21
191.180125
 31
0.0
 11
202.228414
 21
190.236299
 31
0.0
 11
201.936816
 21
189.292143
 31
0.0
 11
201.659786
 21
188.391396
 31
0.0
 11
201.383799
 21
187.490330
 31
0.0
 11
201.108841
 21
186.588948
 31
0.0
 11
200.657106
 21
185.099677
 31
0.0
 11
200.208764
 21
183.609381
 31
0.0
 11
199.764427
 21
182.117890
 31
0.0
 11
199.342490
 21
180.686971
 31
0.0
 11
198.923384
 21
179.255215
 31
0.0
 11
198.505693
 21
177.823041
 31
0.0
  0
SPLINE
  5
149
100
AcDbEntity
  8
0
 62
7
100
AcDbSpline
 70
0
 71
3
 72
13
 73
9
 74
7
 40
0.000000
 40
0.000000
 40
0.000000
 40
0.000000
 40
1.912216
 40
3.804053
 40
5.716269
 40
7.628486
 40
9.520322
 40
11.432539
 40
11.432539
 40
11.432539
 40
11.432539
 10
214.720384
 20
198.171585
 30
0.0
 10
214.277159
 20
198.636379
 30
0.0
 10
213.395432
 20
199.561015
 30
0.0
 10
211.627911
 20
200.377904
 30
0.0
 10
209.720385
 20
200.673638
 30
0.0
 10
207.812859
 20
200.377904
 30
0.0
 10
206.045337
 20
199.561015
 30
0.0
 10
205.163610
 20
198.636379
 30
0.0
 10
204.720385
 20
198.171585
 30
0.0
 11
214.720384
 21
198.171585
 31
0.0
 11
213.316287
 21
199.469692
 31
0.0
 11
211.611169
 21
200.289214
 31
0.0
 11
209.720385
 21
200.574709
 31
0.0
 11
207.829601
 21
200.289214
 31
0.0
 11
206.124482
 21
199.469692
 31
0.0
 11
204.720385
 21
198.171585
 31
0.0
  0
SPLINE
  5
14a
100
AcDbEntity
  8
0
 62
7
100
AcDbSpline
 70
0
 71
3
 72
13
 73
9
 74
7
 40
0.000000
 40
0.000000
 40
0.000000
 40
0.000000
 40
1.137000
 40
2.273998
 40
3.410996
 40
4.604197
 40
5.797401
 40
6.990607
 40
6.990607
 40
6.990607
 40
6.990607
 10
216.819099
 20
191.503464
 30
0.0
 10
216.706191
 20
191.865255
 30
0.0
 10
216.480376
 20
192.588836
 30
0.0
 10
216.141086
 20
193.674031
 30
0.0
 10
215.795061
 20
194.776749
 30
0.0
 10
215.441628
 20
195.896775
 30
0.0
 10
215.081318
 20
197.034278
 30
0.0
 10
214.840696
 20
197.792482
 30
0.0
 10
214.720384
 20
198.171585
 30
0.0
 11
216.819099
 21
191.503464
 31
0.0
 11
216.480281
 21
192.588807
 31
0.0
 11
216.140898
 21
193.673973
 31
0.0
 11
215.800387
 21
194.758784
 31
0.0
 11
215.441422
 21
195.896709
 31
0.0
 11
215.081214
 21
197.034244
 31
0.0
 11
214.720384
 21
198.171585
 31
0.0
  0
SPLINE
  5
14b
100
AcDbEntity
  8
0
 62
7
100
AcDbSpline
 70
0
 71
3
 72
19
 73
15
 74
13
 40
0.000000
 40
0.000000
 40
0.000000
 40
0.000000
 40
3.957852
 40
7.844142
 40
11.801994
 40
15.759845
 40
19.646136
 40
23.603988
 40
27.561839
 40
31.448130
 40
35.405981
 40
39.363833
 40
43.250124
 40
47.207975
 40
47.207975
 40
47.207975
 40
47.207975
 10
220.816791
 20
178.230948
 30
0.0
 10
222.049911
 20
177.714478
 30
0.0
 10
224.493855
 20
176.690877
 30
0.0
 10
228.559463
 20
177.097146
 30
0.0
 10
232.137690
 20
178.928060
 30
0.0
 10
234.731607
 20
182.033271
 30
0.0
 10
235.928643
 20
185.885019
 30
0.0
 10
235.552262
 20
189.907440
 30
0.0
 10
233.644525
 20
193.468629
 30
0.0
 10
230.519356
 20
196.018567
 30
0.0
 10
226.641966
 20
197.174675
 30
0.0
 10
222.647770
 20
196.724840
 30
0.0
 10
219.034070
 20
194.818168
 30
0.0
 10
217.561975
 20
192.615089
 30
0.0
 10
216.819212
 20
191.503500
 30
0.0
 11
220.816791
 21
178.230948
 31
0.0
 11
224.581895
 21
177.010873
 31
0.0
 11
228.455298
 21
177.327104
 31
0.0
 11
231.972643
 21
179.141731
 31
0.0
 11
234.510973
 21
182.178418
 31
0.0
 11
235.664692
 21
185.889508
 31
0.0
 11
235.295489
 21
189.830102
 31
0.0
 11
233.426959
 21
193.319111
 31
0.0
 11
230.415585
 21
195.775711
 31
0.0
 11
226.622380
 21
196.905395
 31
0.0
 11
222.687934
 21
196.475605
 31
0.0
 11
219.284194
 21
194.600023
 31
0.0
 11
216.819212
 21
191.503500
 31
0.0
  0
SPLINE
  5
14c
100
AcDbEntity
  8
0
 62
7
100
AcDbSpline
 70
0
 71
3
 72
28
 73
24
 74
22
 40
0.000000
 40
0.000000
 40
0.000000
 40
0.000000
 40
0.685050
 40
1.370098
 40
2.055145
 40
2.750507
 40
3.445870
 40
4.141234
 40
4.846925
 40
5.552616
 40
6.258305
 40
6.974340
 40
7.690374
 40
8.406407
 40
9.132798
 40
9.859187
 40
10.585576
 40
11.143702
 40
11.701827
 40
12.259952
 40
12.827938
 40
13.395923
 40
13.963909
 40
13.963909
 40
13.963909
 40
13.963909
 10
224.521626
 20
164.767968
 30
0.0
 10
224.464032
 20
164.988936
 30
0.0
 10
224.348842
 20
165.430870
 30
0.0
 10
224.175623
 20
166.093657
 30
0.0
 10
224.000658
 20
166.759540
 30
0.0
 10
223.823484
 20
167.428396
 30
0.0
 10
223.644220
 20
168.100255
 30
0.0
 10
223.462996
 20
168.775154
 30
0.0
 10
223.279930
 20
169.453121
 30
0.0
 10
223.094989
 20
170.134147
 30
0.0
 10
222.908147
 20
170.818229
 30
0.0
 10
222.719368
 20
171.505354
 30
0.0
 10
222.528654
 20
172.195523
 30
0.0
 10
222.336012
 20
172.888740
 30
0.0
 10
222.141445
 20
173.585004
 30
0.0
 10
221.944969
 20
174.284317
 30
0.0
 10
221.762789
 20
174.929387
 30
0.0
 10
221.595172
 20
175.520287
 30
0.0
 10
221.442276
 20
176.057061
 30
0.0
 10
221.287842
 20
176.596814
 30
0.0
 10
221.131809
 20
177.139528
 30
0.0
 10
220.974398
 20
177.685266
 30
0.0
 10
220.869302
 20
178.049046
 30
0.0
 10
220.816754
 20
178.230936
 30
0.0
 11
224.521626
 21
164.767968
 31
0.0
 11
224.348770
 21
165.430852
 31
0.0
 11
224.175478
 21
166.093619
 31
0.0
 11
224.001313
 21
166.756156
 31
0.0
 11
223.823282
 21
167.428342
 31
0.0
 11
223.644043
 21
168.100207
 31
0.0
 11
223.463733
 21
168.771787
 31
0.0
 11
223.279767
 21
169.453077
 31
0.0
 11
223.094824
 21
170.134102
 31
0.0
 11
222.908887
 21
170.814856
 31
0.0
 11
222.719197
 21
171.505308
 31
0.0
 11
222.528486
 21
172.195477
 31
0.0
 11
222.336772
 21
172.885368
 31
0.0
 11
222.141281
 21
173.584958
 31
0.0
 11
221.944811
 21
174.284273
 31
0.0
 11
221.747393
 21
174.983321
 31
0.0
 11
221.595075
 21
175.520259
 31
0.0
 11
221.442170
 21
176.057031
 31
0.0
 11
221.288633
 21
176.593621
 31
0.0
 11
221.131731
 21
177.139506
 31
0.0
 11
220.974360
 21
177.685255
 31
0.0
 11
220.816754
 21
178.230936
 31
0.0
  0
SPLINE
  5
14d
100
AcDbEntity
  8
0
 62
7
100
AcDbSpline
 70
0
 71
3
 72
19
 73
15
 74
13
 40
0.000000
 40
0.000000
 40
0.000000
 40
0.000000
 40
3.965286
 40
7.858628
 40
11.823913
 40
15.789199
 40
19.682541
 40
23.647827
 40
27.613112
 40
31.506455
 40
35.471740
 40
39.437026
 40
43.330368
 40
47.295654
 40
47.295654
 40
47.295654
 40
47.295654
 10
227.746391
 20
151.353218
 30
0.0
 10
228.948114
 20
150.761535
 30
0.0
 10
231.329758
 20
149.588905
 30
0.0
 10
235.420547
 20
149.751094
 30
0.0
 10
239.108061
 20
151.370058
 30
0.0
 10
241.884521
 20
154.324092
 30
0.0
 10
243.304651
 20
158.107689
 30
0.0
 10
243.157814
 20
162.152929
 30
0.0
 10
241.449994
 20
165.822926
 30
0.0
 10
238.465333
 20
168.547660
 30
0.0
 10
234.649581
 20
169.916999
 30
0.0
 10
230.629125
 20
169.683051
 30
0.0
 10
226.911578
 20
167.968203
 30
0.0
 10
225.323128
 20
165.841206
 30
0.0
 10
224.521632
 20
164.767971
 30
0.0
 11
227.746391
 21
151.353218
 31
0.0
 11
231.437425
 21
149.904165
 31
0.0
 11
235.329870
 21
149.987753
 31
0.0
 11
238.955295
 21
151.593923
 31
0.0
 11
241.671902
 21
154.482441
 31
0.0
 11
243.040389
 21
158.127350
 31
0.0
 11
242.896067
 21
162.090008
 31
0.0
 11
241.223541
 21
165.685303
 31
0.0
 11
238.347916
 21
168.309974
 31
0.0
 11
234.615256
 21
169.648159
 31
0.0
 11
230.655919
 21
169.431036
 31
0.0
 11
227.150771
 21
167.736324
 31
0.0
 11
224.521632
 21
164.767971
 31
0.0
  0
SPLINE
  5
14e
100
AcDbEntity
  8
0
 62
7
100
AcDbSpline
 70
0
 71
3
 72
25
 73
21
 74
19
 40
0.000000
 40
0.000000
 40
0.000000
 40
0.000000
 40
0.310438
 40
0.620877
 40
0.931315
 40
1.242623
 40
1.553932
 40
1.865241
 40
2.841756
 40
3.818273
 40
4.794788
 40
5.783367
 40
6.771946
 40
7.760527
 40
8.761265
 40
9.762000
 40
10.762729
 40
11.775699
 40
12.788673
 40
13.801652
 40
13.801652
 40
13.801652
 40
13.801652
 10
230.425010
 20
137.815139
 30
0.0
 10
230.407151
 20
137.917066
 30
0.0
 10
230.371432
 20
138.120920
 30
0.0
 10
230.317716
 20
138.426675
 30
0.0
 10
230.263673
 20
138.732668
 30
0.0
 10
230.209166
 20
139.038873
 30
0.0
 10
230.154229
 20
139.345296
 30
0.0
 10
230.059569
 20
139.869868
 30
0.0
 10
229.923960
 20
140.612367
 30
0.0
 10
229.745408
 20
141.572422
 30
0.0
 10
229.562967
 20
142.535839
 30
0.0
 10
229.376551
 20
143.502589
 30
0.0
 10
229.186264
 20
144.472684
 30
0.0
 10
228.992208
 20
145.446165
 30
0.0
 10
228.794492
 20
146.423043
 30
0.0
 10
228.592773
 20
147.403238
 30
0.0
 10
228.386728
 20
148.386699
 30
0.0
 10
228.176005
 20
149.373341
 30
0.0
 10
227.961844
 20
150.363418
 30
0.0
 10
227.818209
 20
151.023284
 30
0.0
 10
227.746391
 20
151.353218
 30
0.0
 11
230.425010
 21
137.815139
 31
0.0
 11
230.371409
 21
138.120915
 31
0.0
 11
230.317670
 21
138.426667
 31
0.0
 11
230.263655
 21
138.732370
 31
0.0
 11
230.209103
 21
139.038862
 31
0.0
 11
230.154171
 21
139.345285
 31
0.0
 11
230.098894
 21
139.651647
 31
0.0
 11
229.923443
 21
140.612272
 31
0.0
 11
229.744884
 21
141.572325
 31
0.0
 11
229.563185
 21
142.531787
 31
0.0
 11
229.376033
 21
143.502489
 31
0.0
 11
229.185768
 21
144.472585
 31
0.0
 11
228.992529
 21
145.442096
 31
0.0
 11
228.793958
 21
146.422936
 31
0.0
 11
228.592191
 21
147.403119
 31
0.0
 11
228.386934
 21
148.382572
 31
0.0
 11
228.175575
 21
149.373246
 31
0.0
 11
227.961629
 21
150.363370
 31
0.0
 11
227.746391
 21
151.353218
 31
0.0
  0
SPLINE
  5
14f
100
AcDbEntity
  8
0
 62
7
100
AcDbSpline
 70
0
 71
3
 72
19
 73
15
 74
13
 40
0.000000
 40
0.000000
 40
0.000000
 40
0.000000
 40
3.972947
 40
7.873557
 40
11.846504
 40
15.819451
 40
19.720060
 40
23.693008
 40
27.665955
 40
31.566564
 40
35.539511
 40
39.512459
 40
43.413068
 40
47.386015
 40
47.386015
 40
47.386015
 40
47.386015
 10
232.444849
 20
124.234479
 30
0.0
 10
233.588947
 20
123.532771
 30
0.0
 10
235.856314
 20
122.142131
 30
0.0
 10
239.953155
 20
121.928588
 30
0.0
 10
243.780114
 20
123.208467
 30
0.0
 10
246.817457
 20
125.905879
 30
0.0
 10
248.573297
 20
129.554853
 30
0.0
 10
248.785634
 20
133.605352
 30
0.0
 10
247.403713
 20
137.418740
 30
0.0
 10
244.661949
 20
140.398792
 30
0.0
 10
240.971071
 20
142.095526
 30
0.0
 10
236.937284
 20
142.206288
 30
0.0
 10
233.079911
 20
140.809728
 30
0.0
 10
231.315386
 20
138.819431
 30
0.0
 10
230.425018
 20
137.815139
 30
0.0
 11
232.444849
 21
124.234479
 31
0.0
 11
235.993128
 21
122.447295
 31
0.0
 11
239.884116
 21
122.173497
 31
0.0
 11
243.647708
 21
123.446165
 31
0.0
 11
246.619142
 21
126.083378
 31
0.0
 11
248.310801
 21
129.598067
 31
0.0
 11
248.518302
 21
133.565592
 31
0.0
 11
247.165155
 21
137.301004
 31
0.0
 11
244.523872
 21
140.171262
 31
0.0
 11
240.913571
 21
141.829583
 31
0.0
 11
236.942506
 21
141.951888
 31
0.0
 11
233.299612
 21
140.557587
 31
0.0
 11
230.425018
 21
137.815139
 31
0.0
  0
SPLINE
  5
150
100
AcDbEntity
  8
0
 62
7
100
AcDbSpline
 70
0
 71
3
 72
28
 73
24
 74
22
 40
0.000000
 40
0.000000
 40
0.000000
 40
0.000000
 40
0.421004
 40
0.842006
 40
1.263009
 40
1.684635
 40
2.106261
 40
2.527889
 40
2.950151
 40
3.372413
 40
3.794675
 40
4.217582
 40
4.640489
 40
5.063396
 40
6.018100
 40
6.972806
 40
7.927516
 40
8.887858
 40
9.848196
 40
10.808525
 40
11.774606
 40
12.740693
 40
13.706788
 40
13.706788
 40
13.706788
 40
13.706788
 10
233.735493
 20
110.590353
 30
0.0
 10
233.725998
 20
110.730366
 30
0.0
 10
233.707008
 20
111.010391
 30
0.0
 10
233.678210
 20
111.430408
 30
0.0
 10
233.648774
 20
111.850589
 30
0.0
 10
233.618392
 20
112.270911
 30
0.0
 10
233.587141
 20
112.691378
 30
0.0
 10
233.555107
 20
113.111999
 30
0.0
 10
233.522374
 20
113.532778
 30
0.0
 10
233.488919
 20
113.953713
 30
0.0
 10
233.454723
 20
114.374804
 30
0.0
 10
233.419769
 20
114.796049
 30
0.0
 10
233.384050
 20
115.217445
 30
0.0
 10
233.332301
 20
115.815383
 30
0.0
 10
233.263023
 20
116.589731
 30
0.0
 10
233.174274
 20
117.540306
 30
0.0
 10
233.081801
 20
118.492414
 30
0.0
 10
232.985720
 20
119.446052
 30
0.0
 10
232.885621
 20
120.401160
 30
0.0
 10
232.781099
 20
121.357719
 30
0.0
 10
232.671739
 20
122.315666
 30
0.0
 10
232.559061
 20
123.275161
 30
0.0
 10
232.482910
 20
123.914704
 30
0.0
 10
232.444835
 20
124.234476
 30
0.0
 11
233.735493
 21
110.590353
 31
0.0
 11
233.706956
 21
111.010388
 31
0.0
 11
233.678106
 21
111.430401
 31
0.0
 11
233.648634
 21
111.850370
 31
0.0
 11
233.618250
 21
112.270900
 31
0.0
 11
233.587013
 21
112.691368
 31
0.0
 11
233.555009
 21
113.111780
 31
0.0
 11
233.522256
 21
113.532769
 31
0.0
 11
233.488799
 21
113.953703
 31
0.0
 11
233.454617
 21
114.374580
 31
0.0
 11
233.419644
 21
114.796038
 31
0.0
 11
233.383925
 21
115.217434
 31
0.0
 11
233.347460
 21
115.638766
 31
0.0
 11
233.262411
 21
116.589674
 31
0.0
 11
233.173684
 21
117.540249
 31
0.0
 11
233.081415
 21
118.490489
 31
0.0
 11
232.985081
 21
119.445988
 31
0.0
 11
232.884918
 21
120.401087
 31
0.0
 11
232.780541
 21
121.355728
 31
0.0
 11
232.671223
 21
122.315603
 31
0.0
 11
232.558804
 21
123.275128
 31
0.0
 11
232.444835
 21
124.234476
 31
0.0
  0
SPLINE
  5
151
100
AcDbEntity
  8
0
 62
7
100
AcDbSpline
 70
0
 71
3
 72
19
 73
15
 74
13
 40
0.000000
 40
0.000000
 40
0.000000
 40
0.000000
 40
3.980423
 40
7.888120
 40
11.868543
 40
15.848965
 40
19.756663
 40
23.737086
 40
27.717508
 40
31.625206
 40
35.605629
 40
39.586051
 40
43.493749
 40
47.474171
 40
47.474171
 40
47.474171
 40
47.474171
 10
234.244027
 20
96.935298
 30
0.0
 10
235.302344
 20
96.105665
 30
0.0
 10
237.399642
 20
94.461557
 30
0.0
 10
241.453836
 20
93.782921
 30
0.0
 10
245.408433
 20
94.624550
 30
0.0
 10
248.735444
 20
96.969212
 30
0.0
 10
250.890761
 20
100.406761
 30
0.0
 10
251.550989
 20
104.416795
 30
0.0
 10
250.594341
 20
108.366617
 30
0.0
 10
248.189324
 20
111.634342
 30
0.0
 10
244.697143
 20
113.725062
 30
0.0
 10
240.690903
 20
114.270235
 30
0.0
 10
236.698411
 20
113.291946
 30
0.0
 10
234.729203
 20
111.496403
 30
0.0
 10
233.735522
 20
110.590355
 30
0.0
 11
234.244027
 21
96.935298
 31
0.0
 11
237.571048
 21
94.750192
 31
0.0
 11
241.412749
 21
94.035044
 31
0.0
 11
245.303194
 21
94.876590
 31
0.0
 11
248.557540
 21
97.168533
 31
0.0
 11
250.633696
 21
100.479073
 31
0.0
 11
251.279859
 21
104.406698
 31
0.0
 11
250.343366
 21
108.275386
 31
0.0
 11
248.026737
 21
111.422342
 31
0.0
 11
244.610941
 21
113.465893
 31
0.0
 11
240.668681
 21
114.015754
 31
0.0
 11
236.890810
 21
113.016859
 31
0.0
 11
233.735522
 21
110.590355
 31
0.0
  0
SPLINE
  5
152
100
AcDbEntity
  8
0
 62
7
100
AcDbSpline
 70
0
 71
3
 72
31
 73
27
 74
25
 40
0.000000
 40
0.000000
 40
0.000000
 40
0.000000
 40
0.457890
 40
0.915780
 40
1.373669
 40
1.831095
 40
2.288523
 40
2.745950
 40
3.202931
 40
3.659910
 40
4.116890
 40
4.573439
 40
5.029988
 40
5.486537
 40
5.942670
 40
6.398803
 40
6.854937
 40
7.310668
 40
7.766401
 40
8.222136
 40
9.138556
 40
10.054975
 40
10.971388
 40
11.888122
 40
12.804863
 40
13.721611
 40
13.721611
 40
13.721611
 40
13.721611
 10
233.949294
 20
83.218822
 30
0.0
 10
233.956783
 20
83.371268
 30
0.0
 10
233.971763
 20
83.676160
 30
0.0
 10
233.993871
 20
84.133515
 30
0.0
 10
234.015214
 20
84.590753
 30
0.0
 10
234.035429
 20
85.047888
 30
0.0
 10
234.054607
 20
85.504913
 30
0.0
 10
234.072850
 20
85.961828
 30
0.0
 10
234.090277
 20
86.418625
 30
0.0
 10
234.106826
 20
86.875305
 30
0.0
 10
234.122492
 20
87.331873
 30
0.0
 10
234.137254
 20
87.788327
 30
0.0
 10
234.151103
 20
88.244667
 30
0.0
 10
234.164058
 20
88.700893
 30
0.0
 10
234.176128
 20
89.157006
 30
0.0
 10
234.187312
 20
89.613002
 30
0.0
 10
234.197581
 20
90.068886
 30
0.0
 10
234.206920
 20
90.524657
 30
0.0
 10
234.215391
 20
90.980311
 30
0.0
 10
234.225594
 20
91.589522
 30
0.0
 10
234.236302
 20
92.352307
 30
0.0
 10
234.245486
 20
93.268681
 30
0.0
 10
234.250469
 20
94.185193
 30
0.0
 10
234.250989
 20
95.101825
 30
0.0
 10
234.248300
 20
96.018563
 30
0.0
 10
234.245449
 20
96.629719
 30
0.0
 10
234.244024
 20
96.935298
 30
0.0
 11
233.949294
 21
83.218822
 31
0.0
 11
233.971703
 21
83.676163
 31
0.0
 11
233.993745
 21
84.133522
 31
0.0
 11
234.015034
 21
84.590915
 31
0.0
 11
234.035258
 21
85.047895
 31
0.0
 11
234.054452
 21
85.504920
 31
0.0
 11
234.072721
 21
85.961982
 31
0.0
 11
234.090132
 21
86.418631
 31
0.0
 11
234.106680
 21
86.875311
 31
0.0
 11
234.122347
 21
87.332021
 31
0.0
 11
234.137102
 21
87.788332
 31
0.0
 11
234.150954
 21
88.244671
 31
0.0
 11
234.163915
 21
88.701036
 31
0.0
 11
234.175981
 21
89.157009
 31
0.0
 11
234.187160
 21
89.613005
 31
0.0
 11
234.197429
 21
90.069024
 31
0.0
 11
234.206776
 21
90.524659
 31
0.0
 11
234.215251
 21
90.980313
 31
0.0
 11
234.222885
 21
91.435984
 31
0.0
 11
234.235689
 21
92.352314
 31
0.0
 11
234.244786
 21
93.268688
 31
0.0
 11
234.249725
 21
94.185088
 31
0.0
 11
234.250454
 21
95.101822
 31
0.0
 11
234.248036
 21
96.018559
 31
0.0
 11
234.244024
 21
96.935298
 31
0.0
  0
SPLINE
  5
153
100
AcDbEntity
  8
0
 62
7
100
AcDbSpline
 70
0
 71
3
 72
19
 73
15
 74
13
 40
0.000000
 40
0.000000
 40
0.000000
 40
0.000000
 40
3.986759
 40
7.900465
 40
11.887224
 40
15.873983
 40
19.787689
 40
23.774448
 40
27.761207
 40
31.674913
 40
35.661672
 40
39.648431
 40
43.562137
 40
47.548896
 40
47.548896
 40
47.548896
 40
47.548896
 10
232.873161
 20
69.652673
 30
0.0
 10
233.826103
 20
68.700756
 30
0.0
 10
235.714528
 20
66.814365
 30
0.0
 10
239.665894
 20
65.656376
 30
0.0
 10
243.698930
 20
66.024752
 30
0.0
 10
247.284728
 20
67.964770
 30
0.0
 10
249.831846
 20
71.131600
 30
0.0
 10
250.956379
 20
75.043966
 30
0.0
 10
250.462730
 20
79.084695
 30
0.0
 10
248.446749
 20
82.613496
 30
0.0
 10
245.211658
 20
85.094587
 30
0.0
 10
241.287139
 20
86.094201
 30
0.0
 10
237.202622
 20
85.573664
 30
0.0
 10
235.040409
 20
84.008593
 30
0.0
 10
233.949305
 20
83.218822
 30
0.0
 11
232.873161
 21
69.652673
 31
0.0
 11
235.919847
 21
67.081302
 31
0.0
 11
239.654930
 21
65.912437
 31
0.0
 11
243.623932
 21
66.288302
 31
0.0
 11
247.130977
 21
68.184320
 31
0.0
 11
249.584174
 21
71.233732
 31
0.0
 11
250.685024
 21
75.065491
 31
0.0
 11
250.202055
 21
79.022888
 31
0.0
 11
248.260306
 21
82.420932
 31
0.0
 11
245.096047
 21
84.846157
 31
0.0
 11
241.235942
 21
85.843071
 31
0.0
 11
237.363289
 21
85.277695
 31
0.0
 11
233.949305
 21
83.218822
 31
0.0
  0
SPLINE
  5
154
100
AcDbEntity
  8
0
 62
7
100
AcDbSpline
 70
0
 71
3
 72
34
 73
30
 74
28
 40
0.000000
 40
0.000000
 40
0.000000
 40
0.000000
 40
0.552695
 40
1.105391
 40
1.658086
 40
2.208399
 40
2.758713
 40
3.309028
 40
3.856979
 40
4.404930
 40
4.952880
 40
5.498491
 40
6.044101
 40
6.589712
 40
7.133000
 40
7.676289
 40
8.219578
 40
8.760566
 40
9.301554
 40
9.842543
 40
10.381254
 40
10.919964
 40
11.458674
 40
11.858478
 40
12.258281
 40
12.658084
 40
13.057063
 40
13.456041
 40
13.855020
 40
13.855020
 40
13.855020
 40
13.855020
 10
231.025136
 20
55.923070
 30
0.0
 10
231.054119
 20
56.105008
 30
0.0
 10
231.112086
 20
56.468883
 30
0.0
 10
231.198573
 20
57.014770
 30
0.0
 10
231.284009
 20
57.560018
 30
0.0
 10
231.367933
 20
58.104699
 30
0.0
 10
231.450468
 20
58.648789
 30
0.0
 10
231.531744
 20
59.192272
 30
0.0
 10
231.611871
 20
59.735130
 30
0.0
 10
231.690827
 20
60.277363
 30
0.0
 10
231.768577
 20
60.818982
 30
0.0
 10
231.845082
 20
61.359990
 30
0.0
 10
231.920359
 20
61.900382
 30
0.0
 10
231.994413
 20
62.440163
 30
0.0
 10
232.067248
 20
62.979329
 30
0.0
 10
232.138870
 20
63.517876
 30
0.0
 10
232.209274
 20
64.055811
 30
0.0
 10
232.278466
 20
64.593130
 30
0.0
 10
232.346432
 20
65.129832
 30
0.0
 10
232.413165
 20
65.665925
 30
0.0
 10
232.478663
 20
66.201404
 30
0.0
 10
232.542952
 20
66.736265
 30
0.0
 10
232.600718
 20
67.225273
 30
0.0
 10
232.652283
 20
67.668389
 30
0.0
 10
232.697838
 20
68.065589
 30
0.0
 10
232.742634
 20
68.462598
 30
0.0
 10
232.786601
 20
68.859423
 30
0.0
 10
232.830009
 20
69.256034
 30
0.0
 10
232.858771
 20
69.520460
 30
0.0
 10
232.873152
 20
69.652673
 30
0.0
 11
231.025136
 21
55.923070
 31
0.0
 11
231.112009
 21
56.468895
 31
0.0
 11
231.198419
 21
57.014794
 31
0.0
 11
231.283899
 21
57.560839
 31
0.0
 11
231.367721
 21
58.104730
 31
0.0
 11
231.450278
 21
58.648817
 31
0.0
 11
231.531688
 21
59.193077
 31
0.0
 11
231.611695
 21
59.735156
 31
0.0
 11
231.690645
 21
60.277390
 31
0.0
 11
231.768498
 21
60.819781
 31
0.0
 11
231.844896
 21
61.360016
 31
0.0
 11
231.920173
 21
61.900408
 31
0.0
 11
231.994332
 21
62.440955
 31
0.0
 11
232.067063
 21
62.979353
 31
0.0
 11
232.138684
 21
63.517901
 31
0.0
 11
232.209188
 21
64.056596
 31
0.0
 11
232.278278
 21
64.593154
 31
0.0
 11
232.346242
 21
65.129856
 31
0.0
 11
232.413068
 21
65.666702
 31
0.0
 11
232.478477
 21
66.201427
 31
0.0
 11
232.542770
 21
66.736286
 31
0.0
 11
232.605972
 21
67.271276
 31
0.0
 11
232.652174
 21
67.668402
 31
0.0
 11
232.697716
 21
68.065603
 31
0.0
 11
232.742531
 21
68.462886
 31
0.0
 11
232.786513
 21
68.859433
 31
0.0
 11
232.829965
 21
69.256038
 31
0.0
 11
232.873152
 21
69.652673
 31
0.0
  0
SPLINE
  5
155
100
AcDbEntity
  8
0
 62
7
100
AcDbSpline
 70
0
 71
3
 72
19
 73
15
 74
13
 40
0.000000
 40
0.000000
 40
0.000000
 40
0.000000
 40
3.990933
 40
7.908595
 40
11.899528
 40
15.890460
 40
19.808123
 40
23.799055
 40
27.789988
 40
31.707650
 40
35.698583
 40
39.689516
 40
43.607178
 40
47.598111
 40
47.598111
 40
47.598111
 40
47.598111
 10
228.554684
 20
42.577876
 30
0.0
 10
229.402190
 20
41.529122
 30
0.0
 10
231.081642
 20
39.450870
 30
0.0
 10
234.892925
 20
37.880491
 30
0.0
 10
238.946725
 20
37.822654
 30
0.0
 10
242.720121
 20
39.378129
 30
0.0
 10
245.586829
 20
42.265091
 30
0.0
 10
247.113482
 20
46.043547
 30
0.0
 10
247.040574
 20
50.118112
 30
0.0
 10
245.397284
 20
53.839961
 30
0.0
 10
242.430756
 20
56.643126
 30
0.0
 10
238.624886
 20
58.040265
 30
0.0
 10
234.504017
 20
57.938280
 30
0.0
 10
232.191903
 20
56.598943
 30
0.0
 10
231.025136
 20
55.923070
 30
0.0
 11
228.554684
 21
42.577876
 31
0.0
 11
231.314569
 21
39.695069
 31
0.0
 11
234.909009
 21
38.136839
 31
0.0
 11
238.899703
 21
38.093195
 31
0.0
 11
242.589901
 21
39.613056
 31
0.0
 11
245.350629
 21
42.392707
 31
0.0
 11
246.845247
 21
46.093202
 31
0.0
 11
246.774344
 21
50.083505
 31
0.0
 11
245.191597
 21
53.667217
 31
0.0
 11
242.290004
 21
56.407345
 31
0.0
 11
238.548139
 21
57.795146
 31
0.0
 11
234.634092
 21
57.626882
 31
0.0
 11
231.025136
 21
55.923070
 31
0.0
  0
SPLINE
  5
156
100
AcDbEntity
  8
0
 62
7
100
AcDbSpline
 70
0
 71
3
 72
25
 73
21
 74
19
 40
0.000000
 40
0.000000
 40
0.000000
 40
0.000000
 40
0.463174
 40
0.926347
 40
1.389520
 40
1.848539
 40
2.307558
 40
2.766578
 40
3.727475
 40
4.688373
 40
5.649270
 40
6.597441
 40
7.545614
 40
8.493787
 40
9.429301
 40
10.364812
 40
11.300318
 40
12.223221
 40
13.146127
 40
14.069038
 40
14.069038
 40
14.069038
 40
14.069038
 10
225.405916
 20
28.866660
 30
0.0
 10
225.443190
 20
29.016484
 30
0.0
 10
225.517738
 20
29.316132
 30
0.0
 10
225.629335
 20
29.765661
 30
0.0
 10
225.740146
 20
30.213957
 30
0.0
 10
225.849958
 20
30.661073
 30
0.0
 10
225.958827
 20
31.106995
 30
0.0
 10
226.106601
 20
31.715625
 30
0.0
 10
226.292476
 20
32.487156
 30
0.0
 10
226.515178
 20
33.421891
 30
0.0
 10
226.734454
 20
34.353078
 30
0.0
 10
226.950236
 20
35.280727
 30
0.0
 10
227.162625
 20
36.204807
 30
0.0
 10
227.371708
 20
37.125314
 30
0.0
 10
227.577577
 20
38.042221
 30
0.0
 10
227.779933
 20
38.955585
 30
0.0
 10
227.978465
 20
39.865486
 30
0.0
 10
228.172892
 20
40.771977
 30
0.0
 10
228.364317
 20
41.674813
 30
0.0
 10
228.491228
 20
42.276855
 30
0.0
 10
228.554684
 20
42.577876
 30
0.0
 11
225.405916
 21
28.866660
 31
0.0
 11
225.517701
 21
29.316142
 31
0.0
 11
225.629259
 21
29.765680
 31
0.0
 11
225.740366
 21
30.215329
 31
0.0
 11
225.849856
 21
30.661098
 31
0.0
 11
225.958732
 21
31.107018
 31
0.0
 11
226.067044
 21
31.553077
 31
0.0
 11
226.292083
 21
32.487250
 31
0.0
 11
226.514769
 21
33.421988
 31
0.0
 11
226.734999
 21
34.357307
 31
0.0
 11
226.949830
 21
35.280821
 31
0.0
 11
227.162230
 21
36.204897
 31
0.0
 11
227.372257
 21
37.129517
 31
0.0
 11
227.577146
 21
38.042318
 31
0.0
 11
227.779445
 21
38.955694
 31
0.0
 11
227.978818
 21
39.869708
 31
0.0
 11
228.172539
 21
40.772051
 31
0.0
 11
228.364140
 21
41.674849
 31
0.0
 11
228.554684
 21
42.577876
 31
0.0
  0
SPLINE
  5
157
100
AcDbEntity
  8
0
 62
7
100
AcDbSpline
 70
0
 71
3
 72
19
 73
15
 74
13
 40
0.000000
 40
0.000000
 40
0.000000
 40
0.000000
 40
3.992294
 40
7.911246
 40
11.903540
 40
15.895833
 40
19.814786
 40
23.807079
 40
27.799373
 40
31.718325
 40
35.710619
 40
39.702912
 40
43.621865
 40
47.614158
 40
47.614158
 40
47.614158
 40
47.614158
 10
221.913275
 20
15.764279
 30
0.0
 10
222.676485
 20
14.652102
 30
0.0
 10
224.188883
 20
12.448181
 30
0.0
 10
227.867408
 20
10.584655
 30
0.0
 10
231.905823
 20
10.211226
 30
0.0
 10
235.790087
 20
11.469157
 30
0.0
 10
238.873242
 20
14.125931
 30
0.0
 10
240.688613
 20
17.776088
 30
0.0
 10
240.931038
 20
21.845542
 30
0.0
 10
239.579429
 20
25.684480
 30
0.0
 10
236.836713
 20
28.708948
 30
0.0
 10
233.148267
 20
30.395248
 30
0.0
 10
229.030240
 20
30.610028
 30
0.0
 10
226.621484
 20
29.451359
 30
0.0
 10
225.405942
 20
28.866654
 30
0.0
 11
221.913275
 21
15.764279
 31
0.0
 11
224.440345
 21
12.673595
 31
0.0
 11
227.903437
 21
10.839152
 31
0.0
 11
231.879973
 21
10.484794
 31
0.0
 11
235.678433
 21
11.713659
 31
0.0
 11
238.647487
 21
14.271570
 31
0.0
 11
240.424840
 21
17.846402
 31
0.0
 11
240.662745
 21
21.831600
 31
0.0
 11
239.360886
 21
25.527997
 31
0.0
 11
236.678120
 21
28.484546
 31
0.0
 11
233.052836
 21
30.156586
 31
0.0
 11
229.136133
 21
30.289356
 31
0.0
 11
225.405942
 21
28.866654
 31
0.0
  0
SPLINE
  5
158
100
AcDbEntity
  8
0
 62
7
100
AcDbSpline
 70
0
 71
3
 72
19
 73
15
 74
13
 40
0.000000
 40
0.000000
 40
0.000000
 40
0.000000
 40
0.673077
 40
1.346157
 40
2.019247
 40
2.681810
 40
3.344373
 40
4.006948
 40
4.659015
 40
5.311082
 40
5.963153
 40
6.604721
 40
7.246295
 40
7.887882
 40
7.887882
 40
7.887882
 40
7.887882
 10
219.719285
 20
8.187741
 30
0.0
 10
219.782912
 20
8.402888
 30
0.0
 10
219.910167
 20
8.833185
 30
0.0
 10
220.100745
 20
9.478723
 30
0.0
 10
220.289723
 20
10.121080
 30
0.0
 10
220.476822
 20
10.760334
 30
0.0
 10
220.662142
 20
11.396457
 30
0.0
 10
220.845771
 20
12.029427
 30
0.0
 10
221.027820
 20
12.659213
 30
0.0
 10
221.208177
 20
13.285842
 30
0.0
 10
221.386730
 20
13.909349
 30
0.0
 10
221.563384
 20
14.529760
 30
0.0
 10
221.738463
 20
15.146986
 30
0.0
 10
221.854974
 20
15.558532
 30
0.0
 10
221.913230
 20
15.764307
 30
0.0
 11
219.719285
 21
8.187741
 31
0.0
 11
219.910116
 21
8.833199
 31
0.0
 11
220.100642
 21
9.478751
 31
0.0
 11
220.290562
 21
10.124491
 31
0.0
 11
220.476690
 21
10.760373
 31
0.0
 11
220.662022
 21
11.396487
 31
0.0
 11
220.846644
 21
12.032821
 31
0.0
 11
221.027700
 21
12.659248
 31
0.0
 11
221.208037
 21
13.285881
 31
0.0
 11
221.387535
 21
13.912760
 31
0.0
 11
221.563281
 21
14.529787
 31
0.0
 11
221.738410
 21
15.146997
 31
0.0
 11
221.913230
 21
15.764307
 31
0.0
  0
SPLINE
  5
159
100
AcDbEntity
  8
0
 62
7
100
AcDbSpline
 70
0
 71
3
 72
13
 73
9
 74
7
 40
0.000000
 40
0.000000
 40
0.000000
 40
0.000000
 40
4.197894
 40
8.324286
 40
12.522179
 40
16.720073
 40
20.846465
 40
25.044359
 40
25.044359
 40
25.044359
 40
25.044359
 10
199.719286
 20
8.187741
 30
0.0
 10
200.439160
 20
6.967347
 30
0.0
 10
201.866646
 20
4.547347
 30
0.0
 10
205.536151
 20
2.260837
 30
0.0
 10
209.719285
 20
1.428357
 30
0.0
 10
213.902420
 20
2.260837
 30
0.0
 10
217.571925
 20
4.547347
 30
0.0
 10
218.999411
 20
6.967347
 30
0.0
 10
219.719285
 20
8.187741
 30
0.0
 11
199.719286
 21
8.187741
 31
0.0
 11
202.136238
 21
4.755445
 31
0.0
 11
205.599098
 21
2.511406
 31
0.0
 11
209.719285
 21
1.707435
 31
0.0
 11
213.839473
 21
2.511406
 31
0.0
 11
217.302332
 21
4.755445
 31
0.0
 11
219.719285
 21
8.187741
 31
0.0
  0
SPLINE
  5
15a
100
AcDbEntity
  8
0
 62
7
100
AcDbSpline
 70
0
 71
3
 72
31
 73
27
 74
25
 40
0.000000
 40
0.000000
 40
0.000000
 40
0.000000
 40
0.604205
 40
1.208409
 40
1.812612
 40
2.423789
 40
3.034966
 40
3.646144
 40
4.264304
 40
4.882464
 40
5.500625
 40
6.125779
 40
6.750934
 40
7.376088
 40
8.008249
 40
8.640409
 40
9.272569
 40
10.567787
 40
11.863010
 40
13.158241
 40
14.498739
 40
15.839240
 40
17.179744
 40
18.565613
 40
19.951485
 40
21.337368
 40
21.337368
 40
21.337368
 40
21.337368
 10
194.059773
 20
28.759127
 30
0.0
 10
194.108902
 20
28.563810
 30
0.0
 10
194.207160
 20
28.173175
 30
0.0
 10
194.354910
 20
27.587315
 30
0.0
 10
194.503959
 20
26.999385
 30
0.0
 10
194.654690
 20
26.409485
 30
0.0
 10
194.807000
 20
25.817590
 30
0.0
 10
194.960786
 20
25.223672
 30
0.0
 10
195.115948
 20
24.627707
 30
0.0
 10
195.272513
 20
24.029702
 30
0.0
 10
195.430510
 20
23.429662
 30
0.0
 10
195.589963
 20
22.827596
 30
0.0
 10
195.750867
 20
22.223503
 30
0.0
 10
195.913211
 20
21.617378
 30
0.0
 10
196.076987
 20
21.009219
 30
0.0
 10
196.242204
 20
20.399031
 30
0.0
 10
196.466309
 20
19.575809
 30
0.0
 10
196.750632
 20
18.539918
 30
0.0
 10
197.096753
 20
17.291796
 30
0.0
 10
197.450030
 20
16.030000
 30
0.0
 10
197.810401
 20
14.754520
 30
0.0
 10
198.178174
 20
13.465455
 30
0.0
 10
198.553645
 20
12.162863
 30
0.0
 10
198.937166
 20
10.846859
 30
0.0
 10
199.327566
 20
9.517108
 30
0.0
 10
199.588712
 20
8.630865
 30
0.0
 10
199.719286
 20
8.187741
 30
0.0
 11
194.059773
 21
28.759127
 31
0.0
 11
194.207221
 21
28.173190
 31
0.0
 11
194.355032
 21
27.587345
 31
0.0
 11
194.503571
 21
27.001684
 31
0.0
 11
194.654857
 21
26.409528
 31
0.0
 11
194.807148
 21
25.817628
 31
0.0
 11
194.960333
 21
25.225959
 31
0.0
 11
195.116084
 21
24.627742
 31
0.0
 11
195.272653
 21
24.029739
 31
0.0
 11
195.430058
 21
23.431954
 31
0.0
 11
195.590105
 21
22.827634
 31
0.0
 11
195.751006
 21
22.223541
 31
0.0
 11
195.912743
 21
21.619670
 31
0.0
 11
196.077126
 21
21.009256
 31
0.0
 11
196.242343
 21
20.399068
 31
0.0
 11
196.408393
 21
19.789106
 31
0.0
 11
196.751181
 21
18.540071
 31
0.0
 11
197.097266
 21
17.291942
 31
0.0
 11
197.446446
 21
16.044666
 31
0.0
 11
197.810950
 21
14.754678
 31
0.0
 11
198.178758
 21
13.465624
 31
0.0
 11
198.550076
 21
12.177573
 31
0.0
 11
198.937607
 21
10.846989
 31
0.0
 11
199.327785
 21
9.517177
 31
0.0
 11
199.719286
 21
8.187741
 31
0.0
  0
SPLINE
  5
15b
100
AcDbEntity
  8
0
 62
7
100
AcDbSpline
 70
0
 71
3
 72
19
 73
15
 74
13
 40
0.000000
 40
0.000000
 40
0.000000
 40
0.000000
 40
3.985859
 40
7.898712
 40
11.884571
 40
15.870431
 40
19.783284
 40
23.769143
 40
27.755002
 40
31.667855
 40
35.653714
 40
39.639574
 40
43.552426
 40
47.538286
 40
47.538286
 40
47.538286
 40
47.538286
 10
190.999372
 20
42.027447
 30
0.0
 10
189.803988
 20
42.647495
 30
0.0
 10
187.435114
 20
43.876236
 30
0.0
 10
183.319472
 20
43.789080
 30
0.0
 10
179.585887
 20
42.222630
 30
0.0
 10
176.751971
 20
39.293005
 30
0.0
 10
175.277457
 20
35.506888
 30
0.0
 10
175.383295
 20
31.438451
 30
0.0
 10
177.070138
 20
27.734678
 30
0.0
 10
180.054020
 20
24.976902
 30
0.0
 10
183.884820
 20
23.584512
 30
0.0
 10
187.927323
 20
23.811638
 30
0.0
 10
191.665350
 20
25.535952
 30
0.0
 10
193.256712
 20
27.678132
 30
0.0
 10
194.059748
 20
28.759122
 30
0.0
 11
190.999372
 21
42.027447
 31
0.0
 11
187.319902
 21
43.559953
 31
0.0
 11
183.407067
 21
43.548346
 31
0.0
 11
179.736753
 21
41.994038
 31
0.0
 11
176.964628
 21
39.130055
 31
0.0
 11
175.544266
 21
35.484100
 31
0.0
 11
175.648415
 21
31.499602
 31
0.0
 11
177.300012
 21
27.872027
 31
0.0
 11
180.173820
 21
25.216534
 31
0.0
 11
183.920321
 21
23.856090
 31
0.0
 11
187.900627
 21
24.066418
 31
0.0
 11
191.423245
 21
25.769819
 31
0.0
 11
194.059748
 21
28.759122
 31
0.0
  0
SPLINE
  5
15c
100
AcDbEntity
  8
0
 62
7
100
AcDbSpline
 70
0
 71
3
 72
19
 73
15
 74
13
 40
0.000000
 40
0.000000
 40
0.000000
 40
0.000000
 40
0.142912
 40
0.285823
 40
0.428733
 40
2.427077
 40
4.425447
 40
6.423834
 40
8.466877
 40
10.509902
 40
12.552902
 40
13.004532
 40
13.456161
 40
13.907790
 40
13.907790
 40
13.907790
 40
13.907790
 10
188.450265
 20
55.698373
 30
0.0
 10
188.457903
 20
55.651352
 30
0.0
 10
188.473179
 20
55.557310
 30
0.0
 10
188.496113
 20
55.416251
 30
0.0
 10
188.618570
 20
54.664775
 30
0.0
 10
188.846032
 20
53.303763
 30
0.0
 10
189.189538
 20
51.335125
 30
0.0
 10
189.549107
 20
49.354213
 30
0.0
 10
189.924342
 20
47.361060
 30
0.0
 10
190.315897
 20
45.355894
 30
0.0
 10
190.616065
 20
43.873411
 30
0.0
 10
190.815132
 20
42.911712
 30
0.0
 10
190.907139
 20
42.469554
 30
0.0
 10
190.968632
 20
42.174814
 30
0.0
 10
190.999378
 20
42.027444
 30
0.0
 11
188.450265
 21
55.698373
 31
0.0
 11
188.473183
 21
55.557311
 31
0.0
 11
188.496121
 21
55.416253
 31
0.0
 11
188.519110
 21
55.275203
 31
0.0
 11
188.848379
 21
53.304174
 31
0.0
 11
189.191771
 21
51.335528
 31
0.0
 11
189.548561
 21
49.369249
 31
0.0
 11
189.926605
 21
47.361488
 31
0.0
 11
190.318213
 21
45.356346
 31
0.0
 11
190.723703
 21
43.353990
 31
0.0
 11
190.815209
 21
42.911727
 31
0.0
 11
190.907178
 21
42.469562
 31
0.0
 11
190.999378
 21
42.027444
 31
0.0
  0
LWPOLYLINE
  5
15d
100
AcDbEntity
  8
0
 62
7
100
AcDbPolyline
 90
2
 70
1
 10
133.283808
 20
194.027329
 30
0.0
 10
133.283808
 20
194.027329
 30
0.0
  0
SPLINE
  5
15e
100
AcDbEntity
  8
0
 62
7
100
AcDbSpline
 70
0
 71
3
 72
22
 73
18
 74
16
 40
0.000000
 40
0.000000
 40
0.000000
 40
0.000000
 40
1.302175
 40
2.565728
 40
3.867903
 40
5.170079
 40
6.433633
 40
7.735809
 40
8.387758
 40
9.034311
 40
9.686260
 40
10.338208
 40
10.984761
 40
11.636710
 40
12.938886
 40
14.202440
 40
15.504616
 40
15.504616
 40
15.504616
 40
15.504616
 10
212.306030
 20
194.027329
 30
0.0
 10
212.237578
 20
193.588295
 30
0.0
 10
212.102706
 20
192.723249
 30
0.0
 10
211.111209
 20
191.770934
 30
0.0
 10
209.817799
 20
191.417958
 30
0.0
 10
208.510966
 20
191.771217
 30
0.0
 10
207.558940
 20
192.722137
 30
0.0
 10
207.266606
 20
193.811503
 30
0.0
 10
207.382535
 20
194.679054
 30
0.0
 10
207.633923
 20
195.286890
 30
0.0
 10
208.034170
 20
195.808685
 30
0.0
 10
208.556033
 20
196.208949
 30
0.0
 10
209.163612
 20
196.460337
 30
0.0
 10
210.032452
 20
196.576243
 30
0.0
 10
211.112118
 20
196.284093
 30
0.0
 10
212.102475
 20
195.331317
 30
0.0
 10
212.237501
 20
194.466332
 30
0.0
 10
212.306030
 20
194.027329
 30
0.0
 11
212.306030
 21
194.027329
 31
0.0
 11
211.966005
 21
192.770332
 31
0.0
 11
211.072538
 21
191.876865
 31
0.0
 11
209.815540
 21
191.536839
 31
0.0
 11
208.558541
 21
191.876864
 31
0.0
 11
207.665073
 21
192.770331
 31
0.0
 11
207.325047
 21
194.027329
 31
0.0
 11
207.410373
 21
194.673670
 31
0.0
 11
207.657798
 21
195.271007
 31
0.0
 11
208.054495
 21
195.788374
 31
0.0
 11
208.571862
 21
196.185071
 31
0.0
 11
209.169199
 21
196.432496
 31
0.0
 11
209.815540
 21
196.517822
 31
0.0
 11
211.072538
 21
196.177796
 31
0.0
 11
211.966005
 21
195.284328
 31
0.0
 11
212.306030
 21
194.027329
 31
0.0
  0
LWPOLYLINE
  5
15f
100
AcDbEntity
  8
0
 62
7
100
AcDbPolyline
 90
2
 70
1
 10
212.306030
 20
194.027329
 30
0.0
 10
212.306030
 20
194.027329
 30
0.0
  0
ENDSEC
  0
SECTION
  2
OBJECTS
  0
DICTIONARY
  5
C
330
0
100
AcDbDictionary
  3
ACAD_GROUP
350
D
  3
ACAD_MLINESTYLE
350
17
  0
DICTIONARY
  5
D
330
C
100
AcDbDictionary
  0
DICTIONARY
  5
1A
330
C
100
AcDbDictionary
  0
DICTIONARY
  5
17
330
C
100
AcDbDictionary
  3
STANDARD
350
18
  0
DICTIONARY
  5
19
330
C
100
AcDbDictionary
  0
ENDSEC
  0
EOF
