0
SECTION
2
HEADER
9
$INSUNITS
70
4
9
$ACADVER
1
AC1014
9
$HANDSEED
5
FFFF
0
ENDSEC
0
SECTION
2
TABLES
0
TABLE
2
VPORT
5
8
100
AcDbSymbolTable
0
ENDTAB
0
TABLE
2
LTYPE
5
5
100
AcDbSymbolTable
0
LTYPE
5
14
100
AcDbSymbolTableRecord
100
AcDbLinetypeTableRecord
2
BYBLOCK
70
0
0
LTYPE
5
15
100
AcDbSymbolTableRecord
100
AcDbLinetypeTableRecord
2
BYLAYER
70
0
0
ENDTAB
0
TABLE
2
LAYER
5
2
100
AcDbSymbolTable
70
2
0
LAYER
5
50
100
AcDbSymbolTableRecord
100
AcDbLayerTableRecord
2
0
70
0
6
CONTINUOUS
0
ENDTAB
0
TABLE
2
STYLE
5
3
100
AcDbSymbolTable
70
1
0
STYLE
5
11
100
AcDbSymbolTableRecord
100
AcDbTextStyleTableRecord
2
STANDARD
70
0
0
ENDTAB
0
TABLE
2
VIEW
5
6
100
AcDbSymbolTable
70
0
0
ENDTAB
0
TABLE
2
UCS
5
7
100
AcDbSymbolTable
70
0
0
ENDTAB
0
TABLE
2
APPID
5
9
100
AcDbSymbolTable
70
2
0
APPID
5
12
100
AcDbSymbolTableRecord
100
AcDbRegAppTableRecord
2
ACAD
70
0
0
ENDTAB
0
TABLE
2
DIMSTYLE
5
A
100
AcDbSymbolTable
70
1
0
ENDTAB
0
TABLE
2
BLOCK_RECORD
5
1
100
AcDbSymbolTable
70
1
0
BLOCK_RECORD
5
1F
100
AcDbSymbolTableRecord
100
AcDbBlockTableRecord
2
*MODEL_SPACE
0
BLOCK_RECORD
5
1B
100
AcDbSymbolTableRecord
100
AcDbBlockTableRecord
2
*PAPER_SPACE
0
ENDTAB
0
ENDSEC
0
SECTION
2
BLOCKS
0
BLOCK
5
20
100
AcDbEntity
100
AcDbBlockBegin
2
*MODEL_SPACE
0
ENDBLK
5
21
100
AcDbEntity
100
AcDbBlockEnd
0
BLOCK
5
1C
100
AcDbEntity
100
AcDbBlockBegin
2
*PAPER_SPACE
0
ENDBLK
5
1D
100
AcDbEntity
100
AcDbBlockEnd
0
ENDSEC
0
SECTION
2
ENTITIES
0
LINE
5
100
100
AcDbEntity
8
0
100
AcDbLine
10
1.7937205572596195
20
4.5467907358744348
30
0
11
1.8812167012184897
21
4.5467907358744375
31
0
0
LINE
5
101
100
AcDbEntity
8
0
100
AcDbLine
10
1.8812167012184897
20
4.5467907358744375
30
0
11
1.8812167012184902
21
4.4390529466713469
31
0
0
SPLINE
5
102
100
AcDbEntity
8
0
100
AcDbSpline
70
0
71
3
72
29
73
25
74
0
42
0.000000001
43
0.0000000001
44
0.0000000001
40
0.60652826822754102
40
0.60652826822754102
40
0.60652826822754102
40
0.60652826822754102
40
0.70489620117065599
40
0.70489620117065599
40
0.70489620117065599
40
0.75408016764221297
40
0.75408016764221297
40
0.75408016764221297
40
0.77867215087799191
40
0.77867215087799191
40
0.77867215087799191
40
0.80326413411377096
40
0.80326413411377096
40
0.80326413411377096
40
0.85244810058532805
40
0.85244810058532805
40
0.85244810058532805
40
0.90163206705688503
40
0.90163206705688503
40
0.90163206705688503
40
0.95081603352844302
40
0.95081603352844302
40
0.95081603352844302
40
1
40
1
40
1
40
1
10
1.8812167012184864
20
4.4390529466713406
30
0
10
1.7468917400218562
20
4.4390529466713406
30
0
10
1.6041894861738029
20
4.4398547699398545
30
0
10
1.4782418176285996
20
4.4390529466713442
30
0
10
1.4152679833559991
20
4.4386520350370873
30
0
10
1.356482795409111
20
4.4378502117685752
30
0
10
1.2767543758336555
20
4.4390529466713442
30
0
10
1.2368901660459277
20
4.4396543141227296
30
0
10
1.1917901483510571
20
4.440756821116933
30
0
10
1.1549719584717579
20
4.4437856304802974
30
0
10
1.1181537685924583
20
4.44681443984366
30
0
10
1.0896174065287303
20
4.451769551576179
30
0
10
1.0630054301117917
20
4.4602807826670077
30
0
10
1.0097814772779155
20
4.4773032448486632
30
0
10
0.96425506703119535
20
4.5085501844635463
30
0
10
0.93231385054689664
20
4.5616050066990388
30
0
10
0.90037263406259815
20
4.6146598289345331
30
0
10
0.88201661134072107
20
4.689522533790635
30
0
10
0.88154754540210134
20
4.7637682457458741
30
0
10
0.88107847946348161
20
4.838013957701115
30
0
10
0.89849637030811924
20
4.9116426767554948
30
0
10
0.93653347190366576
20
4.9632362227134674
30
0
10
0.97457057349921183
20
5.01482976867144
30
0
10
1.0332268858456659
20
5.044388141533009
30
0
10
1.112034181938286
20
5.0423845662086215
30
0
0
LINE
5
103
100
AcDbEntity
8
0
100
AcDbLine
10
1.112034181938286
20
5.0423845662086215
30
0
11
1.0957102744832661
21
4.9248524325325249
31
0
0
SPLINE
5
104
100
AcDbEntity
8
0
100
AcDbSpline
70
0
71
3
72
17
73
13
74
0
42
0.000000001
43
0.0000000001
44
0.0000000001
40
0.028965504382432401
40
0.028965504382432401
40
0.028965504382432401
40
0.028965504382432401
40
0.067388190446791008
40
0.067388190446791008
40
0.067388190446791008
40
0.1058108765111498
40
0.1058108765111498
40
0.1058108765111498
40
0.14423356257550821
40
0.14423356257550821
40
0.14423356257550821
40
0.18265624863986599
40
0.18265624863986599
40
0.18265624863986599
40
0.18265624863986599
10
1.0957102744832661
20
4.924852432532532
30
0
10
1.0328755771305955
20
4.9160335276409199
30
0
10
1.0038519094209561
20
4.88036841046336
30
0
10
0.98901712289164578
20
4.8295498781995221
30
0
10
0.97418233636233609
20
4.7787313459356806
30
0
10
0.9735364310133563
20
4.7127593985855594
30
0
10
0.99591286695268599
20
4.6637432437759019
30
0
10
1.0182893028920161
20
4.6147270889662444
30
0
10
1.0636880801196555
20
4.5826667266970471
30
0
10
1.1045699734264927
20
4.5684548078116061
30
0
10
1.1454518667333289
20
4.554242888926165
30
0
10
1.1818168761193628
20
4.5578794134244793
30
0
10
1.261561174226197
20
4.5585439492420399
30
0
0
SPLINE
5
105
100
AcDbEntity
8
0
100
AcDbSpline
70
0
71
3
72
17
73
13
74
0
42
0.000000001
43
0.0000000001
44
0.0000000001
40
0.18265624863986599
40
0.18265624863986599
40
0.18265624863986599
40
0.18265624863986599
40
0.27670988912627204
40
0.27670988912627204
40
0.27670988912627204
40
0.370763529612678
40
0.370763529612678
40
0.370763529612678
40
0.46481717009908402
40
0.46481717009908402
40
0.46481717009908402
40
0.55887081058549004
40
0.55887081058549004
40
0.55887081058549004
40
0.55887081058549004
10
1.2615611742261958
20
4.5585439492420399
30
0
10
1.1527462126483059
20
4.652310033154901
30
0
10
1.1475181362391809
20
4.8098845259820049
30
0
10
1.2106092249181852
20
4.9141353181020513
30
0
10
1.2737003135971894
20
5.0183861102220924
30
0
10
1.4051105673643218
20
5.0693132016350777
30
0
10
1.538643779395594
20
5.065158731953618
30
0
10
1.6721769914268656
20
5.0610042622721636
30
0
10
1.8078331617222756
20
5.0017682314962659
30
0
10
1.8657375171149813
20
4.8950219345241859
30
0
10
1.9236418725076863
20
4.7882756375521058
30
0
10
1.903794412997686
20
4.6340190743838399
30
0
10
1.7937205572596162
20
4.5467907358744313
30
0
0
SPLINE
5
106
100
AcDbEntity
8
0
100
AcDbSpline
70
0
71
3
72
29
73
25
74
0
42
0.000000001
43
0.0000000001
44
0.0000000001
40
0.60285943115264096
40
0.60285943115264096
40
0.60285943115264096
40
0.60285943115264096
40
0.642647654491461
40
0.642647654491461
40
0.642647654491461
40
0.68243587783028004
40
0.68243587783028004
40
0.68243587783028004
40
0.72222410116909996
40
0.72222410116909996
40
0.72222410116909996
40
0.76201232450792
40
0.76201232450792
40
0.76201232450792
40
0.80180054784673893
40
0.80180054784673893
40
0.80180054784673893
40
0.84158877118555897
40
0.84158877118555897
40
0.84158877118555897
40
0.8813769945243789
40
0.8813769945243789
40
0.8813769945243789
40
0.92116521786319805
40
0.92116521786319805
40
0.92116521786319805
40
0.92116521786319805
10
-3.4266650468534943
20
5.8592328952574579
30
0
10
-3.3361351656708149
20
5.8866300961416869
30
0
10
-3.2772846021731041
20
5.9300001795665231
30
0
10
-3.2445088664659369
20
5.9974086316395407
30
0
10
-3.2117331307587715
20
6.0648170837125592
30
0
10
-3.2050322228421479
20
6.156263904433759
30
0
10
-3.2227391346259884
20
6.2358501739775622
30
0
10
-3.2404460464098284
20
6.315436443521369
30
0
10
-3.2825607778941324
20
6.3831621618877836
30
0
10
-3.3468287258752505
20
6.4274925013214013
30
0
10
-3.4110966738563695
20
6.4718228407550189
30
0
10
-3.4975178383343031
20
6.492757801255844
30
0
10
-3.5796658741208311
20
6.4991209923266613
30
0
10
-3.6618139099073566
20
6.5054841833974812
30
0
10
-3.7396888170024747
20
6.4972756050382934
30
0
10
-3.8078841260481999
20
6.463831838313487
30
0
10
-3.8760794350939278
20
6.430388071588677
30
0
10
-3.9345951460902615
20
6.3717091164982476
30
0
10
-3.9684465646247222
20
6.3026552627487504
30
0
10
-4.0022979831591821
20
6.233601408999256
30
0
10
-4.011485109231768
20
6.1541726565906956
30
0
10
-3.9964354275030436
20
6.0710544172268648
30
0
10
-3.9813857457743196
20
5.9879361778630358
30
0
10
-3.9420992562442847
20
5.9011284515439382
30
0
10
-3.9000583630488652
20
5.8546622011700578
30
0
0
LINE
5
107
100
AcDbEntity
8
0
100
AcDbLine
10
-3.9000583630488652
20
5.8546622011700569
30
0
11
-3.7165776432545328
21
5.8546622011700649
31
0
0
LINE
5
108
100
AcDbEntity
8
0
100
AcDbLine
10
-3.7165776432545328
20
5.8546622011700649
30
0
11
-3.7165776432545328
21
6.1426159286764843
31
0
0
LINE
5
109
100
AcDbEntity
8
0
100
AcDbLine
10
-3.7165776432545328
20
6.1426159286764843
30
0
11
-3.601004378473033
21
6.1426159286764843
31
0
0
LINE
5
110
100
AcDbEntity
8
0
100
AcDbLine
10
-3.601004378473033
20
6.1426159286764843
30
0
11
-3.601004378473033
21
5.725376854126365
31
0
0
LINE
5
111
100
AcDbEntity
8
0
100
AcDbLine
10
-3.601004378473033
20
5.725376854126365
30
0
11
-3.9640480802725153
21
5.7253768541263579
31
0
0
SPLINE
5
112
100
AcDbEntity
8
0
100
AcDbSpline
70
0
71
3
72
29
73
25
74
0
42
0.000000001
43
0.0000000001
44
0.0000000001
40
0.14980792394971201
40
0.14980792394971201
40
0.14980792394971201
40
0.14980792394971201
40
0.20386684844738701
40
0.20386684844738701
40
0.20386684844738701
40
0.25792577294506203
40
0.25792577294506203
40
0.25792577294506203
40
0.31198469744273699
40
0.31198469744273699
40
0.31198469744273699
40
0.36604362194041307
40
0.36604362194041307
40
0.36604362194041307
40
0.42010254643808792
40
0.42010254643808792
40
0.42010254643808792
40
0.474161470935763
40
0.474161470935763
40
0.474161470935763
40
0.52822039543343802
40
0.52822039543343802
40
0.52822039543343802
40
0.58227931993111404
40
0.58227931993111404
40
0.58227931993111404
40
0.58227931993111404
10
-3.9640480802725153
20
5.7253768541263579
30
0
10
-4.0357131749995743
20
5.815417614168048
30
0
10
-4.0841451252130341
20
5.9114695269181272
30
0
10
-4.1055513044379675
20
6.0163503976503492
30
0
10
-4.1269574836629017
20
6.1212312683825747
30
0
10
-4.1213378918993087
20
6.2349410970969394
30
0
10
-4.0820760777052918
20
6.3346929132860748
30
0
10
-4.0428142635112767
20
6.4344447294752101
30
0
10
-3.9699102268868369
20
6.5202385331391133
30
0
10
-3.8786504370902621
20
6.5718139948898013
30
0
10
-3.7873906472936856
20
6.6233894566404921
30
0
10
-3.677775104324974
20
6.6407465764779623
30
0
10
-3.5669115789489245
20
6.6312081785531625
30
0
10
-3.4560480535728768
20
6.6216697806283564
30
0
10
-3.3439365457894921
20
6.5852358649412768
30
0
10
-3.2631858172684236
20
6.51977551740484
30
0
10
-3.1824350887473543
20
6.4543151698684014
30
0
10
-3.1330451394886047
20
6.359828390482603
30
0
10
-3.1129452375301403
20
6.251300675256779
30
0
10
-3.0928453355716745
20
6.1427729600309551
30
0
10
-3.1020354809134942
20
6.0202043089651021
30
0
10
-3.1476113911211412
20
5.9273017403813881
30
0
10
-3.1931873013287895
20
5.8343991717976724
30
0
10
-3.2751489764022645
20
5.7711626856960958
30
0
10
-3.3946701882416654
20
5.7403948489849661
30
0
0
LINE
5
113
100
AcDbEntity
8
0
100
AcDbLine
10
-3.3946701882416659
20
5.7403948489849661
30
0
11
-3.4266650468534943
21
5.8592328952574579
31
0
0
LINE
5
114
100
AcDbEntity
8
0
100
AcDbLine
10
-1.6016521933830565
20
4.4377470340749436
30
0
11
-1.6016521933830539
21
4.5578909929438378
31
0
0
SPLINE
5
115
100
AcDbEntity
8
0
100
AcDbSpline
70
0
71
3
72
26
73
22
74
0
42
0.000000001
43
0.0000000001
44
0.0000000001
40
0.63232852305901699
40
0.63232852305901699
40
0.63232852305901699
40
0.63232852305901699
40
0.71719358836831903
40
0.71719358836831903
40
0.71719358836831903
40
0.75962612102297
40
0.75962612102297
40
0.75962612102297
40
0.80205865367761997
40
0.80205865367761997
40
0.80205865367761997
40
0.84449118633227105
40
0.84449118633227105
40
0.84449118633227105
40
0.88692371898692102
40
0.88692371898692102
40
0.88692371898692102
40
0.92935625164157198
40
0.92935625164157198
40
0.92935625164157198
40
0.97178878429622295
40
0.97178878429622295
40
0.97178878429622295
40
0.97178878429622295
10
-1.6016521933830541
20
4.5578909929438378
30
0
10
-1.4811797186176139
20
4.5578909929438378
30
0
10
-1.3710040232099074
20
4.5627083817599861
30
0
10
-1.2402347690867421
20
4.5578909929438378
30
0
10
-1.1748501420251596
20
4.5554822985357628
30
0
10
-1.1043171252847124
20
4.5506649097196146
30
0
10
-1.0543276360150873
20
4.5742287006710409
30
0
10
-1.0043381467454633
20
4.5977924916224673
30
0
10
-0.97489218494666019
20
4.6497374623414682
30
0
10
-0.97742929636809972
20
4.7092162469701648
30
0
10
-0.97996640778953925
20
4.7686950315988668
30
0
10
-1.0144865924312232
20
4.8357076301372626
30
0
10
-1.0640840332322723
20
4.8678182254467783
30
0
10
-1.1136814740333196
20
4.8999288207562923
30
0
10
-1.1783561709937311
20
4.8971374128369245
30
0
10
-1.2402091146070882
20
4.8961223554117002
30
0
10
-1.3020620582204467
20
4.8951072979864758
30
0
10
-1.3610932484867502
20
4.8958685910553896
30
0
10
-1.4209306539950697
20
4.8961223554116966
30
0
10
-1.4807680595033892
20
4.8963761197680018
30
0
10
-1.5414116802537241
20
4.8961223554116984
30
0
10
-1.6016521933830541
20
4.8961223554116984
30
0
0
LINE
5
116
100
AcDbEntity
8
0
100
AcDbLine
10
-1.6016521933830541
20
4.8961223554116984
30
0
11
-1.6016521933830572
21
5.0162663142806068
31
0
0
LINE
5
117
100
AcDbEntity
8
0
100
AcDbLine
10
-1.6016521933830572
20
5.0162663142806068
30
0
11
-0.62025887718768324
21
5.0162663142806068
31
0
0
LINE
5
118
100
AcDbEntity
8
0
100
AcDbLine
10
-0.62025887718768324
20
5.0162663142806068
30
0
11
-0.62025887718768291
21
4.8961223554117055
31
0
0
LINE
5
119
100
AcDbEntity
8
0
100
AcDbLine
10
-0.62025887718768291
20
4.8961223554117055
30
0
11
-0.97154936561955707
21
4.8961223554117002
31
0
0
SPLINE
5
120
100
AcDbEntity
8
0
100
AcDbSpline
70
0
71
3
72
23
73
19
74
0
42
0.000000001
43
0.0000000001
44
0.0000000001
40
0.34114105946143702
40
0.34114105946143702
40
0.34114105946143702
40
0.34114105946143702
40
0.40688512143488798
40
0.40688512143488798
40
0.40688512143488798
40
0.43975715242161301
40
0.43975715242161301
40
0.43975715242161301
40
0.47262918340833798
40
0.47262918340833798
40
0.47262918340833798
40
0.50550121439506401
40
0.50550121439506401
40
0.50550121439506401
40
0.53837324538178899
40
0.53837324538178899
40
0.53837324538178899
40
0.60411730735524005
40
0.60411730735524005
40
0.60411730735524005
40
0.60411730735524005
10
-0.97154936561955729
20
4.8961223554117002
30
0
10
-0.89517108608481011
20
4.8304370350118191
30
0
10
-0.86418608697299792
20
4.734056494228847
30
0
10
-0.87606409264459995
20
4.6409076666750799
30
0
10
-0.88200309548040079
20
4.594333252898199
30
0
10
-0.89865784951205496
20
4.5485667674286194
30
0
10
-0.92511323483955066
20
4.5150615465117134
30
0
10
-0.95156862016704602
20
4.4815563255948092
30
0
10
-0.98782463679038301
20
4.4603123692305786
30
0
10
-1.0329795609614583
20
4.4494122060397467
30
0
10
-1.078134485132535
20
4.4385120428489122
30
0
10
-1.1321883168513505
20
4.4379556728314746
30
0
10
-1.1816269251509159
20
4.4377470340749365
30
0
10
-1.2310655334504799
20
4.4375383953183984
30
0
10
-1.2758889183307942
20
4.4376774878227572
30
0
10
-1.3216353478949587
20
4.4377470340749392
30
0
10
-1.4131282070232905
20
4.4378861265792979
30
0
10
-1.508313244887024
20
4.4377470340749392
30
0
10
-1.6016521933830539
20
4.4377470340749365
30
0
0
SPLINE
5
121
100
AcDbEntity
8
0
100
AcDbSpline
70
2
71
3
72
53
73
49
74
0
42
0.000000001
43
0.0000000001
44
0.0000000001
40
0
40
0
40
0
40
0
40
0.050161250964883726
40
0.050161250964883726
40
0.050161250964883726
40
0.10032250192976773
40
0.10032250192976773
40
0.10032250192976773
40
0.17521443594276476
40
0.17521443594276476
40
0.17521443594276476
40
0.23622515270636674
40
0.23622515270636674
40
0.23622515270636674
40
0.29723586946996877
40
0.29723586946996877
40
0.29723586946996877
40
0.35236130409998678
40
0.35236130409998678
40
0.35236130409998678
40
0.40748673873000474
40
0.40748673873000474
40
0.40748673873000474
40
0.45440050125440673
40
0.45440050125440673
40
0.45440050125440673
40
0.50131426377880883
40
0.50131426377880883
40
0.50131426377880883
40
0.54822802630321077
40
0.54822802630321077
40
0.54822802630321077
40
0.59514178882761282
40
0.59514178882761282
40
0.59514178882761282
40
0.67463813269188377
40
0.67463813269188377
40
0.67463813269188377
40
0.75528225184246067
40
0.75528225184246067
40
0.75528225184246067
40
0.83592637099303779
40
0.83592637099303779
40
0.83592637099303779
40
0.91796318549651879
40
0.91796318549651879
40
0.91796318549651879
40
1
40
1
40
1
40
1
10
-2.3758977515035005
20
-3.463062077837078
30
0
10
-2.3754345796167535
20
-3.5566352792540457
30
0
10
-2.3813938793012515
20
-3.648187250952688
30
0
10
-2.3899784596824656
20
-3.725650739241706
30
0
10
-2.3985630400636797
20
-3.8031142275307328
30
0
10
-2.40977290114161
20
-3.8664892324101263
30
0
10
-2.4327116965743825
20
-3.9355094425277937
30
0
10
-2.4669598606620666
20
-4.0385582485735938
30
0
10
-2.5273532224416524
20
-4.1541908923748672
30
0
10
-2.6123904355547509
20
-4.2298315975173484
30
0
10
-2.6816660043057059
20
-4.2914523007087713
30
0
10
-2.7672965803685932
20
-4.326532166580126
30
0
10
-2.8644540834346977
20
-4.3365923926162786
30
0
10
-2.961611586500803
20
-4.3466526186524312
30
0
10
-3.0702960165701265
20
-4.3316932048533907
30
0
10
-3.1553976044028254
20
-4.2970189628137323
30
0
10
-3.2322900302885826
20
-4.2656895052315669
30
0
10
-3.2899299201548757
20
-4.2182652768405493
30
0
10
-3.3388297947662715
20
-4.1468461039642968
30
0
10
-3.3877296693776682
20
-4.0754269310880442
30
0
10
-3.4278895287341662
20
-3.9800128137265656
30
0
10
-3.4521225923264209
20
-3.9000892584085101
30
0
10
-3.4727458164014058
20
-3.8320713875388712
30
0
10
-3.4818338468735677
20
-3.775272762199382
30
0
10
-3.4883859756427569
20
-3.7040324111268763
30
0
10
-3.4949381044119465
20
-3.6327920600543706
30
0
10
-3.4989543314781635
20
-3.5471099832488484
30
0
10
-3.4986028079111451
20
-3.4604798972006545
30
0
10
-3.4982512843441271
20
-3.3738498111524606
30
0
10
-3.4935320101438738
20
-3.2862717158615773
30
0
10
-3.4858123938369898
20
-3.2116743089294353
30
0
10
-3.4780927775301054
20
-3.1370769019972844
30
0
10
-3.4673728191165907
20
-3.075460183423866
30
0
10
-3.4479173626062698
20
-3.0101622504522929
30
0
10
-3.4149496879292207
20
-2.8995135483697521
30
0
10
-3.35689889914108
20
-2.7782946052096058
30
0
10
-3.2640151842859666
20
-2.6979213875339347
30
0
10
-3.169790406090971
20
-2.6163877341898445
30
0
10
-3.0397195988405157
20
-2.5768877894033615
30
0
10
-2.9109451041077961
20
-2.5871637990921759
30
0
10
-2.7821706093750773
20
-2.5974398087809902
30
0
10
-2.6546924271600947
20
-2.6574917729451109
30
0
10
-2.572032117369659
20
-2.7326270884684156
30
0
10
-2.4879442933286215
20
-2.8090599642586156
30
0
10
-2.4502356857654357
20
-2.9011016581397797
30
0
10
-2.4224134253019312
20
-3.0263433352324487
30
0
10
-2.3945911648384262
20
-3.1515850123251088
30
0
10
-2.3766552514746033
20
-3.3100266726292737
30
0
10
-2.3758977515035005
20
-3.463062077837078
30
0
0
LWPOLYLINE
5
122
100
AcDbEntity
8
0
100
AcDbPolyline
90
11
70
1
43
0.0
10
-4.5983977515035086
20
-3.0265814077339748
10
-4.8332495556272193
20
-3.0265814077339748
10
-4.8332495556272193
20
-3.2213365623731605
10
-4.5983977515035086
20
-3.2213365623731605
10
-4.5983977515035086
20
-4.3360234180432577
10
-4.4242637308849586
20
-4.3360234180432577
10
-3.6406606381014486
20
-3.2213365623731605
10
-3.6406606381014486
20
-3.0265814077339748
10
-4.3876039370705193
20
-3.0265814077339837
10
-4.3876039370705193
20
-2.615304345878311
10
-4.5983977515035086
20
-2.615304345878311
0
LWPOLYLINE
5
123
100
AcDbEntity
8
0
100
AcDbPolyline
90
12
70
1
43
0.0
10
-1.486731884899767
20
5.8657624582394767
10
-1.4867318848997677
20
6.4671352088821461
10
-1.1524182602211073
20
6.4671352088821461
10
-1.1524182602211066
20
5.9258344376739185
10
-1.0374979517378105
20
5.9258344376739158
10
-1.0374979517378105
20
6.4671352088821461
10
-0.7358321419691729
20
6.4671352088821488
10
-0.7358321419691729
20
5.8892688849746992
10
-0.62025887718768358
20
5.8892688849746992
10
-0.6202588771876838
20
6.5964205559258478
10
-1.6016521933830576
20
6.596420555925846
10
-1.6016521933830572
20
5.8657624582394767
0
SPLINE
5
124
100
AcDbEntity
8
0
100
AcDbSpline
70
0
71
3
72
29
73
25
74
0
42
0.000000001
43
0.0000000001
44
0.0000000001
40
0.30411786750568898
40
0.30411786750568898
40
0.30411786750568898
40
0.30411786750568898
40
0.39110313406747799
40
0.39110313406747799
40
0.39110313406747799
40
0.478088400629266
40
0.478088400629266
40
0.478088400629266
40
0.56507366719105501
40
0.56507366719105501
40
0.56507366719105501
40
0.65205893375284396
40
0.65205893375284396
40
0.65205893375284396
40
0.73904420031463303
40
0.73904420031463303
40
0.73904420031463303
40
0.82602946687642209
40
0.82602946687642209
40
0.82602946687642209
40
0.91301473343821105
40
0.91301473343821105
40
0.91301473343821105
40
1
40
1
40
1
40
1
10
-3.1197755866992538
20
4.5441789106816266
30
0
10
-3.1197755866992538
20
4.4506112862696678
30
0
10
-3.1210476326075201
20
4.3590662067484161
30
0
10
-3.1197755866992507
20
4.2634760374457548
30
0
10
-3.11850354079098
20
4.1678858681430935
30
0
10
-3.1146874030661778
20
4.0682506090590209
30
0
10
-3.1478163885228296
20
3.9836416464972202
30
0
10
-3.1809453739794802
20
3.8990326839354172
30
0
10
-3.2510194826175876
20
3.8294500178958879
30
0
10
-3.3343775833457712
20
3.7877732846026402
30
0
10
-3.4177356840739535
20
3.7460965513093902
30
0
10
-3.5143777768922133
20
3.7323257507624241
30
0
10
-3.6109493182106132
20
3.7332255500576284
30
0
10
-3.707520859529013
20
3.7341253493528304
30
0
10
-3.8040218493475528
20
3.7496957484902027
30
0
10
-3.8861709548345513
20
3.791048897014766
30
0
10
-3.9683200603215498
20
3.8324020455393293
30
0
10
-4.0361172814770079
20
3.8995379434510835
30
0
10
-4.0694275492537688
20
3.9833337624316756
30
0
10
-4.1027378170305298
20
4.0671295814122672
30
0
10
-4.1015611314285962
20
4.1675853214616971
30
0
10
-4.1011689028946208
20
4.2634539031515288
30
0
10
-4.1007766743606444
20
4.359322484841357
30
0
10
-4.1011689028946252
20
4.4506039081715869
30
0
10
-4.1011689028946252
20
4.5441789106816266
30
0
0
LINE
5
125
100
AcDbEntity
8
0
100
AcDbLine
10
-4.1011689028946252
20
4.5441789106816266
30
0
11
-3.1197755866992538
21
4.5441789106816266
31
0
0
SPLINE
5
126
100
AcDbEntity
8
0
100
AcDbSpline
70
2
71
3
72
32
73
28
74
0
42
0.000000001
43
0.0000000001
44
0.0000000001
40
0
40
0
40
0
40
0
40
0.13561152471337762
40
0.13561152471337762
40
0.13561152471337762
40
0.2626423788322006
40
0.2626423788322006
40
0.2626423788322006
40
0.38967323295102263
40
0.38967323295102263
40
0.38967323295102263
40
0.45318866001043462
40
0.45318866001043462
40
0.45318866001043462
40
0.51670408706984572
40
0.51670408706984572
40
0.51670408706984572
40
0.64373494118866859
40
0.64373494118866859
40
0.64373494118866859
40
0.82186747059433451
40
0.82186747059433451
40
0.82186747059433451
40
0.91093373529716759
40
0.91093373529716759
40
0.91093373529716759
40
1
40
1
40
1
40
1
10
-1.2457910108637762
20
4.2973614299618301
30
0
10
-1.1328871645367067
20
4.2995389336954348
30
0
10
-1.0307142330663985
20
4.2709029287635651
30
0
10
-0.96302183798459562
20
4.1983601960286681
30
0
10
-0.89961260501000329
20
4.1304075251999572
30
0
10
-0.86645851795071394
20
4.0239286423258065
30
0
10
-0.87530168717206625
20
3.9266068574098867
30
0
10
-0.88414485639341833
20
3.8292850724939664
30
0
10
-0.93498528189541141
20
3.741120385536274
30
0
10
-1.0155673664141205
20
3.6886486392648887
30
0
10
-1.0558584086734757
20
3.662412766129195
30
0
10
-1.1035848656870102
20
3.6451001281650774
30
0
10
-1.1590841049761675
20
3.6372767174240628
30
0
10
-1.214583344265324
20
3.6294533066830481
30
0
10
-1.2778553658301033
20
3.6311191231651385
30
0
10
-1.3308752417877718
20
3.6377964835809773
30
0
10
-1.4369149937031087
20
3.6511512044126571
30
0
10
-1.5019461631899997
20
3.6845521009793369
30
0
10
-1.5469345120466629
20
3.7513210323063872
30
0
10
-1.610020668801351
20
3.8449496133743799
30
0
10
-1.6336949708568329
20
4.0041925189846257
30
0
10
-1.585577674296927
20
4.1181648345366568
30
0
10
-1.5615190260169742
20
4.1751509923126733
30
0
10
-1.5195124780831739
20
4.2208195025741357
30
0
10
-1.4591185813698226
20
4.2510145794604508
30
0
10
-1.3987246846564714
20
4.2812096563467623
30
0
10
-1.3199434391635694
20
4.2959312998579264
30
0
10
-1.2457910108637762
20
4.2973614299618301
30
0
0
SPLINE
5
127
100
AcDbEntity
8
0
100
AcDbSpline
70
0
71
3
72
29
73
25
74
0
42
0.000000001
43
0.0000000001
44
0.0000000001
40
0.0342108394157212
40
0.0342108394157212
40
0.0342108394157212
40
0.0342108394157212
40
0.104431888575338
40
0.104431888575338
40
0.104431888575338
40
0.17465293773495499
40
0.17465293773495499
40
0.17465293773495499
40
0.24487398689457099
40
0.24487398689457099
40
0.24487398689457099
40
0.31509503605418798
40
0.31509503605418798
40
0.31509503605418798
40
0.385316085213805
40
0.385316085213805
40
0.385316085213805
40
0.45553713437342203
40
0.45553713437342203
40
0.45553713437342203
40
0.52575818353303805
40
0.52575818353303805
40
0.52575818353303805
40
0.59597923269265496
40
0.59597923269265496
40
0.59597923269265496
40
0.59597923269265496
10
-1.3574465378560643
20
5.1194334093962794
30
0
10
-1.4477455221167743
20
5.1338812468779889
30
0
10
-1.5188968724073644
20
5.1718514227648482
30
0
10
-1.5634359708628143
20
5.2371179601271596
30
0
10
-1.6079750693182646
20
5.30238449748947
30
0
10
-1.6259019159385746
20
5.3949473963272272
30
0
10
-1.6133767435624691
20
5.4757018794402761
30
0
10
-1.6008515711863645
20
5.5564563625533197
30
0
10
-1.557874379813845
20
5.6254024299416479
30
0
10
-1.4981221159285207
20
5.6694084376902847
30
0
10
-1.4383698520431956
20
5.7134144454389251
30
0
10
-1.3618425156450651
20
5.7324803935478723
30
0
10
-1.276515853801655
20
5.7365734798867463
30
0
10
-1.1911891919582449
20
5.7406665662256202
30
0
10
-1.0970632046695552
20
5.7297867907944262
30
0
10
-1.0251875921166795
20
5.689069485870708
30
0
10
-0.95331197956380354
20
5.6483521809469899
30
0
10
-0.90368674174674102
20
5.5777973465307484
30
0
10
-0.88359857567817557
20
5.4973329529178416
30
0
10
-0.86351040960961034
20
5.4168685593049375
30
0
10
-0.87295931528954074
20
5.3264946064953627
30
0
10
-0.91010452548291276
20
5.2592951868074405
30
0
10
-0.94724973567628545
20
5.1920957671195129
30
0
10
-1.0120912503831003
20
5.1480708805532398
30
0
10
-1.1021406252596644
20
5.131186622763888
30
0
0
LINE
5
128
100
AcDbEntity
8
0
100
AcDbLine
10
-1.1021406252596644
20
5.131186622763888
30
0
11
-1.1178115764164762
21
5.2487187564399846
31
0
0
SPLINE
5
129
100
AcDbEntity
8
0
100
AcDbSpline
70
0
71
3
72
26
73
22
74
0
42
0.000000001
43
0.0000000001
44
0.0000000001
40
0.63016468295778605
40
0.63016468295778605
40
0.63016468295778605
40
0.63016468295778605
40
0.72262351221833998
40
0.72262351221833998
40
0.72262351221833998
40
0.76885292684861595
40
0.76885292684861595
40
0.76885292684861595
40
0.81508234147889302
40
0.81508234147889302
40
0.81508234147889302
40
0.86131175610916988
40
0.86131175610916988
40
0.86131175610916988
40
0.90754117073944696
40
0.90754117073944696
40
0.90754117073944696
40
0.95377058536972315
40
0.95377058536972315
40
0.95377058536972315
40
1
40
1
40
1
40
1
10
-1.1178115764164744
20
5.2487187564399784
30
0
10
-0.98444828270080842
20
5.2797759618258215
30
0
10
-0.95444183709820496
20
5.4088929100664007
30
0
10
-0.9913018944453883
20
5.4953656965182436
30
0
10
-1.0097319231189794
20
5.538602089744165
30
0
10
-1.0448785775300165
20
5.5711774425229006
30
0
10
-1.0957753093947695
20
5.5899931637657456
30
0
10
-1.1466720412595239
20
5.6088088850085942
30
0
10
-1.2133188505779944
20
5.6138649747155451
30
0
10
-1.2730085077098781
20
5.6118725289047733
30
0
10
-1.3326981648417613
20
5.6098800830940014
30
0
10
-1.3854306697870575
20
5.600839101765505
30
0
10
-1.4284073946100595
20
5.5756547465361113
30
0
10
-1.4713841194330615
20
5.5504703913067193
30
0
10
-1.5046050641337685
20
5.5091426621764272
30
0
10
-1.5146961408399369
20
5.4576793609430947
30
0
10
-1.5247872175461044
20
5.4062160597097675
30
0
10
-1.5117484262577348
20
5.3446171863733998
30
0
10
-1.4820217453850599
20
5.3045676008363785
30
0
10
-1.4522950645123851
20
5.2645180152993571
30
0
10
-1.4058804940554044
20
5.2460177175616884
30
0
10
-1.3411226304010446
20
5.2369655430723689
30
0
0
LINE
5
130
100
AcDbEntity
8
0
100
AcDbLine
10
-1.3411226304010446
20
5.2369655430723689
30
0
11
-1.3574465378560643
21
5.1194334093962794
31
0
0
CIRCLE
5
131
100
AcDbEntity
8
0
100
AcDbCircle
10
-21.346461884189161
20
8.6249253554492995
30
0
40
0.82550000000000334
210
0
220
-0
230
1
0
CIRCLE
5
132
100
AcDbEntity
8
0
100
AcDbCircle
10
-21.346461884189154
20
-8.9518746445507258
30
0
40
0.82550000000000334
210
0
220
-0
230
1
0
LWPOLYLINE
5
133
100
AcDbEntity
8
0
100
AcDbPolyline
90
10
70
1
43
0.0
10
-3.3293745584216214
20
5.4119578309901151
10
-4.1011689028946341
20
4.8935105302189053
10
-4.1011689028946332
20
4.7603074453860046
10
-3.1197755866992605
20
4.7603074453860028
10
-3.1197755866992605
20
4.8850220983423043
10
-3.8909169748740613
20
4.8850220983423025
10
-3.1197755866992605
20
5.4034693991135025
10
-3.1197755866992605
20
5.5366724839464148
10
-4.1011689028946341
20
5.5366724839464148
10
-4.1011689028946341
20
5.4119578309901151
0
CIRCLE
5
134
100
AcDbEntity
8
0
100
AcDbCircle
10
21.223938115810927
20
8.6249253554493244
30
0
40
0.82550000000000334
210
0
220
-0
230
1
0
CIRCLE
5
135
100
AcDbEntity
8
0
100
AcDbCircle
10
21.223938115810938
20
-8.9518746445506991
30
0
40
0.82550000000000334
210
0
220
-0
230
1
0
LWPOLYLINE
5
136
100
AcDbEntity
8
0
100
AcDbPolyline
90
12
70
1
43
0.0
10
-4.0402513272264606
20
-19.440046165092184
10
-4.0495966724149124
20
-13.939547574904063
10
-25.608218317370532
20
-13.939547574904052
10
-25.608218317370536
20
13.940046165092205
10
-3.8733670732518632
20
13.940046165092195
10
-3.8733670732518597
20
19.440046165092195
10
4.225825015268537
20
19.440046165092191
10
4.2258250152685406
20
13.940046165092193
10
25.608218317370543
20
13.940046165092177
10
25.608217905813262
20
-13.939547574904072
10
4.0495962608576361
20
-13.939547574904081
10
4.0589407454546444
20
-19.439539636771769
0
ENDSEC
0
SECTION
2
OBJECTS
0
DICTIONARY
5
C
100
AcDbDictionary
3
ACAD_GROUP
350
D
3
ACAD_MLINESTYLE
350
17
0
DICTIONARY
5
D
100
AcDbDictionary
0
DICTIONARY
5
1A
330
C
100
AcDbDictionary
0
DICTIONARY
5
17
100
AcDbDictionary
0
ENDSEC
0
EOF
