  0
SECTION
  2
HEADER
  9
$ACADVER
  1
AC1009
  9
$DWGCODEPAGE
  3
ansi_1252
  9
$INSBASE
 10
0.0
 20
0.0
 30
0.0
  9
$EXTMIN
 10
0.0869844091058652
 20
-0.001773600649885
 30
0.0
  9
$EXTMAX
 10
599.8981832791151
 20
100.0134258468598
 30
0.0
  9
$LIMMIN
 10
0.0
 20
0.0
  9
$LIMMAX
 10
12.0
 20
9.0
  9
$ORTHOMODE
 70
     0
  9
$REGENMODE
 70
     1
  9
$FILLMODE
 70
     1
  9
$QTEXTMODE
 70
     0
  9
$MIRRTEXT
 70
     1
  9
$DRAGMODE
 70
     2
  9
$LTSCALE
 40
1.0
  9
$OSMODE
 70
    37
  9
$ATTMODE
 70
     1
  9
$TEXTSIZE
 40
0.2
  9
$TRACEWID
 40
0.05
  9
$TEXTSTYLE
  7
STANDARD
  9
$CLAYER
  8
0
  9
$CELTYPE
  6
BYLAYER
  9
$CECOLOR
 62
   256
  9
$DIMSCALE
 40
1.0
  9
$DIMASZ
 40
0.18
  9
$DIMEXO
 40
0.0625
  9
$DIMDLI
 40
0.38
  9
$DIMRND
 40
0.0
  9
$DIMDLE
 40
0.0
  9
$DIMEXE
 40
0.18
  9
$DIMTP
 40
0.0
  9
$DIMTM
 40
0.0
  9
$DIMTXT
 40
0.18
  9
$DIMCEN
 40
0.09
  9
$DIMTSZ
 40
0.0
  9
$DIMTOL
 70
     0
  9
$DIMLIM
 70
     0
  9
$DIMTIH
 70
     1
  9
$DIMTOH
 70
     1
  9
$DIMSE1
 70
     0
  9
$DIMSE2
 70
     0
  9
$DIMTAD
 70
     0
  9
$DIMZIN
 70
     0
  9
$DIMBLK
  1

  9
$DIMASO
 70
     1
  9
$DIMSHO
 70
     1
  9
$DIMPOST
  1

  9
$DIMAPOST
  1

  9
$DIMALT
 70
     0
  9
$DIMALTD
 70
     2
  9
$DIMALTF
 40
25.4
  9
$DIMLFAC
 40
1.0
  9
$DIMTOFL
 70
     0
  9
$DIMTVP
 40
0.0
  9
$DIMTIX
 70
     0
  9
$DIMSOXD
 70
     0
  9
$DIMSAH
 70
     0
  9
$DIMBLK1
  1

  9
$DIMBLK2
  1

  9
$DIMSTYLE
  2
STANDARD
  9
$DIMCLRD
 70
     0
  9
$DIMCLRE
 70
     0
  9
$DIMCLRT
 70
     0
  9
$DIMTFAC
 40
1.0
  9
$DIMGAP
 40
0.09
  9
$LUNITS
 70
     2
  9
$LUPREC
 70
     4
  9
$SKETCHINC
 40
0.1
  9
$FILLETRAD
 40
0.5
  9
$AUNITS
 70
     0
  9
$AUPREC
 70
     0
  9
$MENU
  1
.
  9
$ELEVATION
 40
0.0
  9
$PELEVATION
 40
0.0
  9
$THICKNESS
 40
0.0
  9
$LIMCHECK
 70
     0
  9
$CHAMFERA
 40
0.0
  9
$CHAMFERB
 40
0.0
  9
$SKPOLY
 70
     0
  9
$TDCREATE
 40
2454910.5
  9
$TDUPDATE
 40
2458556.655703241
  9
$TDINDWG
 40
0.0000000116
  9
$TDUSRTIMER
 40
0.0000000116
  9
$USRTIMER
 70
     1
  9
$ANGBASE
 50
0.0
  9
$ANGDIR
 70
     0
  9
$PDMODE
 70
     0
  9
$PDSIZE
 40
0.0
  9
$PLINEWID
 40
0.0
  9
$COORDS
 70
     1
  9
$SPLFRAME
 70
     0
  9
$SPLINETYPE
 70
     6
  9
$SPLINESEGS
 70
     8
  9
$ATTDIA
 70
     0
  9
$ATTREQ
 70
     1
  9
$HANDLING
 70
     1
  9
$HANDSEED
  5
40E
  9
$SURFTAB1
 70
     6
  9
$SURFTAB2
 70
     6
  9
$SURFTYPE
 70
     6
  9
$SURFU
 70
     6
  9
$SURFV
 70
     6
  9
$UCSNAME
  2

  9
$UCSORG
 10
0.0
 20
0.0
 30
0.0
  9
$UCSXDIR
 10
1.0
 20
0.0
 30
0.0
  9
$UCSYDIR
 10
0.0
 20
1.0
 30
0.0
  9
$PUCSNAME
  2

  9
$PUCSORG
 10
0.0
 20
0.0
 30
0.0
  9
$PUCSXDIR
 10
1.0
 20
0.0
 30
0.0
  9
$PUCSYDIR
 10
0.0
 20
1.0
 30
0.0
  9
$USERI1
 70
     0
  9
$USERI2
 70
     0
  9
$USERI3
 70
     0
  9
$USERI4
 70
     0
  9
$USERI5
 70
     0
  9
$USERR1
 40
0.0
  9
$USERR2
 40
0.0
  9
$USERR3
 40
0.0
  9
$USERR4
 40
0.0
  9
$USERR5
 40
0.0
  9
$WORLDVIEW
 70
     1
  9
$SHADEDGE
 70
     3
  9
$SHADEDIF
 70
    70
  9
$TILEMODE
 70
     1
  9
$MAXACTVP
 70
    64
  9
$PLIMCHECK
 70
     0
  9
$PEXTMIN
 10
1.000000000000000E+20
 20
1.000000000000000E+20
 30
1.000000000000000E+20
  9
$PEXTMAX
 10
-1.000000000000000E+20
 20
-1.000000000000000E+20
 30
-1.000000000000000E+20
  9
$PLIMMIN
 10
0.0
 20
0.0
  9
$PLIMMAX
 10
12.0
 20
9.0
  9
$UNITMODE
 70
     0
  9
$VISRETAIN
 70
     1
  9
$PLINEGEN
 70
     0
  9
$PSLTSCALE
 70
     1
  0
ENDSEC
  0
SECTION
  2
TABLES
  0
TABLE
  2
VPORT
 70
     1
  0
VPORT
  2
*ACTIVE
 70
     0
 10
0.0
 20
0.0
 11
1.0
 21
1.0
 12
10.42990654205607
 22
4.5
 13
0.0
 23
0.0
 14
0.5
 24
0.5
 15
0.5
 25
0.5
 16
0.0
 26
0.0
 36
1.0
 17
0.0
 27
0.0
 37
0.0
 40
9.0
 41
1.972972972850329
 42
50.0
 43
0.0
 44
0.0
 50
0.0
 51
0.0
 71
     0
 72
   100
 73
     1
 74
     3
 75
     0
 76
     0
 77
     0
 78
     0
  0
ENDTAB
  0
TABLE
  2
LTYPE
 70
     2
  0
LTYPE
  2
CONTINUOUS
 70
     0
  3
Solid line
 72
    65
 73
     0
 40
0.0
  0
LTYPE
  2
CONTINUOUS2
 70
     0
  3
Solid Line
 72
    65
 73
     0
 40
0.0
  0
ENDTAB
  0
TABLE
  2
LAYER
 70
     2
  0
LAYER
  2
0
 70
     0
 62
     7
  6
CONTINUOUS
  0
LAYER
  2
LAYER_1
 70
     0
 62
     7
  6
CONTINUOUS
  0
ENDTAB
  0
TABLE
  2
STYLE
 70
     1
  0
STYLE
  2
STANDARD
 70
     0
 40
0.0
 41
1.0
 50
0.0
 71
     0
 42
0.2
  3
txt
  4

  0
ENDTAB
  0
TABLE
  2
VIEW
 70
     0
  0
ENDTAB
  0
TABLE
  2
UCS
 70
     0
  0
ENDTAB
  0
TABLE
  2
APPID
 70
     1
  0
APPID
  2
ACAD
 70
     0
  0
ENDTAB
  0
TABLE
  2
DIMSTYLE
 70
     1
  0
DIMSTYLE
  2
STANDARD
 70
     0
  3

  4

  5

  6

  7

 40
1.0
 41
0.18
 42
0.0625
 43
0.38
 44
0.18
 45
0.0
 46
0.0
 47
0.0
 48
0.0
140
0.18
141
0.09
142
0.0
143
25.4
144
1.0
145
0.0
146
1.0
147
0.09
 71
     0
 72
     0
 73
     1
 74
     1
 75
     0
 76
     0
 77
     0
 78
     0
170
     0
171
     2
172
     0
173
     0
174
     0
175
     0
176
     0
177
     0
178
     0
  0
ENDTAB
  0
ENDSEC
  0
SECTION
  2
BLOCKS
  0
BLOCK
  8
0
  2
$MODEL_SPACE
 70
     0
 10
0.0
 20
0.0
 30
0.0
  3
$MODEL_SPACE
  1

  0
ENDBLK
  5
21
  8
0
  0
BLOCK
 67
     1
  8
0
  2
$PAPER_SPACE
 70
     0
 10
0.0
 20
0.0
 30
0.0
  3
$PAPER_SPACE
  1

  0
ENDBLK
  5
1D
 67
     1
  8
0
  0
ENDSEC
  0
SECTION
  2
ENTITIES
  0
POLYLINE
  5
70
  8
LAYER_1
 66
     1
 10
0.0
 20
0.0
 30
0.0
 70
     1
  0
VERTEX
  5
AC
  8
LAYER_1
 10
146.2113933284509
 20
53.99999999999949
 30
0.0
 42
0.4142135623730951
  0
VERTEX
  5
AD
  8
LAYER_1
 10
142.2113933284509
 20
49.99999999999949
 30
0.0
 42
0.4142135623730951
  0
VERTEX
  5
AE
  8
LAYER_1
 10
146.2113933284509
 20
45.99999999999949
 30
0.0
 42
0.4142135623730951
  0
VERTEX
  5
AF
  8
LAYER_1
 10
150.2113933284509
 20
49.99999999999949
 30
0.0
 42
0.4142135623730951
  0
SEQEND
  5
3D9
  8
LAYER_1
  0
POLYLINE
  5
71
  8
LAYER_1
 66
     1
 10
0.0
 20
0.0
 30
0.0
 70
     1
  0
VERTEX
  5
B0
  8
LAYER_1
 10
255.2023936240057
 20
54.00000000000033
 30
0.0
 42
0.4142135623730951
  0
VERTEX
  5
B1
  8
LAYER_1
 10
251.2023936240057
 20
50.00000000000033
 30
0.0
 42
0.4142135623730951
  0
VERTEX
  5
B2
  8
LAYER_1
 10
255.2023936240057
 20
46.00000000000033
 30
0.0
 42
0.4142135623730951
  0
VERTEX
  5
B3
  8
LAYER_1
 10
259.2023936240057
 20
50.00000000000033
 30
0.0
 42
0.4142135623730951
  0
SEQEND
  5
3DA
  8
LAYER_1
  0
POLYLINE
  5
72
  8
LAYER_1
 66
     1
 10
0.0
 20
0.0
 30
0.0
 70
     1
  0
VERTEX
  5
B4
  8
LAYER_1
 10
255.2023936240026
 20
61.0
 30
0.0
 42
0.4142135623730951
  0
VERTEX
  5
B5
  8
LAYER_1
 10
244.2023936240026
 20
50.0
 30
0.0
 42
0.4142135623730951
  0
VERTEX
  5
B6
  8
LAYER_1
 10
255.2023936240026
 20
39.0
 30
0.0
 42
0.4142135623730951
  0
VERTEX
  5
B7
  8
LAYER_1
 10
266.2023936240026
 20
50.0
 30
0.0
 42
0.4142135623730951
  0
SEQEND
  5
3DB
  8
LAYER_1
  0
POLYLINE
  5
73
  8
LAYER_1
 66
     1
 10
0.0
 20
0.0
 30
0.0
 70
     1
  0
VERTEX
  5
B8
  8
LAYER_1
 10
146.211393328452
 20
61.0
 30
0.0
 42
0.4142135623730951
  0
VERTEX
  5
B9
  8
LAYER_1
 10
135.211393328452
 20
50.0
 30
0.0
 42
0.4142135623730951
  0
VERTEX
  5
BA
  8
LAYER_1
 10
146.211393328452
 20
39.0
 30
0.0
 42
0.4142135623730951
  0
VERTEX
  5
BB
  8
LAYER_1
 10
157.211393328452
 20
50.0
 30
0.0
 42
0.4142135623730951
  0
SEQEND
  5
3DC
  8
LAYER_1
  0
POLYLINE
  5
74
  8
LAYER_1
 66
     1
 10
0.0
 20
0.0
 30
0.0
 70
     1
  0
VERTEX
  5
BC
  8
LAYER_1
 10
452.6574614748306
 20
46.00000000000048
 30
0.0
 42
-0.4142135623730951
  0
VERTEX
  5
BD
  8
LAYER_1
 10
448.6574614748305
 20
50.00000000000051
 30
0.0
 42
-0.4142135623730951
  0
VERTEX
  5
BE
  8
LAYER_1
 10
452.6574614748306
 20
54.00000000000054
 30
0.0
 42
-0.4142135623730951
  0
VERTEX
  5
BF
  8
LAYER_1
 10
456.6574614748307
 20
50.00000000000051
 30
0.0
 42
-0.4142135623730951
  0
SEQEND
  5
3DD
  8
LAYER_1
  0
POLYLINE
  5
75
  8
LAYER_1
 66
     1
 10
0.0
 20
0.0
 30
0.0
 70
     1
  0
VERTEX
  5
C0
  8
LAYER_1
 10
561.6484617703859
 20
45.99999999999963
 30
0.0
 42
-0.4142135623730951
  0
VERTEX
  5
C1
  8
LAYER_1
 10
557.6484617703859
 20
49.99999999999966
 30
0.0
 42
-0.4142135623730951
  0
VERTEX
  5
C2
  8
LAYER_1
 10
561.6484617703859
 20
53.99999999999969
 30
0.0
 42
-0.4142135623730951
  0
VERTEX
  5
C3
  8
LAYER_1
 10
565.6484617703857
 20
49.99999999999966
 30
0.0
 42
-0.4142135623730951
  0
SEQEND
  5
3DE
  8
LAYER_1
  0
POLYLINE
  5
76
  8
LAYER_1
 66
     1
 10
0.0
 20
0.0
 30
0.0
 70
     1
  0
VERTEX
  5
C4
  8
LAYER_1
 10
561.6484617703827
 20
38.99999999999993
 30
0.0
 42
-0.4142135623730951
  0
VERTEX
  5
C5
  8
LAYER_1
 10
550.6484617703829
 20
50.0
 30
0.0
 42
-0.4142135623730951
  0
VERTEX
  5
C6
  8
LAYER_1
 10
561.6484617703827
 20
61.00000000000009
 30
0.0
 42
-0.4142135623730951
  0
VERTEX
  5
C7
  8
LAYER_1
 10
572.6484617703825
 20
50.0
 30
0.0
 42
-0.4142135623730951
  0
SEQEND
  5
3DF
  8
LAYER_1
  0
POLYLINE
  5
77
  8
LAYER_1
 66
     1
 10
0.0
 20
0.0
 30
0.0
 70
     1
  0
VERTEX
  5
C8
  8
LAYER_1
 10
452.6574614748317
 20
38.99999999999993
 30
0.0
 42
-0.4142135623730951
  0
VERTEX
  5
C9
  8
LAYER_1
 10
441.6574614748316
 20
50.0
 30
0.0
 42
-0.4142135623730951
  0
VERTEX
  5
CA
  8
LAYER_1
 10
452.6574614748317
 20
61.00000000000009
 30
0.0
 42
-0.4142135623730951
  0
VERTEX
  5
CB
  8
LAYER_1
 10
463.6574614748319
 20
50.0
 30
0.0
 42
-0.4142135623730951
  0
SEQEND
  5
3E0
  8
LAYER_1
  0
POLYLINE
  5
78
  8
LAYER_1
 66
     1
 10
0.0
 20
0.0
 30
0.0
 70
     1
  0
VERTEX
  5
CC
  8
LAYER_1
 10
63.53983883439727
 20
44.42142134299615
 30
0.0
 42
0.4142135623730951
  0
VERTEX
  5
CD
  8
LAYER_1
 10
68.53983883439727
 20
39.42142134299615
 30
0.0
  0
VERTEX
  5
CE
  8
LAYER_1
 10
104.5398388343973
 20
39.42142134299615
 30
0.0
 42
0.4142135623730951
  0
VERTEX
  5
CF
  8
LAYER_1
 10
109.5398388343973
 20
44.42142134299615
 30
0.0
  0
VERTEX
  5
D0
  8
LAYER_1
 10
109.5398388343973
 20
56.42142134299615
 30
0.0
 42
0.4142135623730951
  0
VERTEX
  5
D1
  8
LAYER_1
 10
104.5398388343973
 20
61.42142134299615
 30
0.0
  0
VERTEX
  5
D2
  8
LAYER_1
 10
68.53983883439727
 20
61.42142134299615
 30
0.0
 42
0.4142135623730951
  0
VERTEX
  5
D3
  8
LAYER_1
 10
63.53983883439727
 20
56.42142134299615
 30
0.0
  0
SEQEND
  5
3E1
  8
LAYER_1
  0
POLYLINE
  5
79
  8
LAYER_1
 66
     1
 10
0.0
 20
0.0
 30
0.0
  0
VERTEX
  5
D4
  8
LAYER_1
 10
15.21224315502197
 20
34.05630617223433
 30
0.0
  0
VERTEX
  5
D5
  8
LAYER_1
 10
15.21313385445518
 20
34.30758617821164
 30
0.0
  0
SEQEND
  5
3E2
  8
LAYER_1
  0
POLYLINE
  5
7A
  8
LAYER_1
 66
     1
 10
0.0
 20
0.0
 30
0.0
 70
     1
  0
VERTEX
  5
D6
  8
LAYER_1
 10
15.13393828322448
 20
88.94899292763246
 30
0.0
 42
0.4142135623730951
  0
VERTEX
  5
D7
  8
LAYER_1
 10
10.88393828322449
 20
84.69899292763246
 30
0.0
 42
0.4142135623730951
  0
VERTEX
  5
D8
  8
LAYER_1
 10
15.13393828322448
 20
80.44899292763246
 30
0.0
 42
0.4142135623730951
  0
VERTEX
  5
D9
  8
LAYER_1
 10
19.38393828322448
 20
84.69899292763246
 30
0.0
 42
0.4142135623730951
  0
SEQEND
  5
3E3
  8
LAYER_1
  0
POLYLINE
  5
7B
  8
LAYER_1
 66
     1
 10
0.0
 20
0.0
 30
0.0
 70
     1
  0
VERTEX
  5
DA
  8
LAYER_1
 10
15.13393828322448
 20
11.05100707236754
 30
0.0
 42
-0.4142135623730951
  0
VERTEX
  5
DB
  8
LAYER_1
 10
10.88393828322449
 20
15.30100707236753
 30
0.0
 42
-0.4142135623730951
  0
VERTEX
  5
DC
  8
LAYER_1
 10
15.13393828322448
 20
19.55100707236753
 30
0.0
 42
-0.4142135623730951
  0
VERTEX
  5
DD
  8
LAYER_1
 10
19.38393828322448
 20
15.30100707236753
 30
0.0
 42
-0.4142135623730951
  0
SEQEND
  5
3E4
  8
LAYER_1
  0
POLYLINE
  5
7C
  8
LAYER_1
 66
     1
 10
0.0
 20
0.0
 30
0.0
 70
     1
  0
VERTEX
  5
DE
  8
LAYER_1
 10
278.6398094878134
 20
11.05100707236754
 30
0.0
 42
0.4142135623730951
  0
VERTEX
  5
DF
  8
LAYER_1
 10
282.8898094878134
 20
15.30100707236753
 30
0.0
 42
0.4142135623730951
  0
VERTEX
  5
E0
  8
LAYER_1
 10
278.6398094878134
 20
19.55100707236753
 30
0.0
 42
0.4142135623730951
  0
VERTEX
  5
E1
  8
LAYER_1
 10
274.3898094878133
 20
15.30100707236753
 30
0.0
 42
0.4142135623730951
  0
SEQEND
  5
3E5
  8
LAYER_1
  0
POLYLINE
  5
7D
  8
LAYER_1
 66
     1
 10
0.0
 20
0.0
 30
0.0
 70
     1
  0
VERTEX
  5
E2
  8
LAYER_1
 10
278.6398094878134
 20
88.94899292763246
 30
0.0
 42
-0.4142135623730951
  0
VERTEX
  5
E3
  8
LAYER_1
 10
282.8898094878134
 20
84.69899292763246
 30
0.0
 42
-0.4142135623730951
  0
VERTEX
  5
E4
  8
LAYER_1
 10
278.6398094878134
 20
80.44899292763246
 30
0.0
 42
-0.4142135623730951
  0
VERTEX
  5
E5
  8
LAYER_1
 10
274.3898094878133
 20
84.69899292763246
 30
0.0
 42
-0.4142135623730951
  0
SEQEND
  5
3E6
  8
LAYER_1
  0
POLYLINE
  5
7E
  8
LAYER_1
 66
     1
 10
0.0
 20
0.0
 30
0.0
 70
     1
  0
VERTEX
  5
E6
  8
LAYER_1
 10
321.3957502566474
 20
100.0077019272332
 30
0.0
  0
VERTEX
  5
E7
  8
LAYER_1
 10
321.470088408057
 20
100.0109734023352
 30
0.0
  0
VERTEX
  5
E8
  8
LAYER_1
 10
321.3922908575603
 20
100.0116392961824
 30
0.0
 42
0.4142135623730951
  0
VERTEX
  5
E9
  8
LAYER_1
 10
306.3922908575604
 20
84.69899292763246
 30
0.0
  0
VERTEX
  5
EA
  8
LAYER_1
 10
306.396443832045
 20
84.3426523809002
 30
0.0
  0
VERTEX
  5
EB
  8
LAYER_1
 10
306.4088418968794
 20
83.98832504907782
 30
0.0
  0
VERTEX
  5
EC
  8
LAYER_1
 10
306.4293937641349
 20
83.63610390910637
 30
0.0
  0
VERTEX
  5
ED
  8
LAYER_1
 10
306.4580081458829
 20
83.28608193792694
 30
0.0
  0
VERTEX
  5
EE
  8
LAYER_1
 10
306.4945937541945
 20
82.9383521124806
 30
0.0
  0
VERTEX
  5
EF
  8
LAYER_1
 10
306.5390593011411
 20
82.59300740970845
 30
0.0
  0
VERTEX
  5
F0
  8
LAYER_1
 10
306.5913134987939
 20
82.25014080655153
 30
0.0
  0
VERTEX
  5
F1
  8
LAYER_1
 10
306.651265059224
 20
81.90984527995091
 30
0.0
  0
VERTEX
  5
F2
  8
LAYER_1
 10
306.7188226945029
 20
81.5722138068477
 30
0.0
  0
VERTEX
  5
F3
  8
LAYER_1
 10
306.7938951167018
 20
81.23733936418296
 30
0.0
  0
VERTEX
  5
F4
  8
LAYER_1
 10
306.8763910378918
 20
80.90531492889775
 30
0.0
  0
VERTEX
  5
F5
  8
LAYER_1
 10
306.9662191701443
 20
80.57623347793316
 30
0.0
  0
VERTEX
  5
F6
  8
LAYER_1
 10
307.0632882255305
 20
80.25018798823027
 30
0.0
  0
VERTEX
  5
F7
  8
LAYER_1
 10
307.1675069161217
 20
79.92727143673012
 30
0.0
  0
VERTEX
  5
F8
  8
LAYER_1
 10
307.2787839539892
 20
79.60757680037383
 30
0.0
  0
VERTEX
  5
F9
  8
LAYER_1
 10
307.3970280512042
 20
79.29119705610245
 30
0.0
  0
VERTEX
  5
FA
  8
LAYER_1
 10
307.522147919838
 20
78.97822518085707
 30
0.0
  0
VERTEX
  5
FB
  8
LAYER_1
 10
307.6540522719617
 20
78.66875415157872
 30
0.0
  0
VERTEX
  5
FC
  8
LAYER_1
 10
307.7926498196467
 20
78.36287694520854
 30
0.0
  0
VERTEX
  5
FD
  8
LAYER_1
 10
307.9378492749643
 20
78.06068653868756
 30
0.0
  0
VERTEX
  5
FE
  8
LAYER_1
 10
308.2476887567819
 20
77.46773803295754
 30
0.0
  0
VERTEX
  5
FF
  8
LAYER_1
 10
308.5828404139849
 20
76.89065244991727
 30
0.0
  0
VERTEX
  5
100
  8
LAYER_1
 10
308.942573943143
 20
76.33017360509533
 30
0.0
  0
VERTEX
  5
101
  8
LAYER_1
 10
309.3261590408264
 20
75.78704531402033
 30
0.0
  0
VERTEX
  5
102
  8
LAYER_1
 10
309.7328654036053
 20
75.26201139222087
 30
0.0
  0
VERTEX
  5
103
  8
LAYER_1
 10
310.1619627280496
 20
74.75581565522555
 30
0.0
  0
VERTEX
  5
104
  8
LAYER_1
 10
310.6127207107294
 20
74.26920191856294
 30
0.0
  0
VERTEX
  5
105
  8
LAYER_1
 10
311.0844090482147
 20
73.80291399776166
 30
0.0
  0
VERTEX
  5
106
  8
LAYER_1
 10
311.5762974370757
 20
73.3576957083503
 30
0.0
  0
VERTEX
  5
107
  8
LAYER_1
 10
312.0876555738823
 20
72.93429086585746
 30
0.0
  0
VERTEX
  5
108
  8
LAYER_1
 10
312.6177531552048
 20
72.53344328581173
 30
0.0
  0
VERTEX
  5
109
  8
LAYER_1
 10
313.165859877613
 20
72.15589678374172
 30
0.0
  0
VERTEX
  5
10A
  8
LAYER_1
 10
313.7312454376771
 20
71.802395175176
 30
0.0
  0
VERTEX
  5
10B
  8
LAYER_1
 10
314.3131795319671
 20
71.4736822756432
 30
0.0
  0
VERTEX
  5
10C
  8
LAYER_1
 10
314.6101240596249
 20
71.31885403411684
 30
0.0
  0
VERTEX
  5
10D
  8
LAYER_1
 10
314.9109318570531
 20
71.17050190067191
 30
0.0
  0
VERTEX
  5
10E
  8
LAYER_1
 10
315.2155116363227
 20
71.02871885224951
 30
0.0
  0
VERTEX
  5
10F
  8
LAYER_1
 10
315.5237721095051
 20
70.8935978657907
 30
0.0
  0
VERTEX
  5
110
  8
LAYER_1
 10
315.8356219886715
 20
70.76523191823654
 30
0.0
  0
VERTEX
  5
111
  8
LAYER_1
 10
316.1509699858932
 20
70.64371398652816
 30
0.0
  0
VERTEX
  5
112
  8
LAYER_1
 10
316.4697248132414
 20
70.5291370476066
 30
0.0
  0
VERTEX
  5
113
  8
LAYER_1
 10
316.7917951827875
 20
70.42159407841294
 30
0.0
  0
VERTEX
  5
114
  8
LAYER_1
 10
317.1170898066026
 20
70.32117805588823
 30
0.0
  0
VERTEX
  5
115
  8
LAYER_1
 10
317.445517396758
 20
70.22798195697358
 30
0.0
  0
VERTEX
  5
116
  8
LAYER_1
 10
317.776986665325
 20
70.14209875861005
 30
0.0
  0
VERTEX
  5
117
  8
LAYER_1
 10
318.1114063243748
 20
70.06362143773872
 30
0.0
  0
VERTEX
  5
118
  8
LAYER_1
 10
318.4486850859787
 20
69.99264297130065
 30
0.0
  0
VERTEX
  5
119
  8
LAYER_1
 10
318.788731662208
 20
69.92925633623693
 30
0.0
  0
VERTEX
  5
11A
  8
LAYER_1
 10
319.1314547651338
 20
69.87355450948863
 30
0.0
  0
VERTEX
  5
11B
  8
LAYER_1
 10
319.4767631068275
 20
69.82563046799683
 30
0.0
  0
VERTEX
  5
11C
  8
LAYER_1
 10
319.7034115952522
 20
69.74729693493849
 30
0.0
  0
VERTEX
  5
11D
  8
LAYER_1
 10
319.9213553657112
 20
69.65167913086619
 30
0.0
  0
VERTEX
  5
11E
  8
LAYER_1
 10
320.1297778719736
 20
69.53960308620204
 30
0.0
  0
VERTEX
  5
11F
  8
LAYER_1
 10
320.3278625678082
 20
69.41189483136814
 30
0.0
  0
VERTEX
  5
120
  8
LAYER_1
 10
320.5147929069839
 20
69.26938039678659
 30
0.0
  0
VERTEX
  5
121
  8
LAYER_1
 10
320.6897523432697
 20
69.11288581287945
 30
0.0
  0
VERTEX
  5
122
  8
LAYER_1
 10
320.8519243304345
 20
68.94323711006884
 30
0.0
  0
VERTEX
  5
123
  8
LAYER_1
 10
321.0004923222472
 20
68.76126031877683
 30
0.0
  0
VERTEX
  5
124
  8
LAYER_1
 10
321.1346397724767
 20
68.56778146942557
 30
0.0
  0
VERTEX
  5
125
  8
LAYER_1
 10
321.253550134892
 20
68.3636265924371
 30
0.0
  0
VERTEX
  5
126
  8
LAYER_1
 10
321.356406863262
 20
68.14962171823353
 30
0.0
  0
VERTEX
  5
127
  8
LAYER_1
 10
321.4423934113557
 20
67.92659287723697
 30
0.0
  0
VERTEX
  5
128
  8
LAYER_1
 10
321.5106932329419
 20
67.69536609986949
 30
0.0
  0
VERTEX
  5
129
  8
LAYER_1
 10
321.5604897817896
 20
67.4567674165532
 30
0.0
  0
VERTEX
  5
12A
  8
LAYER_1
 10
321.5909665116676
 20
67.21162285771018
 30
0.0
  0
VERTEX
  5
12B
  8
LAYER_1
 10
321.6013068763449
 20
66.96075845376254
 30
0.0
  0
VERTEX
  5
12C
  8
LAYER_1
 10
321.5964170025196
 20
66.83097580201725
 30
0.0
  0
VERTEX
  5
12D
  8
LAYER_1
 10
321.5936598654709
 20
66.82837095164422
 30
0.0
  0
VERTEX
  5
12E
  8
LAYER_1
 10
321.5902857011347
 20
66.84556513005452
 30
0.0
  0
VERTEX
  5
12F
  8
LAYER_1
 10
321.581679970899
 20
66.95507598074128
 30
0.0
  0
VERTEX
  5
130
  8
LAYER_1
 10
321.475114060246
 20
32.23217285724189
 30
0.0
  0
VERTEX
  5
131
  8
LAYER_1
 10
321.4169014088872
 20
32.04615538573067
 30
0.0
  0
VERTEX
  5
132
  8
LAYER_1
 10
321.347956115298
 20
31.86625728448224
 30
0.0
  0
VERTEX
  5
133
  8
LAYER_1
 10
321.26867276615
 20
31.69280739597411
 30
0.0
  0
VERTEX
  5
134
  8
LAYER_1
 10
321.1794459481144
 20
31.52613456268377
 30
0.0
  0
VERTEX
  5
135
  8
LAYER_1
 10
321.0806702478626
 20
31.36656762708875
 30
0.0
  0
VERTEX
  5
136
  8
LAYER_1
 10
320.9727402520658
 20
31.21443543166657
 30
0.0
  0
VERTEX
  5
137
  8
LAYER_1
 10
320.8560505473956
 20
31.07006681889473
 30
0.0
  0
VERTEX
  5
138
  8
LAYER_1
 10
320.7309957205232
 20
30.93379063125074
 30
0.0
  0
VERTEX
  5
139
  8
LAYER_1
 10
320.59797035812
 20
30.80593571121213
 30
0.0
  0
VERTEX
  5
13A
  8
LAYER_1
 10
320.4573690468573
 20
30.68683090125639
 30
0.0
  0
VERTEX
  5
13B
  8
LAYER_1
 10
320.3095863734064
 20
30.57680504386105
 30
0.0
  0
VERTEX
  5
13C
  8
LAYER_1
 10
320.1550169244388
 20
30.47618698150362
 30
0.0
  0
VERTEX
  5
13D
  8
LAYER_1
 10
319.9940552866257
 20
30.38530555666159
 30
0.0
  0
VERTEX
  5
13E
  8
LAYER_1
 10
319.8270960466386
 20
30.30448961181251
 30
0.0
  0
VERTEX
  5
13F
  8
LAYER_1
 10
319.6545337911488
 20
30.23406798943385
 30
0.0
  0
VERTEX
  5
140
  8
LAYER_1
 10
319.4767631068275
 20
30.17436953200316
 30
0.0
  0
VERTEX
  5
141
  8
LAYER_1
 10
319.1314547651338
 20
30.12644549051135
 30
0.0
  0
VERTEX
  5
142
  8
LAYER_1
 10
318.788731662208
 20
30.07074366376305
 30
0.0
  0
VERTEX
  5
143
  8
LAYER_1
 10
318.4486850859787
 20
30.00735702869933
 30
0.0
  0
VERTEX
  5
144
  8
LAYER_1
 10
318.1114063243748
 20
29.93637856226127
 30
0.0
  0
VERTEX
  5
145
  8
LAYER_1
 10
317.776986665325
 20
29.85790124138993
 30
0.0
  0
VERTEX
  5
146
  8
LAYER_1
 10
317.445517396758
 20
29.77201804302641
 30
0.0
  0
VERTEX
  5
147
  8
LAYER_1
 10
317.1170898066026
 20
29.67882194411175
 30
0.0
  0
VERTEX
  5
148
  8
LAYER_1
 10
316.7917951827875
 20
29.57840592158706
 30
0.0
  0
VERTEX
  5
149
  8
LAYER_1
 10
316.4697248132414
 20
29.4708629523934
 30
0.0
  0
VERTEX
  5
14A
  8
LAYER_1
 10
316.1509699858932
 20
29.35628601347183
 30
0.0
  0
VERTEX
  5
14B
  8
LAYER_1
 10
315.8356219886715
 20
29.23476808176344
 30
0.0
  0
VERTEX
  5
14C
  8
LAYER_1
 10
315.5237721095051
 20
29.10640213420931
 30
0.0
  0
VERTEX
  5
14D
  8
LAYER_1
 10
315.2155116363227
 20
28.9712811477505
 30
0.0
  0
VERTEX
  5
14E
  8
LAYER_1
 10
314.9109318570531
 20
28.82949809932809
 30
0.0
  0
VERTEX
  5
14F
  8
LAYER_1
 10
314.6101240596249
 20
28.68114596588316
 30
0.0
  0
VERTEX
  5
150
  8
LAYER_1
 10
314.3131795319671
 20
28.52631772435679
 30
0.0
  0
VERTEX
  5
151
  8
LAYER_1
 10
313.7312454376771
 20
28.19760482482398
 30
0.0
  0
VERTEX
  5
152
  8
LAYER_1
 10
313.165859877613
 20
27.84410321625827
 30
0.0
  0
VERTEX
  5
153
  8
LAYER_1
 10
312.6177531552048
 20
27.46655671418825
 30
0.0
  0
VERTEX
  5
154
  8
LAYER_1
 10
312.0876555738823
 20
27.06570913414252
 30
0.0
  0
VERTEX
  5
155
  8
LAYER_1
 10
311.5762974370757
 20
26.64230429164968
 30
0.0
  0
VERTEX
  5
156
  8
LAYER_1
 10
311.0844090482147
 20
26.19708600223831
 30
0.0
  0
VERTEX
  5
157
  8
LAYER_1
 10
310.6127207107294
 20
25.73079808143704
 30
0.0
  0
VERTEX
  5
158
  8
LAYER_1
 10
310.1619627280496
 20
25.24418434477444
 30
0.0
  0
VERTEX
  5
159
  8
LAYER_1
 10
309.7328654036053
 20
24.73798860777911
 30
0.0
  0
VERTEX
  5
15A
  8
LAYER_1
 10
309.3261590408264
 20
24.21295468597965
 30
0.0
  0
VERTEX
  5
15B
  8
LAYER_1
 10
308.942573943143
 20
23.66982639490465
 30
0.0
  0
VERTEX
  5
15C
  8
LAYER_1
 10
308.5828404139849
 20
23.10934755008272
 30
0.0
  0
VERTEX
  5
15D
  8
LAYER_1
 10
308.2476887567819
 20
22.53226196704244
 30
0.0
  0
VERTEX
  5
15E
  8
LAYER_1
 10
307.9378492749643
 20
21.93931346131243
 30
0.0
  0
VERTEX
  5
15F
  8
LAYER_1
 10
307.7926498196467
 20
21.63712305479145
 30
0.0
  0
VERTEX
  5
160
  8
LAYER_1
 10
307.6540522719617
 20
21.33124584842126
 30
0.0
  0
VERTEX
  5
161
  8
LAYER_1
 10
307.522147919838
 20
21.02177481914293
 30
0.0
  0
VERTEX
  5
162
  8
LAYER_1
 10
307.3970280512042
 20
20.70880294389754
 30
0.0
  0
VERTEX
  5
163
  8
LAYER_1
 10
307.2787839539892
 20
20.39242319962617
 30
0.0
  0
VERTEX
  5
164
  8
LAYER_1
 10
307.1675069161217
 20
20.07272856326987
 30
0.0
  0
VERTEX
  5
165
  8
LAYER_1
 10
307.0632882255305
 20
19.74981201176974
 30
0.0
  0
VERTEX
  5
166
  8
LAYER_1
 10
306.9662191701443
 20
19.42376652206684
 30
0.0
  0
VERTEX
  5
167
  8
LAYER_1
 10
306.8763910378918
 20
19.09468507110225
 30
0.0
  0
VERTEX
  5
168
  8
LAYER_1
 10
306.7938951167018
 20
18.76266063581705
 30
0.0
  0
VERTEX
  5
169
  8
LAYER_1
 10
306.7188226945029
 20
18.4277861931523
 30
0.0
  0
VERTEX
  5
16A
  8
LAYER_1
 10
306.651265059224
 20
18.09015472004909
 30
0.0
  0
VERTEX
  5
16B
  8
LAYER_1
 10
306.5913134987939
 20
17.74985919344848
 30
0.0
  0
VERTEX
  5
16C
  8
LAYER_1
 10
306.5390593011411
 20
17.40699259029156
 30
0.0
  0
VERTEX
  5
16D
  8
LAYER_1
 10
306.4945937541945
 20
17.0616478875194
 30
0.0
  0
VERTEX
  5
16E
  8
LAYER_1
 10
306.4580081458829
 20
16.71391806207306
 30
0.0
  0
VERTEX
  5
16F
  8
LAYER_1
 10
306.4293937641349
 20
16.36389609089363
 30
0.0
  0
VERTEX
  5
170
  8
LAYER_1
 10
306.4088418968794
 20
16.01167495092219
 30
0.0
  0
VERTEX
  5
171
  8
LAYER_1
 10
306.396443832045
 20
15.6573476190998
 30
0.0
  0
VERTEX
  5
172
  8
LAYER_1
 10
306.3922908575604
 20
15.30100707236753
 30
0.0
 42
0.4142135623730951
  0
VERTEX
  5
173
  8
LAYER_1
 10
320.9782082238103
 20
0.0156211089964745
 30
0.0
  0
VERTEX
  5
174
  8
LAYER_1
 10
321.1274464316611
 20
0.0069237541732947
 30
0.0
  0
VERTEX
  5
175
  8
LAYER_1
 10
321.357743561884
 20
-0.001773600649885
 30
0.0
  0
VERTEX
  5
176
  8
LAYER_1
 10
324.589
 20
0.0
 30
0.0
  0
VERTEX
  5
177
  8
LAYER_1
 10
581.688
 20
0.0
 30
0.0
  0
VERTEX
  5
178
  8
LAYER_1
 10
584.9580495319856
 20
0.2652903328826666
 30
0.0
 42
0.4142135623730951
  0
VERTEX
  5
179
  8
LAYER_1
 10
599.8981620621471
 20
15.30100707236753
 30
0.0
  0
VERTEX
  5
17A
  8
LAYER_1
 10
599.8940090876627
 20
15.6573476190998
 30
0.0
  0
VERTEX
  5
17B
  8
LAYER_1
 10
599.8816110228281
 20
16.01167495092219
 30
0.0
  0
VERTEX
  5
17C
  8
LAYER_1
 10
599.8610591555725
 20
16.36389609089363
 30
0.0
  0
VERTEX
  5
17D
  8
LAYER_1
 10
599.8324447738246
 20
16.71391806207306
 30
0.0
  0
VERTEX
  5
17E
  8
LAYER_1
 10
599.795859165513
 20
17.0616478875194
 30
0.0
  0
VERTEX
  5
17F
  8
LAYER_1
 10
599.7513936185663
 20
17.40699259029156
 30
0.0
  0
VERTEX
  5
180
  8
LAYER_1
 10
599.6991394209135
 20
17.74985919344848
 30
0.0
  0
VERTEX
  5
181
  8
LAYER_1
 10
599.6391878604834
 20
18.09015472004909
 30
0.0
  0
VERTEX
  5
182
  8
LAYER_1
 10
599.5716302252044
 20
18.4277861931523
 30
0.0
  0
VERTEX
  5
183
  8
LAYER_1
 10
599.4965578030057
 20
18.76266063581705
 30
0.0
  0
VERTEX
  5
184
  8
LAYER_1
 10
599.4140618818155
 20
19.09468507110225
 30
0.0
  0
VERTEX
  5
185
  8
LAYER_1
 10
599.3242337495631
 20
19.42376652206684
 30
0.0
  0
VERTEX
  5
186
  8
LAYER_1
 10
599.227164694177
 20
19.74981201176974
 30
0.0
  0
VERTEX
  5
187
  8
LAYER_1
 10
599.1229460035856
 20
20.07272856326987
 30
0.0
  0
VERTEX
  5
188
  8
LAYER_1
 10
599.0116689657182
 20
20.39242319962617
 30
0.0
  0
VERTEX
  5
189
  8
LAYER_1
 10
598.8934248685032
 20
20.70880294389754
 30
0.0
  0
VERTEX
  5
18A
  8
LAYER_1
 10
598.7683049998694
 20
21.02177481914293
 30
0.0
  0
VERTEX
  5
18B
  8
LAYER_1
 10
598.6364006477457
 20
21.33124584842126
 30
0.0
  0
VERTEX
  5
18C
  8
LAYER_1
 10
598.4978031000607
 20
21.63712305479145
 30
0.0
  0
VERTEX
  5
18D
  8
LAYER_1
 10
598.3526036447431
 20
21.93931346131243
 30
0.0
  0
VERTEX
  5
18E
  8
LAYER_1
 10
598.0427641629254
 20
22.53226196704244
 30
0.0
  0
VERTEX
  5
18F
  8
LAYER_1
 10
597.7076125057226
 20
23.10934755008272
 30
0.0
  0
VERTEX
  5
190
  8
LAYER_1
 10
597.3478789765645
 20
23.66982639490465
 30
0.0
  0
VERTEX
  5
191
  8
LAYER_1
 10
596.9642938788811
 20
24.21295468597965
 30
0.0
  0
VERTEX
  5
192
  8
LAYER_1
 10
596.5575875161022
 20
24.73798860777911
 30
0.0
  0
VERTEX
  5
193
  8
LAYER_1
 10
596.1284901916579
 20
25.24418434477444
 30
0.0
  0
VERTEX
  5
194
  8
LAYER_1
 10
595.677732208978
 20
25.73079808143704
 30
0.0
  0
VERTEX
  5
195
  8
LAYER_1
 10
595.2060438714926
 20
26.19708600223831
 30
0.0
  0
VERTEX
  5
196
  8
LAYER_1
 10
594.7141554826317
 20
26.64230429164968
 30
0.0
  0
VERTEX
  5
197
  8
LAYER_1
 10
594.202797345825
 20
27.06570913414252
 30
0.0
  0
VERTEX
  5
198
  8
LAYER_1
 10
593.6726997645026
 20
27.46655671418825
 30
0.0
  0
VERTEX
  5
199
  8
LAYER_1
 10
593.1245930420944
 20
27.84410321625827
 30
0.0
  0
VERTEX
  5
19A
  8
LAYER_1
 10
592.5592074820303
 20
28.19760482482398
 30
0.0
  0
VERTEX
  5
19B
  8
LAYER_1
 10
591.9772733877403
 20
28.52631772435679
 30
0.0
  0
VERTEX
  5
19C
  8
LAYER_1
 10
591.6803288600825
 20
28.68114596588316
 30
0.0
  0
VERTEX
  5
19D
  8
LAYER_1
 10
591.3795210626544
 20
28.82949809932809
 30
0.0
  0
VERTEX
  5
19E
  8
LAYER_1
 10
591.0749412833848
 20
28.9712811477505
 30
0.0
  0
VERTEX
  5
19F
  8
LAYER_1
 10
590.7666808102024
 20
29.10640213420931
 30
0.0
  0
VERTEX
  5
1A0
  8
LAYER_1
 10
590.4548309310359
 20
29.23476808176344
 30
0.0
  0
VERTEX
  5
1A1
  8
LAYER_1
 10
590.1394829338142
 20
29.35628601347183
 30
0.0
  0
VERTEX
  5
1A2
  8
LAYER_1
 10
589.8207281064659
 20
29.4708629523934
 30
0.0
  0
VERTEX
  5
1A3
  8
LAYER_1
 10
589.4986577369199
 20
29.57840592158706
 30
0.0
  0
VERTEX
  5
1A4
  8
LAYER_1
 10
589.1733631131046
 20
29.67882194411175
 30
0.0
  0
VERTEX
  5
1A5
  8
LAYER_1
 10
588.8449355229493
 20
29.77201804302641
 30
0.0
  0
VERTEX
  5
1A6
  8
LAYER_1
 10
588.5134662543824
 20
29.85790124138993
 30
0.0
  0
VERTEX
  5
1A7
  8
LAYER_1
 10
588.1790465953325
 20
29.93637856226127
 30
0.0
  0
VERTEX
  5
1A8
  8
LAYER_1
 10
587.8417678337287
 20
30.00735702869933
 30
0.0
  0
VERTEX
  5
1A9
  8
LAYER_1
 10
587.5017212574994
 20
30.07074366376305
 30
0.0
  0
VERTEX
  5
1AA
  8
LAYER_1
 10
587.1589981545735
 20
30.12644549051135
 30
0.0
  0
VERTEX
  5
1AB
  8
LAYER_1
 10
586.8136898128798
 20
30.17436953200316
 30
0.0
  0
VERTEX
  5
1AC
  8
LAYER_1
 10
586.6359191285586
 20
30.23406798943385
 30
0.0
  0
VERTEX
  5
1AD
  8
LAYER_1
 10
586.4633568730687
 20
30.30448961181251
 30
0.0
  0
VERTEX
  5
1AE
  8
LAYER_1
 10
586.2963976330815
 20
30.38530555666159
 30
0.0
  0
VERTEX
  5
1AF
  8
LAYER_1
 10
586.1354359952685
 20
30.47618698150362
 30
0.0
  0
VERTEX
  5
1B0
  8
LAYER_1
 10
585.980866546301
 20
30.57680504386105
 30
0.0
  0
VERTEX
  5
1B1
  8
LAYER_1
 10
585.83308387285
 20
30.68683090125639
 30
0.0
  0
VERTEX
  5
1B2
  8
LAYER_1
 10
585.6924825615873
 20
30.80593571121213
 30
0.0
  0
VERTEX
  5
1B3
  8
LAYER_1
 10
585.5594571991841
 20
30.93379063125074
 30
0.0
  0
VERTEX
  5
1B4
  8
LAYER_1
 10
585.4344023723116
 20
31.07006681889473
 30
0.0
  0
VERTEX
  5
1B5
  8
LAYER_1
 10
585.3177126676414
 20
31.21443543166657
 30
0.0
  0
VERTEX
  5
1B6
  8
LAYER_1
 10
585.2097826718447
 20
31.36656762708875
 30
0.0
  0
VERTEX
  5
1B7
  8
LAYER_1
 10
585.1110069715928
 20
31.52613456268377
 30
0.0
  0
VERTEX
  5
1B8
  8
LAYER_1
 10
585.0217801535573
 20
31.69280739597411
 30
0.0
  0
VERTEX
  5
1B9
  8
LAYER_1
 10
584.9424968044093
 20
31.86625728448224
 30
0.0
  0
VERTEX
  5
1BA
  8
LAYER_1
 10
584.8735515108201
 20
32.04615538573067
 30
0.0
  0
VERTEX
  5
1BB
  8
LAYER_1
 10
584.8153388594612
 20
32.23217285724189
 30
0.0
  0
VERTEX
  5
1BC
  8
LAYER_1
 10
584.7087729488082
 20
66.95507598074128
 30
0.0
  0
VERTEX
  5
1BD
  8
LAYER_1
 10
584.7001672185723
 20
66.84556513005452
 30
0.0
  0
VERTEX
  5
1BE
  8
LAYER_1
 10
584.6940359171875
 20
66.83097580201725
 30
0.0
  0
VERTEX
  5
1BF
  8
LAYER_1
 10
584.6891460433621
 20
66.96075845376254
 30
0.0
  0
VERTEX
  5
1C0
  8
LAYER_1
 10
584.6994864080394
 20
67.21162285771018
 30
0.0
  0
VERTEX
  5
1C1
  8
LAYER_1
 10
584.7299631379175
 20
67.4567674165532
 30
0.0
  0
VERTEX
  5
1C2
  8
LAYER_1
 10
584.7797596867651
 20
67.69536609986949
 30
0.0
  0
VERTEX
  5
1C3
  8
LAYER_1
 10
584.8480595083513
 20
67.92659287723697
 30
0.0
  0
VERTEX
  5
1C4
  8
LAYER_1
 10
584.9340460564449
 20
68.14962171823353
 30
0.0
  0
VERTEX
  5
1C5
  8
LAYER_1
 10
585.0369027848149
 20
68.3636265924371
 30
0.0
  0
VERTEX
  5
1C6
  8
LAYER_1
 10
585.1558131472303
 20
68.56778146942557
 30
0.0
  0
VERTEX
  5
1C7
  8
LAYER_1
 10
585.2899605974599
 20
68.76126031877683
 30
0.0
  0
VERTEX
  5
1C8
  8
LAYER_1
 10
585.4385285892724
 20
68.94323711006884
 30
0.0
  0
VERTEX
  5
1C9
  8
LAYER_1
 10
585.6007005764374
 20
69.11288581287945
 30
0.0
  0
VERTEX
  5
1CA
  8
LAYER_1
 10
585.7756600127233
 20
69.26938039678659
 30
0.0
  0
VERTEX
  5
1CB
  8
LAYER_1
 10
585.962590351899
 20
69.41189483136814
 30
0.0
  0
VERTEX
  5
1CC
  8
LAYER_1
 10
586.1606750477337
 20
69.53960308620204
 30
0.0
  0
VERTEX
  5
1CD
  8
LAYER_1
 10
586.369097553996
 20
69.65167913086619
 30
0.0
  0
VERTEX
  5
1CE
  8
LAYER_1
 10
586.5870413244551
 20
69.74729693493849
 30
0.0
  0
VERTEX
  5
1CF
  8
LAYER_1
 10
586.8136898128798
 20
69.82563046799683
 30
0.0
  0
VERTEX
  5
1D0
  8
LAYER_1
 10
587.1589981545735
 20
69.87355450948863
 30
0.0
  0
VERTEX
  5
1D1
  8
LAYER_1
 10
587.5017212574994
 20
69.92925633623693
 30
0.0
  0
VERTEX
  5
1D2
  8
LAYER_1
 10
587.8417678337287
 20
69.99264297130065
 30
0.0
  0
VERTEX
  5
1D3
  8
LAYER_1
 10
588.1790465953325
 20
70.06362143773872
 30
0.0
  0
VERTEX
  5
1D4
  8
LAYER_1
 10
588.5134662543824
 20
70.14209875861005
 30
0.0
  0
VERTEX
  5
1D5
  8
LAYER_1
 10
588.8449355229493
 20
70.22798195697358
 30
0.0
  0
VERTEX
  5
1D6
  8
LAYER_1
 10
589.1733631131046
 20
70.32117805588823
 30
0.0
  0
VERTEX
  5
1D7
  8
LAYER_1
 10
589.4986577369199
 20
70.42159407841294
 30
0.0
  0
VERTEX
  5
1D8
  8
LAYER_1
 10
589.8207281064659
 20
70.5291370476066
 30
0.0
  0
VERTEX
  5
1D9
  8
LAYER_1
 10
590.1394829338142
 20
70.64371398652816
 30
0.0
  0
VERTEX
  5
1DA
  8
LAYER_1
 10
590.4548309310359
 20
70.76523191823654
 30
0.0
  0
VERTEX
  5
1DB
  8
LAYER_1
 10
590.7666808102024
 20
70.8935978657907
 30
0.0
  0
VERTEX
  5
1DC
  8
LAYER_1
 10
591.0749412833848
 20
71.02871885224951
 30
0.0
  0
VERTEX
  5
1DD
  8
LAYER_1
 10
591.3795210626544
 20
71.17050190067191
 30
0.0
  0
VERTEX
  5
1DE
  8
LAYER_1
 10
591.6803288600825
 20
71.31885403411684
 30
0.0
  0
VERTEX
  5
1DF
  8
LAYER_1
 10
591.9772733877403
 20
71.4736822756432
 30
0.0
  0
VERTEX
  5
1E0
  8
LAYER_1
 10
592.5592074820303
 20
71.802395175176
 30
0.0
  0
VERTEX
  5
1E1
  8
LAYER_1
 10
593.1245930420944
 20
72.15589678374172
 30
0.0
  0
VERTEX
  5
1E2
  8
LAYER_1
 10
593.6726997645026
 20
72.53344328581173
 30
0.0
  0
VERTEX
  5
1E3
  8
LAYER_1
 10
594.202797345825
 20
72.93429086585746
 30
0.0
  0
VERTEX
  5
1E4
  8
LAYER_1
 10
594.7141554826317
 20
73.3576957083503
 30
0.0
  0
VERTEX
  5
1E5
  8
LAYER_1
 10
595.2060438714926
 20
73.80291399776166
 30
0.0
  0
VERTEX
  5
1E6
  8
LAYER_1
 10
595.677732208978
 20
74.26920191856294
 30
0.0
  0
VERTEX
  5
1E7
  8
LAYER_1
 10
596.1284901916579
 20
74.75581565522555
 30
0.0
  0
VERTEX
  5
1E8
  8
LAYER_1
 10
596.5575875161022
 20
75.26201139222087
 30
0.0
  0
VERTEX
  5
1E9
  8
LAYER_1
 10
596.9642938788811
 20
75.78704531402033
 30
0.0
  0
VERTEX
  5
1EA
  8
LAYER_1
 10
597.3478789765645
 20
76.33017360509533
 30
0.0
  0
VERTEX
  5
1EB
  8
LAYER_1
 10
597.7076125057226
 20
76.89065244991727
 30
0.0
  0
VERTEX
  5
1EC
  8
LAYER_1
 10
598.0427641629254
 20
77.46773803295754
 30
0.0
  0
VERTEX
  5
1ED
  8
LAYER_1
 10
598.3526036447431
 20
78.06068653868756
 30
0.0
  0
VERTEX
  5
1EE
  8
LAYER_1
 10
598.4978031000607
 20
78.36287694520854
 30
0.0
  0
VERTEX
  5
1EF
  8
LAYER_1
 10
598.6364006477457
 20
78.66875415157872
 30
0.0
  0
VERTEX
  5
1F0
  8
LAYER_1
 10
598.7683049998694
 20
78.97822518085707
 30
0.0
  0
VERTEX
  5
1F1
  8
LAYER_1
 10
598.8934248685032
 20
79.29119705610245
 30
0.0
  0
VERTEX
  5
1F2
  8
LAYER_1
 10
599.0116689657182
 20
79.60757680037383
 30
0.0
  0
VERTEX
  5
1F3
  8
LAYER_1
 10
599.1229460035856
 20
79.92727143673012
 30
0.0
  0
VERTEX
  5
1F4
  8
LAYER_1
 10
599.227164694177
 20
80.25018798823027
 30
0.0
  0
VERTEX
  5
1F5
  8
LAYER_1
 10
599.3242337495631
 20
80.57623347793316
 30
0.0
  0
VERTEX
  5
1F6
  8
LAYER_1
 10
599.4140618818155
 20
80.90531492889775
 30
0.0
  0
VERTEX
  5
1F7
  8
LAYER_1
 10
599.4965578030057
 20
81.23733936418296
 30
0.0
  0
VERTEX
  5
1F8
  8
LAYER_1
 10
599.5716302252044
 20
81.5722138068477
 30
0.0
  0
VERTEX
  5
1F9
  8
LAYER_1
 10
599.6391878604834
 20
81.90984527995091
 30
0.0
  0
VERTEX
  5
1FA
  8
LAYER_1
 10
599.6991394209135
 20
82.25014080655153
 30
0.0
  0
VERTEX
  5
1FB
  8
LAYER_1
 10
599.7513936185663
 20
82.59300740970845
 30
0.0
  0
VERTEX
  5
1FC
  8
LAYER_1
 10
599.795859165513
 20
82.9383521124806
 30
0.0
  0
VERTEX
  5
1FD
  8
LAYER_1
 10
599.8324447738246
 20
83.28608193792694
 30
0.0
  0
VERTEX
  5
1FE
  8
LAYER_1
 10
599.8610591555725
 20
83.63610390910637
 30
0.0
  0
VERTEX
  5
1FF
  8
LAYER_1
 10
599.8816110228281
 20
83.98832504907782
 30
0.0
  0
VERTEX
  5
200
  8
LAYER_1
 10
599.8940090876627
 20
84.3426523809002
 30
0.0
  0
VERTEX
  5
201
  8
LAYER_1
 10
599.8981620621471
 20
84.69899292763246
 30
0.0
 42
0.4142135623730951
  0
VERTEX
  5
202
  8
LAYER_1
 10
584.8981620621469
 20
100.0130350388991
 30
0.0
  0
VERTEX
  5
203
  8
LAYER_1
 10
584.664033929615
 20
100.0099376716701
 30
0.0
  0
VERTEX
  5
204
  8
LAYER_1
 10
584.1841987320538
 20
100.0075326117104
 30
0.0
  0
VERTEX
  5
205
  8
LAYER_1
 10
324.5889910358495
 20
100.003282055554
 30
0.0
  0
SEQEND
  5
3E7
  8
LAYER_1
  0
POLYLINE
  5
7F
  8
LAYER_1
 66
     1
 10
0.0
 20
0.0
 30
0.0
 70
     1
  0
VERTEX
  5
206
  8
LAYER_1
 10
321.3922908575603
 20
88.94899292763246
 30
0.0
 42
0.4142135623730951
  0
VERTEX
  5
207
  8
LAYER_1
 10
317.1422908575603
 20
84.69899292763246
 30
0.0
 42
0.4142135623730951
  0
VERTEX
  5
208
  8
LAYER_1
 10
321.3922908575603
 20
80.44899292763246
 30
0.0
 42
0.4142135623730951
  0
VERTEX
  5
209
  8
LAYER_1
 10
325.6422908575602
 20
84.69899292763246
 30
0.0
 42
0.4142135623730951
  0
SEQEND
  5
3E8
  8
LAYER_1
  0
POLYLINE
  5
80
  8
LAYER_1
 66
     1
 10
0.0
 20
0.0
 30
0.0
 70
     1
  0
VERTEX
  5
20A
  8
LAYER_1
 10
321.3922908575603
 20
11.05100707236754
 30
0.0
 42
-0.4142135623730951
  0
VERTEX
  5
20B
  8
LAYER_1
 10
317.1422908575603
 20
15.30100707236753
 30
0.0
 42
-0.4142135623730951
  0
VERTEX
  5
20C
  8
LAYER_1
 10
321.3922908575603
 20
19.55100707236753
 30
0.0
 42
-0.4142135623730951
  0
VERTEX
  5
20D
  8
LAYER_1
 10
325.6422908575602
 20
15.30100707236753
 30
0.0
 42
-0.4142135623730951
  0
SEQEND
  5
3E9
  8
LAYER_1
  0
POLYLINE
  5
81
  8
LAYER_1
 66
     1
 10
0.0
 20
0.0
 30
0.0
 70
     1
  0
VERTEX
  5
20E
  8
LAYER_1
 10
584.8981620621469
 20
11.05100707236754
 30
0.0
 42
0.4142135623730951
  0
VERTEX
  5
20F
  8
LAYER_1
 10
589.1481620621469
 20
15.30100707236753
 30
0.0
 42
0.4142135623730951
  0
VERTEX
  5
210
  8
LAYER_1
 10
584.8981620621469
 20
19.55100707236753
 30
0.0
 42
0.4142135623730951
  0
VERTEX
  5
211
  8
LAYER_1
 10
580.6481620621469
 20
15.30100707236753
 30
0.0
 42
0.4142135623730951
  0
SEQEND
  5
3EA
  8
LAYER_1
  0
POLYLINE
  5
82
  8
LAYER_1
 66
     1
 10
0.0
 20
0.0
 30
0.0
 70
     1
  0
VERTEX
  5
212
  8
LAYER_1
 10
584.8981620621469
 20
88.94899292763246
 30
0.0
 42
-0.4142135623730951
  0
VERTEX
  5
213
  8
LAYER_1
 10
589.1481620621469
 20
84.69899292763246
 30
0.0
 42
-0.4142135623730951
  0
VERTEX
  5
214
  8
LAYER_1
 10
584.8981620621469
 20
80.44899292763246
 30
0.0
 42
-0.4142135623730951
  0
VERTEX
  5
215
  8
LAYER_1
 10
580.6481620621469
 20
84.69899292763246
 30
0.0
 42
-0.4142135623730951
  0
SEQEND
  5
3EB
  8
LAYER_1
  0
POLYLINE
  5
83
  8
LAYER_1
 66
     1
 10
0.0
 20
0.0
 30
0.0
 70
     1
  0
VERTEX
  5
216
  8
LAYER_1
 10
368.8659527173867
 20
44.42142134299615
 30
0.0
 42
0.4142135623730951
  0
VERTEX
  5
217
  8
LAYER_1
 10
373.8659527173867
 20
39.42142134299615
 30
0.0
  0
VERTEX
  5
218
  8
LAYER_1
 10
409.8659527173867
 20
39.42142134299615
 30
0.0
 42
0.4142135623730951
  0
VERTEX
  5
219
  8
LAYER_1
 10
414.8659527173867
 20
44.42142134299615
 30
0.0
  0
VERTEX
  5
21A
  8
LAYER_1
 10
414.8659527173867
 20
56.42142134299615
 30
0.0
 42
0.4142135623730951
  0
VERTEX
  5
21B
  8
LAYER_1
 10
409.8659527173867
 20
61.42142134299615
 30
0.0
  0
VERTEX
  5
21C
  8
LAYER_1
 10
373.8659527173867
 20
61.42142134299615
 30
0.0
 42
0.4142135623730951
  0
VERTEX
  5
21D
  8
LAYER_1
 10
368.8659527173867
 20
56.42142134299615
 30
0.0
  0
SEQEND
  5
3EC
  8
LAYER_1
  0
POLYLINE
  5
84
  8
LAYER_1
 66
     1
 10
0.0
 20
0.0
 30
0.0
 70
     1
  0
VERTEX
  5
21E
  8
LAYER_1
 10
222.0368748162343
 20
31.99221882223577
 30
0.0
 42
-0.4142135623730951
  0
VERTEX
  5
21F
  8
LAYER_1
 10
226.0368748162343
 20
27.99221882223577
 30
0.0
 42
-0.4142135623730951
  0
VERTEX
  5
220
  8
LAYER_1
 10
222.0368748162343
 20
23.99221882223576
 30
0.0
 42
-0.4142135623730951
  0
VERTEX
  5
221
  8
LAYER_1
 10
218.0368748162343
 20
27.99221882223577
 30
0.0
 42
-0.4142135623730951
  0
SEQEND
  5
3ED
  8
LAYER_1
  0
POLYLINE
  5
85
  8
LAYER_1
 66
     1
 10
0.0
 20
0.0
 30
0.0
 70
     1
  0
VERTEX
  5
222
  8
LAYER_1
 10
222.0368748162337
 20
41.04221882223544
 30
0.0
 42
0.4142135623730951
  0
VERTEX
  5
223
  8
LAYER_1
 10
208.9868748162335
 20
27.99221882223553
 30
0.0
 42
0.4142135623730951
  0
VERTEX
  5
224
  8
LAYER_1
 10
222.0368748162337
 20
14.94221882223554
 30
0.0
 42
0.4142135623730951
  0
VERTEX
  5
225
  8
LAYER_1
 10
235.0868748162338
 20
27.99221882223553
 30
0.0
 42
0.4142135623730951
  0
SEQEND
  5
3EE
  8
LAYER_1
  0
POLYLINE
  5
86
  8
LAYER_1
 66
     1
 10
0.0
 20
0.0
 30
0.0
 70
     1
  0
VERTEX
  5
226
  8
LAYER_1
 10
222.0368748162337
 20
43.94221882223539
 30
0.0
 42
0.4142135623730951
  0
VERTEX
  5
227
  8
LAYER_1
 10
206.0868748162335
 20
27.99221882223553
 30
0.0
 42
0.4142135623730951
  0
VERTEX
  5
228
  8
LAYER_1
 10
222.0368748162337
 20
12.04221882223554
 30
0.0
 42
0.4142135623730951
  0
VERTEX
  5
229
  8
LAYER_1
 10
237.9868748162338
 20
27.99221882223553
 30
0.0
 42
0.4142135623730951
  0
SEQEND
  5
3EF
  8
LAYER_1
  0
POLYLINE
  5
87
  8
LAYER_1
 66
     1
 10
0.0
 20
0.0
 30
0.0
 70
     1
  0
VERTEX
  5
22A
  8
LAYER_1
 10
222.0368748162343
 20
77.20043242498002
 30
0.0
 42
-0.4142135623730951
  0
VERTEX
  5
22B
  8
LAYER_1
 10
226.0368748162343
 20
73.20043242498005
 30
0.0
 42
-0.4142135623730951
  0
VERTEX
  5
22C
  8
LAYER_1
 10
222.0368748162343
 20
69.20043242498005
 30
0.0
 42
-0.4142135623730951
  0
VERTEX
  5
22D
  8
LAYER_1
 10
218.0368748162343
 20
73.20043242498005
 30
0.0
 42
-0.4142135623730951
  0
SEQEND
  5
3F0
  8
LAYER_1
  0
POLYLINE
  5
88
  8
LAYER_1
 66
     1
 10
0.0
 20
0.0
 30
0.0
 70
     1
  0
VERTEX
  5
22E
  8
LAYER_1
 10
222.0368748162337
 20
86.25043242497969
 30
0.0
 42
0.4142135623730951
  0
VERTEX
  5
22F
  8
LAYER_1
 10
208.9868748162335
 20
73.20043242497982
 30
0.0
 42
0.4142135623730951
  0
VERTEX
  5
230
  8
LAYER_1
 10
222.0368748162337
 20
60.15043242497978
 30
0.0
 42
0.4142135623730951
  0
VERTEX
  5
231
  8
LAYER_1
 10
235.0868748162338
 20
73.20043242497982
 30
0.0
 42
0.4142135623730951
  0
SEQEND
  5
3F1
  8
LAYER_1
  0
POLYLINE
  5
89
  8
LAYER_1
 66
     1
 10
0.0
 20
0.0
 30
0.0
 70
     1
  0
VERTEX
  5
232
  8
LAYER_1
 10
222.0368748162337
 20
89.15043242497964
 30
0.0
 42
0.4142135623730951
  0
VERTEX
  5
233
  8
LAYER_1
 10
206.0868748162335
 20
73.20043242497982
 30
0.0
 42
0.4142135623730951
  0
VERTEX
  5
234
  8
LAYER_1
 10
222.0368748162337
 20
57.25043242497978
 30
0.0
 42
0.4142135623730951
  0
VERTEX
  5
235
  8
LAYER_1
 10
237.9868748162338
 20
73.20043242497982
 30
0.0
 42
0.4142135623730951
  0
SEQEND
  5
3F2
  8
LAYER_1
  0
POLYLINE
  5
8A
  8
LAYER_1
 66
     1
 10
0.0
 20
0.0
 30
0.0
 70
     1
  0
VERTEX
  5
236
  8
LAYER_1
 10
178.9342748859037
 20
32.14130022813767
 30
0.0
 42
-0.4142135623730951
  0
VERTEX
  5
237
  8
LAYER_1
 10
182.9342748859036
 20
28.14130022813768
 30
0.0
 42
-0.4142135623730951
  0
VERTEX
  5
238
  8
LAYER_1
 10
178.9342748859037
 20
24.14130022813767
 30
0.0
 42
-0.4142135623730951
  0
VERTEX
  5
239
  8
LAYER_1
 10
174.9342748859037
 20
28.14130022813768
 30
0.0
 42
-0.4142135623730951
  0
SEQEND
  5
3F3
  8
LAYER_1
  0
POLYLINE
  5
8B
  8
LAYER_1
 66
     1
 10
0.0
 20
0.0
 30
0.0
 70
     1
  0
VERTEX
  5
23A
  8
LAYER_1
 10
178.9342748859031
 20
41.19130022813734
 30
0.0
 42
0.4142135623730951
  0
VERTEX
  5
23B
  8
LAYER_1
 10
165.8842748859032
 20
28.14130022813744
 30
0.0
 42
0.4142135623730951
  0
VERTEX
  5
23C
  8
LAYER_1
 10
178.9342748859031
 20
15.09130022813744
 30
0.0
 42
0.4142135623730951
  0
VERTEX
  5
23D
  8
LAYER_1
 10
191.9842748859029
 20
28.14130022813744
 30
0.0
 42
0.4142135623730951
  0
SEQEND
  5
3F4
  8
LAYER_1
  0
POLYLINE
  5
8C
  8
LAYER_1
 66
     1
 10
0.0
 20
0.0
 30
0.0
 70
     1
  0
VERTEX
  5
23E
  8
LAYER_1
 10
178.9342748859031
 20
44.09130022813729
 30
0.0
 42
0.4142135623730951
  0
VERTEX
  5
23F
  8
LAYER_1
 10
162.9842748859032
 20
28.14130022813744
 30
0.0
 42
0.4142135623730951
  0
VERTEX
  5
240
  8
LAYER_1
 10
178.9342748859031
 20
12.19130022813744
 30
0.0
 42
0.4142135623730951
  0
VERTEX
  5
241
  8
LAYER_1
 10
194.8842748859028
 20
28.14130022813744
 30
0.0
 42
0.4142135623730951
  0
SEQEND
  5
3F5
  8
LAYER_1
  0
POLYLINE
  5
8D
  8
LAYER_1
 66
     1
 10
0.0
 20
0.0
 30
0.0
 70
     1
  0
VERTEX
  5
242
  8
LAYER_1
 10
178.9023288703533
 20
77.2430271123805
 30
0.0
 42
-0.4142135623730951
  0
VERTEX
  5
243
  8
LAYER_1
 10
182.9023288703532
 20
73.24302711238053
 30
0.0
 42
-0.4142135623730951
  0
VERTEX
  5
244
  8
LAYER_1
 10
178.9023288703533
 20
69.24302711238053
 30
0.0
 42
-0.4142135623730951
  0
VERTEX
  5
245
  8
LAYER_1
 10
174.9023288703533
 20
73.24302711238053
 30
0.0
 42
-0.4142135623730951
  0
SEQEND
  5
3F6
  8
LAYER_1
  0
POLYLINE
  5
8E
  8
LAYER_1
 66
     1
 10
0.0
 20
0.0
 30
0.0
 70
     1
  0
VERTEX
  5
246
  8
LAYER_1
 10
178.9023288703526
 20
86.29302711238017
 30
0.0
 42
0.4142135623730951
  0
VERTEX
  5
247
  8
LAYER_1
 10
165.8523288703527
 20
73.2430271123803
 30
0.0
 42
0.4142135623730951
  0
VERTEX
  5
248
  8
LAYER_1
 10
178.9023288703526
 20
60.19302711238034
 30
0.0
 42
0.4142135623730951
  0
VERTEX
  5
249
  8
LAYER_1
 10
191.9523288703525
 20
73.2430271123803
 30
0.0
 42
0.4142135623730951
  0
SEQEND
  5
3F7
  8
LAYER_1
  0
POLYLINE
  5
8F
  8
LAYER_1
 66
     1
 10
0.0
 20
0.0
 30
0.0
 70
     1
  0
VERTEX
  5
24A
  8
LAYER_1
 10
178.9023288703526
 20
89.19302711238012
 30
0.0
 42
0.4142135623730951
  0
VERTEX
  5
24B
  8
LAYER_1
 10
162.9523288703528
 20
73.2430271123803
 30
0.0
 42
0.4142135623730951
  0
VERTEX
  5
24C
  8
LAYER_1
 10
178.9023288703526
 20
57.29302711238034
 30
0.0
 42
0.4142135623730951
  0
VERTEX
  5
24D
  8
LAYER_1
 10
194.8523288703524
 20
73.2430271123803
 30
0.0
 42
0.4142135623730951
  0
SEQEND
  5
3F8
  8
LAYER_1
  0
POLYLINE
  5
90
  8
LAYER_1
 66
     1
 10
0.0
 20
0.0
 30
0.0
 70
     1
  0
VERTEX
  5
24E
  8
LAYER_1
 10
15.13739768231164
 20
100.00605830061
 30
0.0
  0
VERTEX
  5
24F
  8
LAYER_1
 10
15.21173583372125
 20
100.0093297757119
 30
0.0
  0
VERTEX
  5
250
  8
LAYER_1
 10
15.13393828322449
 20
100.0099956695591
 30
0.0
 42
0.4142135623730951
  0
VERTEX
  5
251
  8
LAYER_1
 10
0.1339382832244889
 20
84.69899292763246
 30
0.0
  0
VERTEX
  5
252
  8
LAYER_1
 10
0.1380912577090164
 20
84.3426523809002
 30
0.0
  0
VERTEX
  5
253
  8
LAYER_1
 10
0.1504893225434372
 20
83.98832504907782
 30
0.0
  0
VERTEX
  5
254
  8
LAYER_1
 10
0.1710411897990089
 20
83.63610390910637
 30
0.0
  0
VERTEX
  5
255
  8
LAYER_1
 10
0.1996555715469888
 20
83.28608193792694
 30
0.0
  0
VERTEX
  5
256
  8
LAYER_1
 10
0.2362411798586347
 20
82.9383521124806
 30
0.0
  0
VERTEX
  5
257
  8
LAYER_1
 10
0.2807067268052039
 20
82.59300740970845
 30
0.0
  0
VERTEX
  5
258
  8
LAYER_1
 10
0.3329609244579539
 20
82.25014080655153
 30
0.0
  0
VERTEX
  5
259
  8
LAYER_1
 10
0.3929124848881422
 20
81.90984527995091
 30
0.0
  0
VERTEX
  5
25A
  8
LAYER_1
 10
0.4604701201670265
 20
81.5722138068477
 30
0.0
  0
VERTEX
  5
25B
  8
LAYER_1
 10
0.535542542365864
 20
81.23733936418296
 30
0.0
  0
VERTEX
  5
25C
  8
LAYER_1
 10
0.6180384635559124
 20
80.90531492889775
 30
0.0
  0
VERTEX
  5
25D
  8
LAYER_1
 10
0.707866595808429
 20
80.57623347793316
 30
0.0
  0
VERTEX
  5
25E
  8
LAYER_1
 10
0.8049356511946715
 20
80.25018798823027
 30
0.0
  0
VERTEX
  5
25F
  8
LAYER_1
 10
0.9091543417858974
 20
79.92727143673012
 30
0.0
  0
VERTEX
  5
260
  8
LAYER_1
 10
1.020431379653364
 20
79.60757680037383
 30
0.0
  0
VERTEX
  5
261
  8
LAYER_1
 10
1.138675476868329
 20
79.29119705610245
 30
0.0
  0
VERTEX
  5
262
  8
LAYER_1
 10
1.26379534550205
 20
78.97822518085707
 30
0.0
  0
VERTEX
  5
263
  8
LAYER_1
 10
1.395699697625784
 20
78.66875415157872
 30
0.0
  0
VERTEX
  5
264
  8
LAYER_1
 10
1.534297245310789
 20
78.36287694520854
 30
0.0
  0
VERTEX
  5
265
  8
LAYER_1
 10
1.679496700628323
 20
78.06068653868756
 30
0.0
  0
VERTEX
  5
266
  8
LAYER_1
 10
1.989336182446005
 20
77.46773803295754
 30
0.0
  0
VERTEX
  5
267
  8
LAYER_1
 10
2.32448783964889
 20
76.89065244991727
 30
0.0
  0
VERTEX
  5
268
  8
LAYER_1
 10
2.684221368807038
 20
76.33017360509533
 30
0.0
  0
VERTEX
  5
269
  8
LAYER_1
 10
3.06780646649051
 20
75.78704531402033
 30
0.0
  0
VERTEX
  5
26A
  8
LAYER_1
 10
3.474512829269366
 20
75.26201139222087
 30
0.0
  0
VERTEX
  5
26B
  8
LAYER_1
 10
3.903610153713664
 20
74.75581565522555
 30
0.0
  0
VERTEX
  5
26C
  8
LAYER_1
 10
4.354368136393466
 20
74.26920191856294
 30
0.0
  0
VERTEX
  5
26D
  8
LAYER_1
 10
4.826056473878833
 20
73.80291399776166
 30
0.0
  0
VERTEX
  5
26E
  8
LAYER_1
 10
5.317944862739822
 20
73.3576957083503
 30
0.0
  0
VERTEX
  5
26F
  8
LAYER_1
 10
5.829302999546494
 20
72.93429086585746
 30
0.0
  0
VERTEX
  5
270
  8
LAYER_1
 10
6.359400580868909
 20
72.53344328581173
 30
0.0
  0
VERTEX
  5
271
  8
LAYER_1
 10
6.907507303277129
 20
72.15589678374172
 30
0.0
  0
VERTEX
  5
272
  8
LAYER_1
 10
7.472892863341212
 20
71.802395175176
 30
0.0
  0
VERTEX
  5
273
  8
LAYER_1
 10
8.054826957631217
 20
71.4736822756432
 30
0.0
  0
VERTEX
  5
274
  8
LAYER_1
 10
8.351771485289087
 20
71.31885403411684
 30
0.0
  0
VERTEX
  5
275
  8
LAYER_1
 10
8.652579282717209
 20
71.17050190067191
 30
0.0
  0
VERTEX
  5
276
  8
LAYER_1
 10
8.95715906198684
 20
71.02871885224951
 30
0.0
  0
VERTEX
  5
277
  8
LAYER_1
 10
9.26541953516924
 20
70.8935978657907
 30
0.0
  0
VERTEX
  5
278
  8
LAYER_1
 10
9.577269414335666
 20
70.76523191823654
 30
0.0
  0
VERTEX
  5
279
  8
LAYER_1
 10
9.892617411557374
 20
70.64371398652816
 30
0.0
  0
VERTEX
  5
27A
  8
LAYER_1
 10
10.21137223890562
 20
70.5291370476066
 30
0.0
  0
VERTEX
  5
27B
  8
LAYER_1
 10
10.53344260845168
 20
70.42159407841294
 30
0.0
  0
VERTEX
  5
27C
  8
LAYER_1
 10
10.85873723226678
 20
70.32117805588823
 30
0.0
  0
VERTEX
  5
27D
  8
LAYER_1
 10
11.1871648224222
 20
70.22798195697358
 30
0.0
  0
VERTEX
  5
27E
  8
LAYER_1
 10
11.51863409098919
 20
70.14209875861005
 30
0.0
  0
VERTEX
  5
27F
  8
LAYER_1
 10
11.853053750039
 20
70.06362143773872
 30
0.0
  0
VERTEX
  5
280
  8
LAYER_1
 10
12.19033251164291
 20
69.99264297130065
 30
0.0
  0
VERTEX
  5
281
  8
LAYER_1
 10
12.53037908787216
 20
69.92925633623693
 30
0.0
  0
VERTEX
  5
282
  8
LAYER_1
 10
12.873102190798
 20
69.87355450948863
 30
0.0
  0
VERTEX
  5
283
  8
LAYER_1
 10
13.21841053249171
 20
69.82563046799683
 30
0.0
  0
VERTEX
  5
284
  8
LAYER_1
 10
13.44505902091644
 20
69.74729693493849
 30
0.0
  0
VERTEX
  5
285
  8
LAYER_1
 10
13.66300279137552
 20
69.65167913086619
 30
0.0
  0
VERTEX
  5
286
  8
LAYER_1
 10
13.87142529763789
 20
69.53960308620204
 30
0.0
  0
VERTEX
  5
287
  8
LAYER_1
 10
14.06950999347248
 20
69.41189483136814
 30
0.0
  0
VERTEX
  5
288
  8
LAYER_1
 10
14.25644033264821
 20
69.26938039678659
 30
0.0
  0
VERTEX
  5
289
  8
LAYER_1
 10
14.431399768934
 20
69.11288581287945
 30
0.0
  0
VERTEX
  5
28A
  8
LAYER_1
 10
14.59357175609878
 20
68.94323711006884
 30
0.0
  0
VERTEX
  5
28B
  8
LAYER_1
 10
14.74213974791148
 20
68.76126031877683
 30
0.0
  0
VERTEX
  5
28C
  8
LAYER_1
 10
14.87628719814103
 20
68.56778146942557
 30
0.0
  0
VERTEX
  5
28D
  8
LAYER_1
 10
14.99519756055634
 20
68.3636265924371
 30
0.0
  0
VERTEX
  5
28E
  8
LAYER_1
 10
15.09805428892634
 20
68.14962171823353
 30
0.0
  0
VERTEX
  5
28F
  8
LAYER_1
 10
15.18404083701997
 20
67.92659287723697
 30
0.0
  0
VERTEX
  5
290
  8
LAYER_1
 10
15.25234065860614
 20
67.69536609986949
 30
0.0
  0
VERTEX
  5
291
  8
LAYER_1
 10
15.30213720745378
 20
67.4567674165532
 30
0.0
  0
VERTEX
  5
292
  8
LAYER_1
 10
15.33261393733182
 20
67.21162285771018
 30
0.0
  0
VERTEX
  5
293
  8
LAYER_1
 10
15.34295430200918
 20
66.96075845376254
 30
0.0
  0
VERTEX
  5
294
  8
LAYER_1
 10
15.33806442818385
 20
66.83097580201725
 30
0.0
  0
VERTEX
  5
295
  8
LAYER_1
 10
15.33530729113516
 20
66.82837095164422
 30
0.0
  0
VERTEX
  5
296
  8
LAYER_1
 10
15.331933126799
 20
66.84556513005452
 30
0.0
  0
VERTEX
  5
297
  8
LAYER_1
 10
15.32332739656318
 20
66.95507598074128
 30
0.0
  0
VERTEX
  5
298
  8
LAYER_1
 10
15.2167614859102
 20
32.23217285724189
 30
0.0
  0
VERTEX
  5
299
  8
LAYER_1
 10
15.15854883455136
 20
32.04615538573067
 30
0.0
  0
VERTEX
  5
29A
  8
LAYER_1
 10
15.08960354096224
 20
31.86625728448224
 30
0.0
  0
VERTEX
  5
29B
  8
LAYER_1
 10
15.0103201918142
 20
31.69280739597411
 30
0.0
  0
VERTEX
  5
29C
  8
LAYER_1
 10
14.92109337377859
 20
31.52613456268377
 30
0.0
  0
VERTEX
  5
29D
  8
LAYER_1
 10
14.82231767352676
 20
31.36656762708875
 30
0.0
  0
VERTEX
  5
29E
  8
LAYER_1
 10
14.71438767773006
 20
31.21443543166657
 30
0.0
  0
VERTEX
  5
29F
  8
LAYER_1
 10
14.59769797305982
 20
31.07006681889473
 30
0.0
  0
VERTEX
  5
2A0
  8
LAYER_1
 10
14.47264314618742
 20
30.93379063125074
 30
0.0
  0
VERTEX
  5
2A1
  8
LAYER_1
 10
14.33961778378418
 20
30.80593571121213
 30
0.0
  0
VERTEX
  5
2A2
  8
LAYER_1
 10
14.19901647252147
 20
30.68683090125639
 30
0.0
  0
VERTEX
  5
2A3
  8
LAYER_1
 10
14.05123379907064
 20
30.57680504386105
 30
0.0
  0
VERTEX
  5
2A4
  8
LAYER_1
 10
13.89666435010302
 20
30.47618698150362
 30
0.0
  0
VERTEX
  5
2A5
  8
LAYER_1
 10
13.73570271228996
 20
30.38530555666159
 30
0.0
  0
VERTEX
  5
2A6
  8
LAYER_1
 10
13.56874347230283
 20
30.30448961181251
 30
0.0
  0
VERTEX
  5
2A7
  8
LAYER_1
 10
13.39618121681296
 20
30.23406798943385
 30
0.0
  0
VERTEX
  5
2A8
  8
LAYER_1
 10
13.21841053249171
 20
30.17436953200316
 30
0.0
  0
VERTEX
  5
2A9
  8
LAYER_1
 10
12.53037908787216
 20
30.07657010599723
 30
0.0
  0
VERTEX
  5
2AA
  8
LAYER_1
 10
11.853053750039
 20
29.95918846377378
 30
0.0
  0
VERTEX
  5
2AB
  8
LAYER_1
 10
11.1871648224222
 20
29.82222461972516
 30
0.0
  0
VERTEX
  5
2AC
  8
LAYER_1
 10
10.53344260845168
 20
29.66567858824365
 30
0.0
  0
VERTEX
  5
2AD
  8
LAYER_1
 10
9.892617411557374
 20
29.48955038372159
 30
0.0
  0
VERTEX
  5
2AE
  8
LAYER_1
 10
9.26541953516924
 20
29.2938400205513
 30
0.0
  0
VERTEX
  5
2AF
  8
LAYER_1
 10
8.652579282717209
 20
29.0785475131251
 30
0.0
  0
VERTEX
  5
2B0
  8
LAYER_1
 10
8.054826957631217
 20
28.8436728758353
 30
0.0
  0
VERTEX
  5
2B1
  8
LAYER_1
 10
7.472892863341212
 20
28.58921612307422
 30
0.0
  0
VERTEX
  5
2B2
  8
LAYER_1
 10
6.907507303277129
 20
28.31517726923418
 30
0.0
  0
VERTEX
  5
2B3
  8
LAYER_1
 10
6.359400580868909
 20
28.0215563287075
 30
0.0
  0
VERTEX
  5
2B4
  8
LAYER_1
 10
5.829302999546494
 20
27.7083533158865
 30
0.0
  0
VERTEX
  5
2B5
  8
LAYER_1
 10
5.317944862739822
 20
27.3755682451635
 30
0.0
  0
VERTEX
  5
2B6
  8
LAYER_1
 10
4.826056473878833
 20
27.02320113093081
 30
0.0
  0
VERTEX
  5
2B7
  8
LAYER_1
 10
4.354368136393466
 20
26.65125198758076
 30
0.0
  0
VERTEX
  5
2B8
  8
LAYER_1
 10
3.903610153713664
 20
26.25972082950567
 30
0.0
  0
VERTEX
  5
2B9
  8
LAYER_1
 10
3.474512829269366
 20
25.84860767109785
 30
0.0
  0
VERTEX
  5
2BA
  8
LAYER_1
 10
3.268315133707386
 20
25.63570784626676
 30
0.0
  0
VERTEX
  5
2BB
  8
LAYER_1
 10
3.06780646649051
 20
25.41791252674961
 30
0.0
  0
VERTEX
  5
2BC
  8
LAYER_1
 10
2.87307811554748
 20
25.19522171434544
 30
0.0
  0
VERTEX
  5
2BD
  8
LAYER_1
 10
2.684221368807038
 20
24.96763541085329
 30
0.0
  0
VERTEX
  5
2BE
  8
LAYER_1
 10
2.501327514197928
 20
24.7351536180722
 30
0.0
  0
VERTEX
  5
2BF
  8
LAYER_1
 10
2.32448783964889
 20
24.4977763378012
 30
0.0
  0
VERTEX
  5
2C0
  8
LAYER_1
 10
2.153793633088668
 20
24.25550357183934
 30
0.0
  0
VERTEX
  5
2C1
  8
LAYER_1
 10
1.989336182446005
 20
24.00833532198565
 30
0.0
  0
VERTEX
  5
2C2
  8
LAYER_1
 10
1.831206775649642
 20
23.75627159003919
 30
0.0
  0
VERTEX
  5
2C3
  8
LAYER_1
 10
1.679496700628323
 20
23.49931237779898
 30
0.0
  0
VERTEX
  5
2C4
  8
LAYER_1
 10
1.534297245310789
 20
23.23745768706407
 30
0.0
  0
VERTEX
  5
2C5
  8
LAYER_1
 10
1.395699697625784
 20
22.97070751963349
 30
0.0
  0
VERTEX
  5
2C6
  8
LAYER_1
 10
1.26379534550205
 20
22.69906187730628
 30
0.0
  0
VERTEX
  5
2C7
  8
LAYER_1
 10
1.138675476868329
 20
22.4225207618815
 30
0.0
  0
VERTEX
  5
2C8
  8
LAYER_1
 10
1.020431379653364
 20
22.14108417515817
 30
0.0
  0
VERTEX
  5
2C9
  8
LAYER_1
 10
0.9091543417858974
 20
21.85475211893533
 30
0.0
  0
VERTEX
  5
2CA
  8
LAYER_1
 10
0.8049356511946715
 20
21.56352459501203
 30
0.0
  0
VERTEX
  5
2CB
  8
LAYER_1
 10
0.707866595808429
 20
21.26740160518731
 30
0.0
  0
VERTEX
  5
2CC
  8
LAYER_1
 10
0.6180384635559124
 20
20.9663831512602
 30
0.0
  0
VERTEX
  5
2CD
  8
LAYER_1
 10
0.535542542365864
 20
20.66046923502974
 30
0.0
  0
VERTEX
  5
2CE
  8
LAYER_1
 10
0.4604701201670265
 20
20.34965985829498
 30
0.0
  0
VERTEX
  5
2CF
  8
LAYER_1
 10
0.3929124848881422
 20
20.03395502285496
 30
0.0
  0
VERTEX
  5
2D0
  8
LAYER_1
 10
0.3329609244579539
 20
19.71335473050871
 30
0.0
  0
VERTEX
  5
2D1
  8
LAYER_1
 10
0.2807067268052039
 20
19.38785898305527
 30
0.0
  0
VERTEX
  5
2D2
  8
LAYER_1
 10
0.2362411798586347
 20
19.0574677822937
 30
0.0
  0
VERTEX
  5
2D3
  8
LAYER_1
 10
0.1996555715469888
 20
18.72218113002301
 30
0.0
  0
VERTEX
  5
2D4
  8
LAYER_1
 10
0.1710411897990089
 20
18.38199902804225
 30
0.0
  0
VERTEX
  5
2D5
  8
LAYER_1
 10
0.1504893225434372
 20
18.03692147815048
 30
0.0
  0
VERTEX
  5
2D6
  8
LAYER_1
 10
0.1380912577090164
 20
17.68694848214671
 30
0.0
  0
VERTEX
  5
2D7
  8
LAYER_1
 10
0.1339382832244889
 20
17.33208004183
 30
0.0
 42
0.4142135623730951
  0
VERTEX
  5
2D8
  8
LAYER_1
 10
15.00041188457604
 20
0.0003011675198087
 30
0.0
  0
VERTEX
  5
2D9
  8
LAYER_1
 10
18.33108660813849
 20
0.0003136622375751
 30
0.0
  0
VERTEX
  5
2DA
  8
LAYER_1
 10
275.4292832032994
 20
0.0106756561666602
 30
0.0
  0
VERTEX
  5
2DB
  8
LAYER_1
 10
278.6996969576521
 20
0.0880645056817669
 30
0.0
 42
0.4142135623730951
  0
VERTEX
  5
2DC
  8
LAYER_1
 10
293.6398094878135
 20
15.30100707236753
 30
0.0
  0
VERTEX
  5
2DD
  8
LAYER_1
 10
293.6356565133289
 20
15.6573476190998
 30
0.0
  0
VERTEX
  5
2DE
  8
LAYER_1
 10
293.6232584484945
 20
16.01167495092219
 30
0.0
  0
VERTEX
  5
2DF
  8
LAYER_1
 10
293.602706581239
 20
16.36389609089363
 30
0.0
  0
VERTEX
  5
2E0
  8
LAYER_1
 10
293.574092199491
 20
16.71391806207306
 30
0.0
  0
VERTEX
  5
2E1
  8
LAYER_1
 10
293.5375065911793
 20
17.0616478875194
 30
0.0
  0
VERTEX
  5
2E2
  8
LAYER_1
 10
293.4930410442328
 20
17.40699259029156
 30
0.0
  0
VERTEX
  5
2E3
  8
LAYER_1
 10
293.4407868465801
 20
17.74985919344848
 30
0.0
  0
VERTEX
  5
2E4
  8
LAYER_1
 10
293.3808352861498
 20
18.09015472004909
 30
0.0
  0
VERTEX
  5
2E5
  8
LAYER_1
 10
293.3132776508709
 20
18.4277861931523
 30
0.0
  0
VERTEX
  5
2E6
  8
LAYER_1
 10
293.2382052286721
 20
18.76266063581705
 30
0.0
  0
VERTEX
  5
2E7
  8
LAYER_1
 10
293.155709307482
 20
19.09468507110225
 30
0.0
  0
VERTEX
  5
2E8
  8
LAYER_1
 10
293.0658811752295
 20
19.42376652206684
 30
0.0
  0
VERTEX
  5
2E9
  8
LAYER_1
 10
292.9688121198433
 20
19.74981201176974
 30
0.0
  0
VERTEX
  5
2EA
  8
LAYER_1
 10
292.8645934292521
 20
20.07272856326987
 30
0.0
  0
VERTEX
  5
2EB
  8
LAYER_1
 10
292.7533163913846
 20
20.39242319962617
 30
0.0
  0
VERTEX
  5
2EC
  8
LAYER_1
 10
292.6350722941696
 20
20.70880294389754
 30
0.0
  0
VERTEX
  5
2ED
  8
LAYER_1
 10
292.5099524255359
 20
21.02177481914293
 30
0.0
  0
VERTEX
  5
2EE
  8
LAYER_1
 10
292.3780480734122
 20
21.33124584842126
 30
0.0
  0
VERTEX
  5
2EF
  8
LAYER_1
 10
292.2394505257272
 20
21.63712305479145
 30
0.0
  0
VERTEX
  5
2F0
  8
LAYER_1
 10
292.0942510704097
 20
21.93931346131243
 30
0.0
  0
VERTEX
  5
2F1
  8
LAYER_1
 10
291.784411588592
 20
22.53226196704244
 30
0.0
  0
VERTEX
  5
2F2
  8
LAYER_1
 10
291.4492599313891
 20
23.10934755008272
 30
0.0
  0
VERTEX
  5
2F3
  8
LAYER_1
 10
291.0895264022309
 20
23.66982639490465
 30
0.0
  0
VERTEX
  5
2F4
  8
LAYER_1
 10
290.7059413045474
 20
24.21295468597965
 30
0.0
  0
VERTEX
  5
2F5
  8
LAYER_1
 10
290.2992349417686
 20
24.73798860777911
 30
0.0
  0
VERTEX
  5
2F6
  8
LAYER_1
 10
289.8701376173243
 20
25.24418434477444
 30
0.0
  0
VERTEX
  5
2F7
  8
LAYER_1
 10
289.4193796346445
 20
25.73079808143704
 30
0.0
  0
VERTEX
  5
2F8
  8
LAYER_1
 10
288.9476912971592
 20
26.19708600223831
 30
0.0
  0
VERTEX
  5
2F9
  8
LAYER_1
 10
288.4558029082982
 20
26.64230429164968
 30
0.0
  0
VERTEX
  5
2FA
  8
LAYER_1
 10
287.9444447714915
 20
27.06570913414252
 30
0.0
  0
VERTEX
  5
2FB
  8
LAYER_1
 10
287.4143471901691
 20
27.46655671418825
 30
0.0
  0
VERTEX
  5
2FC
  8
LAYER_1
 10
286.8662404677608
 20
27.84410321625827
 30
0.0
  0
VERTEX
  5
2FD
  8
LAYER_1
 10
286.3008549076967
 20
28.19760482482398
 30
0.0
  0
VERTEX
  5
2FE
  8
LAYER_1
 10
285.7189208134067
 20
28.52631772435679
 30
0.0
  0
VERTEX
  5
2FF
  8
LAYER_1
 10
285.4219762857488
 20
28.68114596588316
 30
0.0
  0
VERTEX
  5
300
  8
LAYER_1
 10
285.1211684883206
 20
28.82949809932809
 30
0.0
  0
VERTEX
  5
301
  8
LAYER_1
 10
284.816588709051
 20
28.9712811477505
 30
0.0
  0
VERTEX
  5
302
  8
LAYER_1
 10
284.5083282358686
 20
29.10640213420931
 30
0.0
  0
VERTEX
  5
303
  8
LAYER_1
 10
284.1964783567022
 20
29.23476808176344
 30
0.0
  0
VERTEX
  5
304
  8
LAYER_1
 10
283.8811303594805
 20
29.35628601347183
 30
0.0
  0
VERTEX
  5
305
  8
LAYER_1
 10
283.5623755321323
 20
29.4708629523934
 30
0.0
  0
VERTEX
  5
306
  8
LAYER_1
 10
283.2403051625862
 20
29.57840592158706
 30
0.0
  0
VERTEX
  5
307
  8
LAYER_1
 10
282.9150105387711
 20
29.67882194411175
 30
0.0
  0
VERTEX
  5
308
  8
LAYER_1
 10
282.5865829486157
 20
29.77201804302641
 30
0.0
  0
VERTEX
  5
309
  8
LAYER_1
 10
282.2551136800487
 20
29.85790124138993
 30
0.0
  0
VERTEX
  5
30A
  8
LAYER_1
 10
281.9206940209989
 20
29.93637856226127
 30
0.0
  0
VERTEX
  5
30B
  8
LAYER_1
 10
281.583415259395
 20
30.00735702869933
 30
0.0
  0
VERTEX
  5
30C
  8
LAYER_1
 10
281.2433686831657
 20
30.07074366376305
 30
0.0
  0
VERTEX
  5
30D
  8
LAYER_1
 10
280.9006455802399
 20
30.12644549051135
 30
0.0
  0
VERTEX
  5
30E
  8
LAYER_1
 10
280.5553372385461
 20
30.17436953200316
 30
0.0
  0
VERTEX
  5
30F
  8
LAYER_1
 10
280.3775665542249
 20
30.23406798943385
 30
0.0
  0
VERTEX
  5
310
  8
LAYER_1
 10
280.205004298735
 20
30.30448961181251
 30
0.0
  0
VERTEX
  5
311
  8
LAYER_1
 10
280.0380450587479
 20
30.38530555666159
 30
0.0
  0
VERTEX
  5
312
  8
LAYER_1
 10
279.8770834209348
 20
30.47618698150362
 30
0.0
  0
VERTEX
  5
313
  8
LAYER_1
 10
279.7225139719672
 20
30.57680504386105
 30
0.0
  0
VERTEX
  5
314
  8
LAYER_1
 10
279.5747312985163
 20
30.68683090125639
 30
0.0
  0
VERTEX
  5
315
  8
LAYER_1
 10
279.4341299872536
 20
30.80593571121213
 30
0.0
  0
VERTEX
  5
316
  8
LAYER_1
 10
279.3011046248504
 20
30.93379063125074
 30
0.0
  0
VERTEX
  5
317
  8
LAYER_1
 10
279.176049797978
 20
31.07006681889473
 30
0.0
  0
VERTEX
  5
318
  8
LAYER_1
 10
279.0593600933078
 20
31.21443543166657
 30
0.0
  0
VERTEX
  5
319
  8
LAYER_1
 10
278.951430097511
 20
31.36656762708875
 30
0.0
  0
VERTEX
  5
31A
  8
LAYER_1
 10
278.8526543972592
 20
31.52613456268377
 30
0.0
  0
VERTEX
  5
31B
  8
LAYER_1
 10
278.7634275792236
 20
31.69280739597411
 30
0.0
  0
VERTEX
  5
31C
  8
LAYER_1
 10
278.6841442300756
 20
31.86625728448224
 30
0.0
  0
VERTEX
  5
31D
  8
LAYER_1
 10
278.6151989364864
 20
32.04615538573067
 30
0.0
  0
VERTEX
  5
31E
  8
LAYER_1
 10
278.5569862851276
 20
32.23217285724189
 30
0.0
  0
VERTEX
  5
31F
  8
LAYER_1
 10
278.4504203744746
 20
66.95507598074128
 30
0.0
  0
VERTEX
  5
320
  8
LAYER_1
 10
278.4418146442388
 20
66.84556513005452
 30
0.0
  0
VERTEX
  5
321
  8
LAYER_1
 10
278.435683342854
 20
66.83097580201725
 30
0.0
  0
VERTEX
  5
322
  8
LAYER_1
 10
278.4307934690286
 20
66.96075845376254
 30
0.0
  0
VERTEX
  5
323
  8
LAYER_1
 10
278.441133833706
 20
67.21162285771018
 30
0.0
  0
VERTEX
  5
324
  8
LAYER_1
 10
278.471610563584
 20
67.4567674165532
 30
0.0
  0
VERTEX
  5
325
  8
LAYER_1
 10
278.5214071124317
 20
67.69536609986949
 30
0.0
  0
VERTEX
  5
326
  8
LAYER_1
 10
278.5897069340179
 20
67.92659287723697
 30
0.0
  0
VERTEX
  5
327
  8
LAYER_1
 10
278.6756934821116
 20
68.14962171823353
 30
0.0
  0
VERTEX
  5
328
  8
LAYER_1
 10
278.7785502104816
 20
68.3636265924371
 30
0.0
  0
VERTEX
  5
329
  8
LAYER_1
 10
278.8974605728969
 20
68.56778146942557
 30
0.0
  0
VERTEX
  5
32A
  8
LAYER_1
 10
279.0316080231264
 20
68.76126031877683
 30
0.0
  0
VERTEX
  5
32B
  8
LAYER_1
 10
279.180176014939
 20
68.94323711006884
 30
0.0
  0
VERTEX
  5
32C
  8
LAYER_1
 10
279.3423480021038
 20
69.11288581287945
 30
0.0
  0
VERTEX
  5
32D
  8
LAYER_1
 10
279.5173074383897
 20
69.26938039678659
 30
0.0
  0
VERTEX
  5
32E
  8
LAYER_1
 10
279.7042377775654
 20
69.41189483136814
 30
0.0
  0
VERTEX
  5
32F
  8
LAYER_1
 10
279.9023224734
 20
69.53960308620204
 30
0.0
  0
VERTEX
  5
330
  8
LAYER_1
 10
280.1107449796623
 20
69.65167913086619
 30
0.0
  0
VERTEX
  5
331
  8
LAYER_1
 10
280.3286887501214
 20
69.74729693493849
 30
0.0
  0
VERTEX
  5
332
  8
LAYER_1
 10
280.5553372385461
 20
69.82563046799683
 30
0.0
  0
VERTEX
  5
333
  8
LAYER_1
 10
280.9006455802399
 20
69.87355450948863
 30
0.0
  0
VERTEX
  5
334
  8
LAYER_1
 10
281.2433686831657
 20
69.92925633623693
 30
0.0
  0
VERTEX
  5
335
  8
LAYER_1
 10
281.583415259395
 20
69.99264297130065
 30
0.0
  0
VERTEX
  5
336
  8
LAYER_1
 10
281.9206940209989
 20
70.06362143773872
 30
0.0
  0
VERTEX
  5
337
  8
LAYER_1
 10
282.2551136800487
 20
70.14209875861005
 30
0.0
  0
VERTEX
  5
338
  8
LAYER_1
 10
282.5865829486157
 20
70.22798195697358
 30
0.0
  0
VERTEX
  5
339
  8
LAYER_1
 10
282.9150105387711
 20
70.32117805588823
 30
0.0
  0
VERTEX
  5
33A
  8
LAYER_1
 10
283.2403051625862
 20
70.42159407841294
 30
0.0
  0
VERTEX
  5
33B
  8
LAYER_1
 10
283.5623755321323
 20
70.5291370476066
 30
0.0
  0
VERTEX
  5
33C
  8
LAYER_1
 10
283.8811303594805
 20
70.64371398652816
 30
0.0
  0
VERTEX
  5
33D
  8
LAYER_1
 10
284.1964783567022
 20
70.76523191823654
 30
0.0
  0
VERTEX
  5
33E
  8
LAYER_1
 10
284.5083282358686
 20
70.8935978657907
 30
0.0
  0
VERTEX
  5
33F
  8
LAYER_1
 10
284.816588709051
 20
71.02871885224951
 30
0.0
  0
VERTEX
  5
340
  8
LAYER_1
 10
285.1211684883206
 20
71.17050190067191
 30
0.0
  0
VERTEX
  5
341
  8
LAYER_1
 10
285.4219762857488
 20
71.31885403411684
 30
0.0
  0
VERTEX
  5
342
  8
LAYER_1
 10
285.7189208134067
 20
71.4736822756432
 30
0.0
  0
VERTEX
  5
343
  8
LAYER_1
 10
286.3008549076967
 20
71.802395175176
 30
0.0
  0
VERTEX
  5
344
  8
LAYER_1
 10
286.8662404677608
 20
72.15589678374172
 30
0.0
  0
VERTEX
  5
345
  8
LAYER_1
 10
287.4143471901691
 20
72.53344328581173
 30
0.0
  0
VERTEX
  5
346
  8
LAYER_1
 10
287.9444447714915
 20
72.93429086585746
 30
0.0
  0
VERTEX
  5
347
  8
LAYER_1
 10
288.4558029082982
 20
73.3576957083503
 30
0.0
  0
VERTEX
  5
348
  8
LAYER_1
 10
288.9476912971592
 20
73.80291399776166
 30
0.0
  0
VERTEX
  5
349
  8
LAYER_1
 10
289.4193796346445
 20
74.26920191856294
 30
0.0
  0
VERTEX
  5
34A
  8
LAYER_1
 10
289.8701376173243
 20
74.75581565522555
 30
0.0
  0
VERTEX
  5
34B
  8
LAYER_1
 10
290.2992349417686
 20
75.26201139222087
 30
0.0
  0
VERTEX
  5
34C
  8
LAYER_1
 10
290.7059413045474
 20
75.78704531402033
 30
0.0
  0
VERTEX
  5
34D
  8
LAYER_1
 10
291.0895264022309
 20
76.33017360509533
 30
0.0
  0
VERTEX
  5
34E
  8
LAYER_1
 10
291.4492599313891
 20
76.89065244991727
 30
0.0
  0
VERTEX
  5
34F
  8
LAYER_1
 10
291.784411588592
 20
77.46773803295754
 30
0.0
  0
VERTEX
  5
350
  8
LAYER_1
 10
292.0942510704097
 20
78.06068653868756
 30
0.0
  0
VERTEX
  5
351
  8
LAYER_1
 10
292.2394505257272
 20
78.36287694520854
 30
0.0
  0
VERTEX
  5
352
  8
LAYER_1
 10
292.3780480734122
 20
78.66875415157872
 30
0.0
  0
VERTEX
  5
353
  8
LAYER_1
 10
292.5099524255359
 20
78.97822518085707
 30
0.0
  0
VERTEX
  5
354
  8
LAYER_1
 10
292.6350722941696
 20
79.29119705610245
 30
0.0
  0
VERTEX
  5
355
  8
LAYER_1
 10
292.7533163913846
 20
79.60757680037383
 30
0.0
  0
VERTEX
  5
356
  8
LAYER_1
 10
292.8645934292521
 20
79.92727143673012
 30
0.0
  0
VERTEX
  5
357
  8
LAYER_1
 10
292.9688121198433
 20
80.25018798823027
 30
0.0
  0
VERTEX
  5
358
  8
LAYER_1
 10
293.0658811752295
 20
80.57623347793316
 30
0.0
  0
VERTEX
  5
359
  8
LAYER_1
 10
293.155709307482
 20
80.90531492889775
 30
0.0
  0
VERTEX
  5
35A
  8
LAYER_1
 10
293.2382052286721
 20
81.23733936418296
 30
0.0
  0
VERTEX
  5
35B
  8
LAYER_1
 10
293.3132776508709
 20
81.5722138068477
 30
0.0
  0
VERTEX
  5
35C
  8
LAYER_1
 10
293.3808352861498
 20
81.90984527995091
 30
0.0
  0
VERTEX
  5
35D
  8
LAYER_1
 10
293.4407868465801
 20
82.25014080655153
 30
0.0
  0
VERTEX
  5
35E
  8
LAYER_1
 10
293.4930410442328
 20
82.59300740970845
 30
0.0
  0
VERTEX
  5
35F
  8
LAYER_1
 10
293.5375065911793
 20
82.9383521124806
 30
0.0
  0
VERTEX
  5
360
  8
LAYER_1
 10
293.574092199491
 20
83.28608193792694
 30
0.0
  0
VERTEX
  5
361
  8
LAYER_1
 10
293.602706581239
 20
83.63610390910637
 30
0.0
  0
VERTEX
  5
362
  8
LAYER_1
 10
293.6232584484945
 20
83.98832504907782
 30
0.0
  0
VERTEX
  5
363
  8
LAYER_1
 10
293.6356565133289
 20
84.3426523809002
 30
0.0
  0
VERTEX
  5
364
  8
LAYER_1
 10
293.6398094878135
 20
84.69899292763246
 30
0.0
 42
0.4142135623730951
  0
VERTEX
  5
365
  8
LAYER_1
 10
278.6112246769744
 20
100.0134258468598
 30
0.0
  0
VERTEX
  5
366
  8
LAYER_1
 10
278.3770965444425
 20
100.0103284796308
 30
0.0
  0
VERTEX
  5
367
  8
LAYER_1
 10
277.8972613468813
 20
100.0079234196711
 30
0.0
  0
VERTEX
  5
368
  8
LAYER_1
 10
18.33063846151372
 20
100.0016384289307
 30
0.0
  0
SEQEND
  5
3F9
  8
LAYER_1
  0
POLYLINE
  5
91
  8
LAYER_1
 66
     1
 10
0.0
 20
0.0
 30
0.0
 70
     1
  0
VERTEX
  5
369
  8
LAYER_1
 10
528.5562520026748
 20
31.37459585492772
 30
0.0
 42
-0.4142135623730951
  0
VERTEX
  5
36A
  8
LAYER_1
 10
532.5562520026748
 20
27.37459585492775
 30
0.0
 42
-0.4142135623730951
  0
VERTEX
  5
36B
  8
LAYER_1
 10
528.5562520026748
 20
23.37459585492779
 30
0.0
 42
-0.4142135623730951
  0
VERTEX
  5
36C
  8
LAYER_1
 10
524.5562520026748
 20
27.37459585492775
 30
0.0
 42
-0.4142135623730951
  0
SEQEND
  5
3FA
  8
LAYER_1
  0
POLYLINE
  5
92
  8
LAYER_1
 66
     1
 10
0.0
 20
0.0
 30
0.0
 70
     1
  0
VERTEX
  5
36D
  8
LAYER_1
 10
528.5562520026742
 20
40.42459585492729
 30
0.0
 42
0.4142135623730951
  0
VERTEX
  5
36E
  8
LAYER_1
 10
515.506252002674
 20
27.37459585492752
 30
0.0
 42
0.4142135623730951
  0
VERTEX
  5
36F
  8
LAYER_1
 10
528.5562520026742
 20
14.32459585492767
 30
0.0
 42
0.4142135623730951
  0
VERTEX
  5
370
  8
LAYER_1
 10
541.6062520026743
 20
27.37459585492752
 30
0.0
 42
0.4142135623730951
  0
SEQEND
  5
3FB
  8
LAYER_1
  0
POLYLINE
  5
93
  8
LAYER_1
 66
     1
 10
0.0
 20
0.0
 30
0.0
 70
     1
  0
VERTEX
  5
371
  8
LAYER_1
 10
528.5562520026742
 20
43.3245958549272
 30
0.0
 42
0.4142135623730951
  0
VERTEX
  5
372
  8
LAYER_1
 10
512.606252002674
 20
27.37459585492752
 30
0.0
 42
0.4142135623730951
  0
VERTEX
  5
373
  8
LAYER_1
 10
528.5562520026742
 20
11.42459585492769
 30
0.0
 42
0.4142135623730951
  0
VERTEX
  5
374
  8
LAYER_1
 10
544.5062520026743
 20
27.37459585492752
 30
0.0
 42
0.4142135623730951
  0
SEQEND
  5
3FC
  8
LAYER_1
  0
POLYLINE
  5
94
  8
LAYER_1
 66
     1
 10
0.0
 20
0.0
 30
0.0
 70
     1
  0
VERTEX
  5
375
  8
LAYER_1
 10
528.5562520026748
 20
76.58280945767228
 30
0.0
 42
-0.4142135623730951
  0
VERTEX
  5
376
  8
LAYER_1
 10
532.5562520026748
 20
72.58280945767223
 30
0.0
 42
-0.4142135623730951
  0
VERTEX
  5
377
  8
LAYER_1
 10
528.5562520026748
 20
68.58280945767214
 30
0.0
 42
-0.4142135623730951
  0
VERTEX
  5
378
  8
LAYER_1
 10
524.5562520026748
 20
72.58280945767223
 30
0.0
 42
-0.4142135623730951
  0
SEQEND
  5
3FD
  8
LAYER_1
  0
POLYLINE
  5
95
  8
LAYER_1
 66
     1
 10
0.0
 20
0.0
 30
0.0
 70
     1
  0
VERTEX
  5
379
  8
LAYER_1
 10
528.5562520026742
 20
85.63280945767215
 30
0.0
 42
0.4142135623730951
  0
VERTEX
  5
37A
  8
LAYER_1
 10
515.506252002674
 20
72.582809457672
 30
0.0
 42
0.4142135623730951
  0
VERTEX
  5
37B
  8
LAYER_1
 10
528.5562520026742
 20
59.5328094576717
 30
0.0
 42
0.4142135623730951
  0
VERTEX
  5
37C
  8
LAYER_1
 10
541.6062520026743
 20
72.582809457672
 30
0.0
 42
0.4142135623730951
  0
SEQEND
  5
3FE
  8
LAYER_1
  0
POLYLINE
  5
96
  8
LAYER_1
 66
     1
 10
0.0
 20
0.0
 30
0.0
 70
     1
  0
VERTEX
  5
37D
  8
LAYER_1
 10
528.5562520026742
 20
88.53280945767216
 30
0.0
 42
0.4142135623730951
  0
VERTEX
  5
37E
  8
LAYER_1
 10
512.606252002674
 20
72.582809457672
 30
0.0
 42
0.4142135623730951
  0
VERTEX
  5
37F
  8
LAYER_1
 10
528.5562520026742
 20
56.63280945767167
 30
0.0
 42
0.4142135623730951
  0
VERTEX
  5
380
  8
LAYER_1
 10
544.5062520026743
 20
72.582809457672
 30
0.0
 42
0.4142135623730951
  0
SEQEND
  5
3FF
  8
LAYER_1
  0
POLYLINE
  5
97
  8
LAYER_1
 66
     1
 10
0.0
 20
0.0
 30
0.0
 70
     1
  0
VERTEX
  5
381
  8
LAYER_1
 10
485.4536520723442
 20
31.52367726082961
 30
0.0
 42
-0.4142135623730951
  0
VERTEX
  5
382
  8
LAYER_1
 10
489.4536520723441
 20
27.52367726082966
 30
0.0
 42
-0.4142135623730951
  0
VERTEX
  5
383
  8
LAYER_1
 10
485.4536520723442
 20
23.5236772608297
 30
0.0
 42
-0.4142135623730951
  0
VERTEX
  5
384
  8
LAYER_1
 10
481.4536520723442
 20
27.52367726082966
 30
0.0
 42
-0.4142135623730951
  0
SEQEND
  5
400
  8
LAYER_1
  0
POLYLINE
  5
98
  8
LAYER_1
 66
     1
 10
0.0
 20
0.0
 30
0.0
 70
     1
  0
VERTEX
  5
385
  8
LAYER_1
 10
485.4536520723436
 20
40.57367726082919
 30
0.0
 42
0.4142135623730951
  0
VERTEX
  5
386
  8
LAYER_1
 10
472.4036520723437
 20
27.52367726082943
 30
0.0
 42
0.4142135623730951
  0
VERTEX
  5
387
  8
LAYER_1
 10
485.4536520723436
 20
14.47367726082956
 30
0.0
 42
0.4142135623730951
  0
VERTEX
  5
388
  8
LAYER_1
 10
498.5036520723434
 20
27.52367726082943
 30
0.0
 42
0.4142135623730951
  0
SEQEND
  5
401
  8
LAYER_1
  0
POLYLINE
  5
99
  8
LAYER_1
 66
     1
 10
0.0
 20
0.0
 30
0.0
 70
     1
  0
VERTEX
  5
389
  8
LAYER_1
 10
485.4536520723436
 20
43.47367726082909
 30
0.0
 42
0.4142135623730951
  0
VERTEX
  5
38A
  8
LAYER_1
 10
469.5036520723437
 20
27.52367726082943
 30
0.0
 42
0.4142135623730951
  0
VERTEX
  5
38B
  8
LAYER_1
 10
485.4536520723436
 20
11.5736772608296
 30
0.0
 42
0.4142135623730951
  0
VERTEX
  5
38C
  8
LAYER_1
 10
501.4036520723433
 20
27.52367726082943
 30
0.0
 42
0.4142135623730951
  0
SEQEND
  5
402
  8
LAYER_1
  0
POLYLINE
  5
9A
  8
LAYER_1
 66
     1
 10
0.0
 20
0.0
 30
0.0
 70
     1
  0
VERTEX
  5
38D
  8
LAYER_1
 10
485.4217060567938
 20
76.62540414507276
 30
0.0
 42
-0.4142135623730951
  0
VERTEX
  5
38E
  8
LAYER_1
 10
489.4217060567937
 20
72.62540414507271
 30
0.0
 42
-0.4142135623730951
  0
VERTEX
  5
38F
  8
LAYER_1
 10
485.4217060567938
 20
68.62540414507262
 30
0.0
 42
-0.4142135623730951
  0
VERTEX
  5
390
  8
LAYER_1
 10
481.4217060567938
 20
72.62540414507271
 30
0.0
 42
-0.4142135623730951
  0
SEQEND
  5
403
  8
LAYER_1
  0
POLYLINE
  5
9B
  8
LAYER_1
 66
     1
 10
0.0
 20
0.0
 30
0.0
 70
     1
  0
VERTEX
  5
391
  8
LAYER_1
 10
485.4217060567931
 20
85.67540414507263
 30
0.0
 42
0.4142135623730951
  0
VERTEX
  5
392
  8
LAYER_1
 10
472.3717060567932
 20
72.62540414507248
 30
0.0
 42
0.4142135623730951
  0
VERTEX
  5
393
  8
LAYER_1
 10
485.4217060567931
 20
59.57540414507227
 30
0.0
 42
0.4142135623730951
  0
VERTEX
  5
394
  8
LAYER_1
 10
498.471706056793
 20
72.62540414507248
 30
0.0
 42
0.4142135623730951
  0
SEQEND
  5
404
  8
LAYER_1
  0
POLYLINE
  5
9C
  8
LAYER_1
 66
     1
 10
0.0
 20
0.0
 30
0.0
 70
     1
  0
VERTEX
  5
395
  8
LAYER_1
 10
485.4217060567931
 20
88.57540414507264
 30
0.0
 42
0.4142135623730951
  0
VERTEX
  5
396
  8
LAYER_1
 10
469.4717060567933
 20
72.62540414507248
 30
0.0
 42
0.4142135623730951
  0
VERTEX
  5
397
  8
LAYER_1
 10
485.4217060567931
 20
56.67540414507224
 30
0.0
 42
0.4142135623730951
  0
VERTEX
  5
398
  8
LAYER_1
 10
501.3717060567929
 20
72.62540414507248
 30
0.0
 42
0.4142135623730951
  0
SEQEND
  5
405
  8
LAYER_1
  0
POLYLINE
  5
9D
  8
LAYER_1
 66
     1
 10
0.0
 20
0.0
 30
0.0
 70
     1
  0
VERTEX
  5
399
  8
LAYER_1
 10
376.6226181118109
 20
71.73895257924742
 30
0.0
  0
VERTEX
  5
39A
  8
LAYER_1
 10
358.519488045834
 20
71.73895257924742
 30
0.0
 42
0.4142135353323503
  0
VERTEX
  5
39B
  8
LAYER_1
 10
355.529488045834
 20
68.74895283221204
 30
0.0
  0
VERTEX
  5
39C
  8
LAYER_1
 10
355.529488045834
 20
68.72895268248573
 30
0.0
 42
0.4142135623730954
  0
VERTEX
  5
39D
  8
LAYER_1
 10
358.5194879425957
 20
65.73895257924744
 30
0.0
  0
VERTEX
  5
39E
  8
LAYER_1
 10
376.6226179053343
 20
65.73895257924744
 30
0.0
 42
0.4142135623730952
  0
VERTEX
  5
39F
  8
LAYER_1
 10
379.6126179053343
 20
68.72895257924745
 30
0.0
  0
VERTEX
  5
3A0
  8
LAYER_1
 10
379.6126179053343
 20
68.74895257924743
 30
0.0
 42
0.414213542147146
  0
SEQEND
  5
406
  8
LAYER_1
  0
POLYLINE
  5
9E
  8
LAYER_1
 66
     1
 10
0.0
 20
0.0
 30
0.0
 70
     1
  0
VERTEX
  5
3A1
  8
LAYER_1
 10
109.3113849140967
 20
31.21389854866435
 30
0.0
 42
0.4142135480711899
  0
VERTEX
  5
3A2
  8
LAYER_1
 10
106.3213850600977
 20
34.20389854866436
 30
0.0
  0
VERTEX
  5
3A3
  8
LAYER_1
 10
88.21825505459645
 20
34.20389854866436
 30
0.0
 42
0.4142135353323608
  0
VERTEX
  5
3A4
  8
LAYER_1
 10
85.22825505459642
 20
31.21389880162895
 30
0.0
  0
VERTEX
  5
3A5
  8
LAYER_1
 10
85.22825505459642
 20
31.19389875514089
 30
0.0
 42
0.4142135825990425
  0
VERTEX
  5
3A6
  8
LAYER_1
 10
88.21825505459643
 20
28.20389854866432
 30
0.0
  0
VERTEX
  5
3A7
  8
LAYER_1
 10
106.3213850929107
 20
28.20389854866432
 30
0.0
 42
0.414213544856911
  0
VERTEX
  5
3A8
  8
LAYER_1
 10
109.3113849140967
 20
31.19389854866434
 30
0.0
  0
SEQEND
  5
407
  8
LAYER_1
  0
POLYLINE
  5
9F
  8
LAYER_1
 66
     1
 10
0.0
 20
0.0
 30
0.0
 70
     1
  0
VERTEX
  5
3A9
  8
LAYER_1
 10
107.005561873992
 20
66.85990844862913
 30
0.0
 42
0.4142135825990454
  0
VERTEX
  5
3AA
  8
LAYER_1
 10
109.9955620804686
 20
69.84990844862912
 30
0.0
  0
VERTEX
  5
3AB
  8
LAYER_1
 10
109.9955620804686
 20
69.8699084486291
 30
0.0
 42
0.4142135623730952
  0
VERTEX
  5
3AC
  8
LAYER_1
 10
107.0055620804686
 20
72.85990844862911
 30
0.0
  0
VERTEX
  5
3AD
  8
LAYER_1
 10
88.90243222096825
 20
72.85990844862911
 30
0.0
 42
0.4142135353323503
  0
VERTEX
  5
3AE
  8
LAYER_1
 10
85.91243222096824
 20
69.86990870159373
 30
0.0
  0
VERTEX
  5
3AF
  8
LAYER_1
 10
85.91243222096824
 20
69.84990844862912
 30
0.0
 42
0.4142135397597928
  0
VERTEX
  5
3B0
  8
LAYER_1
 10
88.90243199012045
 20
66.85990844862913
 30
0.0
  0
SEQEND
  5
408
  8
LAYER_1
  0
POLYLINE
  5
A0
  8
LAYER_1
 66
     1
 10
0.0
 20
0.0
 30
0.0
 70
     1
  0
VERTEX
  5
3B1
  8
LAYER_1
 10
73.0499950964307
 20
69.8699084486291
 30
0.0
 42
0.4142135623730952
  0
VERTEX
  5
3B2
  8
LAYER_1
 10
70.0599950964307
 20
72.85990844862911
 30
0.0
  0
VERTEX
  5
3B3
  8
LAYER_1
 10
51.95686505811648
 20
72.85990844862911
 30
0.0
 42
0.4142135178161774
  0
VERTEX
  5
3B4
  8
LAYER_1
 10
48.96686523693037
 20
69.86990870159373
 30
0.0
  0
VERTEX
  5
3B5
  8
LAYER_1
 10
48.96686523693037
 20
69.84990855186741
 30
0.0
 42
0.4142135623730954
  0
VERTEX
  5
3B6
  8
LAYER_1
 10
51.95686513369211
 20
66.85990844862913
 30
0.0
  0
VERTEX
  5
3B7
  8
LAYER_1
 10
70.05999488995414
 20
66.85990844862913
 30
0.0
 42
0.4142135825990444
  0
VERTEX
  5
3B8
  8
LAYER_1
 10
73.0499950964307
 20
69.84990844862912
 30
0.0
  0
SEQEND
  5
409
  8
LAYER_1
  0
POLYLINE
  5
A1
  8
LAYER_1
 66
     1
 10
0.0
 20
0.0
 30
0.0
 70
     1
  0
VERTEX
  5
3B9
  8
LAYER_1
 10
70.05999534931175
 20
34.20389854866436
 30
0.0
  0
VERTEX
  5
3BA
  8
LAYER_1
 10
51.95686523693041
 20
34.20389854866436
 30
0.0
 42
0.4142135353323608
  0
VERTEX
  5
3BB
  8
LAYER_1
 10
48.96686523693037
 20
31.21389880162895
 30
0.0
  0
VERTEX
  5
3BC
  8
LAYER_1
 10
48.96686523693037
 20
31.1938986946653
 30
0.0
 42
0.4142135766749993
  0
VERTEX
  5
3BD
  8
LAYER_1
 10
51.95686523693038
 20
28.20389854866432
 30
0.0
  0
VERTEX
  5
3BE
  8
LAYER_1
 10
70.05999536957347
 20
28.20389854866432
 30
0.0
 42
0.4142135356166811
  0
VERTEX
  5
3BF
  8
LAYER_1
 10
73.0499950964307
 20
31.19389854866434
 30
0.0
  0
VERTEX
  5
3C0
  8
LAYER_1
 10
73.0499950964307
 20
31.21389854866435
 30
0.0
 42
0.4142135376014647
  0
SEQEND
  5
40A
  8
LAYER_1
  0
POLYLINE
  5
A2
  8
LAYER_1
 66
     1
 10
0.0
 20
0.0
 30
0.0
 70
     1
  0
VERTEX
  5
3C1
  8
LAYER_1
 10
394.2800422047046
 20
72.03889584898451
 30
0.0
 42
0.4142135353323503
  0
VERTEX
  5
3C2
  8
LAYER_1
 10
391.2900422047046
 20
69.04889610194913
 30
0.0
  0
VERTEX
  5
3C3
  8
LAYER_1
 10
391.2900422047046
 20
69.02889595222281
 30
0.0
 42
0.4142135623730954
  0
VERTEX
  5
3C4
  8
LAYER_1
 10
394.2800421014663
 20
66.03889584898452
 30
0.0
  0
VERTEX
  5
3C5
  8
LAYER_1
 10
412.3831718577284
 20
66.03889584898452
 30
0.0
 42
0.4142135825990444
  0
VERTEX
  5
3C6
  8
LAYER_1
 10
415.3731720642049
 20
69.02889584898452
 30
0.0
  0
VERTEX
  5
3C7
  8
LAYER_1
 10
415.3731720642049
 20
69.0488958489845
 30
0.0
 42
0.4142135623730952
  0
VERTEX
  5
3C8
  8
LAYER_1
 10
412.3831720642049
 20
72.03889584898451
 30
0.0
  0
SEQEND
  5
40B
  8
LAYER_1
  0
POLYLINE
  5
A3
  8
LAYER_1
 66
     1
 10
0.0
 20
0.0
 30
0.0
 70
     1
  0
VERTEX
  5
3C9
  8
LAYER_1
 10
394.2800422047046
 20
33.38288594901908
 30
0.0
 42
0.4142135353323498
  0
VERTEX
  5
3CA
  8
LAYER_1
 10
391.2900422047046
 20
30.39288620198367
 30
0.0
  0
VERTEX
  5
3CB
  8
LAYER_1
 10
391.2900422047046
 20
30.37288617986687
 30
0.0
 42
0.4142135849863923
  0
VERTEX
  5
3CC
  8
LAYER_1
 10
394.2800422047046
 20
27.38288594901905
 30
0.0
  0
VERTEX
  5
3CD
  8
LAYER_1
 10
412.3831720642049
 20
27.38288594901905
 30
0.0
 42
0.4142135766749978
  0
VERTEX
  5
3CE
  8
LAYER_1
 10
415.3731720642049
 20
30.37288609502003
 30
0.0
  0
VERTEX
  5
3CF
  8
LAYER_1
 10
415.3731720642049
 20
30.3928858030181
 30
0.0
 42
0.4142135766749995
  0
VERTEX
  5
3D0
  8
LAYER_1
 10
412.3831720642049
 20
33.38288594901908
 30
0.0
  0
SEQEND
  5
40C
  8
LAYER_1
  0
POLYLINE
  5
A4
  8
LAYER_1
 66
     1
 10
0.0
 20
0.0
 30
0.0
 70
     1
  0
VERTEX
  5
3D1
  8
LAYER_1
 10
379.6126179053343
 20
30.09294253328102
 30
0.0
 42
0.4142135766749995
  0
VERTEX
  5
3D2
  8
LAYER_1
 10
376.6226179053343
 20
33.08294267928201
 30
0.0
  0
VERTEX
  5
3D3
  8
LAYER_1
 10
358.519488045834
 20
33.08294267928201
 30
0.0
 42
0.4142135353323493
  0
VERTEX
  5
3D4
  8
LAYER_1
 10
355.529488045834
 20
30.09294293224659
 30
0.0
  0
VERTEX
  5
3D5
  8
LAYER_1
 10
355.529488045834
 20
30.07294288575853
 30
0.0
 42
0.4142135825990425
  0
VERTEX
  5
3D6
  8
LAYER_1
 10
358.519488045834
 20
27.08294267928197
 30
0.0
  0
VERTEX
  5
3D7
  8
LAYER_1
 10
376.6226179053343
 20
27.08294267928197
 30
0.0
 42
0.414213572486068
  0
VERTEX
  5
3D8
  8
LAYER_1
 10
379.6126179053343
 20
30.07294278252025
 30
0.0
  0
SEQEND
  5
40D
  8
LAYER_1
  0
ENDSEC
  0
EOF
