  0
SECTION
  2
HEADER
  9
$ACADVER
  1
AC1009
  0
ENDSEC
  0
SECTION
  2
BLOCKS
  0
ENDSEC
  0
SECTION
  2
ENTITIES
  0
LINE
  8
CutLine
  6
CONTINUOUS
 62
8
 10
310.004693
 20
386.651210
 11
348.805251
 21
412.768096
  0
LINE
  8
CutLine
  6
CONTINUOUS
 62
8
 10
348.805251
 20
412.768096
 11
348.805251
 21
412.768096
  0
LINE
  8
CutLine
  6
CONTINUOUS
 62
8
 10
348.805251
 20
412.768096
 11
363.757314
 21
457.085257
  0
LINE
  8
CutLine
  6
CONTINUOUS
 62
8
 10
296.631242
 20
523.532895
 11
312.248083
 21
483.167751
  0
LINE
  8
CutLine
  6
CONTINUOUS
 62
8
 10
312.248083
 20
483.167751
 11
312.248083
 21
483.167751
  0
LINE
  8
CutLine
  6
CONTINUOUS
 62
8
 10
312.248083
 20
483.167751
 11
350.358284
 21
462.653289
  0
LINE
  8
CutLine
  6
CONTINUOUS
 62
8
 10
372.939113
 20
524.273767
 11
365.805749
 21
539.249996
  0
LINE
  8
CutLine
  6
CONTINUOUS
 62
8
 10
365.805749
 20
539.249996
 11
365.805749
 21
539.249996
  0
LINE
  8
CutLine
  6
CONTINUOUS
 62
8
 10
365.805749
 20
539.249996
 11
358.772735
 21
524.226380
  0
LINE
  8
CutLine
  6
CONTINUOUS
 62
8
 10
378.158983
 20
458.854120
 11
420.375974
 21
468.391288
  0
LINE
  8
CutLine
  6
CONTINUOUS
 62
8
 10
420.375974
 20
468.391288
 11
420.375974
 21
468.391288
  0
LINE
  8
CutLine
  6
CONTINUOUS
 62
8
 10
420.375974
 20
468.391288
 11
446.250362
 21
503.086359
  0
LINE
  8
CutLine
  6
CONTINUOUS
 62
8
 10
292.772358
 20
537.520192
 11
280.241989
 21
526.537301
  0
LINE
  8
CutLine
  6
CONTINUOUS
 62
8
 10
280.241989
 20
526.537301
 11
280.241989
 21
526.537301
  0
LINE
  8
CutLine
  6
CONTINUOUS
 62
8
 10
280.241989
 20
526.537301
 11
296.631242
 21
523.532895
  0
LINE
  8
CutLine
  6
CONTINUOUS
 62
8
 10
388.601114
 20
534.447834
 11
372.741698
 21
529.584561
  0
LINE
  8
CutLine
  6
CONTINUOUS
 62
8
 10
372.741698
 20
529.584561
 11
372.741698
 21
529.584561
  0
LINE
  8
CutLine
  6
CONTINUOUS
 62
8
 10
372.741698
 20
529.584561
 11
386.573386
 21
520.427219
  0
LINE
  8
CutLine
  6
CONTINUOUS
 62
8
 10
446.250362
 20
503.086359
 11
462.844823
 21
501.583423
  0
LINE
  8
CutLine
  6
CONTINUOUS
 62
8
 10
462.844823
 20
501.583423
 11
462.844823
 21
501.583423
  0
LINE
  8
CutLine
  6
CONTINUOUS
 62
8
 10
462.844823
 20
501.583423
 11
453.720620
 21
515.525585
  0
LINE
  8
CutLine
  6
CONTINUOUS
 62
8
 10
363.757314
 20
457.085257
 11
366.270625
 21
410.381293
  0
LINE
  8
CutLine
  6
CONTINUOUS
 62
8
 10
366.270625
 20
410.381293
 11
366.270625
 21
410.381293
  0
LINE
  8
CutLine
  6
CONTINUOUS
 62
8
 10
366.270625
 20
410.381293
 11
396.641231
 21
374.811596
  0
LINE
  8
CutLine
  6
CONTINUOUS
 62
8
 10
348.673162
 20
613.653593
 11
311.030265
 21
592.293758
  0
LINE
  8
CutLine
  6
CONTINUOUS
 62
8
 10
311.030265
 20
592.293758
 11
311.030265
 21
592.293758
  0
LINE
  8
CutLine
  6
CONTINUOUS
 62
8
 10
311.030265
 20
592.293758
 11
296.318122
 21
551.590157
  0
LINE
  8
CutLine
  6
CONTINUOUS
 62
8
 10
445.443726
 20
575.370569
 11
418.801500
 21
609.479577
  0
LINE
  8
CutLine
  6
CONTINUOUS
 62
8
 10
418.801500
 20
609.479577
 11
418.801500
 21
609.479577
  0
LINE
  8
CutLine
  6
CONTINUOUS
 62
8
 10
418.801500
 20
609.479577
 11
376.382178
 21
618.072237
  0
LINE
  8
CutLine
  6
CONTINUOUS
 62
8
 10
372.623541
 20
552.552394
 11
383.790139
 21
540.285376
  0
LINE
  8
CutLine
  6
CONTINUOUS
 62
8
 10
383.790139
 20
540.285376
 11
383.790139
 21
540.285376
  0
LINE
  8
CutLine
  6
CONTINUOUS
 62
8
 10
383.790139
 20
540.285376
 11
386.168578
 21
556.702308
  0
LINE
  8
CutLine
  6
CONTINUOUS
 62
8
 10
360.581084
 20
538.276946
 11
374.351207
 21
547.526602
  0
LINE
  8
CutLine
  6
CONTINUOUS
 62
8
 10
374.351207
 20
547.526602
 11
374.351207
 21
547.526602
  0
LINE
  8
CutLine
  6
CONTINUOUS
 62
8
 10
374.351207
 20
547.526602
 11
358.459615
 21
552.283673
  0
LINE
  8
CutLine
  6
CONTINUOUS
 62
8
 10
296.318122
 20
551.590157
 11
280.000000
 21
548.220713
  0
LINE
  8
CutLine
  6
CONTINUOUS
 62
8
 10
280.000000
 20
548.220713
 11
280.000000
 21
548.220713
  0
LINE
  8
CutLine
  6
CONTINUOUS
 62
8
 10
280.000000
 20
548.220713
 11
292.772358
 21
537.520192
  0
LINE
  8
CutLine
  6
CONTINUOUS
 62
8
 10
453.189698
 20
563.101195
 11
462.000500
 21
577.243484
  0
LINE
  8
CutLine
  6
CONTINUOUS
 62
8
 10
462.000500
 20
577.243484
 11
462.000500
 21
577.243484
  0
LINE
  8
CutLine
  6
CONTINUOUS
 62
8
 10
462.000500
 20
577.243484
 11
445.443726
 21
575.370569
  0
LINE
  8
CutLine
  6
CONTINUOUS
 62
8
 10
388.508688
 20
542.730418
 11
425.355140
 21
538.608584
  0
LINE
  8
CutLine
  6
CONTINUOUS
 62
8
 10
425.355140
 20
538.608584
 11
425.355140
 21
538.608584
  0
LINE
  8
CutLine
  6
CONTINUOUS
 62
8
 10
425.355140
 20
538.608584
 11
453.189698
 21
563.101195
  0
LINE
  8
CutLine
  6
CONTINUOUS
 62
8
 10
923.503409
 20
937.840348
 11
932.598875
 21
923.967882
  0
LINE
  8
CutLine
  6
CONTINUOUS
 62
8
 10
932.598875
 20
923.967882
 11
932.598875
 21
923.967882
  0
LINE
  8
CutLine
  6
CONTINUOUS
 62
8
 10
932.598875
 20
923.967882
 11
937.532984
 21
939.805413
  0
LINE
  8
CutLine
  6
CONTINUOUS
 62
8
 10
937.533036
 20
1001.950762
 11
970.930764
 21
993.284559
  0
LINE
  8
CutLine
  6
CONTINUOUS
 62
8
 10
970.930764
 20
993.284559
 11
970.930764
 21
993.284559
  0
LINE
  8
CutLine
  6
CONTINUOUS
 62
8
 10
970.930764
 20
993.284559
 11
998.490225
 21
1014.044795
  0
LINE
  8
CutLine
  6
CONTINUOUS
 62
8
 10
998.490225
 20
1014.044795
 11
1002.172008
 21
1048.351589
  0
LINE
  8
CutLine
  6
CONTINUOUS
 62
8
 10
1002.172008
 20
1048.351589
 11
1002.172008
 21
1048.351589
  0
LINE
  8
CutLine
  6
CONTINUOUS
 62
8
 10
1002.172008
 20
1048.351589
 11
977.599604
 21
1072.573657
  0
LINE
  8
CutLine
  6
CONTINUOUS
 62
8
 10
967.224057
 20
1082.716928
 11
932.317134
 21
1051.586855
  0
LINE
  8
CutLine
  6
CONTINUOUS
 62
8
 10
932.317134
 20
1051.586855
 11
932.317134
 21
1051.586855
  0
LINE
  8
CutLine
  6
CONTINUOUS
 62
8
 10
932.317134
 20
1051.586855
 11
923.503447
 21
1005.653277
  0
LINE
  8
CutLine
  6
CONTINUOUS
 62
8
 10
848.516733
 20
1014.044965
 11
876.076141
 21
993.284656
  0
LINE
  8
CutLine
  6
CONTINUOUS
 62
8
 10
876.076141
 20
993.284656
 11
876.076141
 21
993.284656
  0
LINE
  8
CutLine
  6
CONTINUOUS
 62
8
 10
876.076141
 20
993.284656
 11
909.473893
 21
1001.950772
  0
LINE
  8
CutLine
  6
CONTINUOUS
 62
8
 10
869.407499
 20
1072.573783
 11
844.835035
 21
1048.351771
  0
LINE
  8
CutLine
  6
CONTINUOUS
 62
8
 10
844.835035
 20
1048.351771
 11
844.835035
 21
1048.351771
  0
LINE
  8
CutLine
  6
CONTINUOUS
 62
8
 10
844.835035
 20
1048.351771
 11
848.516733
 21
1014.044965
  0
LINE
  8
CutLine
  6
CONTINUOUS
 62
8
 10
821.573952
 20
1117.506265
 11
805.000000
 21
1116.815751
  0
LINE
  8
CutLine
  6
CONTINUOUS
 62
8
 10
805.000000
 20
1116.815751
 11
805.000000
 21
1116.815751
  0
LINE
  8
CutLine
  6
CONTINUOUS
 62
8
 10
805.000000
 20
1116.815751
 11
816.063300
 21
1104.455489
  0
LINE
  8
CutLine
  6
CONTINUOUS
 62
8
 10
879.783069
 20
1082.716979
 11
858.373789
 21
1112.987292
  0
LINE
  8
CutLine
  6
CONTINUOUS
 62
8
 10
858.373789
 20
1112.987292
 11
858.373789
 21
1112.987292
  0
LINE
  8
CutLine
  6
CONTINUOUS
 62
8
 10
858.373789
 20
1112.987292
 11
821.573952
 21
1117.506265
  0
LINE
  8
CutLine
  6
CONTINUOUS
 62
8
 10
830.984369
 20
544.610520
 11
842.287100
 21
502.831574
  0
LINE
  8
CutLine
  6
CONTINUOUS
 62
8
 10
842.287100
 20
502.831574
 11
842.287100
 21
502.831574
  0
LINE
  8
CutLine
  6
CONTINUOUS
 62
8
 10
842.287100
 20
502.831574
 11
878.038785
 21
478.437948
  0
LINE
  8
CutLine
  6
CONTINUOUS
 62
8
 10
905.288605
 20
471.747568
 11
948.272354
 21
476.810052
  0
LINE
  8
CutLine
  6
CONTINUOUS
 62
8
 10
948.272354
 20
476.810052
 11
948.272354
 21
476.810052
  0
LINE
  8
CutLine
  6
CONTINUOUS
 62
8
 10
948.272354
 20
476.810052
 11
977.638687
 21
508.603917
  0
LINE
  8
CutLine
  6
CONTINUOUS
 62
8
 10
906.950104
 20
537.354076
 11
901.424667
 21
552.995118
  0
LINE
  8
CutLine
  6
CONTINUOUS
 62
8
 10
901.424667
 20
552.995118
 11
901.424667
 21
552.995118
  0
LINE
  8
CutLine
  6
CONTINUOUS
 62
8
 10
901.424667
 20
552.995118
 11
892.856646
 21
538.790835
  0
LINE
  8
CutLine
  6
CONTINUOUS
 62
8
 10
923.591666
 20
545.831558
 11
907.310073
 21
542.656286
  0
LINE
  8
CutLine
  6
CONTINUOUS
 62
8
 10
907.310073
 20
542.656286
 11
907.310073
 21
542.656286
  0
LINE
  8
CutLine
  6
CONTINUOUS
 62
8
 10
907.310073
 20
542.656286
 11
920.106446
 21
532.100460
  0
LINE
  8
CutLine
  6
CONTINUOUS
 62
8
 10
977.638687
 20
508.603917
 11
993.984410
 21
505.370969
  0
LINE
  8
CutLine
  6
CONTINUOUS
 62
8
 10
993.984410
 20
505.370969
 11
993.984410
 21
505.370969
  0
LINE
  8
CutLine
  6
CONTINUOUS
 62
8
 10
993.984410
 20
505.370969
 11
986.370822
 21
520.192166
  0
LINE
  8
CutLine
  6
CONTINUOUS
 62
8
 10
828.611914
 20
558.925169
 11
815.000000
 21
549.315257
  0
LINE
  8
CutLine
  6
CONTINUOUS
 62
8
 10
815.000000
 20
549.315257
 11
815.000000
 21
549.315257
  0
LINE
  8
CutLine
  6
CONTINUOUS
 62
8
 10
815.000000
 20
549.315257
 11
830.984369
 21
544.610520
  0
LINE
  8
CutLine
  6
CONTINUOUS
 62
8
 10
905.993198
 20
633.227278
 11
894.749785
 21
678.627301
  0
LINE
  8
CutLine
  6
CONTINUOUS
 62
8
 10
894.749785
 20
678.627301
 11
894.749785
 21
678.627301
  0
LINE
  8
CutLine
  6
CONTINUOUS
 62
8
 10
894.749785
 20
678.627301
 11
858.237110
 21
707.857440
  0
LINE
  8
CutLine
  6
CONTINUOUS
 62
8
 10
984.408241
 20
580.574773
 11
961.485588
 21
617.286951
  0
LINE
  8
CutLine
  6
CONTINUOUS
 62
8
 10
961.485588
 20
617.286951
 11
961.485588
 21
617.286951
  0
LINE
  8
CutLine
  6
CONTINUOUS
 62
8
 10
961.485588
 20
617.286951
 11
920.199749
 21
630.275846
  0
LINE
  8
CutLine
  6
CONTINUOUS
 62
8
 10
909.598459
 20
565.510209
 11
919.418572
 21
552.140919
  0
LINE
  8
CutLine
  6
CONTINUOUS
 62
8
 10
919.418572
 20
552.140919
 11
919.418572
 21
552.140919
  0
LINE
  8
CutLine
  6
CONTINUOUS
 62
8
 10
919.418572
 20
552.140919
 11
923.503681
 21
568.218369
  0
LINE
  8
CutLine
  6
CONTINUOUS
 62
8
 10
892.180338
 20
628.784091
 11
852.507037
 21
611.484943
  0
LINE
  8
CutLine
  6
CONTINUOUS
 62
8
 10
852.507037
 20
611.484943
 11
852.507037
 21
611.484943
  0
LINE
  8
CutLine
  6
CONTINUOUS
 62
8
 10
852.507037
 20
611.484943
 11
833.612028
 21
572.546403
  0
LINE
  8
CutLine
  6
CONTINUOUS
 62
8
 10
896.126903
 20
552.574711
 11
910.790164
 21
560.331084
  0
LINE
  8
CutLine
  6
CONTINUOUS
 62
8
 10
910.790164
 20
560.331084
 11
910.790164
 21
560.331084
  0
LINE
  8
CutLine
  6
CONTINUOUS
 62
8
 10
910.790164
 20
560.331084
 11
895.484292
 21
566.726615
  0
LINE
  8
CutLine
  6
CONTINUOUS
 62
8
 10
833.612028
 20
572.546403
 11
817.030713
 21
570.904766
  0
LINE
  8
CutLine
  6
CONTINUOUS
 62
8
 10
817.030713
 20
570.904766
 11
817.030713
 21
570.904766
  0
LINE
  8
CutLine
  6
CONTINUOUS
 62
8
 10
817.030713
 20
570.904766
 11
828.611914
 21
558.925169
  0
LINE
  8
CutLine
  6
CONTINUOUS
 62
8
 10
990.826372
 20
567.561444
 11
1001.070129
 21
580.702997
  0
LINE
  8
CutLine
  6
CONTINUOUS
 62
8
 10
1001.070129
 20
580.702997
 11
1001.070129
 21
580.702997
  0
LINE
  8
CutLine
  6
CONTINUOUS
 62
8
 10
1001.070129
 20
580.702997
 11
984.408241
 21
580.574773
  0
LINE
  8
CutLine
  6
CONTINUOUS
 62
8
 10
924.367333
 20
554.078233
 11
960.579294
 21
546.119321
  0
LINE
  8
CutLine
  6
CONTINUOUS
 62
8
 10
960.579294
 20
546.119321
 11
960.579294
 21
546.119321
  0
LINE
  8
CutLine
  6
CONTINUOUS
 62
8
 10
960.579294
 20
546.119321
 11
990.826372
 21
567.561444
  0
LINE
  8
CutLine
  6
CONTINUOUS
 62
8
 10
887.441218
 20
1333.633824
 11
878.345719
 21
1347.506265
  0
LINE
  8
CutLine
  6
CONTINUOUS
 62
8
 10
878.345719
 20
1347.506265
 11
878.345719
 21
1347.506265
  0
LINE
  8
CutLine
  6
CONTINUOUS
 62
8
 10
878.345719
 20
1347.506265
 11
873.411658
 21
1331.668722
  0
LINE
  8
CutLine
  6
CONTINUOUS
 62
8
 10
785.510493
 20
1153.968953
 11
822.310382
 21
1158.487480
  0
LINE
  8
CutLine
  6
CONTINUOUS
 62
8
 10
822.310382
 20
1158.487480
 11
822.310382
 21
1158.487480
  0
LINE
  8
CutLine
  6
CONTINUOUS
 62
8
 10
822.310382
 20
1158.487480
 11
843.720026
 21
1188.757533
  0
LINE
  8
CutLine
  6
CONTINUOUS
 62
8
 10
812.454544
 20
1257.429923
 11
808.772417
 21
1223.123168
  0
LINE
  8
CutLine
  6
CONTINUOUS
 62
8
 10
808.772417
 20
1223.123168
 11
808.772417
 21
1223.123168
  0
LINE
  8
CutLine
  6
CONTINUOUS
 62
8
 10
808.772417
 20
1223.123168
 11
833.344577
 21
1198.900854
  0
LINE
  8
CutLine
  6
CONTINUOUS
 62
8
 10
873.411868
 20
1269.523356
 11
840.014218
 21
1278.189889
  0
LINE
  8
CutLine
  6
CONTINUOUS
 62
8
 10
840.014218
 20
1278.189889
 11
840.014218
 21
1278.189889
  0
LINE
  8
CutLine
  6
CONTINUOUS
 62
8
 10
840.014218
 20
1278.189889
 11
812.454544
 21
1257.429923
  0
LINE
  8
CutLine
  6
CONTINUOUS
 62
8
 10
962.428173
 20
1257.429947
 11
934.868507
 21
1278.189923
  0
LINE
  8
CutLine
  6
CONTINUOUS
 62
8
 10
934.868507
 20
1278.189923
 11
934.868507
 21
1278.189923
  0
LINE
  8
CutLine
  6
CONTINUOUS
 62
8
 10
934.868507
 20
1278.189923
 11
901.470854
 21
1269.523403
  0
LINE
  8
CutLine
  6
CONTINUOUS
 62
8
 10
941.538088
 20
1198.900886
 11
966.110270
 21
1223.123184
  0
LINE
  8
CutLine
  6
CONTINUOUS
 62
8
 10
966.110270
 20
1223.123184
 11
966.110270
 21
1223.123184
  0
LINE
  8
CutLine
  6
CONTINUOUS
 62
8
 10
966.110270
 20
1223.123184
 11
962.428173
 21
1257.429947
  0
LINE
  8
CutLine
  6
CONTINUOUS
 62
8
 10
887.441390
 20
1265.820819
 11
896.255452
 21
1219.887312
  0
LINE
  8
CutLine
  6
CONTINUOUS
 62
8
 10
896.255452
 20
1219.887312
 11
896.255452
 21
1219.887312
  0
LINE
  8
CutLine
  6
CONTINUOUS
 62
8
 10
896.255452
 20
1219.887312
 11
931.162630
 21
1188.757525
  0
LINE
  8
CutLine
  6
CONTINUOUS
 62
8
 10
989.372167
 20
1153.968948
 11
1005.946114
 21
1154.659677
  0
LINE
  8
CutLine
  6
CONTINUOUS
 62
8
 10
1005.946114
 20
1154.659677
 11
1005.946114
 21
1154.659677
  0
LINE
  8
CutLine
  6
CONTINUOUS
 62
8
 10
1005.946114
 20
1154.659677
 11
994.882661
 21
1167.019807
  0
LINE
  8
CutLine
  6
CONTINUOUS
 62
8
 10
394.372265
 20
1195.605145
 11
424.079438
 21
1190.551403
  0
LINE
  8
CutLine
  6
CONTINUOUS
 62
8
 10
424.079438
 20
1190.551403
 11
424.079438
 21
1190.551403
  0
LINE
  8
CutLine
  6
CONTINUOUS
 62
8
 10
424.079438
 20
1190.551403
 11
443.428444
 21
1213.652752
  0
LINE
  8
CutLine
  6
CONTINUOUS
 62
8
 10
326.717851
 20
1295.296100
 11
311.650914
 21
1269.199330
  0
LINE
  8
CutLine
  6
CONTINUOUS
 62
8
 10
311.650914
 20
1269.199330
 11
311.650914
 21
1269.199330
  0
LINE
  8
CutLine
  6
CONTINUOUS
 62
8
 10
311.650914
 20
1269.199330
 11
326.583891
 21
1243.025676
  0
LINE
  8
CutLine
  6
CONTINUOUS
 62
8
 10
410.577771
 20
1381.800027
 11
366.751592
 21
1377.893631
  0
LINE
  8
CutLine
  6
CONTINUOUS
 62
8
 10
366.751592
 20
1377.893631
 11
366.751592
 21
1377.893631
  0
LINE
  8
CutLine
  6
CONTINUOUS
 62
8
 10
366.751592
 20
1377.893631
 11
335.616228
 21
1346.803713
  0
LINE
  8
CutLine
  6
CONTINUOUS
 62
8
 10
443.428444
 20
1213.652752
 11
464.546937
 21
1283.300161
  0
LINE
  8
CutLine
  6
CONTINUOUS
 62
8
 10
464.546937
 20
1283.300161
 11
464.546937
 21
1283.300161
  0
LINE
  8
CutLine
  6
CONTINUOUS
 62
8
 10
464.546937
 20
1283.300161
 11
455.778403
 21
1355.548794
  0
LINE
  8
CutLine
  6
CONTINUOUS
 62
8
 10
396.834734
 20
1377.728187
 11
407.967414
 21
1365.382080
  0
LINE
  8
CutLine
  6
CONTINUOUS
 62
8
 10
407.967414
 20
1365.382080
 11
407.967414
 21
1365.382080
  0
LINE
  8
CutLine
  6
CONTINUOUS
 62
8
 10
407.967414
 20
1365.382080
 11
410.577771
 21
1381.800027
  0
LINE
  8
CutLine
  6
CONTINUOUS
 62
8
 10
388.736880
 20
1182.425752
 11
405.346647
 21
1183.118086
  0
LINE
  8
CutLine
  6
CONTINUOUS
 62
8
 10
405.346647
 20
1183.118086
 11
405.346647
 21
1183.118086
  0
LINE
  8
CutLine
  6
CONTINUOUS
 62
8
 10
405.346647
 20
1183.118086
 11
394.372265
 21
1195.605145
  0
LINE
  8
CutLine
  6
CONTINUOUS
 62
8
 10
316.135606
 20
1233.213148
 11
343.838110
 21
1195.528302
  0
LINE
  8
CutLine
  6
CONTINUOUS
 62
8
 10
343.838110
 20
1195.528302
 11
343.838110
 21
1195.528302
  0
LINE
  8
CutLine
  6
CONTINUOUS
 62
8
 10
343.838110
 20
1195.528302
 11
388.736880
 21
1182.425752
  0
LINE
  8
CutLine
  6
CONTINUOUS
 62
8
 10
270.000000
 20
1308.855762
 11
280.261762
 21
1263.223852
  0
LINE
  8
CutLine
  6
CONTINUOUS
 62
8
 10
280.261762
 20
1263.223852
 11
280.261762
 21
1263.223852
  0
LINE
  8
CutLine
  6
CONTINUOUS
 62
8
 10
280.261762
 20
1263.223852
 11
316.135606
 21
1233.213148
  0
LINE
  8
CutLine
  6
CONTINUOUS
 62
8
 10
653.938914
 20
986.624931
 11
666.932057
 21
976.254697
  0
LINE
  8
CutLine
  6
CONTINUOUS
 62
8
 10
666.932057
 20
976.254697
 11
666.932057
 21
976.254697
  0
LINE
  8
CutLine
  6
CONTINUOUS
 62
8
 10
666.932057
 20
976.254697
 11
666.836391
 21
992.878606
  0
LINE
  8
CutLine
  6
CONTINUOUS
 62
8
 10
632.437594
 20
1072.578412
 11
628.636626
 21
1025.961572
  0
LINE
  8
CutLine
  6
CONTINUOUS
 62
8
 10
628.636626
 20
1025.961572
 11
628.636626
 21
1025.961572
  0
LINE
  8
CutLine
  6
CONTINUOUS
 62
8
 10
628.636626
 20
1025.961572
 11
653.938914
 21
986.624931
  0
LINE
  8
CutLine
  6
CONTINUOUS
 62
8
 10
598.567741
 20
946.152258
 11
583.368482
 21
920.132286
  0
LINE
  8
CutLine
  6
CONTINUOUS
 62
8
 10
583.368482
 20
920.132286
 11
583.368482
 21
920.132286
  0
LINE
  8
CutLine
  6
CONTINUOUS
 62
8
 10
583.368482
 20
920.132286
 11
598.168360
 21
893.883095
  0
LINE
  8
CutLine
  6
CONTINUOUS
 62
8
 10
666.836391
 20
992.878606
 11
624.229801
 21
981.893676
  0
LINE
  8
CutLine
  6
CONTINUOUS
 62
8
 10
624.229801
 20
981.893676
 11
624.229801
 21
981.893676
  0
LINE
  8
CutLine
  6
CONTINUOUS
 62
8
 10
624.229801
 20
981.893676
 11
598.567741
 21
946.152258
  0
LINE
  8
CutLine
  6
CONTINUOUS
 62
8
 10
681.141345
 20
806.528022
 11
711.274937
 21
806.375063
  0
LINE
  8
CutLine
  6
CONTINUOUS
 62
8
 10
711.274937
 20
806.375063
 11
711.274937
 21
806.375063
  0
LINE
  8
CutLine
  6
CONTINUOUS
 62
8
 10
711.274937
 20
806.375063
 11
726.607473
 21
832.316730
  0
LINE
  8
CutLine
  6
CONTINUOUS
 62
8
 10
726.607473
 20
832.316730
 11
736.112687
 21
904.472136
  0
LINE
  8
CutLine
  6
CONTINUOUS
 62
8
 10
736.112687
 20
904.472136
 11
736.112687
 21
904.472136
  0
LINE
  8
CutLine
  6
CONTINUOUS
 62
8
 10
736.112687
 20
904.472136
 11
715.705890
 21
974.331382
  0
LINE
  8
CutLine
  6
CONTINUOUS
 62
8
 10
677.725401
 20
792.607365
 11
694.001192
 21
795.992945
  0
LINE
  8
CutLine
  6
CONTINUOUS
 62
8
 10
694.001192
 20
795.992945
 11
694.001192
 21
795.992945
  0
LINE
  8
CutLine
  6
CONTINUOUS
 62
8
 10
694.001192
 20
795.992945
 11
681.141345
 21
806.528022
  0
LINE
  8
CutLine
  6
CONTINUOUS
 62
8
 10
540.000000
 20
898.033690
 11
557.549535
 21
854.679479
  0
LINE
  8
CutLine
  6
CONTINUOUS
 62
8
 10
557.549535
 20
854.679479
 11
557.549535
 21
854.679479
  0
LINE
  8
CutLine
  6
CONTINUOUS
 62
8
 10
557.549535
 20
854.679479
 11
597.828224
 21
830.905522
  0
LINE
  8
CutLine
  6
CONTINUOUS
 62
8
 10
848.517995
 20
1404.045286
 11
876.077671
 21
1383.285323
  0
LINE
  8
CutLine
  6
CONTINUOUS
 62
8
 10
876.077671
 20
1383.285323
 11
876.077671
 21
1383.285323
  0
LINE
  8
CutLine
  6
CONTINUOUS
 62
8
 10
876.077671
 20
1383.285323
 11
909.475320
 21
1391.951858
  0
LINE
  8
CutLine
  6
CONTINUOUS
 62
8
 10
869.408022
 20
1462.574357
 11
844.835864
 21
1438.352041
  0
LINE
  8
CutLine
  6
CONTINUOUS
 62
8
 10
844.835864
 20
1438.352041
 11
844.835864
 21
1438.352041
  0
LINE
  8
CutLine
  6
CONTINUOUS
 62
8
 10
844.835864
 20
1438.352041
 11
848.517995
 21
1404.045286
  0
LINE
  8
CutLine
  6
CONTINUOUS
 62
8
 10
923.504841
 20
1395.654397
 11
914.690704
 21
1441.587915
  0
LINE
  8
CutLine
  6
CONTINUOUS
 62
8
 10
914.690704
 20
1441.587915
 11
914.690704
 21
1441.587915
  0
LINE
  8
CutLine
  6
CONTINUOUS
 62
8
 10
914.690704
 20
1441.587915
 11
879.783471
 21
1472.717679
  0
LINE
  8
CutLine
  6
CONTINUOUS
 62
8
 10
821.573945
 20
1507.506265
 11
805.000000
 21
1506.815547
  0
LINE
  8
CutLine
  6
CONTINUOUS
 62
8
 10
805.000000
 20
1506.815547
 11
805.000000
 21
1506.815547
  0
LINE
  8
CutLine
  6
CONTINUOUS
 62
8
 10
805.000000
 20
1506.815547
 11
816.063450
 21
1494.455418
  0
LINE
  8
CutLine
  6
CONTINUOUS
 62
8
 10
879.783471
 20
1472.717679
 11
858.373832
 21
1502.987734
  0
LINE
  8
CutLine
  6
CONTINUOUS
 62
8
 10
858.373832
 20
1502.987734
 11
858.373832
 21
1502.987734
  0
LINE
  8
CutLine
  6
CONTINUOUS
 62
8
 10
858.373832
 20
1502.987734
 11
821.573945
 21
1507.506265
  0
LINE
  8
CutLine
  6
CONTINUOUS
 62
8
 10
923.504675
 20
1327.841392
 11
932.600132
 21
1313.968921
  0
LINE
  8
CutLine
  6
CONTINUOUS
 62
8
 10
932.600132
 20
1313.968921
 11
932.600132
 21
1313.968921
  0
LINE
  8
CutLine
  6
CONTINUOUS
 62
8
 10
932.600132
 20
1313.968921
 11
937.534251
 21
1329.806448
  0
LINE
  8
CutLine
  6
CONTINUOUS
 62
8
 10
937.534305
 20
1391.951814
 11
970.931959
 21
1383.285297
  0
LINE
  8
CutLine
  6
CONTINUOUS
 62
8
 10
970.931959
 20
1383.285297
 11
970.931959
 21
1383.285297
  0
LINE
  8
CutLine
  6
CONTINUOUS
 62
8
 10
970.931959
 20
1383.285297
 11
998.491624
 21
1404.045275
  0
LINE
  8
CutLine
  6
CONTINUOUS
 62
8
 10
998.491624
 20
1404.045275
 11
1002.173718
 21
1438.352039
  0
LINE
  8
CutLine
  6
CONTINUOUS
 62
8
 10
1002.173718
 20
1438.352039
 11
1002.173718
 21
1438.352039
  0
LINE
  8
CutLine
  6
CONTINUOUS
 62
8
 10
1002.173718
 20
1438.352039
 11
977.601533
 21
1462.574335
  0
LINE
  8
CutLine
  6
CONTINUOUS
 62
8
 10
957.426928
 20
877.429347
 11
929.867470
 21
898.189586
  0
LINE
  8
CutLine
  6
CONTINUOUS
 62
8
 10
929.867470
 20
898.189586
 11
929.867470
 21
898.189586
  0
LINE
  8
CutLine
  6
CONTINUOUS
 62
8
 10
929.867470
 20
898.189586
 11
896.469741
 21
889.523387
  0
LINE
  8
CutLine
  6
CONTINUOUS
 62
8
 10
936.536300
 20
818.900487
 11
961.108707
 21
843.122552
  0
LINE
  8
CutLine
  6
CONTINUOUS
 62
8
 10
961.108707
 20
843.122552
 11
961.108707
 21
843.122552
  0
LINE
  8
CutLine
  6
CONTINUOUS
 62
8
 10
961.108707
 20
843.122552
 11
957.426928
 21
877.429347
  0
LINE
  8
CutLine
  6
CONTINUOUS
 62
8
 10
882.440152
 20
885.820874
 11
891.253834
 21
839.887293
  0
LINE
  8
CutLine
  6
CONTINUOUS
 62
8
 10
891.253834
 20
839.887293
 11
891.253834
 21
839.887293
  0
LINE
  8
CutLine
  6
CONTINUOUS
 62
8
 10
891.253834
 20
839.887293
 11
926.160754
 21
808.757214
  0
LINE
  8
CutLine
  6
CONTINUOUS
 62
8
 10
984.369996
 20
773.968147
 11
1000.943948
 21
774.658739
  0
LINE
  8
CutLine
  6
CONTINUOUS
 62
8
 10
1000.943948
 20
774.658739
 11
1000.943948
 21
774.658739
  0
LINE
  8
CutLine
  6
CONTINUOUS
 62
8
 10
1000.943948
 20
774.658739
 11
989.880597
 21
787.018961
  0
LINE
  8
CutLine
  6
CONTINUOUS
 62
8
 10
882.440122
 20
953.633803
 11
873.344656
 21
967.506265
  0
LINE
  8
CutLine
  6
CONTINUOUS
 62
8
 10
873.344656
 20
967.506265
 11
873.344656
 21
967.506265
  0
LINE
  8
CutLine
  6
CONTINUOUS
 62
8
 10
873.344656
 20
967.506265
 11
868.410563
 21
951.668733
  0
LINE
  8
CutLine
  6
CONTINUOUS
 62
8
 10
780.510653
 20
773.967887
 11
817.310489
 21
778.486863
  0
LINE
  8
CutLine
  6
CONTINUOUS
 62
8
 10
817.310489
 20
778.486863
 11
817.310489
 21
778.486863
  0
LINE
  8
CutLine
  6
CONTINUOUS
 62
8
 10
817.310489
 20
778.486863
 11
838.719766
 21
808.757176
  0
LINE
  8
CutLine
  6
CONTINUOUS
 62
8
 10
868.410598
 20
889.523381
 11
835.012847
 21
898.189501
  0
LINE
  8
CutLine
  6
CONTINUOUS
 62
8
 10
835.012847
 20
898.189501
 11
835.012847
 21
898.189501
  0
LINE
  8
CutLine
  6
CONTINUOUS
 62
8
 10
835.012847
 20
898.189501
 11
807.453437
 21
877.429196
  0
LINE
  8
CutLine
  6
CONTINUOUS
 62
8
 10
807.453437
 20
877.429196
 11
803.771734
 21
843.122390
  0
LINE
  8
CutLine
  6
CONTINUOUS
 62
8
 10
803.771734
 20
843.122390
 11
803.771734
 21
843.122390
  0
LINE
  8
CutLine
  6
CONTINUOUS
 62
8
 10
803.771734
 20
843.122390
 11
828.344195
 21
818.900375
  0
LINE
  8
CutLine
  6
CONTINUOUS
 62
8
 10
838.719766
 20
808.757176
 11
873.626595
 21
839.887305
  0
LINE
  8
CutLine
  6
CONTINUOUS
 62
8
 10
873.626595
 20
839.887305
 11
873.626595
 21
839.887305
  0
LINE
  8
CutLine
  6
CONTINUOUS
 62
8
 10
873.626595
 20
839.887305
 11
882.440152
 21
885.820874
  0
LINE
  8
CutLine
  6
CONTINUOUS
 62
8
 10
261.158060
 20
983.556350
 11
260.000000
 21
966.972568
  0
LINE
  8
CutLine
  6
CONTINUOUS
 62
8
 10
260.000000
 20
966.972568
 11
260.000000
 21
966.972568
  0
LINE
  8
CutLine
  6
CONTINUOUS
 62
8
 10
260.000000
 20
966.972568
 11
273.629374
 21
976.491133
  0
LINE
  8
CutLine
  6
CONTINUOUS
 62
8
 10
319.208590
 20
934.815478
 11
344.487560
 21
898.802042
  0
LINE
  8
CutLine
  6
CONTINUOUS
 62
8
 10
344.487560
 20
898.802042
 11
344.487560
 21
898.802042
  0
LINE
  8
CutLine
  6
CONTINUOUS
 62
8
 10
344.487560
 20
898.802042
 11
386.974456
 21
887.362740
  0
LINE
  8
CutLine
  6
CONTINUOUS
 62
8
 10
328.290173
 20
1038.589216
 11
309.048923
 21
1015.398091
  0
LINE
  8
CutLine
  6
CONTINUOUS
 62
8
 10
309.048923
 20
1015.398091
 11
309.048923
 21
1015.398091
  0
LINE
  8
CutLine
  6
CONTINUOUS
 62
8
 10
309.048923
 20
1015.398091
 11
319.367355
 21
987.085833
  0
LINE
  8
CutLine
  6
CONTINUOUS
 62
8
 10
448.456462
 20
1047.277203
 11
433.401807
 21
1073.381105
  0
LINE
  8
CutLine
  6
CONTINUOUS
 62
8
 10
433.401807
 20
1073.381105
 11
433.401807
 21
1073.381105
  0
LINE
  8
CutLine
  6
CONTINUOUS
 62
8
 10
433.401807
 20
1073.381105
 11
403.268307
 21
1073.549912
  0
LINE
  8
CutLine
  6
CONTINUOUS
 62
8
 10
351.726538
 20
808.034804
 11
358.143185
 21
792.698888
  0
LINE
  8
CutLine
  6
CONTINUOUS
 62
8
 10
358.143185
 20
792.698888
 11
358.143185
 21
792.698888
  0
LINE
  8
CutLine
  6
CONTINUOUS
 62
8
 10
358.143185
 20
792.698888
 11
366.042683
 21
807.326314
  0
LINE
  8
CutLine
  6
CONTINUOUS
 62
8
 10
400.001173
 20
767.589108
 11
432.532115
 21
832.692795
  0
LINE
  8
CutLine
  6
CONTINUOUS
 62
8
 10
432.532115
 20
832.692795
 11
432.532115
 21
832.692795
  0
LINE
  8
CutLine
  6
CONTINUOUS
 62
8
 10
432.532115
 20
832.692795
 11
436.039201
 21
905.387035
  0
LINE
  8
CutLine
  6
CONTINUOUS
 62
8
 10
374.144553
 20
893.753713
 11
348.423622
 21
854.689553
  0
LINE
  8
CutLine
  6
CONTINUOUS
 62
8
 10
348.423622
 20
854.689553
 11
348.423622
 21
854.689553
  0
LINE
  8
CutLine
  6
CONTINUOUS
 62
8
 10
348.423622
 20
854.689553
 11
351.726538
 21
808.034804
  0
LINE
  8
CutLine
  6
CONTINUOUS
 62
8
 10
200.579183
 20
567.152825
 11
188.055263
 21
612.216430
  0
LINE
  8
CutLine
  6
CONTINUOUS
 62
8
 10
188.055263
 20
612.216430
 11
188.055263
 21
612.216430
  0
LINE
  8
CutLine
  6
CONTINUOUS
 62
8
 10
188.055263
 20
612.216430
 11
150.729879
 21
640.401405
  0
LINE
  8
CutLine
  6
CONTINUOUS
 62
8
 10
143.255752
 20
577.867997
 11
157.002975
 21
604.683482
  0
LINE
  8
CutLine
  6
CONTINUOUS
 62
8
 10
157.002975
 20
604.683482
 11
157.002975
 21
604.683482
  0
LINE
  8
CutLine
  6
CONTINUOUS
 62
8
 10
157.002975
 20
604.683482
 11
140.783754
 21
630.080200
  0
LINE
  8
CutLine
  6
CONTINUOUS
 62
8
 10
63.812438
 20
487.291041
 11
107.389384
 21
493.377351
  0
LINE
  8
CutLine
  6
CONTINUOUS
 62
8
 10
107.389384
 20
493.377351
 11
107.389384
 21
493.377351
  0
LINE
  8
CutLine
  6
CONTINUOUS
 62
8
 10
107.389384
 20
493.377351
 11
136.936170
 21
525.980737
  0
LINE
  8
CutLine
  6
CONTINUOUS
 62
8
 10
22.620211
 20
653.591599
 11
5.000000
 21
582.978004
  0
LINE
  8
CutLine
  6
CONTINUOUS
 62
8
 10
5.000000
 20
582.978004
 11
5.000000
 21
582.978004
  0
LINE
  8
CutLine
  6
CONTINUOUS
 62
8
 10
5.000000
 20
582.978004
 11
17.359331
 21
511.256329
  0
LINE
  8
CutLine
  6
CONTINUOUS
 62
8
 10
36.044286
 20
370.054777
 11
65.462560
 21
376.583342
  0
LINE
  8
CutLine
  6
CONTINUOUS
 62
8
 10
65.462560
 20
376.583342
 11
65.462560
 21
376.583342
  0
LINE
  8
CutLine
  6
CONTINUOUS
 62
8
 10
65.462560
 20
376.583342
 11
74.665112
 21
405.277767
  0
LINE
  8
CutLine
  6
CONTINUOUS
 62
8
 10
77.335466
 20
492.042999
 11
65.601079
 21
503.818724
  0
LINE
  8
CutLine
  6
CONTINUOUS
 62
8
 10
65.601079
 20
503.818724
 11
65.601079
 21
503.818724
  0
LINE
  8
CutLine
  6
CONTINUOUS
 62
8
 10
65.601079
 20
503.818724
 11
63.812438
 21
487.291041
  0
LINE
  8
CutLine
  6
CONTINUOUS
 62
8
 10
75.687045
 20
687.506265
 11
59.132449
 21
685.986753
  0
LINE
  8
CutLine
  6
CONTINUOUS
 62
8
 10
59.132449
 20
685.986753
 11
59.132449
 21
685.986753
  0
LINE
  8
CutLine
  6
CONTINUOUS
 62
8
 10
59.132449
 20
685.986753
 11
70.715703
 21
674.062333
  0
LINE
  8
CutLine
  6
CONTINUOUS
 62
8
 10
150.729879
 20
640.401405
 11
121.183159
 21
676.658338
  0
LINE
  8
CutLine
  6
CONTINUOUS
 62
8
 10
121.183159
 20
676.658338
 11
121.183159
 21
676.658338
  0
LINE
  8
CutLine
  6
CONTINUOUS
 62
8
 10
121.183159
 20
676.658338
 11
75.687045
 21
687.506265
  0
LINE
  8
CutLine
  6
CONTINUOUS
 62
8
 10
195.541131
 20
1260.633486
 11
199.573787
 21
1276.761140
  0
LINE
  8
CutLine
  6
CONTINUOUS
 62
8
 10
199.573787
 20
1276.761140
 11
199.573787
 21
1276.761140
  0
LINE
  8
CutLine
  6
CONTINUOUS
 62
8
 10
199.573787
 20
1276.761140
 11
184.493141
 21
1269.765594
  0
LINE
  8
CutLine
  6
CONTINUOUS
 62
8
 10
126.297477
 20
1205.355860
 11
170.277620
 21
1221.271956
  0
LINE
  8
CutLine
  6
CONTINUOUS
 62
8
 10
170.277620
 20
1221.271956
 11
170.277620
 21
1221.271956
  0
LINE
  8
CutLine
  6
CONTINUOUS
 62
8
 10
170.277620
 20
1221.271956
 11
195.541131
 21
1260.633486
  0
LINE
  8
CutLine
  6
CONTINUOUS
 62
8
 10
146.881342
 20
1318.751916
 11
128.270879
 21
1358.622265
  0
LINE
  8
CutLine
  6
CONTINUOUS
 62
8
 10
128.270879
 20
1358.622265
 11
128.270879
 21
1358.622265
  0
LINE
  8
CutLine
  6
CONTINUOUS
 62
8
 10
128.270879
 20
1358.622265
 11
88.430283
 21
1377.296335
  0
LINE
  8
CutLine
  6
CONTINUOUS
 62
8
 10
119.839784
 20
1218.152431
 11
142.830894
 21
1237.632299
  0
LINE
  8
CutLine
  6
CONTINUOUS
 62
8
 10
142.830894
 20
1237.632299
 11
142.830894
 21
1237.632299
  0
LINE
  8
CutLine
  6
CONTINUOUS
 62
8
 10
142.830894
 20
1237.632299
 11
137.608552
 21
1267.310297
  0
LINE
  8
CutLine
  6
CONTINUOUS
 62
8
 10
0.000000
 20
1230.555760
 11
10.271161
 21
1202.226269
  0
LINE
  8
CutLine
  6
CONTINUOUS
 62
8
 10
10.271161
 20
1202.226269
 11
10.271161
 21
1202.226269
  0
LINE
  8
CutLine
  6
CONTINUOUS
 62
8
 10
10.271161
 20
1202.226269
 11
39.913378
 21
1196.804481
  0
LINE
  8
CutLine
  6
CONTINUOUS
 62
8
 10
96.493000
 20
1497.506265
 11
53.105892
 21
1439.074087
  0
LINE
  8
CutLine
  6
CONTINUOUS
 62
8
 10
53.105892
 20
1439.074087
 11
53.105892
 21
1439.074087
  0
LINE
  8
CutLine
  6
CONTINUOUS
 62
8
 10
53.105892
 20
1439.074087
 11
36.973926
 21
1368.105642
  0
LINE
  8
CutLine
  6
CONTINUOUS
 62
8
 10
136.973546
 20
1449.260823
 11
133.330070
 21
1465.480825
  0
LINE
  8
CutLine
  6
CONTINUOUS
 62
8
 10
133.330070
 20
1465.480825
 11
133.330070
 21
1465.480825
  0
LINE
  8
CutLine
  6
CONTINUOUS
 62
8
 10
133.330070
 20
1465.480825
 11
123.000442
 21
1452.455382
  0
LINE
  8
CutLine
  6
CONTINUOUS
 62
8
 10
40.696349
 20
1182.492256
 11
87.367645
 21
1179.432073
  0
LINE
  8
CutLine
  6
CONTINUOUS
 62
8
 10
87.367645
 20
1179.432073
 11
87.367645
 21
1179.432073
  0
LINE
  8
CutLine
  6
CONTINUOUS
 62
8
 10
87.367645
 20
1179.432073
 11
126.297477
 21
1205.355860
  0
LINE
  8
CutLine
  6
CONTINUOUS
 62
8
 10
647.021027
 20
398.565495
 11
676.918494
 21
394.797462
  0
LINE
  8
CutLine
  6
CONTINUOUS
 62
8
 10
676.918494
 20
394.797462
 11
676.918494
 21
394.797462
  0
LINE
  8
CutLine
  6
CONTINUOUS
 62
8
 10
676.918494
 20
394.797462
 11
695.253349
 21
418.711676
  0
LINE
  8
CutLine
  6
CONTINUOUS
 62
8
 10
575.130777
 20
495.246378
 11
561.203181
 21
468.524177
  0
LINE
  8
CutLine
  6
CONTINUOUS
 62
8
 10
561.203181
 20
468.524177
 11
561.203181
 21
468.524177
  0
LINE
  8
CutLine
  6
CONTINUOUS
 62
8
 10
561.203181
 20
468.524177
 11
577.250909
 21
443.018797
  0
LINE
  8
CutLine
  6
CONTINUOUS
 62
8
 10
655.182521
 20
585.285987
 11
611.565561
 21
579.493385
  0
LINE
  8
CutLine
  6
CONTINUOUS
 62
8
 10
611.565561
 20
579.493385
 11
611.565561
 21
579.493385
  0
LINE
  8
CutLine
  6
CONTINUOUS
 62
8
 10
611.565561
 20
579.493385
 11
581.799801
 21
547.089790
  0
LINE
  8
CutLine
  6
CONTINUOUS
 62
8
 10
695.253349
 20
418.711676
 11
713.348915
 21
489.204958
  0
LINE
  8
CutLine
  6
CONTINUOUS
 62
8
 10
713.348915
 20
489.204958
 11
713.348915
 21
489.204958
  0
LINE
  8
CutLine
  6
CONTINUOUS
 62
8
 10
713.348915
 20
489.204958
 11
701.473086
 21
561.008279
  0
LINE
  8
CutLine
  6
CONTINUOUS
 62
8
 10
641.627712
 20
580.625301
 11
653.282457
 21
568.770731
  0
LINE
  8
CutLine
  6
CONTINUOUS
 62
8
 10
653.282457
 20
568.770731
 11
653.282457
 21
568.770731
  0
LINE
  8
CutLine
  6
CONTINUOUS
 62
8
 10
653.282457
 20
568.770731
 11
655.182521
 21
585.285987
  0
LINE
  8
CutLine
  6
CONTINUOUS
 62
8
 10
641.959199
 20
385.155354
 11
658.523662
 21
386.563283
  0
LINE
  8
CutLine
  6
CONTINUOUS
 62
8
 10
658.523662
 20
386.563283
 11
658.523662
 21
386.563283
  0
LINE
  8
CutLine
  6
CONTINUOUS
 62
8
 10
658.523662
 20
386.563283
 11
647.021027
 21
398.565495
  0
LINE
  8
CutLine
  6
CONTINUOUS
 62
8
 10
567.235413
 20
432.764844
 11
596.537184
 21
396.309620
  0
LINE
  8
CutLine
  6
CONTINUOUS
 62
8
 10
596.537184
 20
396.309620
 11
596.537184
 21
396.309620
  0
LINE
  8
CutLine
  6
CONTINUOUS
 62
8
 10
596.537184
 20
396.309620
 11
641.959199
 21
385.155354
  0
LINE
  8
CutLine
  6
CONTINUOUS
 62
8
 10
606.724498
 20
1483.649352
 11
576.598532
 21
1484.344379
  0
LINE
  8
CutLine
  6
CONTINUOUS
 62
8
 10
576.598532
 20
1484.344379
 11
576.598532
 21
1484.344379
  0
LINE
  8
CutLine
  6
CONTINUOUS
 62
8
 10
576.598532
 20
1484.344379
 11
560.801792
 21
1458.682737
  0
LINE
  8
CutLine
  6
CONTINUOUS
 62
8
 10
688.112497
 20
1394.815735
 11
699.238243
 21
1422.820631
  0
LINE
  8
CutLine
  6
CONTINUOUS
 62
8
 10
699.238243
 20
1422.820631
 11
699.238243
 21
1422.820631
  0
LINE
  8
CutLine
  6
CONTINUOUS
 62
8
 10
699.238243
 20
1422.820631
 11
680.669660
 21
1446.553817
  0
LINE
  8
CutLine
  6
CONTINUOUS
 62
8
 10
617.674618
 20
1297.071497
 11
660.471965
 21
1307.288205
  0
LINE
  8
CutLine
  6
CONTINUOUS
 62
8
 10
660.471965
 20
1307.288205
 11
660.471965
 21
1307.288205
  0
LINE
  8
CutLine
  6
CONTINUOUS
 62
8
 10
660.471965
 20
1307.288205
 11
686.772880
 21
1342.562216
  0
LINE
  8
CutLine
  6
CONTINUOUS
 62
8
 10
560.801792
 20
1458.682737
 11
550.000000
 21
1386.709952
  0
LINE
  8
CutLine
  6
CONTINUOUS
 62
8
 10
550.000000
 20
1386.709952
 11
550.000000
 21
1386.709952
  0
LINE
  8
CutLine
  6
CONTINUOUS
 62
8
 10
550.000000
 20
1386.709952
 11
569.146687
 21
1316.494820
  0
LINE
  8
CutLine
  6
CONTINUOUS
 62
8
 10
630.682557
 20
1303.092046
 11
617.878149
 21
1313.694437
  0
LINE
  8
CutLine
  6
CONTINUOUS
 62
8
 10
617.878149
 20
1313.694437
 11
617.878149
 21
1313.694437
  0
LINE
  8
CutLine
  6
CONTINUOUS
 62
8
 10
617.878149
 20
1313.694437
 11
617.674618
 21
1297.071497
  0
LINE
  8
CutLine
  6
CONTINUOUS
 62
8
 10
650.634185
 20
1216.765815
 11
655.273124
 21
1263.306677
  0
LINE
  8
CutLine
  6
CONTINUOUS
 62
8
 10
655.273124
 20
1263.306677
 11
655.273124
 21
1263.306677
  0
LINE
  8
CutLine
  6
CONTINUOUS
 62
8
 10
655.273124
 20
1263.306677
 11
630.682557
 21
1303.092046
  0
LINE
  8
CutLine
  6
CONTINUOUS
 62
8
 10
610.390367
 20
1497.506265
 11
594.056295
 21
1494.414108
  0
LINE
  8
CutLine
  6
CONTINUOUS
 62
8
 10
594.056295
 20
1494.414108
 11
594.056295
 21
1494.414108
  0
LINE
  8
CutLine
  6
CONTINUOUS
 62
8
 10
594.056295
 20
1494.414108
 11
606.724498
 21
1483.649352
  0
LINE
  8
CutLine
  6
CONTINUOUS
 62
8
 10
689.585593
 20
1457.777014
 11
656.714010
 21
1491.049127
  0
LINE
  8
CutLine
  6
CONTINUOUS
 62
8
 10
656.714010
 20
1491.049127
 11
656.714010
 21
1491.049127
  0
LINE
  8
CutLine
  6
CONTINUOUS
 62
8
 10
656.714010
 20
1491.049127
 11
610.390367
 21
1497.506265
  0
LINE
  8
CutLine
  6
CONTINUOUS
 62
8
 10
401.886991
 20
89.913136
 11
438.994482
 21
112.190136
  0
LINE
  8
CutLine
  6
CONTINUOUS
 62
8
 10
438.994482
 20
112.190136
 11
438.994482
 21
112.190136
  0
LINE
  8
CutLine
  6
CONTINUOUS
 62
8
 10
438.994482
 20
112.190136
 11
452.703511
 21
153.242459
  0
LINE
  8
CutLine
  6
CONTINUOUS
 62
8
 10
304.206309
 20
125.810324
 11
331.677386
 21
92.365268
  0
LINE
  8
CutLine
  6
CONTINUOUS
 62
8
 10
331.677386
 20
92.365268
 11
331.677386
 21
92.365268
  0
LINE
  8
CutLine
  6
CONTINUOUS
 62
8
 10
331.677386
 20
92.365268
 11
374.294754
 21
84.815976
  0
LINE
  8
CutLine
  6
CONTINUOUS
 62
8
 10
376.444692
 20
150.408319
 11
364.980527
 21
162.397708
  0
LINE
  8
CutLine
  6
CONTINUOUS
 62
8
 10
364.980527
 20
162.397708
 11
364.980527
 21
162.397708
  0
LINE
  8
CutLine
  6
CONTINUOUS
 62
8
 10
364.980527
 20
162.397708
 11
363.005554
 21
145.927371
  0
LINE
  8
CutLine
  6
CONTINUOUS
 62
8
 10
296.161607
 20
137.885997
 11
287.700457
 21
123.531767
  0
LINE
  8
CutLine
  6
CONTINUOUS
 62
8
 10
287.700457
 20
123.531767
 11
287.700457
 21
123.531767
  0
LINE
  8
CutLine
  6
CONTINUOUS
 62
8
 10
287.700457
 20
123.531767
 11
304.206309
 21
125.810324
  0
LINE
  8
CutLine
  6
CONTINUOUS
 62
8
 10
360.323339
 20
159.837620
 11
323.386848
 21
163.054169
  0
LINE
  8
CutLine
  6
CONTINUOUS
 62
8
 10
323.386848
 20
163.054169
 11
323.386848
 21
163.054169
  0
LINE
  8
CutLine
  6
CONTINUOUS
 62
8
 10
323.386848
 20
163.054169
 11
296.161607
 21
137.885997
  0
LINE
  8
CutLine
  6
CONTINUOUS
 62
8
 10
388.133258
 20
164.974964
 11
374.594219
 21
155.390250
  0
LINE
  8
CutLine
  6
CONTINUOUS
 62
8
 10
374.594219
 20
155.390250
 11
374.594219
 21
155.390250
  0
LINE
  8
CutLine
  6
CONTINUOUS
 62
8
 10
374.594219
 20
155.390250
 11
390.597741
 21
151.024522
  0
LINE
  8
CutLine
  6
CONTINUOUS
 62
8
 10
452.703511
 20
153.242459
 11
468.934052
 21
157.011227
  0
LINE
  8
CutLine
  6
CONTINUOUS
 62
8
 10
468.934052
 20
157.011227
 11
468.934052
 21
157.011227
  0
LINE
  8
CutLine
  6
CONTINUOUS
 62
8
 10
468.934052
 20
157.011227
 11
455.903006
 21
167.395152
  0
LINE
  8
CutLine
  6
CONTINUOUS
 62
8
 10
434.974229
 20
317.795978
 11
396.826132
 21
290.734939
  0
LINE
  8
CutLine
  6
CONTINUOUS
 62
8
 10
396.826132
 20
290.734939
 11
396.826132
 21
290.734939
  0
LINE
  8
CutLine
  6
CONTINUOUS
 62
8
 10
396.826132
 20
290.734939
 11
382.965906
 21
246.064241
  0
LINE
  8
CutLine
  6
CONTINUOUS
 62
8
 10
451.702106
 20
181.283593
 11
435.099582
 21
221.253410
  0
LINE
  8
CutLine
  6
CONTINUOUS
 62
8
 10
435.099582
 20
221.253410
 11
435.099582
 21
221.253410
  0
LINE
  8
CutLine
  6
CONTINUOUS
 62
8
 10
435.099582
 20
221.253410
 11
396.497522
 21
240.826633
  0
LINE
  8
CutLine
  6
CONTINUOUS
 62
8
 10
368.611964
 20
243.942556
 11
326.641675
 21
233.372444
  0
LINE
  8
CutLine
  6
CONTINUOUS
 62
8
 10
326.641675
 20
233.372444
 11
326.641675
 21
233.372444
  0
LINE
  8
CutLine
  6
CONTINUOUS
 62
8
 10
326.641675
 20
233.372444
 11
301.626329
 21
198.052975
  0
LINE
  8
CutLine
  6
CONTINUOUS
 62
8
 10
375.435370
 20
178.670682
 11
382.934092
 21
163.874008
  0
LINE
  8
CutLine
  6
CONTINUOUS
 62
8
 10
382.934092
 20
163.874008
 11
382.934092
 21
163.874008
  0
LINE
  8
CutLine
  6
CONTINUOUS
 62
8
 10
382.934092
 20
163.874008
 11
389.596334
 21
179.065682
  0
LINE
  8
CutLine
  6
CONTINUOUS
 62
8
 10
455.903006
 20
167.395152
 11
468.160140
 21
178.682177
  0
LINE
  8
CutLine
  6
CONTINUOUS
 62
8
 10
468.160140
 20
178.682177
 11
468.160140
 21
178.682177
  0
LINE
  8
CutLine
  6
CONTINUOUS
 62
8
 10
468.160140
 20
178.682177
 11
451.702106
 21
181.283593
  0
LINE
  8
CutLine
  6
CONTINUOUS
 62
8
 10
360.027715
 20
168.115439
 11
375.763032
 21
173.366384
  0
LINE
  8
CutLine
  6
CONTINUOUS
 62
8
 10
375.763032
 20
173.366384
 11
375.763032
 21
173.366384
  0
LINE
  8
CutLine
  6
CONTINUOUS
 62
8
 10
375.763032
 20
173.366384
 11
361.710823
 21
182.181600
  0
LINE
  8
CutLine
  6
CONTINUOUS
 62
8
 10
301.626329
 20
198.052975
 11
285.000000
 21
199.148328
  0
LINE
  8
CutLine
  6
CONTINUOUS
 62
8
 10
285.000000
 20
199.148328
 11
285.000000
 21
199.148328
  0
LINE
  8
CutLine
  6
CONTINUOUS
 62
8
 10
285.000000
 20
199.148328
 11
294.463544
 21
185.434250
  0
LINE
  8
CutLine
  6
CONTINUOUS
 62
8
 10
382.965906
 20
246.064241
 11
379.307446
 21
292.692460
  0
LINE
  8
CutLine
  6
CONTINUOUS
 62
8
 10
379.307446
 20
292.692460
 11
379.307446
 21
292.692460
  0
LINE
  8
CutLine
  6
CONTINUOUS
 62
8
 10
379.307446
 20
292.692460
 11
348.073266
 21
327.506265
  0
LINE
  8
CutLine
  6
CONTINUOUS
 62
8
 10
92.009404
 20
254.547504
 11
76.112070
 21
298.534455
  0
LINE
  8
CutLine
  6
CONTINUOUS
 62
8
 10
76.112070
 20
298.534455
 11
76.112070
 21
298.534455
  0
LINE
  8
CutLine
  6
CONTINUOUS
 62
8
 10
76.112070
 20
298.534455
 11
36.761314
 21
323.814783
  0
LINE
  8
CutLine
  6
CONTINUOUS
 62
8
 10
175.468326
 20
210.322955
 11
148.857123
 21
244.456153
  0
LINE
  8
CutLine
  6
CONTINUOUS
 62
8
 10
148.857123
 20
244.456153
 11
148.857123
 21
244.456153
  0
LINE
  8
CutLine
  6
CONTINUOUS
 62
8
 10
148.857123
 20
244.456153
 11
106.445642
 21
253.087352
  0
LINE
  8
CutLine
  6
CONTINUOUS
 62
8
 10
78.732643
 20
248.693903
 11
41.070331
 21
227.368279
  0
LINE
  8
CutLine
  6
CONTINUOUS
 62
8
 10
41.070331
 20
227.368279
 11
41.070331
 21
227.368279
  0
LINE
  8
CutLine
  6
CONTINUOUS
 62
8
 10
41.070331
 20
227.368279
 11
26.321180
 21
186.678053
  0
LINE
  8
CutLine
  6
CONTINUOUS
 62
8
 10
102.627453
 20
187.570968
 11
113.782844
 21
175.293763
  0
LINE
  8
CutLine
  6
CONTINUOUS
 62
8
 10
113.782844
 20
175.293763
 11
113.782844
 21
175.293763
  0
LINE
  8
CutLine
  6
CONTINUOUS
 62
8
 10
113.782844
 20
175.293763
 11
116.176255
 21
191.708516
  0
LINE
  8
CutLine
  6
CONTINUOUS
 62
8
 10
90.572069
 20
173.306418
 11
104.350559
 21
182.543611
  0
LINE
  8
CutLine
  6
CONTINUOUS
 62
8
 10
104.350559
 20
182.543611
 11
104.350559
 21
182.543611
  0
LINE
  8
CutLine
  6
CONTINUOUS
 62
8
 10
104.350559
 20
182.543611
 11
88.463278
 21
187.315070
  0
LINE
  8
CutLine
  6
CONTINUOUS
 62
8
 10
26.321180
 20
186.678053
 11
10.000000
 21
183.323347
  0
LINE
  8
CutLine
  6
CONTINUOUS
 62
8
 10
10.000000
 20
183.323347
 11
10.000000
 21
183.323347
  0
LINE
  8
CutLine
  6
CONTINUOUS
 62
8
 10
10.000000
 20
183.323347
 11
22.762647
 21
172.611212
  0
LINE
  8
CutLine
  6
CONTINUOUS
 62
8
 10
183.203172
 20
198.046501
 11
192.026811
 21
212.180799
  0
LINE
  8
CutLine
  6
CONTINUOUS
 62
8
 10
192.026811
 20
212.180799
 11
192.026811
 21
212.180799
  0
LINE
  8
CutLine
  6
CONTINUOUS
 62
8
 10
192.026811
 20
212.180799
 11
175.468326
 21
210.322955
  0
LINE
  8
CutLine
  6
CONTINUOUS
 62
8
 10
118.503669
 20
177.734522
 11
155.346362
 21
173.579199
  0
LINE
  8
CutLine
  6
CONTINUOUS
 62
8
 10
155.346362
 20
173.579199
 11
155.346362
 21
173.579199
  0
LINE
  8
CutLine
  6
CONTINUOUS
 62
8
 10
155.346362
 20
173.579199
 11
183.203172
 21
198.046501
  0
LINE
  8
CutLine
  6
CONTINUOUS
 62
8
 10
26.608824
 20
158.620331
 11
42.189112
 21
118.241054
  0
LINE
  8
CutLine
  6
CONTINUOUS
 62
8
 10
42.189112
 20
118.241054
 11
42.189112
 21
118.241054
  0
LINE
  8
CutLine
  6
CONTINUOUS
 62
8
 10
42.189112
 20
118.241054
 11
80.280727
 21
97.692081
  0
LINE
  8
CutLine
  6
CONTINUOUS
 62
8
 10
108.077995
 20
93.867723
 11
150.303613
 21
103.366631
  0
LINE
  8
CutLine
  6
CONTINUOUS
 62
8
 10
150.303613
 20
103.366631
 11
150.303613
 21
103.366631
  0
LINE
  8
CutLine
  6
CONTINUOUS
 62
8
 10
150.303613
 20
103.366631
 11
176.209432
 21
138.038241
  0
LINE
  8
CutLine
  6
CONTINUOUS
 62
8
 10
102.917384
 20
159.292050
 11
95.797527
 21
174.274716
  0
LINE
  8
CutLine
  6
CONTINUOUS
 62
8
 10
95.797527
 20
174.274716
 11
95.797527
 21
174.274716
  0
LINE
  8
CutLine
  6
CONTINUOUS
 62
8
 10
95.797527
 20
174.274716
 11
88.750922
 21
159.257459
  0
LINE
  8
CutLine
  6
CONTINUOUS
 62
8
 10
118.588599
 20
169.451894
 11
102.724783
 21
164.602977
  0
LINE
  8
CutLine
  6
CONTINUOUS
 62
8
 10
102.724783
 20
164.602977
 11
102.724783
 21
164.602977
  0
LINE
  8
CutLine
  6
CONTINUOUS
 62
8
 10
102.724783
 20
164.602977
 11
116.548171
 21
155.433104
  0
LINE
  8
CutLine
  6
CONTINUOUS
 62
8
 10
176.209432
 20
138.038241
 11
192.802513
 21
136.520246
  0
LINE
  8
CutLine
  6
CONTINUOUS
 62
8
 10
192.802513
 20
136.520246
 11
192.802513
 21
136.520246
  0
LINE
  8
CutLine
  6
CONTINUOUS
 62
8
 10
192.802513
 20
136.520246
 11
183.690939
 21
150.470653
  0
LINE
  8
CutLine
  6
CONTINUOUS
 62
8
 10
22.762647
 20
172.611212
 11
10.222301
 21
161.639686
  0
LINE
  8
CutLine
  6
CONTINUOUS
 62
8
 10
10.222301
 20
161.639686
 11
10.222301
 21
161.639686
  0
LINE
  8
CutLine
  6
CONTINUOUS
 62
8
 10
10.222301
 20
161.639686
 11
26.608824
 21
158.620331
  0
LINE
  8
CutLine
  6
CONTINUOUS
 62
8
 10
202.109774
 20
858.562385
 11
203.028620
 21
875.161169
  0
LINE
  8
CutLine
  6
CONTINUOUS
 62
8
 10
203.028620
 20
875.161169
 11
203.028620
 21
875.161169
  0
LINE
  8
CutLine
  6
CONTINUOUS
 62
8
 10
203.028620
 20
875.161169
 11
189.537801
 21
865.447174
  0
LINE
  8
CutLine
  6
CONTINUOUS
 62
8
 10
144.532816
 20
791.218482
 11
184.722385
 21
815.142853
  0
LINE
  8
CutLine
  6
CONTINUOUS
 62
8
 10
184.722385
 20
815.142853
 11
184.722385
 21
815.142853
  0
LINE
  8
CutLine
  6
CONTINUOUS
 62
8
 10
184.722385
 20
815.142853
 11
202.109774
 21
858.562385
  0
LINE
  8
CutLine
  6
CONTINUOUS
 62
8
 10
143.363083
 20
906.461471
 11
117.567796
 21
942.106900
  0
LINE
  8
CutLine
  6
CONTINUOUS
 62
8
 10
117.567796
 20
942.106900
 11
117.567796
 21
942.106900
  0
LINE
  8
CutLine
  6
CONTINUOUS
 62
8
 10
117.567796
 20
942.106900
 11
74.920479
 21
952.932784
  0
LINE
  8
CutLine
  6
CONTINUOUS
 62
8
 10
143.957539
 20
854.194255
 11
158.659347
 21
880.498453
  0
LINE
  8
CutLine
  6
CONTINUOUS
 62
8
 10
158.659347
 20
880.498453
 11
158.659347
 21
880.498453
  0
LINE
  8
CutLine
  6
CONTINUOUS
 62
8
 10
158.659347
 20
880.498453
 11
143.363083
 21
906.461471
  0
LINE
  8
CutLine
  6
CONTINUOUS
 62
8
 10
15.749207
 20
792.148977
 11
31.178461
 21
766.264720
  0
LINE
  8
CutLine
  6
CONTINUOUS
 62
8
 10
31.178461
 20
766.264720
 11
31.178461
 21
766.264720
  0
LINE
  8
CutLine
  6
CONTINUOUS
 62
8
 10
31.178461
 20
766.264720
 11
61.311270
 21
766.530151
  0
LINE
  8
CutLine
  6
CONTINUOUS
 62
8
 10
60.169210
 20
1072.506265
 11
28.579777
 21
1006.940573
  0
LINE
  8
CutLine
  6
CONTINUOUS
 62
8
 10
28.579777
 20
1006.940573
 11
28.579777
 21
1006.940573
  0
LINE
  8
CutLine
  6
CONTINUOUS
 62
8
 10
28.579777
 20
1006.940573
 11
26.120566
 21
934.203344
  0
LINE
  8
CutLine
  6
CONTINUOUS
 62
8
 10
109.021658
 20
1032.760392
 11
102.384688
 21
1048.002253
  0
LINE
  8
CutLine
  6
CONTINUOUS
 62
8
 10
102.384688
 20
1048.002253
 11
102.384688
 21
1048.002253
  0
LINE
  8
CutLine
  6
CONTINUOUS
 62
8
 10
102.384688
 20
1048.002253
 11
94.696790
 21
1033.262514
  0
LINE
  8
ValleyLine
  6
CONTINUOUS
 62
1
 10
363.757314
 20
457.085257
 11
350.358284
 21
462.653289
  0
LINE
  8
CutLine
  6
CONTINUOUS
 62
8
 10
350.358284
 20
462.653289
 11
301.098200
 21
398.105897
  0
LINE
  8
CutLine
  6
CONTINUOUS
 62
8
 10
301.098200
 20
398.105897
 11
310.004693
 21
386.651210
  0
LINE
  8
MountainLine
  6
CONTINUOUS
 62
5
 10
310.004693
 20
386.651210
 11
363.757314
 21
457.085257
  0
LINE
  8
CutLine
  6
CONTINUOUS
 62
8
 10
309.687278
 20
517.729302
 11
351.945066
 21
518.200846
  0
LINE
  8
ValleyLine
  6
CONTINUOUS
 62
1
 10
358.772735
 20
524.226380
 11
296.631242
 21
523.532895
  0
LINE
  8
CutLine
  6
CONTINUOUS
 62
8
 10
346.223035
 20
476.329607
 11
309.687278
 21
517.729302
  0
LINE
  8
CutLine
  6
CONTINUOUS
 62
8
 10
351.945066
 20
518.200846
 11
346.223035
 21
476.329607
  0
LINE
  8
ValleyLine
  6
CONTINUOUS
 62
1
 10
350.358284
 20
462.653289
 11
358.772735
 21
524.226380
  0
LINE
  8
ValleyLine
  6
CONTINUOUS
 62
1
 10
296.631242
 20
523.532895
 11
350.358284
 21
462.653289
  0
LINE
  8
ValleyLine
  6
CONTINUOUS
 62
1
 10
372.939113
 20
524.273767
 11
358.772735
 21
524.226380
  0
LINE
  8
MountainLine
  6
CONTINUOUS
 62
5
 10
363.757314
 20
457.085257
 11
372.939113
 21
524.273767
  0
LINE
  8
CutLine
  6
CONTINUOUS
 62
8
 10
385.812073
 20
470.919472
 11
391.534043
 21
512.790719
  0
LINE
  8
ValleyLine
  6
CONTINUOUS
 62
1
 10
386.573386
 20
520.427219
 11
378.158983
 21
458.854120
  0
LINE
  8
CutLine
  6
CONTINUOUS
 62
8
 10
432.115908
 20
500.998531
 11
385.812073
 21
470.919472
  0
LINE
  8
CutLine
  6
CONTINUOUS
 62
8
 10
391.534043
 20
512.790719
 11
432.115908
 21
500.998531
  0
LINE
  8
ValleyLine
  6
CONTINUOUS
 62
1
 10
446.250362
 20
503.086359
 11
386.573386
 21
520.427219
  0
LINE
  8
ValleyLine
  6
CONTINUOUS
 62
1
 10
378.158983
 20
458.854120
 11
446.250362
 21
503.086359
  0
LINE
  8
ValleyLine
  6
CONTINUOUS
 62
1
 10
363.757314
 20
457.085257
 11
378.158983
 21
458.854120
  0
LINE
  8
CutLine
  6
CONTINUOUS
 62
8
 10
386.573386
 20
520.427219
 11
372.939113
 21
524.273767
  0
LINE
  8
ValleyLine
  6
CONTINUOUS
 62
1
 10
292.772358
 20
537.520192
 11
296.631242
 21
523.532895
  0
LINE
  8
CutLine
  6
CONTINUOUS
 62
8
 10
358.772735
 20
524.226380
 11
360.581084
 21
538.276946
  0
LINE
  8
MountainLine
  6
CONTINUOUS
 62
5
 10
360.581084
 20
538.276946
 11
292.772358
 21
537.520192
  0
LINE
  8
ValleyLine
  6
CONTINUOUS
 62
1
 10
388.601114
 20
534.447834
 11
386.573386
 21
520.427219
  0
LINE
  8
ValleyLine
  6
CONTINUOUS
 62
1
 10
446.250362
 20
503.086359
 11
453.720620
 21
515.525585
  0
LINE
  8
CutLine
  6
CONTINUOUS
 62
8
 10
453.720620
 20
515.525585
 11
388.601114
 21
534.447834
  0
LINE
  8
CutLine
  6
CONTINUOUS
 62
8
 10
396.641231
 20
374.811596
 11
408.294611
 21
383.456702
  0
LINE
  8
CutLine
  6
CONTINUOUS
 62
8
 10
408.294611
 20
383.456702
 11
378.158983
 21
458.854120
  0
LINE
  8
MountainLine
  6
CONTINUOUS
 62
5
 10
363.757314
 20
457.085257
 11
396.641231
 21
374.811596
  0
LINE
  8
CutLine
  6
CONTINUOUS
 62
8
 10
344.844162
 20
599.888402
 11
351.499159
 21
558.155286
  0
LINE
  8
ValleyLine
  6
CONTINUOUS
 62
1
 10
358.459615
 20
552.283673
 11
348.673162
 21
613.653593
  0
LINE
  8
CutLine
  6
CONTINUOUS
 62
8
 10
309.241403
 20
557.683671
 11
344.844162
 21
599.888402
  0
LINE
  8
CutLine
  6
CONTINUOUS
 62
8
 10
351.499159
 20
558.155286
 11
309.241403
 21
557.683671
  0
LINE
  8
ValleyLine
  6
CONTINUOUS
 62
1
 10
296.318122
 20
551.590157
 11
358.459615
 21
552.283673
  0
LINE
  8
ValleyLine
  6
CONTINUOUS
 62
1
 10
348.673162
 20
613.653593
 11
296.318122
 21
551.590157
  0
LINE
  8
CutLine
  6
CONTINUOUS
 62
8
 10
431.266181
 20
577.142436
 11
390.957614
 21
564.447559
  0
LINE
  8
ValleyLine
  6
CONTINUOUS
 62
1
 10
386.168578
 20
556.702308
 11
445.443726
 21
575.370569
  0
LINE
  8
CutLine
  6
CONTINUOUS
 62
8
 10
384.302614
 20
606.180672
 11
431.266181
 21
577.142436
  0
LINE
  8
CutLine
  6
CONTINUOUS
 62
8
 10
390.957614
 20
564.447559
 11
384.302614
 21
606.180672
  0
LINE
  8
ValleyLine
  6
CONTINUOUS
 62
1
 10
376.382178
 20
618.072237
 11
386.168578
 21
556.702308
  0
LINE
  8
ValleyLine
  6
CONTINUOUS
 62
1
 10
445.443726
 20
575.370569
 11
376.382178
 21
618.072237
  0
LINE
  8
ValleyLine
  6
CONTINUOUS
 62
1
 10
361.944607
 20
619.519262
 11
348.673162
 21
613.653593
  0
LINE
  8
CutLine
  6
CONTINUOUS
 62
8
 10
358.459615
 20
552.283673
 11
372.623541
 21
552.552394
  0
LINE
  8
MountainLine
  6
CONTINUOUS
 62
5
 10
372.623541
 20
552.552394
 11
361.944607
 21
619.519262
  0
LINE
  8
ValleyLine
  6
CONTINUOUS
 62
1
 10
372.623541
 20
552.552394
 11
386.168578
 21
556.702308
  0
LINE
  8
ValleyLine
  6
CONTINUOUS
 62
1
 10
376.382178
 20
618.072237
 11
361.944607
 21
619.519262
  0
LINE
  8
ValleyLine
  6
CONTINUOUS
 62
1
 10
360.581084
 20
538.276946
 11
358.459615
 21
552.283673
  0
LINE
  8
ValleyLine
  6
CONTINUOUS
 62
1
 10
296.318122
 20
551.590157
 11
292.772358
 21
537.520192
  0
LINE
  8
ValleyLine
  6
CONTINUOUS
 62
1
 10
453.189698
 20
563.101195
 11
445.443726
 21
575.370569
  0
LINE
  8
CutLine
  6
CONTINUOUS
 62
8
 10
386.168578
 20
556.702308
 11
388.508688
 21
542.730418
  0
LINE
  8
MountainLine
  6
CONTINUOUS
 62
5
 10
388.508688
 20
542.730418
 11
453.189698
 21
563.101195
  0
LINE
  8
CutLine
  6
CONTINUOUS
 62
8
 10
306.633557
 20
688.736278
 11
297.984929
 21
677.085631
  0
LINE
  8
CutLine
  6
CONTINUOUS
 62
8
 10
297.984929
 20
677.085631
 11
348.673162
 21
613.653593
  0
LINE
  8
CutLine
  6
CONTINUOUS
 62
8
 10
361.944607
 20
619.519262
 11
306.633557
 21
688.736278
  0
LINE
  8
CutLine
  6
CONTINUOUS
 62
8
 10
376.382178
 20
618.072237
 11
404.827606
 21
694.123454
  0
LINE
  8
CutLine
  6
CONTINUOUS
 62
8
 10
404.827606
 20
694.123454
 11
392.984207
 21
702.506265
  0
LINE
  8
CutLine
  6
CONTINUOUS
 62
8
 10
392.984207
 20
702.506265
 11
361.944607
 21
619.519262
  0
LINE
  8
ValleyLine
  6
CONTINUOUS
 62
1
 10
923.503409
 20
937.840348
 11
937.532984
 21
939.805413
  0
LINE
  8
CutLine
  6
CONTINUOUS
 62
8
 10
937.532984
 20
939.805413
 11
937.533036
 21
1001.950762
  0
LINE
  8
ValleyLine
  6
CONTINUOUS
 62
1
 10
937.533036
 20
1001.950762
 11
923.503447
 21
1005.653277
  0
LINE
  8
MountainLine
  6
CONTINUOUS
 62
5
 10
923.503447
 20
1005.653277
 11
923.503409
 21
937.840348
  0
LINE
  8
ValleyLine
  6
CONTINUOUS
 62
1
 10
967.224057
 20
1082.716928
 11
977.599604
 21
1072.573657
  0
LINE
  8
CutLine
  6
CONTINUOUS
 62
8
 10
977.599604
 20
1072.573657
 11
1030.943892
 21
1104.455199
  0
LINE
  8
CutLine
  6
CONTINUOUS
 62
8
 10
1030.943892
 20
1104.455199
 11
1025.433286
 21
1117.506011
  0
LINE
  8
CutLine
  6
CONTINUOUS
 62
8
 10
1025.433286
 20
1117.506011
 11
967.224057
 21
1082.716928
  0
LINE
  8
CutLine
  6
CONTINUOUS
 62
8
 10
990.569888
 20
1018.538253
 11
949.117437
 21
1010.314009
  0
LINE
  8
ValleyLine
  6
CONTINUOUS
 62
1
 10
937.533036
 20
1001.950762
 11
998.490225
 21
1014.044795
  0
LINE
  8
CutLine
  6
CONTINUOUS
 62
8
 10
976.363727
 20
1058.339382
 11
990.569888
 21
1018.538253
  0
LINE
  8
CutLine
  6
CONTINUOUS
 62
8
 10
949.117437
 20
1010.314009
 11
976.363727
 21
1058.339382
  0
LINE
  8
ValleyLine
  6
CONTINUOUS
 62
1
 10
977.599604
 20
1072.573657
 11
937.533036
 21
1001.950762
  0
LINE
  8
ValleyLine
  6
CONTINUOUS
 62
1
 10
998.490225
 20
1014.044795
 11
977.599604
 21
1072.573657
  0
LINE
  8
MountainLine
  6
CONTINUOUS
 62
5
 10
967.224057
 20
1082.716928
 11
923.503447
 21
1005.653277
  0
LINE
  8
CutLine
  6
CONTINUOUS
 62
8
 10
870.643371
 20
1058.339521
 11
897.889551
 21
1010.314056
  0
LINE
  8
ValleyLine
  6
CONTINUOUS
 62
1
 10
909.473893
 20
1001.950772
 11
869.407499
 21
1072.573783
  0
LINE
  8
CutLine
  6
CONTINUOUS
 62
8
 10
856.437123
 20
1018.538424
 11
870.643371
 21
1058.339521
  0
LINE
  8
CutLine
  6
CONTINUOUS
 62
8
 10
897.889551
 20
1010.314056
 11
856.437123
 21
1018.538424
  0
LINE
  8
ValleyLine
  6
CONTINUOUS
 62
1
 10
848.516733
 20
1014.044965
 11
909.473893
 21
1001.950772
  0
LINE
  8
ValleyLine
  6
CONTINUOUS
 62
1
 10
869.407499
 20
1072.573783
 11
848.516733
 21
1014.044965
  0
LINE
  8
ValleyLine
  6
CONTINUOUS
 62
1
 10
879.783069
 20
1082.716979
 11
869.407499
 21
1072.573783
  0
LINE
  8
ValleyLine
  6
CONTINUOUS
 62
1
 10
909.473893
 20
1001.950772
 11
923.503447
 21
1005.653277
  0
LINE
  8
CutLine
  6
CONTINUOUS
 62
8
 10
923.503447
 20
1005.653277
 11
879.783069
 21
1082.716979
  0
LINE
  8
ValleyLine
  6
CONTINUOUS
 62
1
 10
821.573952
 20
1117.506265
 11
816.063300
 21
1104.455489
  0
LINE
  8
CutLine
  6
CONTINUOUS
 62
8
 10
816.063300
 20
1104.455489
 11
869.407499
 21
1072.573783
  0
LINE
  8
MountainLine
  6
CONTINUOUS
 62
5
 10
879.783069
 20
1082.716979
 11
821.573952
 21
1117.506265
  0
LINE
  8
CutLine
  6
CONTINUOUS
 62
8
 10
909.473893
 20
1001.950772
 11
909.473850
 21
939.805420
  0
LINE
  8
CutLine
  6
CONTINUOUS
 62
8
 10
909.473850
 20
939.805420
 11
923.503409
 21
937.840348
  0
LINE
  8
CutLine
  6
CONTINUOUS
 62
8
 10
914.865782
 20
386.231466
 11
927.360606
 21
393.608259
  0
LINE
  8
CutLine
  6
CONTINUOUS
 62
8
 10
927.360606
 20
393.608259
 11
905.288605
 21
471.747568
  0
LINE
  8
ValleyLine
  6
CONTINUOUS
 62
1
 10
905.288605
 20
471.747568
 11
890.780864
 21
471.496998
  0
LINE
  8
CutLine
  6
CONTINUOUS
 62
8
 10
890.780864
 20
471.496998
 11
914.865782
 21
386.231466
  0
LINE
  8
CutLine
  6
CONTINUOUS
 62
8
 10
885.435407
 20
533.513686
 11
875.358825
 21
492.472207
  0
LINE
  8
ValleyLine
  6
CONTINUOUS
 62
1
 10
878.038785
 20
478.437948
 11
892.856646
 21
538.790835
  0
LINE
  8
CutLine
  6
CONTINUOUS
 62
8
 10
843.360670
 20
537.471236
 11
885.435407
 21
533.513686
  0
LINE
  8
CutLine
  6
CONTINUOUS
 62
8
 10
875.358825
 20
492.472207
 11
843.360670
 21
537.471236
  0
LINE
  8
ValleyLine
  6
CONTINUOUS
 62
1
 10
830.984369
 20
544.610520
 11
878.038785
 21
478.437948
  0
LINE
  8
ValleyLine
  6
CONTINUOUS
 62
1
 10
892.856646
 20
538.790835
 11
830.984369
 21
544.610520
  0
LINE
  8
CutLine
  6
CONTINUOUS
 62
8
 10
963.363282
 20
508.008167
 11
914.163366
 21
482.944904
  0
LINE
  8
ValleyLine
  6
CONTINUOUS
 62
1
 10
905.288605
 20
471.747568
 11
977.638687
 21
508.603917
  0
LINE
  8
CutLine
  6
CONTINUOUS
 62
8
 10
924.239875
 20
523.986407
 11
963.363282
 21
508.008167
  0
LINE
  8
CutLine
  6
CONTINUOUS
 62
8
 10
914.163366
 20
482.944904
 11
924.239875
 21
523.986407
  0
LINE
  8
ValleyLine
  6
CONTINUOUS
 62
1
 10
920.106446
 20
532.100460
 11
905.288605
 21
471.747568
  0
LINE
  8
ValleyLine
  6
CONTINUOUS
 62
1
 10
977.638687
 20
508.603917
 11
920.106446
 21
532.100460
  0
LINE
  8
CutLine
  6
CONTINUOUS
 62
8
 10
920.106446
 20
532.100460
 11
906.950104
 21
537.354076
  0
LINE
  8
MountainLine
  6
CONTINUOUS
 62
5
 10
906.950104
 20
537.354076
 11
890.780864
 21
471.496998
  0
LINE
  8
ValleyLine
  6
CONTINUOUS
 62
1
 10
906.950104
 20
537.354076
 11
892.856646
 21
538.790835
  0
LINE
  8
ValleyLine
  6
CONTINUOUS
 62
1
 10
878.038785
 20
478.437948
 11
890.780864
 21
471.496998
  0
LINE
  8
ValleyLine
  6
CONTINUOUS
 62
1
 10
923.591666
 20
545.831558
 11
920.106446
 21
532.100460
  0
LINE
  8
ValleyLine
  6
CONTINUOUS
 62
1
 10
977.638687
 20
508.603917
 11
986.370822
 21
520.192166
  0
LINE
  8
CutLine
  6
CONTINUOUS
 62
8
 10
986.370822
 20
520.192166
 11
923.591666
 21
545.831558
  0
LINE
  8
ValleyLine
  6
CONTINUOUS
 62
1
 10
828.611914
 20
558.925169
 11
830.984369
 21
544.610520
  0
LINE
  8
CutLine
  6
CONTINUOUS
 62
8
 10
892.856646
 20
538.790835
 11
896.126903
 21
552.574711
  0
LINE
  8
MountainLine
  6
CONTINUOUS
 62
5
 10
896.126903
 20
552.574711
 11
828.611914
 21
558.925169
  0
LINE
  8
CutLine
  6
CONTINUOUS
 62
8
 10
878.038785
 20
478.437948
 11
822.288388
 21
419.405579
  0
LINE
  8
CutLine
  6
CONTINUOUS
 62
8
 10
822.288388
 20
419.405579
 11
829.946111
 21
407.080929
  0
LINE
  8
CutLine
  6
CONTINUOUS
 62
8
 10
829.946111
 20
407.080929
 11
890.780864
 21
471.496998
  0
LINE
  8
CutLine
  6
CONTINUOUS
 62
8
 10
858.237110
 20
707.857440
 11
848.415524
 21
697.176822
  0
LINE
  8
CutLine
  6
CONTINUOUS
 62
8
 10
848.415524
 20
697.176822
 11
892.180338
 21
628.784091
  0
LINE
  8
ValleyLine
  6
CONTINUOUS
 62
1
 10
892.180338
 20
628.784091
 11
905.993198
 21
633.227278
  0
LINE
  8
MountainLine
  6
CONTINUOUS
 62
5
 10
905.993198
 20
633.227278
 11
858.237110
 21
707.857440
  0
LINE
  8
CutLine
  6
CONTINUOUS
 62
8
 10
929.077656
 20
575.419347
 11
926.830948
 21
617.620023
  0
LINE
  8
ValleyLine
  6
CONTINUOUS
 62
1
 10
920.199749
 20
630.275846
 11
923.503681
 21
568.218369
  0
LINE
  8
CutLine
  6
CONTINUOUS
 62
8
 10
970.494321
 20
583.822026
 11
929.077656
 21
575.419347
  0
LINE
  8
CutLine
  6
CONTINUOUS
 62
8
 10
926.830948
 20
617.620023
 11
970.494321
 21
583.822026
  0
LINE
  8
ValleyLine
  6
CONTINUOUS
 62
1
 10
984.408241
 20
580.574773
 11
920.199749
 21
630.275846
  0
LINE
  8
ValleyLine
  6
CONTINUOUS
 62
1
 10
923.503681
 20
568.218369
 11
984.408241
 21
580.574773
  0
LINE
  8
ValleyLine
  6
CONTINUOUS
 62
1
 10
909.598459
 20
565.510209
 11
923.503681
 21
568.218369
  0
LINE
  8
ValleyLine
  6
CONTINUOUS
 62
1
 10
920.199749
 20
630.275846
 11
905.993198
 21
633.227278
  0
LINE
  8
MountainLine
  6
CONTINUOUS
 62
5
 10
905.993198
 20
633.227278
 11
909.598459
 21
565.510209
  0
LINE
  8
CutLine
  6
CONTINUOUS
 62
8
 10
847.102503
 20
577.252660
 11
886.930466
 21
615.495726
  0
LINE
  8
ValleyLine
  6
CONTINUOUS
 62
1
 10
892.180338
 20
628.784091
 11
833.612028
 21
572.546403
  0
LINE
  8
CutLine
  6
CONTINUOUS
 62
8
 10
889.177233
 20
573.295046
 11
847.102503
 21
577.252660
  0
LINE
  8
CutLine
  6
CONTINUOUS
 62
8
 10
886.930466
 20
615.495726
 11
889.177233
 21
573.295046
  0
LINE
  8
ValleyLine
  6
CONTINUOUS
 62
1
 10
895.484292
 20
566.726615
 11
892.180338
 21
628.784091
  0
LINE
  8
ValleyLine
  6
CONTINUOUS
 62
1
 10
833.612028
 20
572.546403
 11
895.484292
 21
566.726615
  0
LINE
  8
CutLine
  6
CONTINUOUS
 62
8
 10
895.484292
 20
566.726615
 11
909.598459
 21
565.510209
  0
LINE
  8
ValleyLine
  6
CONTINUOUS
 62
1
 10
896.126903
 20
552.574711
 11
895.484292
 21
566.726615
  0
LINE
  8
ValleyLine
  6
CONTINUOUS
 62
1
 10
833.612028
 20
572.546403
 11
828.611914
 21
558.925169
  0
LINE
  8
ValleyLine
  6
CONTINUOUS
 62
1
 10
990.826372
 20
567.561444
 11
984.408241
 21
580.574773
  0
LINE
  8
CutLine
  6
CONTINUOUS
 62
8
 10
923.503681
 20
568.218369
 11
924.367333
 21
554.078233
  0
LINE
  8
MountainLine
  6
CONTINUOUS
 62
5
 10
924.367333
 20
554.078233
 11
990.826372
 21
567.561444
  0
LINE
  8
CutLine
  6
CONTINUOUS
 62
8
 10
920.199749
 20
630.275846
 11
956.455298
 21
702.928873
  0
LINE
  8
CutLine
  6
CONTINUOUS
 62
8
 10
956.455298
 20
702.928873
 11
945.555174
 21
712.506265
  0
LINE
  8
CutLine
  6
CONTINUOUS
 62
8
 10
945.555174
 20
712.506265
 11
905.993198
 21
633.227278
  0
LINE
  8
ValleyLine
  6
CONTINUOUS
 62
1
 10
887.441218
 20
1333.633824
 11
873.411658
 21
1331.668722
  0
LINE
  8
CutLine
  6
CONTINUOUS
 62
8
 10
873.411658
 20
1331.668722
 11
873.411868
 21
1269.523356
  0
LINE
  8
ValleyLine
  6
CONTINUOUS
 62
1
 10
873.411868
 20
1269.523356
 11
887.441390
 21
1265.820819
  0
LINE
  8
MountainLine
  6
CONTINUOUS
 62
5
 10
887.441390
 20
1265.820819
 11
887.441218
 21
1333.633824
  0
LINE
  8
ValleyLine
  6
CONTINUOUS
 62
1
 10
843.720026
 20
1188.757533
 11
833.344577
 21
1198.900854
  0
LINE
  8
CutLine
  6
CONTINUOUS
 62
8
 10
833.344577
 20
1198.900854
 11
780.000000
 21
1167.019801
  0
LINE
  8
CutLine
  6
CONTINUOUS
 62
8
 10
780.000000
 20
1167.019801
 11
785.510493
 21
1153.968953
  0
LINE
  8
MountainLine
  6
CONTINUOUS
 62
5
 10
785.510493
 20
1153.968953
 11
843.720026
 21
1188.757533
  0
LINE
  8
CutLine
  6
CONTINUOUS
 62
8
 10
820.374876
 20
1252.936368
 11
861.827396
 21
1261.160230
  0
LINE
  8
CutLine
  6
CONTINUOUS
 62
8
 10
834.580631
 20
1213.135097
 11
820.374876
 21
1252.936368
  0
LINE
  8
ValleyLine
  6
CONTINUOUS
 62
1
 10
812.454544
 20
1257.429923
 11
833.344577
 21
1198.900854
  0
LINE
  8
ValleyLine
  6
CONTINUOUS
 62
1
 10
873.411868
 20
1269.523356
 11
812.454544
 21
1257.429923
  0
LINE
  8
CutLine
  6
CONTINUOUS
 62
8
 10
861.827396
 20
1261.160230
 11
834.580631
 21
1213.135097
  0
LINE
  8
ValleyLine
  6
CONTINUOUS
 62
1
 10
833.344577
 20
1198.900854
 11
873.411868
 21
1269.523356
  0
LINE
  8
CutLine
  6
CONTINUOUS
 62
8
 10
843.720026
 20
1188.757533
 11
887.441390
 21
1265.820819
  0
LINE
  8
CutLine
  6
CONTINUOUS
 62
8
 10
940.302079
 20
1213.135157
 11
913.055356
 21
1261.160281
  0
LINE
  8
ValleyLine
  6
CONTINUOUS
 62
1
 10
901.470854
 20
1269.523403
 11
941.538088
 21
1198.900886
  0
LINE
  8
CutLine
  6
CONTINUOUS
 62
8
 10
954.507877
 20
1252.936417
 11
940.302079
 21
1213.135157
  0
LINE
  8
CutLine
  6
CONTINUOUS
 62
8
 10
913.055356
 20
1261.160281
 11
954.507877
 21
1252.936417
  0
LINE
  8
ValleyLine
  6
CONTINUOUS
 62
1
 10
962.428173
 20
1257.429947
 11
901.470854
 21
1269.523403
  0
LINE
  8
ValleyLine
  6
CONTINUOUS
 62
1
 10
941.538088
 20
1198.900886
 11
962.428173
 21
1257.429947
  0
LINE
  8
ValleyLine
  6
CONTINUOUS
 62
1
 10
931.162630
 20
1188.757525
 11
941.538088
 21
1198.900886
  0
LINE
  8
ValleyLine
  6
CONTINUOUS
 62
1
 10
901.470854
 20
1269.523403
 11
887.441390
 21
1265.820819
  0
LINE
  8
MountainLine
  6
CONTINUOUS
 62
5
 10
887.441390
 20
1265.820819
 11
931.162630
 21
1188.757525
  0
LINE
  8
ValleyLine
  6
CONTINUOUS
 62
1
 10
989.372167
 20
1153.968948
 11
994.882661
 21
1167.019807
  0
LINE
  8
CutLine
  6
CONTINUOUS
 62
8
 10
994.882661
 20
1167.019807
 11
941.538088
 21
1198.900886
  0
LINE
  8
CutLine
  6
CONTINUOUS
 62
8
 10
931.162630
 20
1188.757525
 11
989.372167
 21
1153.968948
  0
LINE
  8
CutLine
  6
CONTINUOUS
 62
8
 10
901.470854
 20
1269.523403
 11
901.470794
 21
1331.668769
  0
LINE
  8
CutLine
  6
CONTINUOUS
 62
8
 10
901.470794
 20
1331.668769
 11
887.441218
 21
1333.633824
  0
LINE
  8
CutLine
  6
CONTINUOUS
 62
8
 10
424.202119
 20
1216.145636
 11
395.674795
 21
1205.650539
  0
LINE
  8
ValleyLine
  6
CONTINUOUS
 62
1
 10
394.372265
 20
1195.605145
 11
443.428444
 21
1213.652752
  0
LINE
  8
CutLine
  6
CONTINUOUS
 62
8
 10
335.651711
 20
1278.089941
 11
424.202119
 21
1216.145636
  0
LINE
  8
CutLine
  6
CONTINUOUS
 62
8
 10
335.573814
 20
1247.693435
 11
335.651711
 21
1278.089941
  0
LINE
  8
CutLine
  6
CONTINUOUS
 62
8
 10
395.674795
 20
1205.650539
 11
335.573814
 21
1247.693435
  0
LINE
  8
MountainLine
  6
CONTINUOUS
 62
5
 10
326.583891
 20
1243.025676
 11
394.372265
 21
1195.605145
  0
LINE
  8
ValleyLine
  6
CONTINUOUS
 62
1
 10
326.717851
 20
1295.296100
 11
326.583891
 21
1243.025676
  0
LINE
  8
ValleyLine
  6
CONTINUOUS
 62
1
 10
443.428444
 20
1213.652752
 11
326.717851
 21
1295.296100
  0
LINE
  8
CutLine
  6
CONTINUOUS
 62
8
 10
338.489949
 20
1310.700119
 11
343.664570
 21
1340.653031
  0
LINE
  8
CutLine
  6
CONTINUOUS
 62
8
 10
335.616228
 20
1346.803713
 11
326.717851
 21
1295.296100
  0
LINE
  8
CutLine
  6
CONTINUOUS
 62
8
 10
436.410432
 20
1356.414833
 11
338.489949
 21
1310.700119
  0
LINE
  8
CutLine
  6
CONTINUOUS
 62
8
 10
410.125243
 20
1371.680530
 11
436.410432
 21
1356.414833
  0
LINE
  8
CutLine
  6
CONTINUOUS
 62
8
 10
343.664570
 20
1340.653031
 11
410.125243
 21
1371.680530
  0
LINE
  8
MountainLine
  6
CONTINUOUS
 62
5
 10
410.577771
 20
1381.800027
 11
335.616228
 21
1346.803713
  0
LINE
  8
ValleyLine
  6
CONTINUOUS
 62
1
 10
455.778403
 20
1355.548794
 11
410.577771
 21
1381.800027
  0
LINE
  8
ValleyLine
  6
CONTINUOUS
 62
1
 10
326.717851
 20
1295.296100
 11
455.778403
 21
1355.548794
  0
LINE
  8
CutLine
  6
CONTINUOUS
 62
8
 10
344.606110
 20
1293.739207
 11
445.485880
 21
1340.835565
  0
LINE
  8
CutLine
  6
CONTINUOUS
 62
8
 10
435.832689
 20
1229.922892
 11
344.606110
 21
1293.739207
  0
LINE
  8
CutLine
  6
CONTINUOUS
 62
8
 10
445.485880
 20
1340.835565
 11
435.832689
 21
1229.922892
  0
LINE
  8
ValleyLine
  6
CONTINUOUS
 62
1
 10
443.428444
 20
1213.652752
 11
455.778403
 21
1355.548794
  0
LINE
  8
CutLine
  6
CONTINUOUS
 62
8
 10
445.428209
 20
1371.942102
 11
419.142974
 21
1387.207811
  0
LINE
  8
CutLine
  6
CONTINUOUS
 62
8
 10
436.609943
 20
1479.647739
 11
445.428209
 21
1371.942102
  0
LINE
  8
CutLine
  6
CONTINUOUS
 62
8
 10
413.157888
 20
1460.309847
 11
436.609943
 21
1479.647739
  0
LINE
  8
CutLine
  6
CONTINUOUS
 62
8
 10
419.142974
 20
1387.207811
 11
413.157888
 21
1460.309847
  0
LINE
  8
MountainLine
  6
CONTINUOUS
 62
5
 10
403.827083
 20
1464.252414
 11
410.577771
 21
1381.800027
  0
LINE
  8
ValleyLine
  6
CONTINUOUS
 62
1
 10
396.834734
 20
1377.728187
 11
410.577771
 21
1381.800027
  0
LINE
  8
CutLine
  6
CONTINUOUS
 62
8
 10
403.827083
 20
1464.252414
 11
389.604645
 21
1466.034607
  0
LINE
  8
CutLine
  6
CONTINUOUS
 62
8
 10
389.604645
 20
1466.034607
 11
396.834734
 21
1377.728187
  0
LINE
  8
CutLine
  6
CONTINUOUS
 62
8
 10
444.155810
 20
1497.506265
 11
403.827083
 21
1464.252414
  0
LINE
  8
CutLine
  6
CONTINUOUS
 62
8
 10
455.778403
 20
1355.548794
 11
444.155810
 21
1497.506265
  0
LINE
  8
ValleyLine
  6
CONTINUOUS
 62
1
 10
388.736880
 20
1182.425752
 11
394.372265
 21
1195.605145
  0
LINE
  8
ValleyLine
  6
CONTINUOUS
 62
1
 10
326.583891
 20
1243.025676
 11
316.135606
 21
1233.213148
  0
LINE
  8
MountainLine
  6
CONTINUOUS
 62
5
 10
316.135606
 20
1233.213148
 11
388.736880
 21
1182.425752
  0
LINE
  8
CutLine
  6
CONTINUOUS
 62
8
 10
326.583891
 20
1243.025676
 11
283.506668
 21
1313.653770
  0
LINE
  8
CutLine
  6
CONTINUOUS
 62
8
 10
283.506668
 20
1313.653770
 11
270.000000
 21
1308.855762
  0
LINE
  8
MountainLine
  6
CONTINUOUS
 62
5
 10
270.000000
 20
1308.855762
 11
316.135606
 21
1233.213148
  0
LINE
  8
CutLine
  6
CONTINUOUS
 62
8
 10
702.826395
 20
988.822185
 11
674.407653
 21
999.607926
  0
LINE
  8
ValleyLine
  6
CONTINUOUS
 62
1
 10
666.836391
 20
992.878606
 11
715.705890
 21
974.331382
  0
LINE
  8
CutLine
  6
CONTINUOUS
 62
8
 10
676.601664
 20
1093.657919
 11
702.826395
 21
988.822185
  0
LINE
  8
CutLine
  6
CONTINUOUS
 62
8
 10
656.608359
 20
1070.762008
 11
676.601664
 21
1093.657919
  0
LINE
  8
CutLine
  6
CONTINUOUS
 62
8
 10
674.407653
 20
999.607926
 11
656.608359
 21
1070.762008
  0
LINE
  8
MountainLine
  6
CONTINUOUS
 62
5
 10
646.760470
 20
1073.133918
 11
666.836391
 21
992.878606
  0
LINE
  8
ValleyLine
  6
CONTINUOUS
 62
1
 10
653.938914
 20
986.624931
 11
666.836391
 21
992.878606
  0
LINE
  8
CutLine
  6
CONTINUOUS
 62
8
 10
646.760470
 20
1073.133918
 11
632.437594
 21
1072.578412
  0
LINE
  8
MountainLine
  6
CONTINUOUS
 62
5
 10
632.437594
 20
1072.578412
 11
653.938914
 21
986.624931
  0
LINE
  8
CutLine
  6
CONTINUOUS
 62
8
 10
681.141345
 20
1112.506265
 11
646.760470
 21
1073.133918
  0
LINE
  8
CutLine
  6
CONTINUOUS
 62
8
 10
715.705890
 20
974.331382
 11
681.141345
 21
1112.506265
  0
LINE
  8
CutLine
  6
CONTINUOUS
 62
8
 10
607.277294
 20
910.997206
 11
607.509544
 21
941.392962
  0
LINE
  8
ValleyLine
  6
CONTINUOUS
 62
1
 10
598.567741
 20
946.152258
 11
598.168360
 21
893.883095
  0
LINE
  8
CutLine
  6
CONTINUOUS
 62
8
 10
696.455147
 20
972.034759
 11
607.277294
 21
910.997206
  0
LINE
  8
CutLine
  6
CONTINUOUS
 62
8
 10
668.036399
 20
982.820403
 11
696.455147
 21
972.034759
  0
LINE
  8
CutLine
  6
CONTINUOUS
 62
8
 10
607.509544
 20
941.392962
 11
668.036399
 21
982.820403
  0
LINE
  8
MountainLine
  6
CONTINUOUS
 62
5
 10
666.836391
 20
992.878606
 11
598.567741
 21
946.152258
  0
LINE
  8
ValleyLine
  6
CONTINUOUS
 62
1
 10
598.168360
 20
893.883095
 11
715.705890
 21
974.331382
  0
LINE
  8
CutLine
  6
CONTINUOUS
 62
8
 10
707.231698
 20
831.648273
 11
680.792063
 21
816.651528
  0
LINE
  8
ValleyLine
  6
CONTINUOUS
 62
1
 10
681.141345
 20
806.528022
 11
726.607473
 21
832.316730
  0
LINE
  8
CutLine
  6
CONTINUOUS
 62
8
 10
609.782726
 20
878.359764
 11
707.231698
 21
831.648273
  0
LINE
  8
CutLine
  6
CONTINUOUS
 62
8
 10
614.651472
 20
848.355584
 11
609.782726
 21
878.359764
  0
LINE
  8
CutLine
  6
CONTINUOUS
 62
8
 10
680.792063
 20
816.651528
 11
614.651472
 21
848.355584
  0
LINE
  8
MountainLine
  6
CONTINUOUS
 62
5
 10
606.540756
 20
842.287283
 11
681.141345
 21
806.528022
  0
LINE
  8
CutLine
  6
CONTINUOUS
 62
8
 10
598.168360
 20
893.883095
 11
606.540756
 21
842.287283
  0
LINE
  8
ValleyLine
  6
CONTINUOUS
 62
1
 10
726.607473
 20
832.316730
 11
598.168360
 21
893.883095
  0
LINE
  8
CutLine
  6
CONTINUOUS
 62
8
 10
716.465644
 20
847.134219
 11
616.071607
 21
895.257413
  0
LINE
  8
CutLine
  6
CONTINUOUS
 62
8
 10
707.944509
 20
958.139579
 11
716.465644
 21
847.134219
  0
LINE
  8
CutLine
  6
CONTINUOUS
 62
8
 10
616.071607
 20
895.257413
 11
707.944509
 21
958.139579
  0
LINE
  8
ValleyLine
  6
CONTINUOUS
 62
1
 10
726.607473
 20
832.316730
 11
715.705890
 21
974.331382
  0
LINE
  8
ValleyLine
  6
CONTINUOUS
 62
1
 10
677.725401
 20
792.607365
 11
681.141345
 21
806.528022
  0
LINE
  8
ValleyLine
  6
CONTINUOUS
 62
1
 10
606.540756
 20
842.287283
 11
597.828224
 21
830.905522
  0
LINE
  8
CutLine
  6
CONTINUOUS
 62
8
 10
597.828224
 20
830.905522
 11
677.725401
 21
792.607365
  0
LINE
  8
CutLine
  6
CONTINUOUS
 62
8
 10
606.540756
 20
842.287283
 11
552.546131
 21
904.965354
  0
LINE
  8
CutLine
  6
CONTINUOUS
 62
8
 10
552.546131
 20
904.965354
 11
540.000000
 21
898.033690
  0
LINE
  8
MountainLine
  6
CONTINUOUS
 62
5
 10
540.000000
 20
898.033690
 11
597.828224
 21
830.905522
  0
LINE
  8
CutLine
  6
CONTINUOUS
 62
8
 10
870.644077
 20
1448.340114
 11
897.890847
 21
1400.314983
  0
LINE
  8
ValleyLine
  6
CONTINUOUS
 62
1
 10
909.475320
 20
1391.951858
 11
869.408022
 21
1462.574357
  0
LINE
  8
CutLine
  6
CONTINUOUS
 62
8
 10
856.438326
 20
1408.538842
 11
870.644077
 21
1448.340114
  0
LINE
  8
CutLine
  6
CONTINUOUS
 62
8
 10
897.890847
 20
1400.314983
 11
856.438326
 21
1408.538842
  0
LINE
  8
ValleyLine
  6
CONTINUOUS
 62
1
 10
848.517995
 20
1404.045286
 11
909.475320
 21
1391.951858
  0
LINE
  8
ValleyLine
  6
CONTINUOUS
 62
1
 10
869.408022
 20
1462.574357
 11
848.517995
 21
1404.045286
  0
LINE
  8
ValleyLine
  6
CONTINUOUS
 62
1
 10
879.783471
 20
1472.717679
 11
869.408022
 21
1462.574357
  0
LINE
  8
ValleyLine
  6
CONTINUOUS
 62
1
 10
909.475320
 20
1391.951858
 11
923.504841
 21
1395.654397
  0
LINE
  8
MountainLine
  6
CONTINUOUS
 62
5
 10
923.504841
 20
1395.654397
 11
879.783471
 21
1472.717679
  0
LINE
  8
ValleyLine
  6
CONTINUOUS
 62
1
 10
821.573945
 20
1507.506265
 11
816.063450
 21
1494.455418
  0
LINE
  8
CutLine
  6
CONTINUOUS
 62
8
 10
816.063450
 20
1494.455418
 11
869.408022
 21
1462.574357
  0
LINE
  8
MountainLine
  6
CONTINUOUS
 62
5
 10
879.783471
 20
1472.717679
 11
821.573945
 21
1507.506265
  0
LINE
  8
CutLine
  6
CONTINUOUS
 62
8
 10
909.475320
 20
1391.951858
 11
909.475115
 21
1329.806492
  0
LINE
  8
CutLine
  6
CONTINUOUS
 62
8
 10
909.475115
 20
1329.806492
 11
923.504675
 21
1327.841392
  0
LINE
  8
MountainLine
  6
CONTINUOUS
 62
5
 10
923.504675
 20
1327.841392
 11
923.504841
 21
1395.654397
  0
LINE
  8
ValleyLine
  6
CONTINUOUS
 62
1
 10
923.504675
 20
1327.841392
 11
937.534251
 21
1329.806448
  0
LINE
  8
CutLine
  6
CONTINUOUS
 62
8
 10
937.534251
 20
1329.806448
 11
937.534305
 21
1391.951814
  0
LINE
  8
ValleyLine
  6
CONTINUOUS
 62
1
 10
937.534305
 20
1391.951814
 11
923.504841
 21
1395.654397
  0
LINE
  8
ValleyLine
  6
CONTINUOUS
 62
1
 10
967.226076
 20
1472.717698
 11
977.601533
 21
1462.574335
  0
LINE
  8
CutLine
  6
CONTINUOUS
 62
8
 10
977.601533
 20
1462.574335
 11
1030.946117
 21
1494.455396
  0
LINE
  8
CutLine
  6
CONTINUOUS
 62
8
 10
1030.946117
 20
1494.455396
 11
1025.435627
 21
1507.506257
  0
LINE
  8
CutLine
  6
CONTINUOUS
 62
8
 10
1025.435627
 20
1507.506257
 11
967.226076
 21
1472.717698
  0
LINE
  8
CutLine
  6
CONTINUOUS
 62
8
 10
990.571327
 20
1408.538804
 11
949.118808
 21
1400.314939
  0
LINE
  8
ValleyLine
  6
CONTINUOUS
 62
1
 10
937.534305
 20
1391.951814
 11
998.491624
 21
1404.045275
  0
LINE
  8
CutLine
  6
CONTINUOUS
 62
8
 10
976.365525
 20
1448.340063
 11
990.571327
 21
1408.538804
  0
LINE
  8
CutLine
  6
CONTINUOUS
 62
8
 10
949.118808
 20
1400.314939
 11
976.365525
 21
1448.340063
  0
LINE
  8
ValleyLine
  6
CONTINUOUS
 62
1
 10
977.601533
 20
1462.574335
 11
937.534305
 21
1391.951814
  0
LINE
  8
ValleyLine
  6
CONTINUOUS
 62
1
 10
998.491624
 20
1404.045275
 11
977.601533
 21
1462.574335
  0
LINE
  8
CutLine
  6
CONTINUOUS
 62
8
 10
967.226076
 20
1472.717698
 11
923.504841
 21
1395.654397
  0
LINE
  8
CutLine
  6
CONTINUOUS
 62
8
 10
935.300425
 20
833.134763
 11
908.054140
 21
881.160141
  0
LINE
  8
ValleyLine
  6
CONTINUOUS
 62
1
 10
896.469741
 20
889.523387
 11
936.536300
 21
818.900487
  0
LINE
  8
CutLine
  6
CONTINUOUS
 62
8
 10
949.506591
 20
872.935889
 11
935.300425
 21
833.134763
  0
LINE
  8
CutLine
  6
CONTINUOUS
 62
8
 10
908.054140
 20
881.160141
 11
949.506591
 21
872.935889
  0
LINE
  8
ValleyLine
  6
CONTINUOUS
 62
1
 10
957.426928
 20
877.429347
 11
896.469741
 21
889.523387
  0
LINE
  8
ValleyLine
  6
CONTINUOUS
 62
1
 10
936.536300
 20
818.900487
 11
957.426928
 21
877.429347
  0
LINE
  8
ValleyLine
  6
CONTINUOUS
 62
1
 10
926.160754
 20
808.757214
 11
936.536300
 21
818.900487
  0
LINE
  8
ValleyLine
  6
CONTINUOUS
 62
1
 10
896.469741
 20
889.523387
 11
882.440152
 21
885.820874
  0
LINE
  8
MountainLine
  6
CONTINUOUS
 62
5
 10
882.440152
 20
885.820874
 11
926.160754
 21
808.757214
  0
LINE
  8
ValleyLine
  6
CONTINUOUS
 62
1
 10
984.369996
 20
773.968147
 11
989.880597
 21
787.018961
  0
LINE
  8
CutLine
  6
CONTINUOUS
 62
8
 10
989.880597
 20
787.018961
 11
936.536300
 21
818.900487
  0
LINE
  8
CutLine
  6
CONTINUOUS
 62
8
 10
926.160754
 20
808.757214
 11
984.369996
 21
773.968147
  0
LINE
  8
CutLine
  6
CONTINUOUS
 62
8
 10
896.469741
 20
889.523387
 11
896.469697
 21
951.668737
  0
LINE
  8
CutLine
  6
CONTINUOUS
 62
8
 10
896.469697
 20
951.668737
 11
882.440122
 21
953.633803
  0
LINE
  8
MountainLine
  6
CONTINUOUS
 62
5
 10
882.440122
 20
953.633803
 11
882.440152
 21
885.820874
  0
LINE
  8
ValleyLine
  6
CONTINUOUS
 62
1
 10
882.440122
 20
953.633803
 11
868.410563
 21
951.668733
  0
LINE
  8
CutLine
  6
CONTINUOUS
 62
8
 10
868.410563
 20
951.668733
 11
868.410598
 21
889.523381
  0
LINE
  8
ValleyLine
  6
CONTINUOUS
 62
1
 10
868.410598
 20
889.523381
 11
882.440152
 21
885.820874
  0
LINE
  8
ValleyLine
  6
CONTINUOUS
 62
1
 10
838.719766
 20
808.757176
 11
828.344195
 21
818.900375
  0
LINE
  8
CutLine
  6
CONTINUOUS
 62
8
 10
828.344195
 20
818.900375
 11
775.000000
 21
787.018663
  0
LINE
  8
CutLine
  6
CONTINUOUS
 62
8
 10
775.000000
 20
787.018663
 11
780.510653
 21
773.967887
  0
LINE
  8
MountainLine
  6
CONTINUOUS
 62
5
 10
780.510653
 20
773.967887
 11
838.719766
 21
808.757176
  0
LINE
  8
CutLine
  6
CONTINUOUS
 62
8
 10
815.373829
 20
872.935734
 11
856.826255
 21
881.160098
  0
LINE
  8
ValleyLine
  6
CONTINUOUS
 62
1
 10
868.410598
 20
889.523381
 11
807.453437
 21
877.429196
  0
LINE
  8
CutLine
  6
CONTINUOUS
 62
8
 10
829.580069
 20
833.134636
 11
815.373829
 21
872.935734
  0
LINE
  8
CutLine
  6
CONTINUOUS
 62
8
 10
856.826255
 20
881.160098
 11
829.580069
 21
833.134636
  0
LINE
  8
ValleyLine
  6
CONTINUOUS
 62
1
 10
828.344195
 20
818.900375
 11
868.410598
 21
889.523381
  0
LINE
  8
ValleyLine
  6
CONTINUOUS
 62
1
 10
807.453437
 20
877.429196
 11
828.344195
 21
818.900375
  0
LINE
  8
MountainLine
  6
CONTINUOUS
 62
5
 10
838.719766
 20
808.757176
 11
882.440152
 21
885.820874
  0
LINE
  8
ValleyLine
  6
CONTINUOUS
 62
1
 10
261.158060
 20
983.556350
 11
273.629374
 21
976.491133
  0
LINE
  8
CutLine
  6
CONTINUOUS
 62
8
 10
273.629374
 20
976.491133
 11
328.290173
 21
1038.589216
  0
LINE
  8
ValleyLine
  6
CONTINUOUS
 62
1
 10
328.290173
 20
1038.589216
 11
319.699663
 21
1050.063341
  0
LINE
  8
CutLine
  6
CONTINUOUS
 62
8
 10
319.699663
 20
1050.063341
 11
261.158060
 21
983.556350
  0
LINE
  8
CutLine
  6
CONTINUOUS
 62
8
 10
416.814019
 20
907.889184
 11
388.281760
 21
897.407637
  0
LINE
  8
ValleyLine
  6
CONTINUOUS
 62
1
 10
386.974456
 20
887.362740
 11
436.039201
 21
905.387035
  0
LINE
  8
CutLine
  6
CONTINUOUS
 62
8
 10
328.293054
 20
969.875430
 11
416.814019
 21
907.889184
  0
LINE
  8
CutLine
  6
CONTINUOUS
 62
8
 10
328.200730
 20
939.478964
 11
328.293054
 21
969.875430
  0
LINE
  8
CutLine
  6
CONTINUOUS
 62
8
 10
388.281760
 20
897.407637
 11
328.200730
 21
939.478964
  0
LINE
  8
MountainLine
  6
CONTINUOUS
 62
5
 10
319.208590
 20
934.815478
 11
386.974456
 21
887.362740
  0
LINE
  8
CutLine
  6
CONTINUOUS
 62
8
 10
319.367355
 20
987.085833
 11
319.208590
 21
934.815478
  0
LINE
  8
ValleyLine
  6
CONTINUOUS
 62
1
 10
436.039201
 20
905.387035
 11
319.367355
 21
987.085833
  0
LINE
  8
CutLine
  6
CONTINUOUS
 62
8
 10
331.146754
 20
1002.484259
 11
336.335591
 21
1032.434711
  0
LINE
  8
ValleyLine
  6
CONTINUOUS
 62
1
 10
328.290173
 20
1038.589216
 11
319.367355
 21
987.085833
  0
LINE
  8
CutLine
  6
CONTINUOUS
 62
8
 10
429.088969
 20
1048.152565
 11
331.146754
 21
1002.484259
  0
LINE
  8
CutLine
  6
CONTINUOUS
 62
8
 10
402.810986
 20
1063.430753
 11
429.088969
 21
1048.152565
  0
LINE
  8
CutLine
  6
CONTINUOUS
 62
8
 10
336.335591
 20
1032.434711
 11
402.810986
 21
1063.430753
  0
LINE
  8
MountainLine
  6
CONTINUOUS
 62
5
 10
403.268307
 20
1073.549912
 11
328.290173
 21
1038.589216
  0
LINE
  8
ValleyLine
  6
CONTINUOUS
 62
1
 10
448.456462
 20
1047.277203
 11
403.268307
 21
1073.549912
  0
LINE
  8
ValleyLine
  6
CONTINUOUS
 62
1
 10
319.367355
 20
987.085833
 11
448.456462
 21
1047.277203
  0
LINE
  8
CutLine
  6
CONTINUOUS
 62
8
 10
428.451042
 20
921.660787
 11
337.254870
 21
985.520424
  0
LINE
  8
CutLine
  6
CONTINUOUS
 62
8
 10
438.157058
 20
1032.568853
 11
428.451042
 21
921.660787
  0
LINE
  8
CutLine
  6
CONTINUOUS
 62
8
 10
337.254870
 20
985.520424
 11
438.157058
 21
1032.568853
  0
LINE
  8
CutLine
  6
CONTINUOUS
 62
8
 10
436.039201
 20
905.387035
 11
448.456462
 21
1047.277203
  0
LINE
  8
CutLine
  6
CONTINUOUS
 62
8
 10
395.663002
 20
786.484804
 11
375.915389
 21
809.592917
  0
LINE
  8
CutLine
  6
CONTINUOUS
 62
8
 10
366.042683
 20
807.326314
 11
400.001173
 21
767.589108
  0
LINE
  8
CutLine
  6
CONTINUOUS
 62
8
 10
423.005687
 20
891.034514
 11
395.663002
 21
786.484804
  0
LINE
  8
CutLine
  6
CONTINUOUS
 62
8
 10
394.473381
 20
880.552968
 11
423.005687
 21
891.034514
  0
LINE
  8
CutLine
  6
CONTINUOUS
 62
8
 10
375.915389
 20
809.592917
 11
394.473381
 21
880.552968
  0
LINE
  8
MountainLine
  6
CONTINUOUS
 62
5
 10
386.974456
 20
887.362740
 11
366.042683
 21
807.326314
  0
LINE
  8
ValleyLine
  6
CONTINUOUS
 62
1
 10
351.726538
 20
808.034804
 11
366.042683
 21
807.326314
  0
LINE
  8
ValleyLine
  6
CONTINUOUS
 62
1
 10
400.001173
 20
767.589108
 11
436.039201
 21
905.387035
  0
LINE
  8
CutLine
  6
CONTINUOUS
 62
8
 10
386.974456
 20
887.362740
 11
374.144553
 21
893.753713
  0
LINE
  8
MountainLine
  6
CONTINUOUS
 62
5
 10
374.144553
 20
893.753713
 11
351.726538
 21
808.034804
  0
LINE
  8
CutLine
  6
CONTINUOUS
 62
8
 10
403.268307
 20
1073.549912
 11
400.001173
 21
1087.506265
  0
LINE
  8
CutLine
  6
CONTINUOUS
 62
8
 10
400.001173
 20
1087.506265
 11
319.699663
 21
1050.063341
  0
LINE
  8
ValleyLine
  6
CONTINUOUS
 62
1
 10
150.729879
 20
640.401405
 11
140.783754
 21
630.080200
  0
LINE
  8
CutLine
  6
CONTINUOUS
 62
8
 10
140.783754
 20
630.080200
 11
187.328407
 21
561.687452
  0
LINE
  8
CutLine
  6
CONTINUOUS
 62
8
 10
187.328407
 20
561.687452
 11
200.579183
 21
567.152825
  0
LINE
  8
MountainLine
  6
CONTINUOUS
 62
5
 10
200.579183
 20
567.152825
 11
150.729879
 21
640.401405
  0
LINE
  8
CutLine
  6
CONTINUOUS
 62
8
 10
41.946889
 20
652.060244
 11
69.915535
 21
663.964455
  0
LINE
  8
CutLine
  6
CONTINUOUS
 62
8
 10
70.715703
 20
674.062333
 11
22.620211
 21
653.591599
  0
LINE
  8
CutLine
  6
CONTINUOUS
 62
8
 10
133.475260
 20
594.607394
 11
41.946889
 21
652.060244
  0
LINE
  8
CutLine
  6
CONTINUOUS
 62
8
 10
132.037734
 20
624.970020
 11
133.475260
 21
594.607394
  0
LINE
  8
CutLine
  6
CONTINUOUS
 62
8
 10
69.915535
 20
663.964455
 11
132.037734
 21
624.970020
  0
LINE
  8
MountainLine
  6
CONTINUOUS
 62
5
 10
140.783754
 20
630.080200
 11
70.715703
 21
674.062333
  0
LINE
  8
ValleyLine
  6
CONTINUOUS
 62
1
 10
143.255752
 20
577.867997
 11
140.783754
 21
630.080200
  0
LINE
  8
ValleyLine
  6
CONTINUOUS
 62
1
 10
22.620211
 20
653.591599
 11
143.255752
 21
577.867997
  0
LINE
  8
CutLine
  6
CONTINUOUS
 62
8
 10
132.266160
 20
561.896267
 11
128.591173
 21
531.722603
  0
LINE
  8
CutLine
  6
CONTINUOUS
 62
8
 10
136.936170
 20
525.980737
 11
143.255752
 21
577.867997
  0
LINE
  8
CutLine
  6
CONTINUOUS
 62
8
 10
36.746373
 20
511.356818
 11
132.266160
 21
561.896267
  0
LINE
  8
CutLine
  6
CONTINUOUS
 62
8
 10
63.759959
 20
497.420434
 11
36.746373
 21
511.356818
  0
LINE
  8
CutLine
  6
CONTINUOUS
 62
8
 10
128.591173
 20
531.722603
 11
63.759959
 21
497.420434
  0
LINE
  8
MountainLine
  6
CONTINUOUS
 62
5
 10
63.812438
 20
487.291041
 11
136.936170
 21
525.980737
  0
LINE
  8
ValleyLine
  6
CONTINUOUS
 62
1
 10
17.359331
 20
511.256329
 11
63.812438
 21
487.291041
  0
LINE
  8
ValleyLine
  6
CONTINUOUS
 62
1
 10
143.255752
 20
577.867997
 11
17.359331
 21
511.256329
  0
LINE
  8
CutLine
  6
CONTINUOUS
 62
8
 10
125.312086
 20
578.531212
 11
26.905542
 21
526.464373
  0
LINE
  8
CutLine
  6
CONTINUOUS
 62
8
 10
31.017662
 20
637.720341
 11
125.312086
 21
578.531212
  0
LINE
  8
CutLine
  6
CONTINUOUS
 62
8
 10
26.905542
 20
526.464373
 11
31.017662
 21
637.720341
  0
LINE
  8
ValleyLine
  6
CONTINUOUS
 62
1
 10
22.620211
 20
653.591599
 11
17.359331
 21
511.256329
  0
LINE
  8
CutLine
  6
CONTINUOUS
 62
8
 10
28.513891
 20
495.399326
 11
55.527474
 21
481.462986
  0
LINE
  8
CutLine
  6
CONTINUOUS
 62
8
 10
42.690503
 20
388.267205
 11
28.513891
 21
495.399326
  0
LINE
  8
CutLine
  6
CONTINUOUS
 62
8
 10
65.149372
 20
408.750282
 11
42.690503
 21
388.267205
  0
LINE
  8
CutLine
  6
CONTINUOUS
 62
8
 10
55.527474
 20
481.462986
 11
65.149372
 21
408.750282
  0
LINE
  8
MountainLine
  6
CONTINUOUS
 62
5
 10
74.665112
 20
405.277767
 11
63.812438
 21
487.291041
  0
LINE
  8
ValleyLine
  6
CONTINUOUS
 62
1
 10
36.044286
 20
370.054777
 11
74.665112
 21
405.277767
  0
LINE
  8
CutLine
  6
CONTINUOUS
 62
8
 10
17.359331
 20
511.256329
 11
36.044286
 21
370.054777
  0
LINE
  8
ValleyLine
  6
CONTINUOUS
 62
1
 10
77.335466
 20
492.042999
 11
63.812438
 21
487.291041
  0
LINE
  8
CutLine
  6
CONTINUOUS
 62
8
 10
74.665112
 20
405.277767
 11
88.958693
 21
404.206741
  0
LINE
  8
CutLine
  6
CONTINUOUS
 62
8
 10
88.958693
 20
404.206741
 11
77.335466
 21
492.042999
  0
LINE
  8
ValleyLine
  6
CONTINUOUS
 62
1
 10
75.687045
 20
687.506265
 11
70.715703
 21
674.062333
  0
LINE
  8
MountainLine
  6
CONTINUOUS
 62
5
 10
150.729879
 20
640.401405
 11
75.687045
 21
687.506265
  0
LINE
  8
ValleyLine
  6
CONTINUOUS
 62
1
 10
195.541131
 20
1260.633486
 11
184.493141
 21
1269.765594
  0
LINE
  8
CutLine
  6
CONTINUOUS
 62
8
 10
184.493141
 20
1269.765594
 11
119.839784
 21
1218.152431
  0
LINE
  8
ValleyLine
  6
CONTINUOUS
 62
1
 10
119.839784
 20
1218.152431
 11
126.297477
 21
1205.355860
  0
LINE
  8
MountainLine
  6
CONTINUOUS
 62
5
 10
126.297477
 20
1205.355860
 11
195.541131
 21
1260.633486
  0
LINE
  8
CutLine
  6
CONTINUOUS
 62
8
 10
55.468076
 20
1362.288864
 11
85.391191
 21
1367.633453
  0
LINE
  8
ValleyLine
  6
CONTINUOUS
 62
1
 10
88.430283
 20
1377.296335
 11
36.973926
 21
1368.105642
  0
LINE
  8
CutLine
  6
CONTINUOUS
 62
8
 10
131.821267
 20
1285.813665
 11
55.468076
 21
1362.288864
  0
LINE
  8
CutLine
  6
CONTINUOUS
 62
8
 10
137.213616
 20
1315.728193
 11
131.821267
 21
1285.813665
  0
LINE
  8
CutLine
  6
CONTINUOUS
 62
8
 10
85.391191
 20
1367.633453
 11
137.213616
 21
1315.728193
  0
LINE
  8
MountainLine
  6
CONTINUOUS
 62
5
 10
146.881342
 20
1318.751916
 11
88.430283
 21
1377.296335
  0
LINE
  8
CutLine
  6
CONTINUOUS
 62
8
 10
137.608552
 20
1267.310297
 11
146.881342
 21
1318.751916
  0
LINE
  8
ValleyLine
  6
CONTINUOUS
 62
1
 10
36.973926
 20
1368.105642
 11
137.608552
 21
1267.310297
  0
LINE
  8
CutLine
  6
CONTINUOUS
 62
8
 10
123.324082
 20
1254.202309
 11
112.991120
 21
1225.615837
  0
LINE
  8
ValleyLine
  6
CONTINUOUS
 62
1
 10
119.839784
 20
1218.152431
 11
137.608552
 21
1267.310297
  0
LINE
  8
CutLine
  6
CONTINUOUS
 62
8
 10
18.918049
 20
1226.315961
 11
123.324082
 21
1254.202309
  0
LINE
  8
CutLine
  6
CONTINUOUS
 62
8
 10
42.128606
 20
1206.688811
 11
18.918049
 21
1226.315961
  0
LINE
  8
CutLine
  6
CONTINUOUS
 62
8
 10
112.991120
 20
1225.615837
 11
42.128606
 21
1206.688811
  0
LINE
  8
MountainLine
  6
CONTINUOUS
 62
5
 10
39.913378
 20
1196.804481
 11
119.839784
 21
1218.152431
  0
LINE
  8
ValleyLine
  6
CONTINUOUS
 62
1
 10
0.000000
 20
1230.555760
 11
39.913378
 21
1196.804481
  0
LINE
  8
ValleyLine
  6
CONTINUOUS
 62
1
 10
137.608552
 20
1267.310297
 11
0.000000
 21
1230.555760
  0
LINE
  8
CutLine
  6
CONTINUOUS
 62
8
 10
41.607436
 20
1350.757871
 11
120.268180
 21
1271.971465
  0
LINE
  8
CutLine
  6
CONTINUOUS
 62
8
 10
12.706818
 20
1243.242376
 11
41.607436
 21
1350.757871
  0
LINE
  8
CutLine
  6
CONTINUOUS
 62
8
 10
120.268180
 20
1271.971465
 11
12.706818
 21
1243.242376
  0
LINE
  8
CutLine
  6
CONTINUOUS
 62
8
 10
36.973926
 20
1368.105642
 11
0.000000
 21
1230.555760
  0
LINE
  8
CutLine
  6
CONTINUOUS
 62
8
 10
97.469016
 20
1478.143532
 11
112.883742
 21
1451.945413
  0
LINE
  8
CutLine
  6
CONTINUOUS
 62
8
 10
123.000442
 20
1452.455382
 11
96.493000
 21
1497.506265
  0
LINE
  8
CutLine
  6
CONTINUOUS
 62
8
 10
52.310911
 20
1379.965056
 11
97.469016
 21
1478.143532
  0
LINE
  8
CutLine
  6
CONTINUOUS
 62
8
 10
82.233985
 20
1385.309622
 11
52.310911
 21
1379.965056
  0
LINE
  8
CutLine
  6
CONTINUOUS
 62
8
 10
112.883742
 20
1451.945413
 11
82.233985
 21
1385.309622
  0
LINE
  8
MountainLine
  6
CONTINUOUS
 62
5
 10
88.430283
 20
1377.296335
 11
123.000442
 21
1452.455382
  0
LINE
  8
ValleyLine
  6
CONTINUOUS
 62
1
 10
96.493000
 20
1497.506265
 11
36.973926
 21
1368.105642
  0
LINE
  8
ValleyLine
  6
CONTINUOUS
 62
1
 10
136.973546
 20
1449.260823
 11
123.000442
 21
1452.455382
  0
LINE
  8
CutLine
  6
CONTINUOUS
 62
8
 10
88.430283
 20
1377.296335
 11
99.949016
 21
1368.765669
  0
LINE
  8
CutLine
  6
CONTINUOUS
 62
8
 10
99.949016
 20
1368.765669
 11
136.973546
 21
1449.260823
  0
LINE
  8
CutLine
  6
CONTINUOUS
 62
8
 10
39.913378
 20
1196.804481
 11
40.696349
 21
1182.492256
  0
LINE
  8
MountainLine
  6
CONTINUOUS
 62
5
 10
40.696349
 20
1182.492256
 11
126.297477
 21
1205.355860
  0
LINE
  8
ValleyLine
  6
CONTINUOUS
 62
1
 10
567.235413
 20
432.764844
 11
577.250909
 21
443.018797
  0
LINE
  8
CutLine
  6
CONTINUOUS
 62
8
 10
577.250909
 20
443.018797
 11
531.168506
 21
511.723856
  0
LINE
  8
CutLine
  6
CONTINUOUS
 62
8
 10
531.168506
 20
511.723856
 11
517.881152
 21
506.347887
  0
LINE
  8
CutLine
  6
CONTINUOUS
 62
8
 10
517.881152
 20
506.347887
 11
567.235413
 21
432.764844
  0
LINE
  8
CutLine
  6
CONTINUOUS
 62
8
 10
675.937412
 20
420.373179
 11
647.889171
 21
408.657711
  0
LINE
  8
ValleyLine
  6
CONTINUOUS
 62
1
 10
647.021027
 20
398.565495
 11
695.253349
 21
418.711676
  0
LINE
  8
CutLine
  6
CONTINUOUS
 62
8
 10
584.798277
 20
478.441462
 11
675.937412
 21
420.373179
  0
LINE
  8
CutLine
  6
CONTINUOUS
 62
8
 10
586.031191
 20
448.069871
 11
584.798277
 21
478.441462
  0
LINE
  8
CutLine
  6
CONTINUOUS
 62
8
 10
647.889171
 20
408.657711
 11
586.031191
 21
448.069871
  0
LINE
  8
MountainLine
  6
CONTINUOUS
 62
5
 10
577.250909
 20
443.018797
 11
647.021027
 21
398.565495
  0
LINE
  8
ValleyLine
  6
CONTINUOUS
 62
1
 10
575.130777
 20
495.246378
 11
577.250909
 21
443.018797
  0
LINE
  8
ValleyLine
  6
CONTINUOUS
 62
1
 10
695.253349
 20
418.711676
 11
575.130777
 21
495.246378
  0
LINE
  8
CutLine
  6
CONTINUOUS
 62
8
 10
586.227680
 20
511.143697
 11
590.105882
 21
541.291884
  0
LINE
  8
CutLine
  6
CONTINUOUS
 62
8
 10
581.799801
 20
547.089790
 11
575.130777
 21
495.246378
  0
LINE
  8
CutLine
  6
CONTINUOUS
 62
8
 10
682.085795
 20
561.038464
 11
586.227680
 21
511.143697
  0
LINE
  8
CutLine
  6
CONTINUOUS
 62
8
 10
655.166735
 20
575.156512
 11
682.085795
 21
561.038464
  0
LINE
  8
CutLine
  6
CONTINUOUS
 62
8
 10
590.105882
 20
541.291884
 11
655.166735
 21
575.156512
  0
LINE
  8
MountainLine
  6
CONTINUOUS
 62
5
 10
655.182521
 20
585.285987
 11
581.799801
 21
547.089790
  0
LINE
  8
ValleyLine
  6
CONTINUOUS
 62
1
 10
701.473086
 20
561.008279
 11
655.182521
 21
585.285987
  0
LINE
  8
ValleyLine
  6
CONTINUOUS
 62
1
 10
575.130777
 20
495.246378
 11
701.473086
 21
561.008279
  0
LINE
  8
CutLine
  6
CONTINUOUS
 62
8
 10
593.069532
 20
494.462288
 11
691.824666
 21
545.864910
  0
LINE
  8
CutLine
  6
CONTINUOUS
 62
8
 10
686.963065
 20
434.639138
 11
593.069532
 21
494.462288
  0
LINE
  8
CutLine
  6
CONTINUOUS
 62
8
 10
691.824666
 20
545.864910
 11
686.963065
 21
434.639138
  0
LINE
  8
ValleyLine
  6
CONTINUOUS
 62
1
 10
695.253349
 20
418.711676
 11
701.473086
 21
561.008279
  0
LINE
  8
CutLine
  6
CONTINUOUS
 62
8
 10
690.425626
 20
576.940022
 11
663.506568
 21
591.058084
  0
LINE
  8
CutLine
  6
CONTINUOUS
 62
8
 10
676.971196
 20
684.165229
 11
690.425626
 21
576.940022
  0
LINE
  8
CutLine
  6
CONTINUOUS
 62
8
 10
654.374771
 20
663.834032
 11
676.971196
 21
684.165229
  0
LINE
  8
CutLine
  6
CONTINUOUS
 62
8
 10
663.506568
 20
591.058084
 11
654.374771
 21
663.834032
  0
LINE
  8
MountainLine
  6
CONTINUOUS
 62
5
 10
644.882638
 20
667.370583
 11
655.182521
 21
585.285987
  0
LINE
  8
CutLine
  6
CONTINUOUS
 62
8
 10
683.739916
 20
702.332526
 11
644.882638
 21
667.370583
  0
LINE
  8
CutLine
  6
CONTINUOUS
 62
8
 10
701.473086
 20
561.008279
 11
683.739916
 21
702.332526
  0
LINE
  8
ValleyLine
  6
CONTINUOUS
 62
1
 10
641.627712
 20
580.625301
 11
655.182521
 21
585.285987
  0
LINE
  8
CutLine
  6
CONTINUOUS
 62
8
 10
644.882638
 20
667.370583
 11
630.596578
 21
668.537830
  0
LINE
  8
CutLine
  6
CONTINUOUS
 62
8
 10
630.596578
 20
668.537830
 11
641.627712
 21
580.625301
  0
LINE
  8
ValleyLine
  6
CONTINUOUS
 62
1
 10
641.959199
 20
385.155354
 11
647.021027
 21
398.565495
  0
LINE
  8
MountainLine
  6
CONTINUOUS
 62
5
 10
567.235413
 20
432.764844
 11
641.959199
 21
385.155354
  0
LINE
  8
ValleyLine
  6
CONTINUOUS
 62
1
 10
689.585593
 20
1457.777014
 11
680.669660
 21
1446.553817
  0
LINE
  8
CutLine
  6
CONTINUOUS
 62
8
 10
680.669660
 20
1446.553817
 11
733.527779
 21
1382.914249
  0
LINE
  8
CutLine
  6
CONTINUOUS
 62
8
 10
733.527779
 20
1382.914249
 11
746.196563
 21
1389.619127
  0
LINE
  8
CutLine
  6
CONTINUOUS
 62
8
 10
746.196563
 20
1389.619127
 11
689.585593
 21
1457.777014
  0
LINE
  8
CutLine
  6
CONTINUOUS
 62
8
 10
580.186482
 20
1459.002543
 11
606.891602
 21
1473.521205
  0
LINE
  8
ValleyLine
  6
CONTINUOUS
 62
1
 10
606.724498
 20
1483.649352
 11
560.801792
 21
1458.682737
  0
LINE
  8
CutLine
  6
CONTINUOUS
 62
8
 10
676.779350
 20
1410.545491
 11
580.186482
 21
1459.002543
  0
LINE
  8
CutLine
  6
CONTINUOUS
 62
8
 10
672.451163
 20
1440.632419
 11
676.779350
 21
1410.545491
  0
LINE
  8
CutLine
  6
CONTINUOUS
 62
8
 10
606.891602
 20
1473.521205
 11
672.451163
 21
1440.632419
  0
LINE
  8
MountainLine
  6
CONTINUOUS
 62
5
 10
680.669660
 20
1446.553817
 11
606.724498
 21
1483.649352
  0
LINE
  8
ValleyLine
  6
CONTINUOUS
 62
1
 10
688.112497
 20
1394.815735
 11
680.669660
 21
1446.553817
  0
LINE
  8
ValleyLine
  6
CONTINUOUS
 62
1
 10
560.801792
 20
1458.682737
 11
688.112497
 21
1394.815735
  0
LINE
  8
CutLine
  6
CONTINUOUS
 62
8
 10
678.697087
 20
1377.868247
 11
677.918068
 21
1347.481587
  0
LINE
  8
CutLine
  6
CONTINUOUS
 62
8
 10
686.772880
 20
1342.562216
 11
688.112497
 21
1394.815735
  0
LINE
  8
CutLine
  6
CONTINUOUS
 62
8
 10
588.435753
 20
1318.444784
 11
678.697087
 21
1377.868247
  0
LINE
  8
CutLine
  6
CONTINUOUS
 62
8
 10
616.655872
 20
1307.149668
 11
588.435753
 21
1318.444784
  0
LINE
  8
CutLine
  6
CONTINUOUS
 62
8
 10
677.918068
 20
1347.481587
 11
616.655872
 21
1307.149668
  0
LINE
  8
MountainLine
  6
CONTINUOUS
 62
5
 10
617.674618
 20
1297.071497
 11
686.772880
 21
1342.562216
  0
LINE
  8
ValleyLine
  6
CONTINUOUS
 62
1
 10
569.146687
 20
1316.494820
 11
617.674618
 21
1297.071497
  0
LINE
  8
ValleyLine
  6
CONTINUOUS
 62
1
 10
688.112497
 20
1394.815735
 11
569.146687
 21
1316.494820
  0
LINE
  8
CutLine
  6
CONTINUOUS
 62
8
 10
670.187423
 20
1393.763717
 11
577.198163
 21
1332.544380
  0
LINE
  8
CutLine
  6
CONTINUOUS
 62
8
 10
570.675352
 20
1443.685193
 11
670.187423
 21
1393.763717
  0
LINE
  8
CutLine
  6
CONTINUOUS
 62
8
 10
577.198163
 20
1332.544380
 11
570.675352
 21
1443.685193
  0
LINE
  8
ValleyLine
  6
CONTINUOUS
 62
1
 10
560.801792
 20
1458.682737
 11
569.146687
 21
1316.494820
  0
LINE
  8
CutLine
  6
CONTINUOUS
 62
8
 10
581.763444
 20
1301.774554
 11
609.983580
 21
1290.479474
  0
LINE
  8
CutLine
  6
CONTINUOUS
 62
8
 10
606.098049
 20
1196.484029
 11
581.763444
 21
1301.774554
  0
LINE
  8
CutLine
  6
CONTINUOUS
 62
8
 10
626.499988
 20
1219.016585
 11
606.098049
 21
1196.484029
  0
LINE
  8
CutLine
  6
CONTINUOUS
 62
8
 10
609.983580
 20
1290.479474
 11
626.499988
 21
1219.016585
  0
LINE
  8
MountainLine
  6
CONTINUOUS
 62
5
 10
636.303662
 20
1216.467919
 11
617.674618
 21
1297.071497
  0
LINE
  8
CutLine
  6
CONTINUOUS
 62
8
 10
601.220091
 20
1177.720405
 11
636.303662
 21
1216.467919
  0
LINE
  8
CutLine
  6
CONTINUOUS
 62
8
 10
569.146687
 20
1316.494820
 11
601.220091
 21
1177.720405
  0
LINE
  8
ValleyLine
  6
CONTINUOUS
 62
1
 10
630.682557
 20
1303.092046
 11
617.674618
 21
1297.071497
  0
LINE
  8
CutLine
  6
CONTINUOUS
 62
8
 10
636.303662
 20
1216.467919
 11
650.634185
 21
1216.765815
  0
LINE
  8
MountainLine
  6
CONTINUOUS
 62
5
 10
650.634185
 20
1216.765815
 11
630.682557
 21
1303.092046
  0
LINE
  8
ValleyLine
  6
CONTINUOUS
 62
1
 10
610.390367
 20
1497.506265
 11
606.724498
 21
1483.649352
  0
LINE
  8
MountainLine
  6
CONTINUOUS
 62
5
 10
689.585593
 20
1457.777014
 11
610.390367
 21
1497.506265
  0
LINE
  8
ValleyLine
  6
CONTINUOUS
 62
1
 10
388.763469
 20
83.723616
 11
374.294754
 21
84.815976
  0
LINE
  8
CutLine
  6
CONTINUOUS
 62
8
 10
374.294754
 20
84.815976
 11
347.723754
 21
8.089783
  0
LINE
  8
CutLine
  6
CONTINUOUS
 62
8
 10
347.723754
 20
8.089783
 11
359.769273
 21
0.000000
  0
LINE
  8
CutLine
  6
CONTINUOUS
 62
8
 10
359.769273
 20
0.000000
 11
388.763469
 21
83.723616
  0
LINE
  8
CutLine
  6
CONTINUOUS
 62
8
 10
445.756167
 20
15.884604
 11
454.116359
 21
27.743892
  0
LINE
  8
CutLine
  6
CONTINUOUS
 62
8
 10
454.116359
 20
27.743892
 11
401.886990
 21
89.913136
  0
LINE
  8
ValleyLine
  6
CONTINUOUS
 62
1
 10
401.886990
 20
89.913136
 11
388.763469
 21
83.723616
  0
LINE
  8
CutLine
  6
CONTINUOUS
 62
8
 10
388.763469
 20
83.723616
 11
445.756167
 21
15.884604
  0
LINE
  8
CutLine
  6
CONTINUOUS
 62
8
 10
405.377113
 20
103.768136
 11
397.700147
 21
145.325403
  0
LINE
  8
ValleyLine
  6
CONTINUOUS
 62
1
 10
390.597741
 20
151.024522
 11
401.886990
 21
89.913136
  0
LINE
  8
CutLine
  6
CONTINUOUS
 62
8
 10
439.933642
 20
146.833694
 11
405.377113
 21
103.768136
  0
LINE
  8
CutLine
  6
CONTINUOUS
 62
8
 10
397.700147
 20
145.325403
 11
439.933642
 21
146.833694
  0
LINE
  8
ValleyLine
  6
CONTINUOUS
 62
1
 10
452.703511
 20
153.242459
 11
390.597741
 21
151.024522
  0
LINE
  8
ValleyLine
  6
CONTINUOUS
 62
1
 10
401.886991
 20
89.913136
 11
452.703511
 21
153.242459
  0
LINE
  8
CutLine
  6
CONTINUOUS
 62
8
 10
318.423041
 20
124.386837
 11
358.408030
 21
138.066900
  0
LINE
  8
ValleyLine
  6
CONTINUOUS
 62
1
 10
363.005554
 20
145.927371
 11
304.206309
 21
125.810324
  0
LINE
  8
CutLine
  6
CONTINUOUS
 62
8
 10
366.084934
 20
96.509621
 11
318.423041
 21
124.386837
  0
LINE
  8
CutLine
  6
CONTINUOUS
 62
8
 10
358.408030
 20
138.066900
 11
366.084934
 21
96.509621
  0
LINE
  8
ValleyLine
  6
CONTINUOUS
 62
1
 10
374.294754
 20
84.815976
 11
363.005554
 21
145.927371
  0
LINE
  8
ValleyLine
  6
CONTINUOUS
 62
1
 10
304.206309
 20
125.810324
 11
374.294754
 21
84.815976
  0
LINE
  8
ValleyLine
  6
CONTINUOUS
 62
1
 10
376.444692
 20
150.408319
 11
363.005554
 21
145.927371
  0
LINE
  8
MountainLine
  6
CONTINUOUS
 62
5
 10
388.763469
 20
83.723616
 11
376.444692
 21
150.408319
  0
LINE
  8
CutLine
  6
CONTINUOUS
 62
8
 10
390.597741
 20
151.024522
 11
376.444692
 21
150.408319
  0
LINE
  8
ValleyLine
  6
CONTINUOUS
 62
1
 10
296.161607
 20
137.885997
 11
304.206309
 21
125.810324
  0
LINE
  8
CutLine
  6
CONTINUOUS
 62
8
 10
363.005554
 20
145.927371
 11
360.323339
 21
159.837620
  0
LINE
  8
MountainLine
  6
CONTINUOUS
 62
5
 10
360.323339
 20
159.837620
 11
296.161607
 21
137.885997
  0
LINE
  8
ValleyLine
  6
CONTINUOUS
 62
1
 10
388.133258
 20
164.974964
 11
390.597741
 21
151.024522
  0
LINE
  8
ValleyLine
  6
CONTINUOUS
 62
1
 10
452.703511
 20
153.242459
 11
455.903006
 21
167.395152
  0
LINE
  8
MountainLine
  6
CONTINUOUS
 62
5
 10
455.903006
 20
167.395152
 11
388.133258
 21
164.974964
  0
LINE
  8
ValleyLine
  6
CONTINUOUS
 62
1
 10
382.965906
 20
246.064241
 11
396.497522
 21
240.826633
  0
LINE
  8
CutLine
  6
CONTINUOUS
 62
8
 10
396.497522
 20
240.826633
 11
444.159063
 21
306.563206
  0
LINE
  8
CutLine
  6
CONTINUOUS
 62
8
 10
444.159063
 20
306.563206
 11
434.974229
 21
317.795978
  0
LINE
  8
MountainLine
  6
CONTINUOUS
 62
5
 10
434.974229
 20
317.795978
 11
382.965906
 21
246.064241
  0
LINE
  8
CutLine
  6
CONTINUOUS
 62
8
 10
438.507591
 20
186.765102
 11
396.274128
 21
185.256873
  0
LINE
  8
ValleyLine
  6
CONTINUOUS
 62
1
 10
389.596334
 20
179.065682
 11
451.702106
 21
181.283593
  0
LINE
  8
CutLine
  6
CONTINUOUS
 62
8
 10
400.967071
 20
227.255897
 11
438.507591
 21
186.765102
  0
LINE
  8
CutLine
  6
CONTINUOUS
 62
8
 10
396.274128
 20
185.256873
 11
400.967071
 21
227.255897
  0
LINE
  8
ValleyLine
  6
CONTINUOUS
 62
1
 10
396.497522
 20
240.826633
 11
389.596334
 21
179.065682
  0
LINE
  8
ValleyLine
  6
CONTINUOUS
 62
1
 10
451.702106
 20
181.283593
 11
396.497522
 21
240.826633
  0
LINE
  8
CutLine
  6
CONTINUOUS
 62
8
 10
361.257215
 20
231.693059
 11
356.564262
 21
189.694036
  0
LINE
  8
ValleyLine
  6
CONTINUOUS
 62
1
 10
361.710823
 20
182.181600
 11
368.611964
 21
243.942556
  0
LINE
  8
CutLine
  6
CONTINUOUS
 62
8
 10
315.705317
 20
200.486960
 11
361.257215
 21
231.693059
  0
LINE
  8
CutLine
  6
CONTINUOUS
 62
8
 10
356.564262
 20
189.694036
 11
315.705317
 21
200.486960
  0
LINE
  8
ValleyLine
  6
CONTINUOUS
 62
1
 10
301.626329
 20
198.052975
 11
361.710823
 21
182.181600
  0
LINE
  8
ValleyLine
  6
CONTINUOUS
 62
1
 10
368.611964
 20
243.942556
 11
301.626329
 21
198.052975
  0
LINE
  8
ValleyLine
  6
CONTINUOUS
 62
1
 10
382.965906
 20
246.064241
 11
368.611964
 21
243.942556
  0
LINE
  8
CutLine
  6
CONTINUOUS
 62
8
 10
361.710823
 20
182.181600
 11
375.435370
 21
178.670682
  0
LINE
  8
MountainLine
  6
CONTINUOUS
 62
5
 10
375.435370
 20
178.670682
 11
382.965906
 21
246.064241
  0
LINE
  8
ValleyLine
  6
CONTINUOUS
 62
1
 10
375.435370
 20
178.670682
 11
389.596334
 21
179.065682
  0
LINE
  8
ValleyLine
  6
CONTINUOUS
 62
1
 10
455.903006
 20
167.395152
 11
451.702106
 21
181.283593
  0
LINE
  8
CutLine
  6
CONTINUOUS
 62
8
 10
389.596334
 20
179.065682
 11
388.133258
 21
164.974964
  0
LINE
  8
ValleyLine
  6
CONTINUOUS
 62
1
 10
360.027715
 20
168.115439
 11
361.710823
 21
182.181600
  0
LINE
  8
ValleyLine
  6
CONTINUOUS
 62
1
 10
301.626329
 20
198.052975
 11
294.463544
 21
185.434250
  0
LINE
  8
CutLine
  6
CONTINUOUS
 62
8
 10
294.463544
 20
185.434250
 11
360.027715
 21
168.115439
  0
LINE
  8
CutLine
  6
CONTINUOUS
 62
8
 10
348.073266
 20
327.506265
 11
336.635515
 21
318.577908
  0
LINE
  8
CutLine
  6
CONTINUOUS
 62
8
 10
336.635515
 20
318.577908
 11
368.611964
 21
243.942556
  0
LINE
  8
MountainLine
  6
CONTINUOUS
 62
5
 10
382.965906
 20
246.064241
 11
348.073266
 21
327.506265
  0
LINE
  8
CutLine
  6
CONTINUOUS
 62
8
 10
36.761314
 20
323.814783
 11
28.101989
 21
312.171963
  0
LINE
  8
CutLine
  6
CONTINUOUS
 62
8
 10
28.101989
 20
312.171963
 11
78.732643
 21
248.693903
  0
LINE
  8
ValleyLine
  6
CONTINUOUS
 62
1
 10
78.732643
 20
248.693903
 11
92.009404
 21
254.547504
  0
LINE
  8
MountainLine
  6
CONTINUOUS
 62
5
 10
92.009404
 20
254.547504
 11
36.761314
 21
323.814783
  0
LINE
  8
CutLine
  6
CONTINUOUS
 62
8
 10
120.972286
 20
199.449405
 11
114.355212
 21
241.188587
  0
LINE
  8
ValleyLine
  6
CONTINUOUS
 62
1
 10
106.445642
 20
253.087352
 11
116.176255
 21
191.708516
  0
LINE
  8
CutLine
  6
CONTINUOUS
 62
8
 10
161.292416
 20
212.107712
 11
120.972286
 21
199.449405
  0
LINE
  8
CutLine
  6
CONTINUOUS
 62
8
 10
114.355212
 20
241.188587
 11
161.292416
 21
212.107712
  0
LINE
  8
ValleyLine
  6
CONTINUOUS
 62
1
 10
175.468326
 20
210.322955
 11
106.445642
 21
253.087352
  0
LINE
  8
ValleyLine
  6
CONTINUOUS
 62
1
 10
116.176255
 20
191.708516
 11
175.468326
 21
210.322955
  0
LINE
  8
CutLine
  6
CONTINUOUS
 62
8
 10
39.249977
 20
192.759830
 11
74.891070
 21
234.932184
  0
LINE
  8
ValleyLine
  6
CONTINUOUS
 62
1
 10
78.732643
 20
248.693903
 11
26.321180
 21
186.678053
  0
LINE
  8
CutLine
  6
CONTINUOUS
 62
8
 10
81.508201
 20
193.193011
 11
39.249977
 21
192.759830
  0
LINE
  8
CutLine
  6
CONTINUOUS
 62
8
 10
74.891070
 20
234.932184
 11
81.508201
 21
193.193011
  0
LINE
  8
ValleyLine
  6
CONTINUOUS
 62
1
 10
88.463278
 20
187.315070
 11
78.732643
 21
248.693903
  0
LINE
  8
ValleyLine
  6
CONTINUOUS
 62
1
 10
26.321180
 20
186.678053
 11
88.463278
 21
187.315070
  0
LINE
  8
CutLine
  6
CONTINUOUS
 62
8
 10
88.463278
 20
187.315070
 11
102.627453
 21
187.570968
  0
LINE
  8
MountainLine
  6
CONTINUOUS
 62
5
 10
102.627453
 20
187.570968
 11
92.009404
 21
254.547504
  0
LINE
  8
ValleyLine
  6
CONTINUOUS
 62
1
 10
102.627453
 20
187.570968
 11
116.176255
 21
191.708516
  0
LINE
  8
ValleyLine
  6
CONTINUOUS
 62
1
 10
106.445642
 20
253.087352
 11
92.009404
 21
254.547504
  0
LINE
  8
ValleyLine
  6
CONTINUOUS
 62
1
 10
90.572069
 20
173.306418
 11
88.463278
 21
187.315070
  0
LINE
  8
ValleyLine
  6
CONTINUOUS
 62
1
 10
26.321180
 20
186.678053
 11
22.762647
 21
172.611212
  0
LINE
  8
MountainLine
  6
CONTINUOUS
 62
5
 10
22.762647
 20
172.611212
 11
90.572069
 21
173.306418
  0
LINE
  8
ValleyLine
  6
CONTINUOUS
 62
1
 10
183.203172
 20
198.046501
 11
175.468326
 21
210.322955
  0
LINE
  8
CutLine
  6
CONTINUOUS
 62
8
 10
116.176255
 20
191.708516
 11
118.503669
 21
177.734522
  0
LINE
  8
MountainLine
  6
CONTINUOUS
 62
5
 10
118.503669
 20
177.734522
 11
183.203172
 21
198.046501
  0
LINE
  8
CutLine
  6
CONTINUOUS
 62
8
 10
106.445642
 20
253.087352
 11
134.960275
 21
329.112613
  0
LINE
  8
CutLine
  6
CONTINUOUS
 62
8
 10
134.960275
 20
329.112613
 11
123.124491
 21
337.506265
  0
LINE
  8
CutLine
  6
CONTINUOUS
 62
8
 10
123.124491
 20
337.506265
 11
92.009404
 21
254.547504
  0
LINE
  8
CutLine
  6
CONTINUOUS
 62
8
 10
126.484074
 20
9.808541
 11
138.145275
 21
18.443018
  0
LINE
  8
CutLine
  6
CONTINUOUS
 62
8
 10
138.145275
 20
18.443018
 11
108.077995
 21
93.867723
  0
LINE
  8
ValleyLine
  6
CONTINUOUS
 62
1
 10
108.077995
 20
93.867723
 11
93.674716
 21
92.111903
  0
LINE
  8
CutLine
  6
CONTINUOUS
 62
8
 10
93.674716
 20
92.111903
 11
126.484074
 21
9.808541
  0
LINE
  8
CutLine
  6
CONTINUOUS
 62
8
 10
81.917832
 20
153.238159
 11
76.157884
 21
111.372135
  0
LINE
  8
ValleyLine
  6
CONTINUOUS
 62
1
 10
80.280727
 20
97.692081
 11
88.750922
 21
159.257459
  0
LINE
  8
CutLine
  6
CONTINUOUS
 62
8
 10
39.659609
 20
152.804910
 11
81.917832
 21
153.238159
  0
LINE
  8
CutLine
  6
CONTINUOUS
 62
8
 10
76.157884
 20
111.372135
 11
39.659609
 21
152.804910
  0
LINE
  8
ValleyLine
  6
CONTINUOUS
 62
1
 10
26.608824
 20
158.620331
 11
80.280727
 21
97.692081
  0
LINE
  8
ValleyLine
  6
CONTINUOUS
 62
1
 10
88.750922
 20
159.257459
 11
26.608824
 21
158.620331
  0
LINE
  8
CutLine
  6
CONTINUOUS
 62
8
 10
162.073077
 20
135.963232
 11
115.742010
 21
105.926143
  0
LINE
  8
ValleyLine
  6
CONTINUOUS
 62
1
 10
108.077995
 20
93.867723
 11
176.209432
 21
138.038241
  0
LINE
  8
CutLine
  6
CONTINUOUS
 62
8
 10
121.501882
 20
147.792172
 11
162.073077
 21
135.963232
  0
LINE
  8
CutLine
  6
CONTINUOUS
 62
8
 10
115.742010
 20
105.926143
 11
121.501882
 21
147.792172
  0
LINE
  8
ValleyLine
  6
CONTINUOUS
 62
1
 10
116.548171
 20
155.433104
 11
108.077995
 21
93.867723
  0
LINE
  8
ValleyLine
  6
CONTINUOUS
 62
1
 10
176.209432
 20
138.038241
 11
116.548171
 21
155.433104
  0
LINE
  8
ValleyLine
  6
CONTINUOUS
 62
1
 10
102.917384
 20
159.292050
 11
88.750922
 21
159.257459
  0
LINE
  8
ValleyLine
  6
CONTINUOUS
 62
1
 10
80.280727
 20
97.692081
 11
93.674716
 21
92.111903
  0
LINE
  8
MountainLine
  6
CONTINUOUS
 62
5
 10
93.674716
 20
92.111903
 11
102.917384
 21
159.292050
  0
LINE
  8
CutLine
  6
CONTINUOUS
 62
8
 10
116.548171
 20
155.433104
 11
102.917384
 21
159.292050
  0
LINE
  8
ValleyLine
  6
CONTINUOUS
 62
1
 10
118.588599
 20
169.451894
 11
116.548171
 21
155.433104
  0
LINE
  8
ValleyLine
  6
CONTINUOUS
 62
1
 10
176.209432
 20
138.038241
 11
183.690939
 21
150.470653
  0
LINE
  8
CutLine
  6
CONTINUOUS
 62
8
 10
183.690939
 20
150.470653
 11
118.588599
 21
169.451894
  0
LINE
  8
ValleyLine
  6
CONTINUOUS
 62
1
 10
22.762647
 20
172.611212
 11
26.608824
 21
158.620331
  0
LINE
  8
CutLine
  6
CONTINUOUS
 62
8
 10
88.750922
 20
159.257459
 11
90.572069
 21
173.306418
  0
LINE
  8
CutLine
  6
CONTINUOUS
 62
8
 10
80.280727
 20
97.692081
 11
30.962165
 21
33.189334
  0
LINE
  8
CutLine
  6
CONTINUOUS
 62
8
 10
30.962165
 20
33.189334
 11
39.858379
 21
21.726560
  0
LINE
  8
CutLine
  6
CONTINUOUS
 62
8
 10
39.858379
 20
21.726560
 11
93.674716
 21
92.111903
  0
LINE
  8
ValleyLine
  6
CONTINUOUS
 62
1
 10
202.109774
 20
858.562385
 11
189.537801
 21
865.447174
  0
LINE
  8
CutLine
  6
CONTINUOUS
 62
8
 10
189.537801
 20
865.447174
 11
135.777801
 21
802.567643
  0
LINE
  8
ValleyLine
  6
CONTINUOUS
 62
1
 10
135.777801
 20
802.567643
 11
144.532816
 21
791.218482
  0
LINE
  8
MountainLine
  6
CONTINUOUS
 62
5
 10
144.532816
 20
791.218482
 11
202.109774
 21
858.562385
  0
LINE
  8
CutLine
  6
CONTINUOUS
 62
8
 10
45.379762
 20
931.978616
 11
73.758114
 21
942.870209
  0
LINE
  8
ValleyLine
  6
CONTINUOUS
 62
1
 10
74.920479
 20
952.932784
 11
26.120566
 21
934.203344
  0
LINE
  8
CutLine
  6
CONTINUOUS
 62
8
 10
134.784772
 20
871.274253
 11
45.379762
 21
931.978616
  0
LINE
  8
CutLine
  6
CONTINUOUS
 62
8
 10
134.439077
 20
901.668893
 11
134.784772
 21
871.274253
  0
LINE
  8
CutLine
  6
CONTINUOUS
 62
8
 10
73.758114
 20
942.870209
 11
134.439077
 21
901.668893
  0
LINE
  8
MountainLine
  6
CONTINUOUS
 62
5
 10
143.363083
 20
906.461471
 11
74.920479
 21
952.932784
  0
LINE
  8
ValleyLine
  6
CONTINUOUS
 62
1
 10
143.957539
 20
854.194255
 11
143.363083
 21
906.461471
  0
LINE
  8
ValleyLine
  6
CONTINUOUS
 62
1
 10
26.120566
 20
934.203344
 11
143.957539
 21
854.194255
  0
LINE
  8
CutLine
  6
CONTINUOUS
 62
8
 10
132.401252
 20
838.627688
 11
127.644532
 21
808.605575
  0
LINE
  8
CutLine
  6
CONTINUOUS
 62
8
 10
135.777801
 20
802.567643
 11
143.957539
 21
854.194255
  0
LINE
  8
CutLine
  6
CONTINUOUS
 62
8
 10
35.127303
 20
791.552790
 11
132.401252
 21
838.627688
  0
LINE
  8
CutLine
  6
CONTINUOUS
 62
8
 10
61.622722
 20
776.654850
 11
35.127303
 21
791.552790
  0
LINE
  8
CutLine
  6
CONTINUOUS
 62
8
 10
127.644532
 20
808.605575
 11
61.622722
 21
776.654850
  0
LINE
  8
MountainLine
  6
CONTINUOUS
 62
5
 10
61.311270
 20
766.530151
 11
135.777801
 21
802.567643
  0
LINE
  8
ValleyLine
  6
CONTINUOUS
 62
1
 10
15.749207
 20
792.148977
 11
61.311270
 21
766.530151
  0
LINE
  8
ValleyLine
  6
CONTINUOUS
 62
1
 10
143.957539
 20
854.194255
 11
15.749207
 21
792.148977
  0
LINE
  8
CutLine
  6
CONTINUOUS
 62
8
 10
33.942362
 20
918.040632
 11
126.049323
 21
855.501737
  0
LINE
  8
CutLine
  6
CONTINUOUS
 62
8
 10
25.835577
 20
807.004215
 11
33.942362
 21
918.040632
  0
LINE
  8
CutLine
  6
CONTINUOUS
 62
8
 10
126.049323
 20
855.501737
 11
25.835577
 21
807.004215
  0
LINE
  8
CutLine
  6
CONTINUOUS
 62
8
 10
26.120566
 20
934.203344
 11
15.749207
 21
792.148977
  0
LINE
  8
CutLine
  6
CONTINUOUS
 62
8
 10
64.779170
 20
1053.675057
 11
84.857771
 21
1030.853879
  0
LINE
  8
CutLine
  6
CONTINUOUS
 62
8
 10
94.696790
 20
1033.262514
 11
60.169210
 21
1072.506265
  0
LINE
  8
CutLine
  6
CONTINUOUS
 62
8
 10
38.945903
 20
948.742186
 11
64.779170
 21
1053.675057
  0
LINE
  8
CutLine
  6
CONTINUOUS
 62
8
 10
67.324203
 20
959.633789
 11
38.945903
 21
948.742186
  0
LINE
  8
CutLine
  6
CONTINUOUS
 62
8
 10
84.857771
 20
1030.853879
 11
67.324203
 21
959.633789
  0
LINE
  8
MountainLine
  6
CONTINUOUS
 62
5
 10
74.920479
 20
952.932784
 11
94.696790
 21
1033.262514
  0
LINE
  8
ValleyLine
  6
CONTINUOUS
 62
1
 10
60.169210
 20
1072.506265
 11
26.120566
 21
934.203344
  0
LINE
  8
ValleyLine
  6
CONTINUOUS
 62
1
 10
109.021658
 20
1032.760392
 11
94.696790
 21
1033.262514
  0
LINE
  8
CutLine
  6
CONTINUOUS
 62
8
 10
74.920479
 20
952.932784
 11
87.841278
 21
946.727320
  0
LINE
  8
CutLine
  6
CONTINUOUS
 62
8
 10
87.841278
 20
946.727320
 11
109.021658
 21
1032.760392
  0
LINE
  8
CutLine
  6
CONTINUOUS
 62
8
 10
61.311270
 20
766.530151
 11
64.779170
 21
752.622325
  0
LINE
  8
CutLine
  6
CONTINUOUS
 62
8
 10
64.779170
 20
752.622325
 11
144.532816
 21
791.218482
  0
ENDSEC
  0
EOF
