0
SECTION
2
HEADER
9
$INSUNITS
70
4
9
$ACADVER
1
AC1014
9
$HANDSEED
5
FFFF
0
ENDSEC
0
SECTION
2
TABLES
0
TABLE
2
VPORT
5
8
100
AcDbSymbolTable
0
ENDTAB
0
TABLE
2
LTYPE
5
5
100
AcDbSymbolTable
0
LTYPE
5
14
100
AcDbSymbolTableRecord
100
AcDbLinetypeTableRecord
2
BYBLOCK
70
0
0
LTYPE
5
15
100
AcDbSymbolTableRecord
100
AcDbLinetypeTableRecord
2
BYLAYER
70
0
0
ENDTAB
0
TABLE
2
LAYER
5
2
100
AcDbSymbolTable
70
2
0
LAYER
5
50
100
AcDbSymbolTableRecord
100
AcDbLayerTableRecord
2
0
70
0
6
CONTINUOUS
0
ENDTAB
0
TABLE
2
STYLE
5
3
100
AcDbSymbolTable
70
1
0
STYLE
5
11
100
AcDbSymbolTableRecord
100
AcDbTextStyleTableRecord
2
STANDARD
70
0
0
ENDTAB
0
TABLE
2
VIEW
5
6
100
AcDbSymbolTable
70
0
0
ENDTAB
0
TABLE
2
UCS
5
7
100
AcDbSymbolTable
70
0
0
ENDTAB
0
TABLE
2
APPID
5
9
100
AcDbSymbolTable
70
2
0
APPID
5
12
100
AcDbSymbolTableRecord
100
AcDbRegAppTableRecord
2
ACAD
70
0
0
ENDTAB
0
TABLE
2
DIMSTYLE
5
A
100
AcDbSymbolTable
70
1
0
ENDTAB
0
TABLE
2
BLOCK_RECORD
5
1
100
AcDbSymbolTable
70
1
0
BLOCK_RECORD
5
1F
100
AcDbSymbolTableRecord
100
AcDbBlockTableRecord
2
*MODEL_SPACE
0
BLOCK_RECORD
5
1B
100
AcDbSymbolTableRecord
100
AcDbBlockTableRecord
2
*PAPER_SPACE
0
ENDTAB
0
ENDSEC
0
SECTION
2
BLOCKS
0
BLOCK
5
20
100
AcDbEntity
100
AcDbBlockBegin
2
*MODEL_SPACE
0
ENDBLK
5
21
100
AcDbEntity
100
AcDbBlockEnd
0
BLOCK
5
1C
100
AcDbEntity
100
AcDbBlockBegin
2
*PAPER_SPACE
0
ENDBLK
5
1D
100
AcDbEntity
100
AcDbBlockEnd
0
ENDSEC
0
SECTION
2
ENTITIES
0
CIRCLE
5
100
100
AcDbEntity
8
0
100
AcDbCircle
10
29.353796164803097
20
16.859032110706988
30
0
40
5
0
CIRCLE
5
101
100
AcDbEntity
8
0
100
AcDbCircle
10
-5.1961525001353461
20
-3.0000000447034876
30
0
40
1.9750000000000001
0
CIRCLE
5
102
100
AcDbEntity
8
0
100
AcDbCircle
10
5.1961525001353426
20
-3.0000000447034907
30
0
40
1.9750000000000001
0
CIRCLE
5
103
100
AcDbEntity
8
0
100
AcDbCircle
10
-1.214306433183765e-16
20
6.0000000894069769
30
0
40
1.9750000000000001
0
CIRCLE
5
104
100
AcDbEntity
8
0
100
AcDbCircle
10
-31.588235661034091
20
12.000691672382624
30
0
40
1.2499999999999991
0
CIRCLE
5
105
100
AcDbEntity
8
0
100
AcDbCircle
10
-26.548072023375774
20
21.766718956611264
30
0
40
1.2499999999999998
0
CIRCLE
5
106
100
AcDbEntity
8
0
100
AcDbCircle
10
0
20
0
30
0
40
42.5
0
LWPOLYLINE
5
107
100
AcDbEntity
8
0
100
AcDbPolyline
90
4
70
1
43
0.0
10
31.599012532308606
20
-7.9858092788445045
10
-29.400987467691397
20
-7.9858092788445045
10
-29.400987467691397
20
-25.985809278844503
10
31.599012532308606
20
-25.985809278844503
0
LINE
5
108
100
AcDbEntity
8
0
100
AcDbLine
10
31.599012532308617
20
-11.062547281668413
30
0
11
41.034985654205457
21
-11.062547281668625
31
0
0
LINE
5
109
100
AcDbEntity
8
0
100
AcDbLine
10
35.698304061689086
20
-23.062547281668415
30
0
11
31.599012532308603
21
-23.062547281668415
31
0
0
LINE
5
110
100
AcDbEntity
8
0
100
AcDbLine
10
31.599012532308603
20
-23.062547281668415
30
0
11
31.599012532308617
21
-11.062547281668413
31
0
0
LWPOLYLINE
5
111
100
AcDbEntity
8
0
100
AcDbPolyline
90
4
70
1
43
0.0
10
2.1529239697511642
20
-40.499425159892517
10
-2.3470760302488358
20
-40.499425159892517
10
-2.3470760302488358
20
-42.499425159892525
10
2.1529239697511642
20
-42.499425159892525
0
CIRCLE
5
112
100
AcDbEntity
8
0
100
AcDbCircle
10
0
20
-5.500000074505806
30
0
40
0.97500000000000009
0
CIRCLE
5
113
100
AcDbEntity
8
0
100
AcDbCircle
10
4.7631397853383337
20
2.7500000372529021
30
0
40
0.97500000000000009
0
CIRCLE
5
114
100
AcDbEntity
8
0
100
AcDbCircle
10
-4.7631397853383319
20
2.7500000372529056
30
0
40
0.97500000000000009
0
CIRCLE
5
115
100
AcDbEntity
8
0
100
AcDbCircle
10
0
20
0
30
0
40
2.4750000000000001
0
LINE
5
116
100
AcDbEntity
8
0
100
AcDbLine
10
14.005627688761157
20
17.288866158421325
30
0
11
22.246683792704808
21
-0.3841356887933346
31
0
0
LWPOLYLINE
5
117
100
AcDbEntity
8
0
100
AcDbPolyline
90
4
70
1
43
0.0
10
16.905812607278442
20
18.641244595991569
10
11.105442770243902
20
15.936487720851053
10
19.346498874187553
20
-1.7365141263635846
10
25.146868711222105
20
0.96824274877690852
0
LWPOLYLINE
5
118
100
AcDbEntity
8
0
100
AcDbPolyline
90
4
70
1
43
0.0
10
-32.139690498598362
20
2.0736756515480392
10
-17.912136608795905
20
28.598884610437835
10
-4.1648522314269432
20
21.225135750602966
10
-18.392406121230508
20
-5.3000732082862339
0
LWPOLYLINE
5
119
100
AcDbEntity
8
0
100
AcDbPolyline
90
4
70
1
43
0.0
10
18.047216943571691
20
32.159015955447771
10
0.66055207036847363
20
36.817758767293142
10
-2.0570479032079803
20
26.675537591257935
10
15.329616969995246
20
22.016794779412582
0
ENDSEC
0
SECTION
2
OBJECTS
0
DICTIONARY
5
C
100
AcDbDictionary
3
ACAD_GROUP
350
D
3
ACAD_MLINESTYLE
350
17
0
DICTIONARY
5
D
100
AcDbDictionary
0
DICTIONARY
5
1A
330
C
100
AcDbDictionary
0
DICTIONARY
5
17
100
AcDbDictionary
0
ENDSEC
0
EOF
