  0
SECTION
  2
HEADER
  9
$ACADVER
  1
AC1015
  9
$ACADMAINTVER
 70
     6
  9
$DWGCODEPAGE
  3
ANSI_1252
  9
$INSBASE
 10
0.0
 20
0.0
 30
0.0
  9
$EXTMIN
 10
-208.2442767466
 20
-133.8991311526
 30
0.0
  9
$EXTMAX
 10
208.2442767466
 20
133.8991311526
 30
0.0
  9
$LIMMIN
 10
0.0
 20
0.0
  9
$LIMMAX
 10
420.0
 20
297.0
  9
$ORTHOMODE
 70
     0
  9
$REGENMODE
 70
     1
  9
$FILLMODE
 70
     1
  9
$QTEXTMODE
 70
     0
  9
$MIRRTEXT
 70
     1
  9
$LTSCALE
 40
1.0
  9
$ATTMODE
 70
     1
  9
$TEXTSIZE
 40
3.5
  9
$TRACEWID
 40
1.0
  9
$TEXTSTYLE
  7
Standard
  9
$CLAYER
  8
0
  9
$CELTYPE
  6
ByLayer
  9
$CECOLOR
 62
   256
  9
$CELTSCALE
 40
1.0
  9
$DISPSILH
 70
     0
  9
$DIMSCALE
 40
1.0
  9
$DIMASZ
 40
3.302
  9
$DIMEXO
 40
1.0
  9
$DIMDLI
 40
3.75
  9
$DIMRND
 40
0.0
  9
$DIMDLE
 40
0.0
  9
$DIMEXE
 40
1.0
  9
$DIMTP
 40
0.0
  9
$DIMTM
 40
0.0
  9
$DIMTXT
 40
3.5
  9
$DIMCEN
 40
2.5
  9
$DIMTSZ
 40
0.0
  9
$DIMTOL
 70
     0
  9
$DIMLIM
 70
     0
  9
$DIMTIH
 70
     1
  9
$DIMTOH
 70
     1
  9
$DIMSE1
 70
     0
  9
$DIMSE2
 70
     0
  9
$DIMTAD
 70
     1
  9
$DIMZIN
 70
     0
  9
$DIMBLK
  1

  9
$DIMASO
 70
     1
  9
$DIMSHO
 70
     1
  9
$DIMPOST
  1

  9
$DIMAPOST
  1

  9
$DIMALT
 70
     0
  9
$DIMALTD
 70
     3
  9
$DIMALTF
 40
0.0393700787
  9
$DIMLFAC
 40
1.0
  9
$DIMTOFL
 70
     1
  9
$DIMTVP
 40
0.0
  9
$DIMTIX
 70
     0
  9
$DIMSOXD
 70
     0
  9
$DIMSAH
 70
     0
  9
$DIMBLK1
  1

  9
$DIMBLK2
  1

  9
$DIMSTYLE
  2
ISO-25
  9
$DIMCLRD
 70
     0
  9
$DIMCLRE
 70
     0
  9
$DIMCLRT
 70
     0
  9
$DIMTFAC
 40
1.0
  9
$DIMGAP
 40
1.524
  9
$DIMJUST
 70
     0
  9
$DIMSD1
 70
     0
  9
$DIMSD2
 70
     0
  9
$DIMTOLJ
 70
     0
  9
$DIMTZIN
 70
     0
  9
$DIMALTZ
 70
     0
  9
$DIMALTTZ
 70
     0
  9
$DIMUPT
 70
     0
  9
$DIMDEC
 70
     2
  9
$DIMTDEC
 70
     2
  9
$DIMALTU
 70
     2
  9
$DIMALTTD
 70
     3
  9
$DIMTXSTY
  7
Standard
  9
$DIMAUNIT
 70
     0
  9
$DIMADEC
 70
     2
  9
$DIMALTRND
 40
0.0
  9
$DIMAZIN
 70
     0
  9
$DIMDSEP
 70
    44
  9
$DIMATFIT
 70
     3
  9
$DIMFRAC
 70
     0
  9
$DIMLDRBLK
  1

  9
$DIMLUNIT
 70
     2
  9
$DIMLWD
 70
    -2
  9
$DIMLWE
 70
    -2
  9
$DIMTMOVE
 70
     0
  9
$LUNITS
 70
     2
  9
$LUPREC
 70
     2
  9
$SKETCHINC
 40
1.0
  9
$FILLETRAD
 40
10.0
  9
$AUNITS
 70
     0
  9
$AUPREC
 70
     2
  9
$MENU
  1
.
  9
$ELEVATION
 40
0.0
  9
$PELEVATION
 40
0.0
  9
$THICKNESS
 40
0.0
  9
$LIMCHECK
 70
     0
  9
$CHAMFERA
 40
0.0
  9
$CHAMFERB
 40
0.0
  9
$CHAMFERC
 40
0.0
  9
$CHAMFERD
 40
0.0
  9
$SKPOLY
 70
     0
  9
$TDCREATE
 40
2457275.477377928
  9
$TDUCREATE
 40
2457275.394044595
  9
$TDUPDATE
 40
2457275.477426921
  9
$TDUUPDATE
 40
2457275.394093588
  9
$TDINDWG
 40
0.0000000116
  9
$TDUSRTIMER
 40
0.0000000116
  9
$USRTIMER
 70
     1
  9
$ANGBASE
 50
0.0
  9
$ANGDIR
 70
     0
  9
$PDMODE
 70
     0
  9
$PDSIZE
 40
-1.0
  9
$PLINEWID
 40
0.0
  9
$SPLFRAME
 70
     0
  9
$SPLINETYPE
 70
     6
  9
$SPLINESEGS
 70
     8
  9
$HANDSEED
  5
2CD
  9
$SURFTAB1
 70
     6
  9
$SURFTAB2
 70
     6
  9
$SURFTYPE
 70
     6
  9
$SURFU
 70
     6
  9
$SURFV
 70
     6
  9
$UCSBASE
  2

  9
$UCSNAME
  2

  9
$UCSORG
 10
0.0
 20
0.0
 30
0.0
  9
$UCSXDIR
 10
1.0
 20
0.0
 30
0.0
  9
$UCSYDIR
 10
0.0
 20
1.0
 30
0.0
  9
$UCSORTHOREF
  2

  9
$UCSORTHOVIEW
 70
     0
  9
$UCSORGTOP
 10
0.0
 20
0.0
 30
0.0
  9
$UCSORGBOTTOM
 10
0.0
 20
0.0
 30
0.0
  9
$UCSORGLEFT
 10
0.0
 20
0.0
 30
0.0
  9
$UCSORGRIGHT
 10
0.0
 20
0.0
 30
0.0
  9
$UCSORGFRONT
 10
0.0
 20
0.0
 30
0.0
  9
$UCSORGBACK
 10
0.0
 20
0.0
 30
0.0
  9
$PUCSBASE
  2

  9
$PUCSNAME
  2

  9
$PUCSORG
 10
0.0
 20
0.0
 30
0.0
  9
$PUCSXDIR
 10
1.0
 20
0.0
 30
0.0
  9
$PUCSYDIR
 10
0.0
 20
1.0
 30
0.0
  9
$PUCSORTHOREF
  2

  9
$PUCSORTHOVIEW
 70
     0
  9
$PUCSORGTOP
 10
0.0
 20
0.0
 30
0.0
  9
$PUCSORGBOTTOM
 10
0.0
 20
0.0
 30
0.0
  9
$PUCSORGLEFT
 10
0.0
 20
0.0
 30
0.0
  9
$PUCSORGRIGHT
 10
0.0
 20
0.0
 30
0.0
  9
$PUCSORGFRONT
 10
0.0
 20
0.0
 30
0.0
  9
$PUCSORGBACK
 10
0.0
 20
0.0
 30
0.0
  9
$USERI1
 70
     0
  9
$USERI2
 70
     0
  9
$USERI3
 70
     0
  9
$USERI4
 70
     0
  9
$USERI5
 70
     0
  9
$USERR1
 40
0.0
  9
$USERR2
 40
0.0
  9
$USERR3
 40
0.0
  9
$USERR4
 40
0.0
  9
$USERR5
 40
0.0
  9
$WORLDVIEW
 70
     1
  9
$SHADEDGE
 70
     3
  9
$SHADEDIF
 70
    70
  9
$TILEMODE
 70
     1
  9
$MAXACTVP
 70
    64
  9
$PINSBASE
 10
0.0
 20
0.0
 30
0.0
  9
$PLIMCHECK
 70
     0
  9
$PEXTMIN
 10
1.0000000000E+20
 20
1.0000000000E+20
 30
1.0000000000E+20
  9
$PEXTMAX
 10
-1.0000000000E+20
 20
-1.0000000000E+20
 30
-1.0000000000E+20
  9
$PLIMMIN
 10
0.0
 20
0.0
  9
$PLIMMAX
 10
420.0
 20
297.0
  9
$UNITMODE
 70
     0
  9
$VISRETAIN
 70
     1
  9
$PLINEGEN
 70
     0
  9
$PSLTSCALE
 70
     1
  9
$TREEDEPTH
 70
  3020
  9
$CMLSTYLE
  2
Standard
  9
$CMLJUST
 70
     0
  9
$CMLSCALE
 40
20.0
  9
$PROXYGRAPHICS
 70
     1
  9
$MEASUREMENT
 70
     1
  9
$CELWEIGHT
370
    -1
  9
$ENDCAPS
280
     0
  9
$JOINSTYLE
280
     0
  9
$LWDISPLAY
290
     1
  9
$INSUNITS
 70
     4
  9
$HYPERLINKBASE
  1

  9
$STYLESHEET
  1

  9
$XEDIT
290
     1
  9
$CEPSNTYPE
380
     0
  9
$PSTYLEMODE
290
     1
  9
$FINGERPRINTGUID
  2
{2C3DF0E8-BCFB-4037-A584-B979D83B7BB6}
  9
$VERSIONGUID
  2
{FAEB1C32-E019-11D5-929B-00C0DF256EC4}
  9
$EXTNAMES
290
     1
  9
$PSVPSCALE
 40
0.0
  9
$OLESTARTUP
290
     0
  0
ENDSEC
  0
SECTION
  2
CLASSES
  0
CLASS
  1
ACDBDICTIONARYWDFLT
  2
AcDbDictionaryWithDefault
  3
ObjectDBX Classes
 90
        0
280
     0
281
     0
  0
CLASS
  1
VISUALSTYLE
  2
AcDbVisualStyle
  3
ObjectDBX Classes
 90
     4095
280
     0
281
     0
  0
CLASS
  1
MATERIAL
  2
AcDbMaterial
  3
ObjectDBX Classes
 90
     1153
280
     0
281
     0
  0
CLASS
  1
SCALE
  2
AcDbScale
  3
ObjectDBX Classes
 90
     1153
280
     0
281
     0
  0
CLASS
  1
SUN
  2
AcDbSun
  3
SCENEOE
 90
     1153
280
     0
281
     0
  0
CLASS
  1
ACDBPLACEHOLDER
  2
AcDbPlaceHolder
  3
ObjectDBX Classes
 90
        0
280
     0
281
     0
  0
CLASS
  1
LAYOUT
  2
AcDbLayout
  3
ObjectDBX Classes
 90
        0
280
     0
281
     0
  0
ENDSEC
  0
SECTION
  2
TABLES
  0
TABLE
  2
VPORT
  5
8
330
0
100
AcDbSymbolTable
 70
     1
  0
VPORT
  5
29
330
8
100
AcDbSymbolTableRecord
100
AcDbViewportTableRecord
  2
*Active
 70
     0
 10
0.0
 20
0.0
 11
1.0
 21
1.0
 12
0.0
 22
0.0
 13
0.0
 23
0.0
 14
10.0
 24
10.0
 15
10.0
 25
10.0
 16
0.0
 26
0.0
 36
1.0
 17
0.0
 27
0.0
 37
0.0
 40
273.1542275512
 41
1.555232472
 42
50.0
 43
0.0
 44
0.0
 50
0.0
 51
0.0
 71
     0
 72
   100
 73
     1
 74
     3
 75
     0
 76
     0
 77
     0
 78
     0
281
     0
 65
     1
110
0.0
120
0.0
130
0.0
111
1.0
121
0.0
131
0.0
112
0.0
122
1.0
132
0.0
 79
     0
146
0.0
  0
ENDTAB
  0
TABLE
  2
LTYPE
  5
5
330
0
100
AcDbSymbolTable
 70
     6
  0
LTYPE
  5
14
330
5
100
AcDbSymbolTableRecord
100
AcDbLinetypeTableRecord
  2
ByBlock
 70
     0
  3

 72
    65
 73
     0
 40
0.0
  0
LTYPE
  5
15
330
5
100
AcDbSymbolTableRecord
100
AcDbLinetypeTableRecord
  2
ByLayer
 70
     0
  3

 72
    65
 73
     0
 40
0.0
  0
LTYPE
  5
16
330
5
100
AcDbSymbolTableRecord
100
AcDbLinetypeTableRecord
  2
Continuous
 70
     0
  3
Solid line
 72
    65
 73
     0
 40
0.0
  0
LTYPE
  5
6A
330
5
100
AcDbSymbolTableRecord
100
AcDbLinetypeTableRecord
  2
HIDDEN
 70
     0
  3
Hidden __ __ __ __ __ __ __ __ __ __ __ __ __ __
 72
    65
 73
     2
 40
1.905
 49
1.27
 74
     0
 49
-0.635
 74
     0
  0
LTYPE
  5
6B
330
5
100
AcDbSymbolTableRecord
100
AcDbLinetypeTableRecord
  2
PHANTOM
 70
     0
  3
Phantom ______  __  __  ______  __  __  ______
 72
    65
 73
     6
 40
12.7
 49
6.35
 74
     0
 49
-1.27
 74
     0
 49
1.27
 74
     0
 49
-1.27
 74
     0
 49
1.27
 74
     0
 49
-1.27
 74
     0
  0
LTYPE
  5
6C
330
5
100
AcDbSymbolTableRecord
100
AcDbLinetypeTableRecord
  2
CENTER
 70
     0
  3
Center ____ _ ____ _ ____ _ ____ _ ____ _ ____
 72
    65
 73
     4
 40
10.16
 49
6.35
 74
     0
 49
-1.27
 74
     0
 49
1.27
 74
     0
 49
-1.27
 74
     0
  0
LTYPE
  5
6D
330
5
100
AcDbSymbolTableRecord
100
AcDbLinetypeTableRecord
  2
CENTERX2
 70
     0
  3
Center (2x) ________  __  ________  __  _____
 72
    65
 73
     4
 40
20.32
 49
12.7
 74
     0
 49
-2.54
 74
     0
 49
2.54
 74
     0
 49
-2.54
 74
     0
  0
LTYPE
  5
6E
330
5
100
AcDbSymbolTableRecord
100
AcDbLinetypeTableRecord
  2
DOT2
 70
     0
  3
Dot (.5x) ........................................
 72
    65
 73
     2
 40
0.635
 49
0.0
 74
     0
 49
-0.635
 74
     0
  0
ENDTAB
  0
TABLE
  2
LAYER
  5
2
330
0
100
AcDbSymbolTable
 70
     1
  0
LAYER
  5
10
330
2
100
AcDbSymbolTableRecord
100
AcDbLayerTableRecord
  2
0
 70
     0
 62
     7
  6
Continuous
370
    -3
390
F
  0
ENDTAB
  0
TABLE
  2
STYLE
  5
3
330
0
100
AcDbSymbolTable
 70
     2
  0
STYLE
  5
11
330
3
100
AcDbSymbolTableRecord
100
AcDbTextStyleTableRecord
  2
Standard
 70
     0
 40
0.0
 41
1.0
 50
0.0
 71
     0
 42
3.5
  3
txt
  4

  0
STYLE
  5
2CA
330
3
100
AcDbSymbolTableRecord
100
AcDbTextStyleTableRecord
  2
SLDTEXTSTYLE0
 70
     0
 40
0.0
 41
0.7
 50
0.0
 71
     0
 42
3.5
  3
TXT
  4

  0
ENDTAB
  0
TABLE
  2
VIEW
  5
6
330
0
100
AcDbSymbolTable
 70
     0
  0
ENDTAB
  0
TABLE
  2
UCS
  5
7
330
0
100
AcDbSymbolTable
 70
     0
  0
ENDTAB
  0
TABLE
  2
APPID
  5
9
330
0
100
AcDbSymbolTable
 70
     1
  0
APPID
  5
12
330
9
100
AcDbSymbolTableRecord
100
AcDbRegAppTableRecord
  2
ACAD
 70
     0
  0
ENDTAB
  0
TABLE
  2
DIMSTYLE
  5
A
330
0
100
AcDbSymbolTable
 70
     1
100
AcDbDimStyleTable
  0
DIMSTYLE
105
27
330
A
100
AcDbSymbolTableRecord
100
AcDbDimStyleTableRecord
  2
ISO-25
 70
     0
 41
2.5
 42
0.625
 43
3.75
 44
1.25
 73
     0
 74
     0
 77
     1
 78
     8
140
2.5
141
2.5
143
0.0393700787
147
0.625
171
     3
172
     1
178
     0
271
     2
272
     2
274
     3
278
    44
283
     0
284
     8
340
11
  0
ENDTAB
  0
TABLE
  2
BLOCK_RECORD
  5
1
330
0
100
AcDbSymbolTable
 70
     1
  0
BLOCK_RECORD
  5
1F
330
1
100
AcDbSymbolTableRecord
100
AcDbBlockTableRecord
  2
*Model_Space
340
22
  0
BLOCK_RECORD
  5
1B
330
1
100
AcDbSymbolTableRecord
100
AcDbBlockTableRecord
  2
*Paper_Space
340
1E
  0
BLOCK_RECORD
  5
23
330
1
100
AcDbSymbolTableRecord
100
AcDbBlockTableRecord
  2
*Paper_Space0
340
26
  0
ENDTAB
  0
ENDSEC
  0
SECTION
  2
BLOCKS
  0
BLOCK
  5
20
330
1F
100
AcDbEntity
  8
0
100
AcDbBlockBegin
  2
*Model_Space
 70
     0
 10
0.0
 20
0.0
 30
0.0
  3
*Model_Space
  1
*Model_Space
  0
ENDBLK
  5
21
330
1F
100
AcDbEntity
  8
0
100
AcDbBlockEnd
  0
BLOCK
  5
1C
330
1B
100
AcDbEntity
 67
     1
  8
0
100
AcDbBlockBegin
  2
*Paper_Space
 70
     0
 10
0.0
 20
0.0
 30
0.0
  3
*Paper_Space
  1
*Paper_Space
  0
ENDBLK
  5
1D
330
1B
100
AcDbEntity
 67
     1
  8
0
100
AcDbBlockEnd
  0
BLOCK
  5
24
330
23
100
AcDbEntity
  8
0
100
AcDbBlockBegin
  2
*Paper_Space0
 70
     0
 10
0.0
 20
0.0
 30
0.0
  3
*Paper_Space0
  1
*Paper_Space0
  0
ENDBLK
  5
25
330
23
100
AcDbEntity
  8
0
100
AcDbBlockEnd
  0
ENDSEC
  0
SECTION
  2
ENTITIES
  0
ARC
  5
6F
330
1F
100
AcDbEntity
  8
0
  6
Continuous
 62
     7
100
AcDbCircle
 10
-203.2442767466
 20
102.7001851193
 30
0.0
 40
5.0
100
AcDbArc
 50
90.0
 51
180.0
  0
ARC
  5
70
330
1F
100
AcDbEntity
  8
0
  6
Continuous
 62
     7
100
AcDbCircle
 10
-83.5601196782
 20
-123.8991311526
 30
0.0
 40
10.0
100
AcDbArc
 50
180.0
 51
270.0
  0
ARC
  5
71
330
1F
100
AcDbEntity
  8
0
  6
Continuous
 62
     7
100
AcDbCircle
 10
198.2442767466
 20
-123.8991311526
 30
0.0
 40
10.0
100
AcDbArc
 50
270.0
 51
0.0
  0
ARC
  5
72
330
1F
100
AcDbEntity
  8
0
  6
Continuous
 62
     7
100
AcDbCircle
 10
198.2442767466
 20
-72.8991311526
 30
0.0
 40
10.00000000000001
100
AcDbArc
 50
0.0
 51
90.0
  0
ARC
  5
73
330
1F
100
AcDbEntity
  8
0
  6
Continuous
 62
     7
100
AcDbCircle
 10
120.2058009736
 20
-52.8991311526
 30
0.0
 40
10.00000000000001
100
AcDbArc
 50
240.0
 51
270.0
  0
ARC
  5
74
330
1F
100
AcDbEntity
  8
0
  6
Continuous
 62
     7
100
AcDbCircle
 10
-1.7557232534
 20
-22.8991311526
 30
0.0
 40
25.0
100
AcDbArc
 50
60.0
 51
128.0
  0
ARC
  5
75
330
1F
100
AcDbEntity
  8
0
  6
Continuous
 62
     7
100
AcDbCircle
 10
-83.5601196782
 20
-67.7764570382
 30
0.0
 40
10.00000000000002
100
AcDbArc
 50
128.0
 51
180.0
  0
ARC
  5
76
330
1F
100
AcDbEntity
  8
0
  6
Continuous
 62
     7
100
AcDbCircle
 10
-195.2442767466
 20
-6.4030216179
 30
0.0
 40
5.000000000000005
100
AcDbArc
 50
270.0
 51
0.0
  0
ARC
  5
77
330
1F
100
AcDbEntity
  8
0
  6
Continuous
 62
     7
100
AcDbCircle
 10
-195.2442767466
 20
-6.4030216179
 30
0.0
 40
5.000000000000005
100
AcDbArc
 50
180.0
 51
270.0
  0
ARC
  5
78
330
1F
100
AcDbEntity
  8
0
  6
Continuous
 62
     7
100
AcDbCircle
 10
-195.2442767466
 20
97.7001851193
 30
0.0
 40
5.000000000000014
100
AcDbArc
 50
90.0
 51
180.0
  0
ARC
  5
79
330
1F
100
AcDbEntity
  8
0
  6
Continuous
 62
     7
100
AcDbCircle
 10
-195.2442767466
 20
97.7001851193
 30
0.0
 40
5.000000000000014
100
AcDbArc
 50
0.0
 51
90.0
  0
CIRCLE
  5
7A
330
1F
100
AcDbEntity
  8
0
  6
Continuous
 62
     7
100
AcDbCircle
 10
-1.7557232534
 20
-22.8991311526
 30
0.0
 40
5.000000000000005
  0
CIRCLE
  5
7B
330
1F
100
AcDbEntity
  8
0
  6
Continuous
 62
     7
100
AcDbCircle
 10
-1.7557232534
 20
-115.8991311526
 30
0.0
 40
2.999999999999999
  0
CIRCLE
  5
7C
330
1F
100
AcDbEntity
  8
0
  6
Continuous
 62
     7
100
AcDbCircle
 10
13.2442767466
 20
-115.8991311526
 30
0.0
 40
2.999999999999999
  0
CIRCLE
  5
7D
330
1F
100
AcDbEntity
  8
0
  6
Continuous
 62
     7
100
AcDbCircle
 10
102.1673252007
 20
-82.8991311526
 30
0.0
 40
3.000000000000002
  0
CIRCLE
  5
7E
330
1F
100
AcDbEntity
  8
0
  6
Continuous
 62
     7
100
AcDbCircle
 10
128.2442767466
 20
-116.3991311526
 30
0.0
 40
2.999999999999989
  0
CIRCLE
  5
7F
330
1F
100
AcDbEntity
  8
0
  6
Continuous
 62
     7
100
AcDbCircle
 10
-90.6923058715
 20
53.4646206463
 30
0.0
 40
4.999999999999981
  0
ARC
  5
80
330
1F
100
AcDbEntity
  8
0
  6
Continuous
 62
     7
100
AcDbCircle
 10
-90.6858500314
 20
53.4668807373
 30
0.0
 40
80.43749999999999
100
AcDbArc
 50
101.2005231579
 51
101.8671433754
  0
ARC
  5
81
330
1F
100
AcDbEntity
  8
0
  6
Continuous
 62
     7
100
AcDbCircle
 10
-76.1498740357
 20
126.3254449693
 30
0.0
 40
31.62500000000002
100
AcDbArc
 50
169.3220429758
 51
175.2900989151
  0
ARC
  5
82
330
1F
100
AcDbEntity
  8
0
  6
Continuous
 62
     7
100
AcDbCircle
 10
-90.6858500314
 20
53.4668807373
 30
0.0
 40
77.34275000000005
100
AcDbArc
 50
102.6838431971
 51
103.5142581188
  0
ARC
  5
83
330
1F
100
AcDbEntity
  8
0
  6
Continuous
 62
     7
100
AcDbCircle
 10
-135.8939049889
 20
112.4236169687
 30
0.0
 40
31.62500000000004
100
AcDbArc
 50
30.9080024009
 51
36.8760583401
  0
ARC
  5
84
330
1F
100
AcDbEntity
  8
0
  6
Continuous
 62
     7
100
AcDbCircle
 10
-90.6858500314
 20
53.4668807373
 30
0.0
 40
80.43749999999997
100
AcDbArc
 50
104.3309579405
 51
104.997578158
  0
ARC
  5
85
330
1F
100
AcDbEntity
  8
0
  6
Continuous
 62
     7
100
AcDbCircle
 10
-80.1503135812
 20
127.0105239147
 30
0.0
 40
31.62499999999999
100
AcDbArc
 50
172.4524777584
 51
178.4205336977
  0
ARC
  5
86
330
1F
100
AcDbEntity
  8
0
  6
Continuous
 62
     7
100
AcDbCircle
 10
-90.6858500314
 20
53.4668807373
 30
0.0
 40
77.34275000000001
100
AcDbArc
 50
105.8142779797
 51
106.6446929014
  0
ARC
  5
87
330
1F
100
AcDbEntity
  8
0
  6
Continuous
 62
     7
100
AcDbCircle
 10
-139.0460267826
 20
109.8668655306
 30
0.0
 40
31.62499999999999
100
AcDbArc
 50
34.0384371835
 51
40.0064931227
  0
ARC
  5
88
330
1F
100
AcDbEntity
  8
0
  6
Continuous
 62
     7
100
AcDbCircle
 10
-90.6858500314
 20
53.4668807373
 30
0.0
 40
80.4375
100
AcDbArc
 50
107.4613927232
 51
108.1280129406
  0
ARC
  5
89
330
1F
100
AcDbEntity
  8
0
  6
Continuous
 62
     7
100
AcDbCircle
 10
-84.1821953083
 20
127.4761197236
 30
0.0
 40
31.625
100
AcDbArc
 50
175.582912541
 51
181.5509684803
  0
ARC
  5
8A
330
1F
100
AcDbEntity
  8
0
  6
Continuous
 62
     7
100
AcDbCircle
 10
-90.6858500314
 20
53.4668807373
 30
0.0
 40
77.34275000000001
100
AcDbArc
 50
108.9447127623
 51
109.775127684
  0
ARC
  5
8B
330
1F
100
AcDbEntity
  8
0
  6
Continuous
 62
     7
100
AcDbCircle
 10
-142.0538228017
 20
107.1417943708
 30
0.0
 40
31.62500000000001
100
AcDbArc
 50
37.1688719661
 51
43.1369279053
  0
ARC
  5
8C
330
1F
100
AcDbEntity
  8
0
  6
Continuous
 62
     7
100
AcDbCircle
 10
-90.6858500314
 20
53.4668807373
 30
0.0
 40
80.4375
100
AcDbArc
 50
110.5918275058
 51
111.2584477232
  0
ARC
  5
8D
330
1F
100
AcDbEntity
  8
0
  6
Continuous
 62
     7
100
AcDbCircle
 10
-88.2334864972
 20
127.7208428753
 30
0.0
 40
31.62500000000001
100
AcDbArc
 50
178.7133473236
 51
184.6814032629
  0
ARC
  5
8E
330
1F
100
AcDbEntity
  8
0
  6
Continuous
 62
     7
100
AcDbCircle
 10
-90.6858500314
 20
53.4668807373
 30
0.0
 40
77.34275000000005
100
AcDbArc
 50
112.0751475449
 51
112.9055624667
  0
ARC
  5
8F
330
1F
100
AcDbEntity
  8
0
  6
Continuous
 62
     7
100
AcDbCircle
 10
-144.9083166007
 20
104.2565361727
 30
0.0
 40
31.625
100
AcDbArc
 50
40.2993067487
 51
46.267362688
  0
ARC
  5
90
330
1F
100
AcDbEntity
  8
0
  6
Continuous
 62
     7
100
AcDbCircle
 10
-90.6858500314
 20
53.4668807373
 30
0.0
 40
80.43750000000001
100
AcDbArc
 50
113.7222622884
 51
114.3888825058
  0
ARC
  5
91
330
1F
100
AcDbEntity
  8
0
  6
Continuous
 62
     7
100
AcDbCircle
 10
-92.2920965028
 20
127.7439630196
 30
0.0
 40
31.62499999999998
100
AcDbArc
 50
181.8437821063
 51
187.8118380455
  0
ARC
  5
92
330
1F
100
AcDbEntity
  8
0
  6
Continuous
 62
     7
100
AcDbCircle
 10
-90.6858500314
 20
53.4668807373
 30
0.0
 40
77.34275000000001
100
AcDbArc
 50
115.2055823276
 51
116.0359972493
  0
ARC
  5
93
330
1F
100
AcDbEntity
  8
0
  6
Continuous
 62
     7
100
AcDbCircle
 10
-147.6009892481
 20
101.2197016806
 30
0.0
 40
31.62500000000004
100
AcDbArc
 50
43.4297415313
 51
49.3977974706
  0
ARC
  5
94
330
1F
100
AcDbEntity
  8
0
  6
Continuous
 62
     7
100
AcDbCircle
 10
-90.6858500314
 20
53.4668807373
 30
0.0
 40
80.43749999999997
100
AcDbArc
 50
116.852697071
 51
117.5193172884
  0
ARC
  5
95
330
1F
100
AcDbEntity
  8
0
  6
Continuous
 62
     7
100
AcDbCircle
 10
-96.3459128376
 20
127.5454111569
 30
0.0
 40
31.625
100
AcDbArc
 50
184.9742168889
 51
190.9422728281
  0
ARC
  5
96
330
1F
100
AcDbEntity
  8
0
  6
Continuous
 62
     7
100
AcDbCircle
 10
-90.6858500314
 20
53.4668807373
 30
0.0
 40
77.34275000000004
100
AcDbArc
 50
118.3360171102
 51
119.1664320319
  0
ARC
  5
97
330
1F
100
AcDbEntity
  8
0
  6
Continuous
 62
     7
100
AcDbCircle
 10
-150.1238047505
 20
98.0403540023
 30
0.0
 40
31.62500000000004
100
AcDbArc
 50
46.5601763139
 51
52.5282322532
  0
ARC
  5
98
330
1F
100
AcDbEntity
  8
0
  6
Continuous
 62
     7
100
AcDbCircle
 10
-90.6858500314
 20
53.4668807373
 30
0.0
 40
80.43750000000001
100
AcDbArc
 50
119.9831318536
 51
120.6497520711
  0
ARC
  5
99
330
1F
100
AcDbEntity
  8
0
  6
Continuous
 62
     7
100
AcDbCircle
 10
-100.3828373204
 20
127.125779844
 30
0.0
 40
31.62500000000001
100
AcDbArc
 50
188.1046516715
 51
194.0727076107
  0
ARC
  5
9A
330
1F
100
AcDbEntity
  8
0
  6
Continuous
 62
     7
100
AcDbCircle
 10
-90.6858500314
 20
53.4668807373
 30
0.0
 40
77.34275000000004
100
AcDbArc
 50
121.4664518928
 51
122.2968668145
  0
ARC
  5
9B
330
1F
100
AcDbEntity
  8
0
  6
Continuous
 62
     7
100
AcDbCircle
 10
-152.4692340349
 20
94.7279815609
 30
0.0
 40
31.62500000000002
100
AcDbArc
 50
49.6906110965
 51
55.6586670358
  0
ARC
  5
9C
330
1F
100
AcDbEntity
  8
0
  6
Continuous
 62
     7
100
AcDbCircle
 10
-90.6858500314
 20
53.4668807373
 30
0.0
 40
80.4375
100
AcDbArc
 50
123.1135666362
 51
123.7801868537
  0
ARC
  5
9D
330
1F
100
AcDbEntity
  8
0
  6
Continuous
 62
     7
100
AcDbCircle
 10
-104.3908221819
 20
126.4863214257
 30
0.0
 40
31.62499999999998
100
AcDbArc
 50
191.2350864541
 51
197.2031423934
  0
ARC
  5
9E
330
1F
100
AcDbEntity
  8
0
  6
Continuous
 62
     7
100
AcDbCircle
 10
-90.6858500314
 20
53.4668807373
 30
0.0
 40
77.34275000000001
100
AcDbArc
 50
124.5968866754
 51
125.4273015971
  0
ARC
  5
9F
330
1F
100
AcDbEntity
  8
0
  6
Continuous
 62
     7
100
AcDbCircle
 10
-154.6302774184
 20
91.2924697776
 30
0.0
 40
31.62500000000001
100
AcDbArc
 50
52.8210458791
 51
58.7891018184
  0
ARC
  5
A0
330
1F
100
AcDbEntity
  8
0
  6
Continuous
 62
     7
100
AcDbCircle
 10
-90.6858500314
 20
53.4668807373
 30
0.0
 40
80.43749999999999
100
AcDbArc
 50
126.2440014188
 51
126.9106216363
  0
ARC
  5
A1
330
1F
100
AcDbEntity
  8
0
  6
Continuous
 62
     7
100
AcDbCircle
 10
-108.3579060199
 20
125.6289442973
 30
0.0
 40
31.62499999999998
100
AcDbArc
 50
194.3655212367
 51
200.333577176
  0
ARC
  5
A2
330
1F
100
AcDbEntity
  8
0
  6
Continuous
 62
     7
100
AcDbCircle
 10
-90.6858500314
 20
53.4668807373
 30
0.0
 40
77.34275
100
AcDbArc
 50
127.727321458
 51
128.5577363797
  0
ARC
  5
A3
330
1F
100
AcDbEntity
  8
0
  6
Continuous
 62
     7
100
AcDbCircle
 10
-156.6004854982
 20
87.7440715699
 30
0.0
 40
31.625
100
AcDbArc
 50
55.9514806617
 51
61.919536601
  0
ARC
  5
A4
330
1F
100
AcDbEntity
  8
0
  6
Continuous
 62
     7
100
AcDbCircle
 10
-90.6858500314
 20
53.4668807373
 30
0.0
 40
80.4375
100
AcDbArc
 50
129.3744362014
 51
130.0410564189
  0
ARC
  5
A5
330
1F
100
AcDbEntity
  8
0
  6
Continuous
 62
     7
100
AcDbCircle
 10
-112.2722494972
 20
124.556207209
 30
0.0
 40
31.62499999999998
100
AcDbArc
 50
197.4959560193
 51
203.4640119586
  0
ARC
  5
A6
330
1F
100
AcDbEntity
  8
0
  6
Continuous
 62
     7
100
AcDbCircle
 10
-90.6858500314
 20
53.4668807373
 30
0.0
 40
77.34275000000004
100
AcDbArc
 50
130.8577562406
 51
131.6881711623
  0
ARC
  5
A7
330
1F
100
AcDbEntity
  8
0
  6
Continuous
 62
     7
100
AcDbCircle
 10
-158.3739783991
 20
84.0933767526
 30
0.0
 40
31.62500000000003
100
AcDbArc
 50
59.0819154443
 51
65.0499713836
  0
ARC
  5
A8
330
1F
100
AcDbEntity
  8
0
  6
Continuous
 62
     7
100
AcDbCircle
 10
-90.6858500314
 20
53.4668807373
 30
0.0
 40
80.43750000000001
100
AcDbArc
 50
132.504870984
 51
133.1714912015
  0
ARC
  5
A9
330
1F
100
AcDbEntity
  8
0
  6
Continuous
 62
     7
100
AcDbCircle
 10
-116.1221706742
 20
123.27131163
 30
0.0
 40
31.62499999999999
100
AcDbArc
 50
200.6263908019
 51
206.5944467412
  0
ARC
  5
AA
330
1F
100
AcDbEntity
  8
0
  6
Continuous
 62
     7
100
AcDbCircle
 10
-90.6858500314
 20
53.4668807373
 30
0.0
 40
77.34275000000004
100
AcDbArc
 50
133.9881910232
 51
134.8186059449
  0
ARC
  5
AB
330
1F
100
AcDbEntity
  8
0
  6
Continuous
 62
     7
100
AcDbCircle
 10
-159.9454633212
 20
80.3512804339
 30
0.0
 40
31.62500000000005
100
AcDbArc
 50
62.2123502269
 51
68.1804061662
  0
ARC
  5
AC
330
1F
100
AcDbEntity
  8
0
  6
Continuous
 62
     7
100
AcDbCircle
 10
-90.6858500314
 20
53.4668807373
 30
0.0
 40
80.43749999999997
100
AcDbArc
 50
135.6353057666
 51
136.3019259841
  0
ARC
  5
AD
330
1F
100
AcDbEntity
  8
0
  6
Continuous
 62
     7
100
AcDbCircle
 10
-119.8961798732
 20
121.7780921936
 30
0.0
 40
31.625
100
AcDbArc
 50
203.7568255845
 51
209.7248815238
  0
ARC
  5
AE
330
1F
100
AcDbEntity
  8
0
  6
Continuous
 62
     7
100
AcDbCircle
 10
-90.6858500314
 20
53.4668807373
 30
0.0
 40
77.34275000000005
100
AcDbArc
 50
137.1186258058
 51
137.9490407275
  0
ARC
  5
AF
330
1F
100
AcDbEntity
  8
0
  6
Continuous
 62
     7
100
AcDbCircle
 10
-161.3102503358
 20
76.5289505001
 30
0.0
 40
31.62500000000004
100
AcDbArc
 50
65.3427850096
 51
71.3108409488
  0
ARC
  5
B0
330
1F
100
AcDbEntity
  8
0
  6
Continuous
 62
     7
100
AcDbCircle
 10
-90.6858500314
 20
53.4668807373
 30
0.0
 40
80.43749999999997
100
AcDbArc
 50
138.7657405492
 51
139.4323607667
  0
ARC
  5
B1
330
1F
100
AcDbEntity
  8
0
  6
Continuous
 62
     7
100
AcDbCircle
 10
-123.5830139672
 20
120.0810052537
 30
0.0
 40
31.625
100
AcDbArc
 50
206.8872603671
 51
212.8553163064
  0
ARC
  5
B2
330
1F
100
AcDbEntity
  8
0
  6
Continuous
 62
     7
100
AcDbCircle
 10
-90.6858500314
 20
53.4668807373
 30
0.0
 40
77.34275000000005
100
AcDbArc
 50
140.2490605884
 51
141.0794755101
  0
ARC
  5
B3
330
1F
100
AcDbEntity
  8
0
  6
Continuous
 62
     7
100
AcDbCircle
 10
-162.4642663821
 20
72.6377942858
 30
0.0
 40
31.62499999999998
100
AcDbArc
 50
68.4732197922
 51
74.4412757314
  0
ARC
  5
B4
330
1F
100
AcDbEntity
  8
0
  6
Continuous
 62
     7
100
AcDbCircle
 10
-90.6858500314
 20
53.4668807373
 30
0.0
 40
80.43749999999999
100
AcDbArc
 50
141.8961753319
 51
142.5627955493
  0
ARC
  5
B5
330
1F
100
AcDbEntity
  8
0
  6
Continuous
 62
     7
100
AcDbCircle
 10
-127.1716699943
 20
118.1851155845
 30
0.0
 40
31.62500000000002
100
AcDbArc
 50
210.0176951497
 51
215.985751089
  0
ARC
  5
B6
330
1F
100
AcDbEntity
  8
0
  6
Continuous
 62
     7
100
AcDbCircle
 10
-90.6858500314
 20
53.4668807373
 30
0.0
 40
77.34275000000005
100
AcDbArc
 50
143.379495371
 51
144.2099102927
  0
ARC
  5
B7
330
1F
100
AcDbEntity
  8
0
  6
Continuous
 62
     7
100
AcDbCircle
 10
-163.4040674226
 20
68.6894245308
 30
0.0
 40
31.62500000000001
100
AcDbArc
 50
71.6036545748
 51
77.571710514
  0
ARC
  5
B8
330
1F
100
AcDbEntity
  8
0
  6
Continuous
 62
     7
100
AcDbCircle
 10
-90.6858500314
 20
53.4668807373
 30
0.0
 40
80.43750000000001
100
AcDbArc
 50
145.0266101145
 51
145.6932303319
  0
ARC
  5
B9
330
1F
100
AcDbEntity
  8
0
  6
Continuous
 62
     7
100
AcDbCircle
 10
-130.6514379944
 20
116.096081266
 30
0.0
 40
31.62500000000005
100
AcDbArc
 50
213.1481299323
 51
219.1161858716
  0
ARC
  5
BA
330
1F
100
AcDbEntity
  8
0
  6
Continuous
 62
     7
100
AcDbCircle
 10
-90.6858500314
 20
53.4668807373
 30
0.0
 40
77.34275000000002
100
AcDbArc
 50
146.5099301536
 51
147.3403450754
  0
ARC
  5
BB
330
1F
100
AcDbEntity
  8
0
  6
Continuous
 62
     7
100
AcDbCircle
 10
-164.1268487217
 20
64.695624722
 30
0.0
 40
31.62500000000002
100
AcDbArc
 50
74.7340893574
 51
80.7021452967
  0
ARC
  5
BC
330
1F
100
AcDbEntity
  8
0
  6
Continuous
 62
     7
100
AcDbCircle
 10
-90.6858500314
 20
53.4668807373
 30
0.0
 40
80.43750000000001
100
AcDbArc
 50
148.1570448971
 51
148.8236651145
  0
ARC
  5
BD
330
1F
100
AcDbEntity
  8
0
  6
Continuous
 62
     7
100
AcDbCircle
 10
-134.0119329722
 20
113.8201367978
 30
0.0
 40
31.62500000000002
100
AcDbArc
 50
216.2785647149
 51
222.2466206542
  0
ARC
  5
BE
330
1F
100
AcDbEntity
  8
0
  6
Continuous
 62
     7
100
AcDbCircle
 10
-90.6858500314
 20
53.4668807373
 30
0.0
 40
77.34275000000007
100
AcDbArc
 50
149.6403649362
 51
150.470779858
  0
ARC
  5
BF
330
1F
100
AcDbEntity
  8
0
  6
Continuous
 62
     7
100
AcDbCircle
 10
-164.6304532158
 20
60.668313928
 30
0.0
 40
31.62500000000002
100
AcDbArc
 50
77.86452414
 51
83.8325800793
  0
ARC
  5
C0
330
1F
100
AcDbEntity
  8
0
  6
Continuous
 62
     7
100
AcDbCircle
 10
-90.6858500314
 20
53.4668807373
 30
0.0
 40
80.43750000000001
100
AcDbArc
 50
151.2874796797
 51
151.9540998971
  0
ARC
  5
C1
330
1F
100
AcDbEntity
  8
0
  6
Continuous
 62
     7
100
AcDbCircle
 10
-137.2431258899
 20
111.3640744925
 30
0.0
 40
31.62500000000006
100
AcDbArc
 50
219.4089994976
 51
225.3770554368
  0
ARC
  5
C2
330
1F
100
AcDbEntity
  8
0
  6
Continuous
 62
     7
100
AcDbCircle
 10
-90.6858500314
 20
53.4668807373
 30
0.0
 40
77.34275000000002
100
AcDbArc
 50
152.7707997189
 51
153.6012146406
  0
ARC
  5
C3
330
1F
100
AcDbEntity
  8
0
  6
Continuous
 62
     7
100
AcDbCircle
 10
-164.9133779513
 20
56.6195112269
 30
0.0
 40
31.62500000000001
100
AcDbArc
 50
80.9949589226
 51
86.9630148619
  0
ARC
  5
C4
330
1F
100
AcDbEntity
  8
0
  6
Continuous
 62
     7
100
AcDbCircle
 10
-90.6858500314
 20
53.4668807373
 30
0.0
 40
80.43749999999997
100
AcDbArc
 50
154.4179144623
 51
155.0845346798
  0
ARC
  5
C5
330
1F
100
AcDbEntity
  8
0
  6
Continuous
 62
     7
100
AcDbCircle
 10
-140.3353735978
 20
108.7352242055
 30
0.0
 40
31.62499999999997
100
AcDbArc
 50
222.5394342802
 51
228.5074902194
  0
ARC
  5
C6
330
1F
100
AcDbEntity
  8
0
  6
Continuous
 62
     7
100
AcDbCircle
 10
-90.6858500314
 20
53.4668807373
 30
0.0
 40
77.34275000000004
100
AcDbArc
 50
155.9012345015
 51
156.7316494232
  0
ARC
  5
C7
330
1F
100
AcDbEntity
  8
0
  6
Continuous
 62
     7
100
AcDbCircle
 10
-164.9747785695
 20
52.5612998373
 30
0.0
 40
31.62500000000003
100
AcDbArc
 50
84.1253937052
 51
90.0934496445
  0
ARC
  5
C8
330
1F
100
AcDbEntity
  8
0
  6
Continuous
 62
     7
100
AcDbCircle
 10
-90.6858500314
 20
53.4668807373
 30
0.0
 40
80.43749999999997
100
AcDbArc
 50
157.5483492449
 51
158.2149694624
  0
ARC
  5
C9
330
1F
100
AcDbEntity
  8
0
  6
Continuous
 62
     7
100
AcDbCircle
 10
-143.2794476134
 20
105.9414314593
 30
0.0
 40
31.62499999999995
100
AcDbArc
 50
225.6698690628
 51
231.6379250021
  0
ARC
  5
CA
330
1F
100
AcDbEntity
  8
0
  6
Continuous
 62
     7
100
AcDbCircle
 10
-90.6858500314
 20
53.4668807373
 30
0.0
 40
77.34275000000004
100
AcDbArc
 50
159.0316692841
 51
159.8620842058
  0
ARC
  5
CB
330
1F
100
AcDbEntity
  8
0
  6
Continuous
 62
     7
100
AcDbCircle
 10
-164.8144718268
 20
48.505791057
 30
0.0
 40
31.62500000000002
100
AcDbArc
 50
87.2558284878
 51
93.2238844271
  0
ARC
  5
CC
330
1F
100
AcDbEntity
  8
0
  6
Continuous
 62
     7
100
AcDbCircle
 10
-90.6858500314
 20
53.4668807373
 30
0.0
 40
80.43750000000001
100
AcDbArc
 50
160.6787840275
 51
161.345404245
  0
ARC
  5
CD
330
1F
100
AcDbEntity
  8
0
  6
Continuous
 62
     7
100
AcDbCircle
 10
-146.0665616628
 20
102.9910340294
 30
0.0
 40
31.62500000000004
100
AcDbArc
 50
228.8003038454
 51
234.7683597847
  0
ARC
  5
CE
330
1F
100
AcDbEntity
  8
0
  6
Continuous
 62
     7
100
AcDbCircle
 10
-90.6858500314
 20
53.4668807373
 30
0.0
 40
77.34275000000001
100
AcDbArc
 50
162.1621040667
 51
162.9925189884
  0
ARC
  5
CF
330
1F
100
AcDbEntity
  8
0
  6
Continuous
 62
     7
100
AcDbCircle
 10
-164.4329361416
 20
44.4650881182
 30
0.0
 40
31.62500000000003
100
AcDbArc
 50
90.3862632704
 51
96.3543192097
  0
ARC
  5
D0
330
1F
100
AcDbEntity
  8
0
  6
Continuous
 62
     7
100
AcDbCircle
 10
-90.6858500314
 20
53.4668807373
 30
0.0
 40
80.4375
100
AcDbArc
 50
163.8092188101
 51
164.4758390276
  0
ARC
  5
D1
330
1F
100
AcDbEntity
  8
0
  6
Continuous
 62
     7
100
AcDbCircle
 10
-148.6883979021
 20
99.8928370613
 30
0.0
 40
31.62499999999998
100
AcDbArc
 50
231.930738628
 51
237.8987945673
  0
ARC
  5
D2
330
1F
100
AcDbEntity
  8
0
  6
Continuous
 62
     7
100
AcDbCircle
 10
-90.6858500314
 20
53.4668807373
 30
0.0
 40
77.34275000000004
100
AcDbArc
 50
165.2925388493
 51
166.122953771
  0
ARC
  5
D3
330
1F
100
AcDbEntity
  8
0
  6
Continuous
 62
     7
100
AcDbCircle
 10
-163.8313101663
 20
40.4512500666
 30
0.0
 40
31.62500000000002
100
AcDbArc
 50
93.516698053
 51
99.4847539923
  0
ARC
  5
D4
330
1F
100
AcDbEntity
  8
0
  6
Continuous
 62
     7
100
AcDbCircle
 10
-90.6858500314
 20
53.4668807373
 30
0.0
 40
80.43749999999999
100
AcDbArc
 50
166.9396535927
 51
167.6062738102
  0
ARC
  5
D5
330
1F
100
AcDbEntity
  8
0
  6
Continuous
 62
     7
100
AcDbCircle
 10
-151.1371317416
 20
96.6560867927
 30
0.0
 40
31.62499999999995
100
AcDbArc
 50
235.0611734106
 51
241.0292293499
  0
ARC
  5
D6
330
1F
100
AcDbEntity
  8
0
  6
Continuous
 62
     7
100
AcDbCircle
 10
-90.6858500314
 20
53.4668807373
 30
0.0
 40
77.34275000000002
100
AcDbArc
 50
168.4229736319
 51
169.2533885536
  0
ARC
  5
D7
330
1F
100
AcDbEntity
  8
0
  6
Continuous
 62
     7
100
AcDbCircle
 10
-163.0113893893
 20
36.4762557726
 30
0.0
 40
31.62500000000001
100
AcDbArc
 50
96.6471328356
 51
102.6151887749
  0
ARC
  5
D8
330
1F
100
AcDbEntity
  8
0
  6
Continuous
 62
     7
100
AcDbCircle
 10
-90.6858500314
 20
53.4668807373
 30
0.0
 40
80.4375
100
AcDbArc
 50
170.0700883753
 51
170.7367085928
  0
ARC
  5
D9
330
1F
100
AcDbEntity
  8
0
  6
Continuous
 62
     7
100
AcDbCircle
 10
-153.405455197
 20
93.2904429582
 30
0.0
 40
31.62499999999999
100
AcDbArc
 50
238.1916081932
 51
244.1596641325
  0
ARC
  5
DA
330
1F
100
AcDbEntity
  8
0
  6
Continuous
 62
     7
100
AcDbCircle
 10
-90.6858500314
 20
53.4668807373
 30
0.0
 40
77.34275000000002
100
AcDbArc
 50
171.5534084145
 51
172.3838233362
  0
ARC
  5
DB
330
1F
100
AcDbEntity
  8
0
  6
Continuous
 62
     7
100
AcDbCircle
 10
-161.9756207764
 20
32.5519681813
 30
0.0
 40
31.625
100
AcDbArc
 50
99.7775676182
 51
105.7456235575
  0
ARC
  5
DC
330
1F
100
AcDbEntity
  8
0
  6
Continuous
 62
     7
100
AcDbCircle
 10
-90.6858500314
 20
53.4668807373
 30
0.0
 40
80.43750000000003
100
AcDbArc
 50
173.2005231579
 51
173.8671433754
  0
ARC
  5
DD
330
1F
100
AcDbEntity
  8
0
  6
Continuous
 62
     7
100
AcDbCircle
 10
-155.4865986997
 20
89.8059499621
 30
0.0
 40
31.62499999999999
100
AcDbArc
 50
241.3220429758
 51
247.2900989151
  0
ARC
  5
DE
330
1F
100
AcDbEntity
  8
0
  6
Continuous
 62
     7
100
AcDbCircle
 10
-90.6858500314
 20
53.4668807373
 30
0.0
 40
77.34275000000002
100
AcDbArc
 50
174.6838431971
 51
175.5142581188
  0
ARC
  5
DF
330
1F
100
AcDbEntity
  8
0
  6
Continuous
 62
     7
100
AcDbCircle
 10
-160.7270954683
 20
28.6900989093
 30
0.0
 40
31.625
100
AcDbArc
 50
102.9080024009
 51
108.8760583401
  0
ARC
  5
E0
330
1F
100
AcDbEntity
  8
0
  6
Continuous
 62
     7
100
AcDbCircle
 10
-90.6858500314
 20
53.4668807373
 30
0.0
 40
80.4375
100
AcDbArc
 50
176.3309579405
 51
176.997578158
  0
ARC
  5
E1
330
1F
100
AcDbEntity
  8
0
  6
Continuous
 62
     7
100
AcDbCircle
 10
-157.3743512994
 20
86.213006901
 30
0.0
 40
31.62499999999998
100
AcDbArc
 50
244.4524777584
 51
250.4205336977
  0
ARC
  5
E2
330
1F
100
AcDbEntity
  8
0
  6
Continuous
 62
     7
100
AcDbCircle
 10
-90.6858500314
 20
53.4668807373
 30
0.0
 40
77.34275000000005
100
AcDbArc
 50
177.8142779797
 51
178.6446929014
  0
ARC
  5
E3
330
1F
100
AcDbEntity
  8
0
  6
Continuous
 62
     7
100
AcDbCircle
 10
-159.2695395552
 20
24.9021732925
 30
0.0
 40
31.625
100
AcDbArc
 50
106.0384371835
 51
112.0064931227
  0
ARC
  5
E4
330
1F
100
AcDbEntity
  8
0
  6
Continuous
 62
     7
100
AcDbCircle
 10
-90.6858500314
 20
53.4668807373
 30
0.0
 40
80.43749999999997
100
AcDbArc
 50
179.4613927232
 51
180.1280129406
  0
ARC
  5
E5
330
1F
100
AcDbEntity
  8
0
  6
Continuous
 62
     7
100
AcDbCircle
 10
-159.0630792004
 20
82.522336529
 30
0.0
 40
31.62499999999997
100
AcDbArc
 50
247.582912541
 51
253.5509684803
  0
ARC
  5
E6
330
1F
100
AcDbEntity
  8
0
  6
Continuous
 62
     7
100
AcDbCircle
 10
-90.6858500314
 20
53.4668807373
 30
0.0
 40
77.34275000000005
100
AcDbArc
 50
180.9447127623
 51
181.775127684
  0
ARC
  5
E7
330
1F
100
AcDbEntity
  8
0
  6
Continuous
 62
     7
100
AcDbCircle
 10
-157.6073029568
 20
21.1994959896
 30
0.0
 40
31.62500000000001
100
AcDbArc
 50
109.1688719661
 51
115.1369279053
  0
ARC
  5
E8
330
1F
100
AcDbEntity
  8
0
  6
Continuous
 62
     7
100
AcDbCircle
 10
-90.6858500314
 20
53.4668807373
 30
0.0
 40
80.43749999999999
100
AcDbArc
 50
182.5918275058
 51
183.2584477232
  0
ARC
  5
E9
330
1F
100
AcDbEntity
  8
0
  6
Continuous
 62
     7
100
AcDbCircle
 10
-160.5477425751
 20
78.7449532571
 30
0.0
 40
31.62499999999999
100
AcDbArc
 50
250.7133473236
 51
256.6814032629
  0
ARC
  5
EA
330
1F
100
AcDbEntity
  8
0
  6
Continuous
 62
     7
100
AcDbCircle
 10
-90.6858500314
 20
53.4668807373
 30
0.0
 40
77.3427500000001
100
AcDbArc
 50
184.0751475449
 51
184.9055624667
  0
ARC
  5
EB
330
1F
100
AcDbEntity
  8
0
  6
Continuous
 62
     7
100
AcDbCircle
 10
-155.7453464404
 20
17.593117245
 30
0.0
 40
31.62500000000002
100
AcDbArc
 50
112.2993067487
 51
118.267362688
  0
ARC
  5
EC
330
1F
100
AcDbEntity
  8
0
  6
Continuous
 62
     7
100
AcDbCircle
 10
-90.6858500314
 20
53.4668807373
 30
0.0
 40
80.4375
100
AcDbArc
 50
185.7222622884
 51
186.3888825058
  0
ARC
  5
ED
330
1F
100
AcDbEntity
  8
0
  6
Continuous
 62
     7
100
AcDbCircle
 10
-161.8239106042
 20
74.8921302817
 30
0.0
 40
31.62499999999999
100
AcDbArc
 50
253.8437821063
 51
259.8118380455
  0
ARC
  5
EE
330
1F
100
AcDbEntity
  8
0
  6
Continuous
 62
     7
100
AcDbCircle
 10
-90.6858500314
 20
53.4668807373
 30
0.0
 40
77.34275000000004
100
AcDbArc
 50
187.2055823276
 51
188.0359972493
  0
ARC
  5
EF
330
1F
100
AcDbEntity
  8
0
  6
Continuous
 62
     7
100
AcDbCircle
 10
-153.6892268162
 20
14.0937999102
 30
0.0
 40
31.62500000000003
100
AcDbArc
 50
115.4297415313
 51
121.3977974706
  0
ARC
  5
F0
330
1F
100
AcDbEntity
  8
0
  6
Continuous
 62
     7
100
AcDbCircle
 10
-90.6858500314
 20
53.4668807373
 30
0.0
 40
80.43749999999999
100
AcDbArc
 50
188.852697071
 51
189.5193172884
  0
ARC
  5
F1
330
1F
100
AcDbEntity
  8
0
  6
Continuous
 62
     7
100
AcDbCircle
 10
-162.8877747009
 20
70.9753659408
 30
0.0
 40
31.62499999999999
100
AcDbArc
 50
256.9742168889
 51
262.9422728281
  0
ARC
  5
F2
330
1F
100
AcDbEntity
  8
0
  6
Continuous
 62
     7
100
AcDbCircle
 10
-90.6858500314
 20
53.4668807373
 30
0.0
 40
77.34275000000002
100
AcDbArc
 50
190.3360171102
 51
191.1664320319
  0
ARC
  5
F3
330
1F
100
AcDbEntity
  8
0
  6
Continuous
 62
     7
100
AcDbCircle
 10
-151.4450803531
 20
10.7119873236
 30
0.0
 40
31.62500000000002
100
AcDbArc
 50
118.5601763139
 51
124.5282322532
  0
ARC
  5
F4
330
1F
100
AcDbEntity
  8
0
  6
Continuous
 62
     7
100
AcDbCircle
 10
-90.6858500314
 20
53.4668807373
 30
0.0
 40
80.43750000000001
100
AcDbArc
 50
191.9831318536
 51
192.6497520711
  0
ARC
  5
F5
330
1F
100
AcDbEntity
  8
0
  6
Continuous
 62
     7
100
AcDbCircle
 10
-163.7361598765
 20
67.0063493986
 30
0.0
 40
31.62499999999999
100
AcDbArc
 50
260.1046516715
 51
266.0727076107
  0
ARC
  5
F6
330
1F
100
AcDbEntity
  8
0
  6
Continuous
 62
     7
100
AcDbCircle
 10
-90.6858500314
 20
53.4668807373
 30
0.0
 40
77.34275000000001
100
AcDbArc
 50
193.4664518928
 51
194.2968668145
  0
ARC
  5
F7
330
1F
100
AcDbEntity
  8
0
  6
Continuous
 62
     7
100
AcDbCircle
 10
-149.0196044663
 20
7.4577721431
 30
0.0
 40
31.62500000000008
100
AcDbArc
 50
121.6906110965
 51
127.6586670358
  0
ARC
  5
F8
330
1F
100
AcDbEntity
  8
0
  6
Continuous
 62
     7
100
AcDbCircle
 10
-90.6858500314
 20
53.4668807373
 30
0.0
 40
80.43750000000003
100
AcDbArc
 50
195.1135666362
 51
195.7801868537
  0
ARC
  5
F9
330
1F
100
AcDbEntity
  8
0
  6
Continuous
 62
     7
100
AcDbCircle
 10
-164.3665342163
 20
62.9969257604
 30
0.0
 40
31.625
100
AcDbArc
 50
263.2350864541
 51
269.2031423934
  0
ARC
  5
FA
330
1F
100
AcDbEntity
  8
0
  6
Continuous
 62
     7
100
AcDbCircle
 10
-90.6858500314
 20
53.4668807373
 30
0.0
 40
77.34275000000002
100
AcDbArc
 50
196.5968866754
 51
197.4273015971
  0
ARC
  5
FB
330
1F
100
AcDbEntity
  8
0
  6
Continuous
 62
     7
100
AcDbCircle
 10
-146.4200377291
 20
4.3408662258
 30
0.0
 40
31.62500000000009
100
AcDbArc
 50
124.8210458791
 51
130.7891018184
  0
ARC
  5
FC
330
1F
100
AcDbEntity
  8
0
  6
Continuous
 62
     7
100
AcDbCircle
 10
-90.6858500314
 20
53.4668807373
 30
0.0
 40
80.4375
100
AcDbArc
 50
198.2440014188
 51
198.9106216363
  0
ARC
  5
FD
330
1F
100
AcDbEntity
  8
0
  6
Continuous
 62
     7
100
AcDbCircle
 10
-164.7770164354
 20
58.9590607223
 30
0.0
 40
31.62500000000001
100
AcDbArc
 50
266.3655212367
 51
272.333577176
  0
ARC
  5
FE
330
1F
100
AcDbEntity
  8
0
  6
Continuous
 62
     7
100
AcDbCircle
 10
-90.6858500314
 20
53.4668807373
 30
0.0
 40
77.34275000000007
100
AcDbArc
 50
199.727321458
 51
200.5577363797
  0
ARC
  5
FF
330
1F
100
AcDbEntity
  8
0
  6
Continuous
 62
     7
100
AcDbCircle
 10
-143.6541382703
 20
1.370571644
 30
0.0
 40
31.62500000000005
100
AcDbArc
 50
127.9514806617
 51
133.919536601
  0
ARC
  5
100
330
1F
100
AcDbEntity
  8
0
  6
Continuous
 62
     7
100
AcDbCircle
 10
-90.6858500314
 20
53.4668807373
 30
0.0
 40
80.4375
100
AcDbArc
 50
201.3744362014
 51
202.0410564189
  0
ARC
  5
101
330
1F
100
AcDbEntity
  8
0
  6
Continuous
 62
     7
100
AcDbCircle
 10
-164.9663814937
 20
54.9048048604
 30
0.0
 40
31.62499999999996
100
AcDbArc
 50
269.4959560193
 51
275.4640119586
  0
ARC
  5
102
330
1F
100
AcDbEntity
  8
0
  6
Continuous
 62
     7
100
AcDbCircle
 10
-90.6858500314
 20
53.4668807373
 30
0.0
 40
77.34275000000004
100
AcDbArc
 50
202.8577562406
 51
203.6881711623
  0
ARC
  5
103
330
1F
100
AcDbEntity
  8
0
  6
Continuous
 62
     7
100
AcDbCircle
 10
-140.7301606211
 20
-1.4442470758
 30
0.0
 40
31.62500000000009
100
AcDbArc
 50
131.0819154443
 51
137.0499713836
  0
ARC
  5
104
330
1F
100
AcDbEntity
  8
0
  6
Continuous
 62
     7
100
AcDbCircle
 10
-90.6858500314
 20
53.4668807373
 30
0.0
 40
80.43749999999997
100
AcDbArc
 50
204.504870984
 51
205.1714912015
  0
ARC
  5
105
330
1F
100
AcDbEntity
  8
0
  6
Continuous
 62
     7
100
AcDbCircle
 10
-164.9340642512
 20
50.8462576678
 30
0.0
 40
31.62500000000001
100
AcDbArc
 50
272.6263908019
 51
278.5944467412
  0
ARC
  5
106
330
1F
100
AcDbEntity
  8
0
  6
Continuous
 62
     7
100
AcDbCircle
 10
-90.6858500314
 20
53.4668807373
 30
0.0
 40
77.34275000000004
100
AcDbArc
 50
205.9881910232
 51
206.8186059449
  0
ARC
  5
107
330
1F
100
AcDbEntity
  8
0
  6
Continuous
 62
     7
100
AcDbCircle
 10
-137.65683108
 20
-4.0951894082
 30
0.0
 40
31.62500000000006
100
AcDbArc
 50
134.2123502269
 51
140.1804061662
  0
ARC
  5
108
330
1F
100
AcDbEntity
  8
0
  6
Continuous
 62
     7
100
AcDbCircle
 10
-90.6858500314
 20
53.4668807373
 30
0.0
 40
80.43749999999999
100
AcDbArc
 50
207.6353057666
 51
208.3019259841
  0
ARC
  5
109
330
1F
100
AcDbEntity
  8
0
  6
Continuous
 62
     7
100
AcDbCircle
 10
-164.6801611554
 20
46.7955314445
 30
0.0
 40
31.62500000000001
100
AcDbArc
 50
275.7568255845
 51
281.7248815238
  0
ARC
  5
10A
330
1F
100
AcDbEntity
  8
0
  6
Continuous
 62
     7
100
AcDbCircle
 10
-90.6858500314
 20
53.4668807373
 30
0.0
 40
77.34275000000005
100
AcDbArc
 50
209.1186258058
 51
209.9490407275
  0
ARC
  5
10B
330
1F
100
AcDbEntity
  8
0
  6
Continuous
 62
     7
100
AcDbCircle
 10
-134.4433216701
 20
-6.5743438995
 30
0.0
 40
31.62500000000004
100
AcDbArc
 50
137.3427850096
 51
143.3108409488
  0
ARC
  5
10C
330
1F
100
AcDbEntity
  8
0
  6
Continuous
 62
     7
100
AcDbCircle
 10
-90.6858500314
 20
53.4668807373
 30
0.0
 40
80.43750000000003
100
AcDbArc
 50
210.7657405492
 51
211.4323607667
  0
ARC
  5
10D
330
1F
100
AcDbEntity
  8
0
  6
Continuous
 62
     7
100
AcDbCircle
 10
-164.2054299529
 20
42.7647151495
 30
0.0
 40
31.62500000000001
100
AcDbArc
 50
278.8872603671
 51
284.8553163064
  0
ARC
  5
10E
330
1F
100
AcDbEntity
  8
0
  6
Continuous
 62
     7
100
AcDbCircle
 10
-90.6858500314
 20
53.4668807373
 30
0.0
 40
77.34275000000002
100
AcDbArc
 50
212.2490605884
 51
213.0794755101
  0
ARC
  5
10F
330
1F
100
AcDbEntity
  8
0
  6
Continuous
 62
     7
100
AcDbCircle
 10
-131.0992227668
 20
-8.8743117782
 30
0.0
 40
31.6250000000001
100
AcDbArc
 50
140.4732197922
 51
146.4412757314
  0
ARC
  5
110
330
1F
100
AcDbEntity
  8
0
  6
Continuous
 62
     7
100
AcDbCircle
 10
-90.6858500314
 20
53.4668807373
 30
0.0
 40
80.4375
100
AcDbArc
 50
213.8961753319
 51
214.5627955493
  0
ARC
  5
111
330
1F
100
AcDbEntity
  8
0
  6
Continuous
 62
     7
100
AcDbCircle
 10
-163.5112874282
 20
38.765838323
 30
0.0
 40
31.62500000000001
100
AcDbArc
 50
282.0176951497
 51
287.985751089
  0
ARC
  5
112
330
1F
100
AcDbEntity
  8
0
  6
Continuous
 62
     7
100
AcDbCircle
 10
-90.6858500314
 20
53.4668807373
 30
0.0
 40
77.34275000000005
100
AcDbArc
 50
215.379495371
 51
216.2099102927
  0
ARC
  5
113
330
1F
100
AcDbEntity
  8
0
  6
Continuous
 62
     7
100
AcDbCircle
 10
-127.6345144753
 20
-10.9882290362
 30
0.0
 40
31.62500000000011
100
AcDbArc
 50
143.6036545748
 51
149.571710514
  0
ARC
  5
114
330
1F
100
AcDbEntity
  8
0
  6
Continuous
 62
     7
100
AcDbCircle
 10
-90.6858500314
 20
53.4668807373
 30
0.0
 40
80.43750000000001
100
AcDbArc
 50
217.0266101145
 51
217.6932303319
  0
ARC
  5
115
330
1F
100
AcDbEntity
  8
0
  6
Continuous
 62
     7
100
AcDbCircle
 10
-162.5998051754
 20
34.810835185
 30
0.0
 40
31.62500000000003
100
AcDbArc
 50
285.1481299323
 51
291.1161858716
  0
ARC
  5
116
330
1F
100
AcDbEntity
  8
0
  6
Continuous
 62
     7
100
AcDbCircle
 10
-90.6858500314
 20
53.4668807373
 30
0.0
 40
77.34275000000004
100
AcDbArc
 50
218.5099301536
 51
219.3403450754
  0
ARC
  5
117
330
1F
100
AcDbEntity
  8
0
  6
Continuous
 62
     7
100
AcDbCircle
 10
-124.0595368471
 20
-12.9097869135
 30
0.0
 40
31.62499999999999
100
AcDbArc
 50
146.7340893574
 51
152.7021452967
  0
ARC
  5
118
330
1F
100
AcDbEntity
  8
0
  6
Continuous
 62
     7
100
AcDbCircle
 10
-90.6858500314
 20
53.4668807373
 30
0.0
 40
80.43749999999999
100
AcDbArc
 50
220.1570448971
 51
220.8236651145
  0
ARC
  5
119
330
1F
100
AcDbEntity
  8
0
  6
Continuous
 62
     7
100
AcDbCircle
 10
-161.4737034158
 20
30.9115090194
 30
0.0
 40
31.62499999999996
100
AcDbArc
 50
288.2785647149
 51
294.2466206542
  0
ARC
  5
11A
330
1F
100
AcDbEntity
  8
0
  6
Continuous
 62
     7
100
AcDbCircle
 10
-90.6858500314
 20
53.4668807373
 30
0.0
 40
77.34275000000004
100
AcDbArc
 50
221.6403649362
 51
222.470779858
  0
ARC
  5
11B
330
1F
100
AcDbEntity
  8
0
  6
Continuous
 62
     7
100
AcDbCircle
 10
-120.3849590204
 20
-14.6332507263
 30
0.0
 40
31.62500000000003
100
AcDbArc
 50
149.86452414
 51
155.8325800793
  0
ARC
  5
11C
330
1F
100
AcDbEntity
  8
0
  6
Continuous
 62
     7
100
AcDbCircle
 10
-90.6858500314
 20
53.4668807373
 30
0.0
 40
80.43749999999997
100
AcDbArc
 50
223.2874796797
 51
223.9540998971
  0
ARC
  5
11D
330
1F
100
AcDbEntity
  8
0
  6
Continuous
 62
     7
100
AcDbCircle
 10
-160.1363428796
 20
27.0794969481
 30
0.0
 40
31.625
100
AcDbArc
 50
291.4089994976
 51
297.3770554368
  0
ARC
  5
11E
330
1F
100
AcDbEntity
  8
0
  6
Continuous
 62
     7
100
AcDbCircle
 10
-90.6858500314
 20
53.4668807373
 30
0.0
 40
77.34275000000005
100
AcDbArc
 50
224.7707997189
 51
225.6012146406
  0
ARC
  5
11F
330
1F
100
AcDbEntity
  8
0
  6
Continuous
 62
     7
100
AcDbCircle
 10
-116.6217473797
 20
-16.1534769811
 30
0.0
 40
31.62500000000005
100
AcDbArc
 50
152.9949589226
 51
158.9630148619
  0
ARC
  5
120
330
1F
100
AcDbEntity
  8
0
  6
Continuous
 62
     7
100
AcDbCircle
 10
-90.6858500314
 20
53.4668807373
 30
0.0
 40
80.4375
100
AcDbArc
 50
226.4179144623
 51
227.0845346798
  0
ARC
  5
121
330
1F
100
AcDbEntity
  8
0
  6
Continuous
 62
     7
100
AcDbCircle
 10
-158.5917147764
 20
23.3262352011
 30
0.0
 40
31.62500000000002
100
AcDbArc
 50
294.5394342802
 51
300.5074902194
  0
ARC
  5
122
330
1F
100
AcDbEntity
  8
0
  6
Continuous
 62
     7
100
AcDbCircle
 10
-90.6858500314
 20
53.4668807373
 30
0.0
 40
77.34275000000002
100
AcDbArc
 50
227.9012345015
 51
228.7316494232
  0
ARC
  5
123
330
1F
100
AcDbEntity
  8
0
  6
Continuous
 62
     7
100
AcDbCircle
 10
-112.7811328276
 20
-17.4659287253
 30
0.0
 40
31.62500000000004
100
AcDbArc
 50
156.1253937052
 51
162.0934496445
  0
ARC
  5
124
330
1F
100
AcDbEntity
  8
0
  6
Continuous
 62
     7
100
AcDbCircle
 10
-90.6858500314
 20
53.4668807373
 30
0.0
 40
80.43749999999997
100
AcDbArc
 50
229.5483492449
 51
230.2149694624
  0
ARC
  5
125
330
1F
100
AcDbEntity
  8
0
  6
Continuous
 62
     7
100
AcDbCircle
 10
-156.8444288834
 20
19.6629249868
 30
0.0
 40
31.62500000000005
100
AcDbArc
 50
297.6698690628
 51
303.6379250021
  0
ARC
  5
126
330
1F
100
AcDbEntity
  8
0
  6
Continuous
 62
     7
100
AcDbCircle
 10
-90.6858500314
 20
53.4668807373
 30
0.0
 40
77.34275000000001
100
AcDbArc
 50
231.0316692841
 51
231.8620842058
  0
ARC
  5
127
330
1F
100
AcDbEntity
  8
0
  6
Continuous
 62
     7
100
AcDbCircle
 10
-108.8745772674
 20
-18.566689087
 30
0.0
 40
31.62499999999998
100
AcDbArc
 50
159.2558284878
 51
165.2238844271
  0
ARC
  5
128
330
1F
100
AcDbEntity
  8
0
  6
Continuous
 62
     7
100
AcDbCircle
 10
-90.6858500314
 20
53.4668807373
 30
0.0
 40
80.43749999999997
100
AcDbArc
 50
232.6787840275
 51
233.345404245
  0
ARC
  5
129
330
1F
100
AcDbEntity
  8
0
  6
Continuous
 62
     7
100
AcDbCircle
 10
-154.8996997885
 20
16.1004990625
 30
0.0
 40
31.62499999999999
100
AcDbArc
 50
300.8003038454
 51
306.7683597847
  0
ARC
  5
12A
330
1F
100
AcDbEntity
  8
0
  6
Continuous
 62
     7
100
AcDbCircle
 10
-90.6858500314
 20
53.4668807373
 30
0.0
 40
77.34275000000002
100
AcDbArc
 50
234.1621040667
 51
234.9925189884
  0
ARC
  5
12B
330
1F
100
AcDbEntity
  8
0
  6
Continuous
 62
     7
100
AcDbCircle
 10
-104.9137393964
 20
-19.4524729647
 30
0.0
 40
31.62500000000001
100
AcDbArc
 50
162.3862632704
 51
168.3543192097
  0
ARC
  5
12C
330
1F
100
AcDbEntity
  8
0
  6
Continuous
 62
     7
100
AcDbCircle
 10
-90.6858500314
 20
53.4668807373
 30
0.0
 40
80.4375
100
AcDbArc
 50
235.8092188101
 51
236.4758390276
  0
ARC
  5
12D
330
1F
100
AcDbEntity
  8
0
  6
Continuous
 62
     7
100
AcDbCircle
 10
-152.7633313277
 20
12.6495891074
 30
0.0
 40
31.62499999999999
100
AcDbArc
 50
303.930738628
 51
309.8987945673
  0
ARC
  5
12E
330
1F
100
AcDbEntity
  8
0
  6
Continuous
 62
     7
100
AcDbCircle
 10
-90.6858500314
 20
53.4668807373
 30
0.0
 40
77.34275000000004
100
AcDbArc
 50
237.2925388493
 51
238.122953771
  0
ARC
  5
12F
330
1F
100
AcDbEntity
  8
0
  6
Continuous
 62
     7
100
AcDbCircle
 10
-100.9104399115
 20
-20.1206368311
 30
0.0
 40
31.62499999999998
100
AcDbArc
 50
165.516698053
 51
171.4847539923
  0
ARC
  5
130
330
1F
100
AcDbEntity
  8
0
  6
Continuous
 62
     7
100
AcDbCircle
 10
-90.6858500314
 20
53.4668807373
 30
0.0
 40
80.43750000000003
100
AcDbArc
 50
238.9396535927
 51
239.6062738102
  0
ARC
  5
131
330
1F
100
AcDbEntity
  8
0
  6
Continuous
 62
     7
100
AcDbCircle
 10
-150.4416992642
 20
9.3204939931
 30
0.0
 40
31.62500000000001
100
AcDbArc
 50
307.0611734106
 51
313.0292293499
  0
ARC
  5
132
330
1F
100
AcDbEntity
  8
0
  6
Continuous
 62
     7
100
AcDbCircle
 10
-90.6858500314
 20
53.4668807373
 30
0.0
 40
77.34275000000002
100
AcDbArc
 50
240.4229736319
 51
241.2533885536
  0
ARC
  5
133
330
1F
100
AcDbEntity
  8
0
  6
Continuous
 62
     7
100
AcDbCircle
 10
-96.8766262317
 20
-20.5691866227
 30
0.0
 40
31.62500000000003
100
AcDbArc
 50
168.6471328356
 51
174.6151887749
  0
ARC
  5
134
330
1F
100
AcDbEntity
  8
0
  6
Continuous
 62
     7
100
AcDbCircle
 10
-90.6858500314
 20
53.4668807373
 30
0.0
 40
80.4375
100
AcDbArc
 50
242.0700883753
 51
242.7367085928
  0
ARC
  5
135
330
1F
100
AcDbEntity
  8
0
  6
Continuous
 62
     7
100
AcDbCircle
 10
-147.9417322604
 20
6.1231490479
 30
0.0
 40
31.62500000000001
100
AcDbArc
 50
310.1916081932
 51
316.1596641325
  0
ARC
  5
136
330
1F
100
AcDbEntity
  8
0
  6
Continuous
 62
     7
100
AcDbCircle
 10
-90.6858500314
 20
53.4668807373
 30
0.0
 40
77.34275000000002
100
AcDbArc
 50
243.5534084145
 51
244.3838233362
  0
ARC
  5
137
330
1F
100
AcDbEntity
  8
0
  6
Continuous
 62
     7
100
AcDbCircle
 10
-92.8243368426
 20
-20.7967836906
 30
0.0
 40
31.62500000000005
100
AcDbArc
 50
171.7775676182
 51
177.7456235575
  0
ARC
  5
138
330
1F
100
AcDbEntity
  8
0
  6
Continuous
 62
     7
100
AcDbCircle
 10
-90.6858500314
 20
53.4668807373
 30
0.0
 40
80.43749999999997
100
AcDbArc
 50
245.2005231579
 51
245.8671433754
  0
ARC
  5
139
330
1F
100
AcDbEntity
  8
0
  6
Continuous
 62
     7
100
AcDbCircle
 10
-145.2708912005
 20
3.0670964058
 30
0.0
 40
31.62499999999995
100
AcDbArc
 50
313.3220429758
 51
319.2900989151
  0
ARC
  5
13A
330
1F
100
AcDbEntity
  8
0
  6
Continuous
 62
     7
100
AcDbCircle
 10
-90.6858500314
 20
53.4668807373
 30
0.0
 40
77.34275000000002
100
AcDbArc
 50
246.6838431971
 51
247.5142581188
  0
ARC
  5
13B
330
1F
100
AcDbEntity
  8
0
  6
Continuous
 62
     7
100
AcDbCircle
 10
-88.7656653683
 20
-20.8027487956
 30
0.0
 40
31.62500000000001
100
AcDbArc
 50
174.9080024009
 51
180.8760583401
  0
ARC
  5
13C
330
1F
100
AcDbEntity
  8
0
  6
Continuous
 62
     7
100
AcDbCircle
 10
-90.6858500314
 20
53.4668807373
 30
0.0
 40
80.4375
100
AcDbArc
 50
248.3309579405
 51
248.997578158
  0
ARC
  5
13D
330
1F
100
AcDbEntity
  8
0
  6
Continuous
 62
     7
100
AcDbCircle
 10
-142.437146924
 20
0.1614565289
 30
0.0
 40
31.62500000000001
100
AcDbArc
 50
316.4524777584
 51
322.4205336977
  0
ARC
  5
13E
330
1F
100
AcDbEntity
  8
0
  6
Continuous
 62
     7
100
AcDbCircle
 10
-90.6858500314
 20
53.4668807373
 30
0.0
 40
77.34275000000002
100
AcDbArc
 50
249.8142779797
 51
250.6446929014
  0
ARC
  5
13F
330
1F
100
AcDbEntity
  8
0
  6
Continuous
 62
     7
100
AcDbCircle
 10
-84.7127244798
 20
-20.5870641357
 30
0.0
 40
31.62500000000002
100
AcDbArc
 50
178.0384371835
 51
184.0064931227
  0
ARC
  5
140
330
1F
100
AcDbEntity
  8
0
  6
Continuous
 62
     7
100
AcDbCircle
 10
-90.6858500314
 20
53.4668807373
 30
0.0
 40
80.43749999999997
100
AcDbArc
 50
251.4613927232
 51
252.1280129406
  0
ARC
  5
141
330
1F
100
AcDbEntity
  8
0
  6
Continuous
 62
     7
100
AcDbCircle
 10
-139.4489564375
 20
-2.5850990112
 30
0.0
 40
31.62499999999999
100
AcDbArc
 50
319.582912541
 51
325.5509684803
  0
ARC
  5
142
330
1F
100
AcDbEntity
  8
0
  6
Continuous
 62
     7
100
AcDbCircle
 10
-90.6858500314
 20
53.4668807373
 30
0.0
 40
77.34275000000002
100
AcDbArc
 50
252.9447127623
 51
253.775127684
  0
ARC
  5
143
330
1F
100
AcDbEntity
  8
0
  6
Continuous
 62
     7
100
AcDbCircle
 10
-80.6776097455
 20
-20.1503733984
 30
0.0
 40
31.62500000000002
100
AcDbArc
 50
181.1688719661
 51
187.1369279054
  0
ARC
  5
144
330
1F
100
AcDbEntity
  8
0
  6
Continuous
 62
     7
100
AcDbCircle
 10
-90.6858500314
 20
53.4668807373
 30
0.0
 40
80.43749999999999
100
AcDbArc
 50
254.5918275058
 51
255.2584477232
  0
ARC
  5
145
330
1F
100
AcDbEntity
  8
0
  6
Continuous
 62
     7
100
AcDbCircle
 10
-136.315237676
 20
-5.1643734134
 30
0.0
 40
31.625
100
AcDbArc
 50
322.7133473236
 51
328.6814032629
  0
ARC
  5
146
330
1F
100
AcDbEntity
  8
0
  6
Continuous
 62
     7
100
AcDbCircle
 10
-90.6858500314
 20
53.4668807373
 30
0.0
 40
77.34275000000002
100
AcDbArc
 50
256.0751475449
 51
256.9055624667
  0
ARC
  5
147
330
1F
100
AcDbEntity
  8
0
  6
Continuous
 62
     7
100
AcDbCircle
 10
-76.6723635339
 20
-19.4939798407
 30
0.0
 40
31.62500000000005
100
AcDbArc
 50
184.2993067487
 51
190.267362688
  0
ARC
  5
148
330
1F
100
AcDbEntity
  8
0
  6
Continuous
 62
     7
100
AcDbCircle
 10
-90.6858500314
 20
53.4668807373
 30
0.0
 40
80.4375
100
AcDbArc
 50
257.7222622884
 51
258.3888825058
  0
ARC
  5
149
330
1F
100
AcDbEntity
  8
0
  6
Continuous
 62
     7
100
AcDbCircle
 10
-133.0453428877
 20
-7.5686691091
 30
0.0
 40
31.62499999999996
100
AcDbArc
 50
325.8437821063
 51
331.8118380455
  0
ARC
  5
14A
330
1F
100
AcDbEntity
  8
0
  6
Continuous
 62
     7
100
AcDbCircle
 10
-90.6858500314
 20
53.4668807373
 30
0.0
 40
77.34275000000002
100
AcDbArc
 50
259.2055823276
 51
260.0359972493
  0
ARC
  5
14B
330
1F
100
AcDbEntity
  8
0
  6
Continuous
 62
     7
100
AcDbCircle
 10
-72.7089390737
 20
-18.6198423989
 30
0.0
 40
31.62500000000005
100
AcDbArc
 50
187.4297415313
 51
193.3977974706
  0
ARC
  5
14C
330
1F
100
AcDbEntity
  8
0
  6
Continuous
 62
     7
100
AcDbCircle
 10
-90.6858500314
 20
53.4668807373
 30
0.0
 40
80.43750000000001
100
AcDbArc
 50
260.852697071
 51
261.5193172884
  0
ARC
  5
14D
330
1F
100
AcDbEntity
  8
0
  6
Continuous
 62
     7
100
AcDbCircle
 10
-129.6490307241
 20
-9.790810735
 30
0.0
 40
31.62499999999996
100
AcDbArc
 50
328.9742168889
 51
334.9422728281
  0
ARC
  5
14E
330
1F
100
AcDbEntity
  8
0
  6
Continuous
 62
     7
100
AcDbCircle
 10
-90.6858500314
 20
53.4668807373
 30
0.0
 40
77.34275000000005
100
AcDbArc
 50
262.3360171102
 51
263.1664320319
  0
ARC
  5
14F
330
1F
100
AcDbEntity
  8
0
  6
Continuous
 62
     7
100
AcDbCircle
 10
-68.7991647814
 20
-17.5305698428
 30
0.0
 40
31.62500000000002
100
AcDbArc
 50
190.5601763139
 51
196.5282322532
  0
ARC
  5
150
330
1F
100
AcDbEntity
  8
0
  6
Continuous
 62
     7
100
AcDbCircle
 10
-90.6858500314
 20
53.4668807373
 30
0.0
 40
80.4375
100
AcDbArc
 50
263.9831318536
 51
264.6497520711
  0
ARC
  5
151
330
1F
100
AcDbEntity
  8
0
  6
Continuous
 62
     7
100
AcDbCircle
 10
-126.1364371154
 20
-11.8241665472
 30
0.0
 40
31.62499999999997
100
AcDbArc
 50
332.1046516715
 51
338.0727076107
  0
ARC
  5
152
330
1F
100
AcDbEntity
  8
0
  6
Continuous
 62
     7
100
AcDbCircle
 10
-90.6858500314
 20
53.4668807373
 30
0.0
 40
77.34275000000004
100
AcDbArc
 50
265.4664518928
 51
266.2968668145
  0
ARC
  5
153
330
1F
100
AcDbEntity
  8
0
  6
Continuous
 62
     7
100
AcDbCircle
 10
-64.9547089601
 20
-16.2294129896
 30
0.0
 40
31.62500000000004
100
AcDbArc
 50
193.6906110965
 51
199.6586670358
  0
ARC
  5
154
330
1F
100
AcDbEntity
  8
0
  6
Continuous
 62
     7
100
AcDbCircle
 10
-90.6858500314
 20
53.4668807373
 30
0.0
 40
80.4375
100
AcDbArc
 50
267.1135666362
 51
267.7801868537
  0
ARC
  5
155
330
1F
100
AcDbEntity
  8
0
  6
Continuous
 62
     7
100
AcDbCircle
 10
-122.5180450215
 20
-13.6626682126
 30
0.0
 40
31.62499999999999
100
AcDbArc
 50
335.2350864541
 51
341.2031423934
  0
ARC
  5
156
330
1F
100
AcDbEntity
  8
0
  6
Continuous
 62
     7
100
AcDbCircle
 10
-90.6858500314
 20
53.4668807373
 30
0.0
 40
77.34275000000005
100
AcDbArc
 50
268.5968866754
 51
269.4273015971
  0
ARC
  5
157
330
1F
100
AcDbEntity
  8
0
  6
Continuous
 62
     7
100
AcDbCircle
 10
-61.1870449769
 20
-14.720255003
 30
0.0
 40
31.62500000000002
100
AcDbArc
 50
196.8210458791
 51
202.7891018184
  0
ARC
  5
158
330
1F
100
AcDbEntity
  8
0
  6
Continuous
 62
     7
100
AcDbCircle
 10
-90.6858500314
 20
53.4668807373
 30
0.0
 40
80.43749999999997
100
AcDbArc
 50
270.2440014188
 51
270.9106216363
  0
ARC
  5
159
330
1F
100
AcDbEntity
  8
0
  6
Continuous
 62
     7
100
AcDbCircle
 10
-118.8046531467
 20
-15.3008289197
 30
0.0
 40
31.62500000000002
100
AcDbArc
 50
338.3655212367
 51
344.333577176
  0
ARC
  5
15A
330
1F
100
AcDbEntity
  8
0
  6
Continuous
 62
     7
100
AcDbCircle
 10
-90.6858500314
 20
53.4668807373
 30
0.0
 40
77.34275000000001
100
AcDbArc
 50
271.727321458
 51
272.5577363797
  0
ARC
  5
15B
330
1F
100
AcDbEntity
  8
0
  6
Continuous
 62
     7
100
AcDbCircle
 10
-57.5074170221
 20
-13.0075998034
 30
0.0
 40
31.62500000000002
100
AcDbArc
 50
199.9514806617
 51
205.919536601
  0
ARC
  5
15C
330
1F
100
AcDbEntity
  8
0
  6
Continuous
 62
     7
100
AcDbCircle
 10
-90.6858500314
 20
53.4668807373
 30
0.0
 40
80.43750000000001
100
AcDbArc
 50
273.3744362014
 51
274.0410564189
  0
ARC
  5
15D
330
1F
100
AcDbEntity
  8
0
  6
Continuous
 62
     7
100
AcDbCircle
 10
-115.0073437117
 20
-16.7337597531
 30
0.0
 40
31.62500000000004
100
AcDbArc
 50
341.4959560193
 51
347.4640119586
  0
ARC
  5
15E
330
1F
100
AcDbEntity
  8
0
  6
Continuous
 62
     7
100
AcDbCircle
 10
-90.6858500314
 20
53.4668807373
 30
0.0
 40
77.34275000000002
100
AcDbArc
 50
274.8577562406
 51
275.6881711623
  0
ARC
  5
15F
330
1F
100
AcDbEntity
  8
0
  6
Continuous
 62
     7
100
AcDbCircle
 10
-53.9268065517
 20
-11.0965586271
 30
0.0
 40
31.62500000000002
100
AcDbArc
 50
203.0819154443
 51
209.0499713836
  0
ARC
  5
160
330
1F
100
AcDbEntity
  8
0
  6
Continuous
 62
     7
100
AcDbCircle
 10
-90.6858500314
 20
53.4668807373
 30
0.0
 40
80.4375
100
AcDbArc
 50
276.504870984
 51
277.1714912015
  0
ARC
  5
161
330
1F
100
AcDbEntity
  8
0
  6
Continuous
 62
     7
100
AcDbCircle
 10
-111.1374493804
 20
-17.957184284
 30
0.0
 40
31.62500000000001
100
AcDbArc
 50
344.6263908019
 51
350.5944467412
  0
ARC
  5
162
330
1F
100
AcDbEntity
  8
0
  6
Continuous
 62
     7
100
AcDbCircle
 10
-90.6858500314
 20
53.4668807373
 30
0.0
 40
77.34275000000005
100
AcDbArc
 50
277.9881910232
 51
278.8186059449
  0
ARC
  5
163
330
1F
100
AcDbEntity
  8
0
  6
Continuous
 62
     7
100
AcDbCircle
 10
-50.4558995145
 20
-8.9928347721
 30
0.0
 40
31.62500000000003
100
AcDbArc
 50
206.2123502269
 51
212.1804061662
  0
ARC
  5
164
330
1F
100
AcDbEntity
  8
0
  6
Continuous
 62
     7
100
AcDbCircle
 10
-90.6858500314
 20
53.4668807373
 30
0.0
 40
80.43750000000001
100
AcDbArc
 50
279.6353057666
 51
280.3019259841
  0
ARC
  5
165
330
1F
100
AcDbEntity
  8
0
  6
Continuous
 62
     7
100
AcDbCircle
 10
-107.2065194384
 20
-18.9674513328
 30
0.0
 40
31.62500000000001
100
AcDbArc
 50
347.7568255845
 51
353.7248815238
  0
ARC
  5
166
330
1F
100
AcDbEntity
  8
0
  6
Continuous
 62
     7
100
AcDbCircle
 10
-90.6858500314
 20
53.4668807373
 30
0.0
 40
77.34275000000002
100
AcDbArc
 50
281.1186258058
 51
281.9490407275
  0
ARC
  5
167
330
1F
100
AcDbEntity
  8
0
  6
Continuous
 62
     7
100
AcDbCircle
 10
-47.1050544615
 20
-6.7027065772
 30
0.0
 40
31.62500000000001
100
AcDbArc
 50
209.3427850096
 51
215.3108409488
  0
ARC
  5
168
330
1F
100
AcDbEntity
  8
0
  6
Continuous
 62
     7
100
AcDbCircle
 10
-90.6858500314
 20
53.4668807373
 30
0.0
 40
80.4375
100
AcDbArc
 50
282.7657405492
 51
283.4323607667
  0
ARC
  5
169
330
1F
100
AcDbEntity
  8
0
  6
Continuous
 62
     7
100
AcDbCircle
 10
-103.2262853257
 20
-19.7615458656
 30
0.0
 40
31.62500000000002
100
AcDbArc
 50
350.8872603671
 51
356.8553163064
  0
ARC
  5
16A
330
1F
100
AcDbEntity
  8
0
  6
Continuous
 62
     7
100
AcDbCircle
 10
-90.6858500314
 20
53.4668807373
 30
0.0
 40
77.34275000000008
100
AcDbArc
 50
284.2490605884
 51
285.0794755101
  0
ARC
  5
16B
330
1F
100
AcDbEntity
  8
0
  6
Continuous
 62
     7
100
AcDbCircle
 10
-43.8842716312
 20
-4.233008685
 30
0.0
 40
31.625
100
AcDbArc
 50
212.4732197922
 51
218.4412757314
  0
ARC
  5
16C
330
1F
100
AcDbEntity
  8
0
  6
Continuous
 62
     7
100
AcDbCircle
 10
-90.6858500314
 20
53.4668807373
 30
0.0
 40
80.43750000000001
100
AcDbArc
 50
285.8961753319
 51
286.5627955493
  0
ARC
  5
16D
330
1F
100
AcDbEntity
  8
0
  6
Continuous
 62
     7
100
AcDbCircle
 10
-99.2086256253
 20
-20.337097992
 30
0.0
 40
31.625
100
AcDbArc
 50
354.0176951497
 51
359.985751089
  0
ARC
  5
16E
330
1F
100
AcDbEntity
  8
0
  6
Continuous
 62
     7
100
AcDbCircle
 10
-90.6858500314
 20
53.4668807373
 30
0.0
 40
77.34275000000005
100
AcDbArc
 50
287.379495371
 51
288.2099102927
  0
ARC
  5
16F
330
1F
100
AcDbEntity
  8
0
  6
Continuous
 62
     7
100
AcDbCircle
 10
-40.8031631055
 20
-1.5911116448
 30
0.0
 40
31.62499999999999
100
AcDbArc
 50
215.6036545748
 51
221.571710514
  0
ARC
  5
170
330
1F
100
AcDbEntity
  8
0
  6
Continuous
 62
     7
100
AcDbCircle
 10
-90.6858500314
 20
53.4668807373
 30
0.0
 40
80.4375
100
AcDbArc
 50
289.0266101145
 51
289.6932303319
  0
ARC
  5
171
330
1F
100
AcDbEntity
  8
0
  6
Continuous
 62
     7
100
AcDbCircle
 10
-95.1655306128
 20
-20.6923900384
 30
0.0
 40
31.62500000000003
100
AcDbArc
 50
357.1481299323
 51
3.1161858716
  0
ARC
  5
172
330
1F
100
AcDbEntity
  8
0
  6
Continuous
 62
     7
100
AcDbCircle
 10
-90.6858500314
 20
53.4668807373
 30
0.0
 40
77.34275000000004
100
AcDbArc
 50
290.5099301536
 51
291.3403450754
  0
ARC
  5
173
330
1F
100
AcDbEntity
  8
0
  6
Continuous
 62
     7
100
AcDbCircle
 10
-37.8709241231
 20
1.2151000844
 30
0.0
 40
31.62500000000002
100
AcDbArc
 50
218.7340893574
 51
224.7021452967
  0
ARC
  5
174
330
1F
100
AcDbEntity
  8
0
  6
Continuous
 62
     7
100
AcDbCircle
 10
-90.6858500314
 20
53.4668807373
 30
0.0
 40
80.43750000000001
100
AcDbArc
 50
292.1570448971
 51
292.8236651145
  0
ARC
  5
175
330
1F
100
AcDbEntity
  8
0
  6
Continuous
 62
     7
100
AcDbCircle
 10
-91.1090664728
 20
-20.8263616737
 30
0.0
 40
31.62500000000002
100
AcDbArc
 50
0.2785647149
 51
6.2466206542
  0
ARC
  5
176
330
1F
100
AcDbEntity
  8
0
  6
Continuous
 62
     7
100
AcDbCircle
 10
-90.6858500314
 20
53.4668807373
 30
0.0
 40
77.34275000000004
100
AcDbArc
 50
293.6403649363
 51
294.470779858
  0
ARC
  5
177
330
1F
100
AcDbEntity
  8
0
  6
Continuous
 62
     7
100
AcDbCircle
 10
-35.0963056378
 20
4.1772516637
 30
0.0
 40
31.62500000000002
100
AcDbArc
 50
221.86452414
 51
227.8325800793
  0
ARC
  5
178
330
1F
100
AcDbEntity
  8
0
  6
Continuous
 62
     7
100
AcDbCircle
 10
-90.6858500314
 20
53.4668807373
 30
0.0
 40
80.43749999999999
100
AcDbArc
 50
295.2874796797
 51
295.9540998971
  0
ARC
  5
179
330
1F
100
AcDbEntity
  8
0
  6
Continuous
 62
     7
100
AcDbCircle
 10
-87.0513392885
 20
-20.7386130739
 30
0.0
 40
31.625
100
AcDbArc
 50
3.4089994976
 51
9.3770554368
  0
ARC
  5
17A
330
1F
100
AcDbEntity
  8
0
  6
Continuous
 62
     7
100
AcDbCircle
 10
-90.6858500314
 20
53.4668807373
 30
0.0
 40
77.34275000000005
100
AcDbArc
 50
296.7707997189
 51
297.6012146406
  0
ARC
  5
17B
330
1F
100
AcDbEntity
  8
0
  6
Continuous
 62
     7
100
AcDbCircle
 10
-32.4875882015
 20
7.2865028688
 30
0.0
 40
31.62499999999999
100
AcDbArc
 50
224.9949589226
 51
230.9630148619
  0
ARC
  5
17C
330
1F
100
AcDbEntity
  8
0
  6
Continuous
 62
     7
100
AcDbCircle
 10
-90.6858500314
 20
53.4668807373
 30
0.0
 40
80.43749999999999
100
AcDbArc
 50
298.4179144623
 51
299.0845346798
  0
ARC
  5
17D
330
1F
100
AcDbEntity
  8
0
  6
Continuous
 62
     7
100
AcDbCircle
 10
-83.0044589128
 20
-20.4294061152
 30
0.0
 40
31.62500000000002
100
AcDbArc
 50
6.5394342802
 51
12.5074902194
  0
ARC
  5
17E
330
1F
100
AcDbEntity
  8
0
  6
Continuous
 62
     7
100
AcDbCircle
 10
-90.6858500314
 20
53.4668807373
 30
0.0
 40
77.34275000000005
100
AcDbArc
 50
299.9012345015
 51
300.7316494232
  0
ARC
  5
17F
330
1F
100
AcDbEntity
  8
0
  6
Continuous
 62
     7
100
AcDbCircle
 10
-30.0525572524
 20
10.5335744719
 30
0.0
 40
31.62499999999999
100
AcDbArc
 50
228.1253937052
 51
234.0934496445
  0
ARC
  5
180
330
1F
100
AcDbEntity
  8
0
  6
Continuous
 62
     7
100
AcDbCircle
 10
-90.6858500314
 20
53.4668807373
 30
0.0
 40
80.4375
100
AcDbArc
 50
301.5483492449
 51
302.2149694624
  0
ARC
  5
181
330
1F
100
AcDbEntity
  8
0
  6
Continuous
 62
     7
100
AcDbCircle
 10
-78.9805028273
 20
-19.8996635927
 30
0.0
 40
31.62499999999999
100
AcDbArc
 50
9.6698690628
 51
15.6379250021
  0
ARC
  5
182
330
1F
100
AcDbEntity
  8
0
  6
Continuous
 62
     7
100
AcDbCircle
 10
-90.6858500314
 20
53.4668807373
 30
0.0
 40
77.34275000000002
100
AcDbArc
 50
303.0316692841
 51
303.8620842058
  0
ARC
  5
183
330
1F
100
AcDbEntity
  8
0
  6
Continuous
 62
     7
100
AcDbCircle
 10
-27.79847988
 20
13.9087759352
 30
0.0
 40
31.625
100
AcDbArc
 50
231.2558284878
 51
237.2238844271
  0
ARC
  5
184
330
1F
100
AcDbEntity
  8
0
  6
Continuous
 62
     7
100
AcDbCircle
 10
-90.6858500314
 20
53.4668807373
 30
0.0
 40
80.4375
100
AcDbArc
 50
304.6787840275
 51
305.345404245
  0
ARC
  5
185
330
1F
100
AcDbEntity
  8
0
  6
Continuous
 62
     7
100
AcDbCircle
 10
-74.9914800984
 20
-19.1509664665
 30
0.0
 40
31.62499999999999
100
AcDbArc
 50
12.8003038454
 51
18.7683597847
  0
ARC
  5
186
330
1F
100
AcDbEntity
  8
0
  6
Continuous
 62
     7
100
AcDbCircle
 10
-90.6858500314
 20
53.4668807373
 30
0.0
 40
77.34275000000002
100
AcDbArc
 50
306.1621040667
 51
306.9925189884
  0
ARC
  5
187
330
1F
100
AcDbEntity
  8
0
  6
Continuous
 62
     7
100
AcDbCircle
 10
-25.732083137
 20
17.4020343308
 30
0.0
 40
31.62500000000001
100
AcDbArc
 50
234.3862632704
 51
240.3543192097
  0
ARC
  5
188
330
1F
100
AcDbEntity
  8
0
  6
Continuous
 62
     7
100
AcDbCircle
 10
-90.6858500314
 20
53.4668807373
 30
0.0
 40
80.4375
100
AcDbArc
 50
307.8092188101
 51
308.4758390276
  0
ARC
  5
189
330
1F
100
AcDbEntity
  8
0
  6
Continuous
 62
     7
100
AcDbCircle
 10
-71.0492955378
 20
-18.1855491428
 30
0.0
 40
31.62500000000002
100
AcDbArc
 50
15.930738628
 51
21.8987945673
  0
ARC
  5
18A
330
1F
100
AcDbEntity
  8
0
  6
Continuous
 62
     7
100
AcDbCircle
 10
-90.6858500314
 20
53.4668807373
 30
0.0
 40
77.34275000000004
100
AcDbArc
 50
309.2925388493
 51
310.122953771
  0
ARC
  5
18B
330
1F
100
AcDbEntity
  8
0
  6
Continuous
 62
     7
100
AcDbCircle
 10
-23.8595339634
 20
21.0029244029
 30
0.0
 40
31.62499999999999
100
AcDbArc
 50
237.516698053
 51
243.4847539923
  0
ARC
  5
18C
330
1F
100
AcDbEntity
  8
0
  6
Continuous
 62
     7
100
AcDbCircle
 10
-90.6858500314
 20
53.4668807373
 30
0.0
 40
80.43749999999999
100
AcDbArc
 50
310.9396535927
 51
311.6062738102
  0
ARC
  5
18D
330
1F
100
AcDbEntity
  8
0
  6
Continuous
 62
     7
100
AcDbCircle
 10
-67.1657141737
 20
-17.0062928065
 30
0.0
 40
31.62500000000003
100
AcDbArc
 50
19.0611734106
 51
25.0292293499
  0
ARC
  5
18E
330
1F
100
AcDbEntity
  8
0
  6
Continuous
 62
     7
100
AcDbCircle
 10
-90.6858500314
 20
53.4668807373
 30
0.0
 40
77.34275000000002
100
AcDbArc
 50
312.4229736319
 51
313.2533885536
  0
ARC
  5
18F
330
1F
100
AcDbEntity
  8
0
  6
Continuous
 62
     7
100
AcDbCircle
 10
-22.1864207821
 20
24.7006996801
 30
0.0
 40
31.62499999999998
100
AcDbArc
 50
240.6471328356
 51
246.6151887749
  0
ARC
  5
190
330
1F
100
AcDbEntity
  8
0
  6
Continuous
 62
     7
100
AcDbCircle
 10
-90.6858500314
 20
53.4668807373
 30
0.0
 40
80.43750000000001
100
AcDbArc
 50
314.0700883753
 51
314.7367085928
  0
ARC
  5
191
330
1F
100
AcDbEntity
  8
0
  6
Continuous
 62
     7
100
AcDbCircle
 10
-63.3523261392
 20
-15.616716822
 30
0.0
 40
31.625
100
AcDbArc
 50
22.1916081932
 51
28.1596641325
  0
ARC
  5
192
330
1F
100
AcDbEntity
  8
0
  6
Continuous
 62
     7
100
AcDbCircle
 10
-90.6858500314
 20
53.4668807373
 30
0.0
 40
77.34275000000004
100
AcDbArc
 50
315.5534084145
 51
316.3838233362
  0
ARC
  5
193
330
1F
100
AcDbEntity
  8
0
  6
Continuous
 62
     7
100
AcDbCircle
 10
-20.7177368202
 20
28.4843245477
 30
0.0
 40
31.62500000000001
100
AcDbArc
 50
243.7775676182
 51
249.7456235575
  0
ARC
  5
194
330
1F
100
AcDbEntity
  8
0
  6
Continuous
 62
     7
100
AcDbCircle
 10
-90.6858500314
 20
53.4668807373
 30
0.0
 40
80.4375
100
AcDbArc
 50
317.2005231579
 51
317.8671433754
  0
ARC
  5
195
330
1F
100
AcDbEntity
  8
0
  6
Continuous
 62
     7
100
AcDbCircle
 10
-59.620512083
 20
-14.0209682301
 30
0.0
 40
31.62500000000001
100
AcDbArc
 50
25.3220429758
 51
31.2900989151
  0
ARC
  5
196
330
1F
100
AcDbEntity
  8
0
  6
Continuous
 62
     7
100
AcDbCircle
 10
-90.6858500314
 20
53.4668807373
 30
0.0
 40
77.34275000000005
100
AcDbArc
 50
318.6838431971
 51
319.5142581188
  0
ARC
  5
197
330
1F
100
AcDbEntity
  8
0
  6
Continuous
 62
     7
100
AcDbCircle
 10
-19.457865208
 20
32.342507182
 30
0.0
 40
31.62500000000006
100
AcDbArc
 50
246.9080024009
 51
252.8760583401
  0
ARC
  5
198
330
1F
100
AcDbEntity
  8
0
  6
Continuous
 62
     7
100
AcDbCircle
 10
-90.6858500314
 20
53.4668807373
 30
0.0
 40
80.43750000000001
100
AcDbArc
 50
320.3309579405
 51
320.997578158
  0
ARC
  5
199
330
1F
100
AcDbEntity
  8
0
  6
Continuous
 62
     7
100
AcDbCircle
 10
-55.9814092049
 20
-12.2238093719
 30
0.0
 40
31.62500000000002
100
AcDbArc
 50
28.4524777584
 51
34.4205336977
  0
ARC
  5
19A
330
1F
100
AcDbEntity
  8
0
  6
Continuous
 62
     7
100
AcDbCircle
 10
-90.6858500314
 20
53.4668807373
 30
0.0
 40
77.34275000000005
100
AcDbArc
 50
321.8142779797
 51
322.6446929014
  0
ARC
  5
19B
330
1F
100
AcDbEntity
  8
0
  6
Continuous
 62
     7
100
AcDbCircle
 10
-18.4105658976
 20
36.2637332496
 30
0.0
 40
31.625
100
AcDbArc
 50
250.0384371835
 51
256.0064931227
  0
ARC
  5
19C
330
1F
100
AcDbEntity
  8
0
  6
Continuous
 62
     7
100
AcDbCircle
 10
-90.6858500314
 20
53.4668807373
 30
0.0
 40
80.43750000000001
100
AcDbArc
 50
323.4613927232
 51
324.1280129406
  0
ARC
  5
19D
330
1F
100
AcDbEntity
  8
0
  6
Continuous
 62
     7
100
AcDbCircle
 10
-52.4458780184
 20
-10.2306036757
 30
0.0
 40
31.62500000000002
100
AcDbArc
 50
31.582912541
 51
37.5509684803
  0
ARC
  5
19E
330
1F
100
AcDbEntity
  8
0
  6
Continuous
 62
     7
100
AcDbCircle
 10
-90.6858500314
 20
53.4668807373
 30
0.0
 40
77.34275000000004
100
AcDbArc
 50
324.9447127623
 51
325.775127684
  0
ARC
  5
19F
330
1F
100
AcDbEntity
  8
0
  6
Continuous
 62
     7
100
AcDbCircle
 10
-17.5789644418
 20
40.2363002707
 30
0.0
 40
31.62500000000005
100
AcDbArc
 50
253.1688719661
 51
259.1369279054
  0
ARC
  5
1A0
330
1F
100
AcDbEntity
  8
0
  6
Continuous
 62
     7
100
AcDbCircle
 10
-90.6858500314
 20
53.4668807373
 30
0.0
 40
80.4375
100
AcDbArc
 50
326.5918275058
 51
327.2584477232
  0
ARC
  5
1A1
330
1F
100
AcDbEntity
  8
0
  6
Continuous
 62
     7
100
AcDbCircle
 10
-49.0244699379
 20
-8.0472996507
 30
0.0
 40
31.625
100
AcDbArc
 50
34.7133473236
 51
40.6814032629
  0
ARC
  5
1A2
330
1F
100
AcDbEntity
  8
0
  6
Continuous
 62
     7
100
AcDbCircle
 10
-90.6858500314
 20
53.4668807373
 30
0.0
 40
77.34275000000002
100
AcDbArc
 50
328.0751475449
 51
328.9055624667
  0
ARC
  5
1A3
330
1F
100
AcDbEntity
  8
0
  6
Continuous
 62
     7
100
AcDbCircle
 10
-16.965542666
 20
44.248352544
 30
0.0
 40
31.62499999999999
100
AcDbArc
 50
256.2993067487
 51
262.267362688
  0
ARC
  5
1A4
330
1F
100
AcDbEntity
  8
0
  6
Continuous
 62
     7
100
AcDbCircle
 10
-90.6858500314
 20
53.4668807373
 30
0.0
 40
80.43750000000001
100
AcDbArc
 50
329.7222622884
 51
330.3888825058
  0
ARC
  5
1A5
330
1F
100
AcDbEntity
  8
0
  6
Continuous
 62
     7
100
AcDbCircle
 10
-45.72739579
 20
-5.6804131342
 30
0.0
 40
31.62500000000002
100
AcDbArc
 50
37.8437821063
 51
43.8118380455
  0
ARC
  5
1A6
330
1F
100
AcDbEntity
  8
0
  6
Continuous
 62
     7
100
AcDbCircle
 10
-90.6858500314
 20
53.4668807373
 30
0.0
 40
77.34275000000004
100
AcDbArc
 50
331.2055823276
 51
332.0359972493
  0
ARC
  5
1A7
330
1F
100
AcDbEntity
  8
0
  6
Continuous
 62
     7
100
AcDbCircle
 10
-16.572131262
 20
48.2879165286
 30
0.0
 40
31.62500000000004
100
AcDbArc
 50
259.4297415313
 51
265.3977974706
  0
ARC
  5
1A8
330
1F
100
AcDbEntity
  8
0
  6
Continuous
 62
     7
100
AcDbCircle
 10
-90.6858500314
 20
53.4668807373
 30
0.0
 40
80.4375
100
AcDbArc
 50
332.852697071
 51
333.5193172884
  0
ARC
  5
1A9
330
1F
100
AcDbEntity
  8
0
  6
Continuous
 62
     7
100
AcDbCircle
 10
-42.5644953398
 20
-3.137007846
 30
0.0
 40
31.62500000000001
100
AcDbArc
 50
40.9742168889
 51
46.9422728281
  0
ARC
  5
1AA
330
1F
100
AcDbEntity
  8
0
  6
Continuous
 62
     7
100
AcDbCircle
 10
-90.6858500314
 20
53.4668807373
 30
0.0
 40
77.34275000000005
100
AcDbArc
 50
334.3360171102
 51
335.1664320319
  0
ARC
  5
1AB
330
1F
100
AcDbEntity
  8
0
  6
Continuous
 62
     7
100
AcDbCircle
 10
-16.3999043241
 20
52.3429365779
 30
0.0
 40
31.62500000000001
100
AcDbArc
 50
262.5601763139
 51
268.5282322532
  0
ARC
  5
1AC
330
1F
100
AcDbEntity
  8
0
  6
Continuous
 62
     7
100
AcDbCircle
 10
-90.6858500314
 20
53.4668807373
 30
0.0
 40
80.43750000000001
100
AcDbArc
 50
335.9831318536
 51
336.6497520711
  0
ARC
  5
1AD
330
1F
100
AcDbEntity
  8
0
  6
Continuous
 62
     7
100
AcDbCircle
 10
-39.5452079253
 20
-0.4246743069
 30
0.0
 40
31.62499999999999
100
AcDbArc
 50
44.1046516715
 51
50.0727076107
  0
ARC
  5
1AE
330
1F
100
AcDbEntity
  8
0
  6
Continuous
 62
     7
100
AcDbCircle
 10
-90.6858500314
 20
53.4668807373
 30
0.0
 40
77.34275000000005
100
AcDbArc
 50
337.4664518928
 51
338.2968668145
  0
ARC
  5
1AF
330
1F
100
AcDbEntity
  8
0
  6
Continuous
 62
     7
100
AcDbCircle
 10
-16.4493758451
 20
56.4013109183
 30
0.0
 40
31.625
100
AcDbArc
 50
265.6906110965
 51
271.6586670358
  0
ARC
  5
1B0
330
1F
100
AcDbEntity
  8
0
  6
Continuous
 62
     7
100
AcDbCircle
 10
-90.6858500314
 20
53.4668807373
 30
0.0
 40
80.4375
100
AcDbArc
 50
339.1135666362
 51
339.7801868537
  0
ARC
  5
1B1
330
1F
100
AcDbEntity
  8
0
  6
Continuous
 62
     7
100
AcDbCircle
 10
-36.6785442869
 20
2.4484928137
 30
0.0
 40
31.62500000000001
100
AcDbArc
 50
47.2350864541
 51
53.2031423934
  0
ARC
  5
1B2
330
1F
100
AcDbEntity
  8
0
  6
Continuous
 62
     7
100
AcDbCircle
 10
-90.6858500314
 20
53.4668807373
 30
0.0
 40
77.34275000000005
100
AcDbArc
 50
340.5968866754
 51
341.4273015971
  0
ARC
  5
1B3
330
1F
100
AcDbEntity
  8
0
  6
Continuous
 62
     7
100
AcDbCircle
 10
-16.7203981826
 20
60.4509277658
 30
0.0
 40
31.625
100
AcDbArc
 50
268.8210458791
 51
274.7891018184
  0
ARC
  5
1B4
330
1F
100
AcDbEntity
  8
0
  6
Continuous
 62
     7
100
AcDbCircle
 10
-90.6858500314
 20
53.4668807373
 30
0.0
 40
80.43750000000003
100
AcDbArc
 50
342.2440014188
 51
342.9106216363
  0
ARC
  5
1B5
330
1F
100
AcDbEntity
  8
0
  6
Continuous
 62
     7
100
AcDbCircle
 10
-33.9730596756
 20
5.4739188558
 30
0.0
 40
31.625
100
AcDbArc
 50
50.3655212367
 51
56.333577176
  0
ARC
  5
1B6
330
1F
100
AcDbEntity
  8
0
  6
Continuous
 62
     7
100
AcDbCircle
 10
-90.6858500314
 20
53.4668807373
 30
0.0
 40
77.34275000000002
100
AcDbArc
 50
343.727321458
 51
344.5577363797
  0
ARC
  5
1B7
330
1F
100
AcDbEntity
  8
0
  6
Continuous
 62
     7
100
AcDbCircle
 10
-17.2121624993
 20
64.4797014719
 30
0.0
 40
31.62499999999999
100
AcDbArc
 50
271.9514806617
 51
277.919536601
  0
ARC
  5
1B8
330
1F
100
AcDbEntity
  8
0
  6
Continuous
 62
     7
100
AcDbCircle
 10
-90.6858500314
 20
53.4668807373
 30
0.0
 40
80.43750000000001
100
AcDbArc
 50
345.3744362014
 51
346.0410564189
  0
ARC
  5
1B9
330
1F
100
AcDbEntity
  8
0
  6
Continuous
 62
     7
100
AcDbCircle
 10
-31.4368283207
 20
8.6425747591
 30
0.0
 40
31.62499999999999
100
AcDbArc
 50
53.4959560193
 51
59.4640119586
  0
ARC
  5
1BA
330
1F
100
AcDbEntity
  8
0
  6
Continuous
 62
     7
100
AcDbCircle
 10
-90.6858500314
 20
53.4668807373
 30
0.0
 40
77.34275000000005
100
AcDbArc
 50
346.8577562406
 51
347.6881711623
  0
ARC
  5
1BB
330
1F
100
AcDbEntity
  8
0
  6
Continuous
 62
     7
100
AcDbCircle
 10
-17.9232011773
 20
68.4756085926
 30
0.0
 40
31.62500000000006
100
AcDbArc
 50
275.0819154443
 51
281.0499713836
  0
ARC
  5
1BC
330
1F
100
AcDbEntity
  8
0
  6
Continuous
 62
     7
100
AcDbCircle
 10
-90.6858500314
 20
53.4668807373
 30
0.0
 40
80.43750000000003
100
AcDbArc
 50
348.504870984
 51
349.1714912015
  0
ARC
  5
1BD
330
1F
100
AcDbEntity
  8
0
  6
Continuous
 62
     7
100
AcDbCircle
 10
-29.0774193336
 20
11.9450040089
 30
0.0
 40
31.62500000000001
100
AcDbArc
 50
56.6263908019
 51
62.5944467412
  0
ARC
  5
1BE
330
1F
100
AcDbEntity
  8
0
  6
Continuous
 62
     7
100
AcDbCircle
 10
-90.6858500314
 20
53.4668807373
 30
0.0
 40
77.34275000000005
100
AcDbArc
 50
349.9881910232
 51
350.8186059449
  0
ARC
  5
1BF
330
1F
100
AcDbEntity
  8
0
  6
Continuous
 62
     7
100
AcDbCircle
 10
-18.8513921977
 20
72.4267237703
 30
0.0
 40
31.62500000000005
100
AcDbArc
 50
278.2123502269
 51
284.1804061662
  0
ARC
  5
1C0
330
1F
100
AcDbEntity
  8
0
  6
Continuous
 62
     7
100
AcDbCircle
 10
-90.6858500314
 20
53.4668807373
 30
0.0
 40
80.43750000000003
100
AcDbArc
 50
351.6353057666
 51
352.3019259841
  0
ARC
  5
1C1
330
1F
100
AcDbEntity
  8
0
  6
Continuous
 62
     7
100
AcDbCircle
 10
-26.9018741178
 20
15.3713508583
 30
0.0
 40
31.62499999999999
100
AcDbArc
 50
59.7568255845
 51
65.7248815238
  0
ARC
  5
1C2
330
1F
100
AcDbEntity
  8
0
  6
Continuous
 62
     7
100
AcDbCircle
 10
-90.6858500314
 20
53.4668807373
 30
0.0
 40
77.34275000000002
100
AcDbArc
 50
353.1186258058
 51
353.9490407275
  0
ARC
  5
1C3
330
1F
100
AcDbEntity
  8
0
  6
Continuous
 62
     7
100
AcDbCircle
 10
-19.9939654737
 20
76.3212553247
 30
0.0
 40
31.62500000000005
100
AcDbArc
 50
281.3427850096
 51
287.3108409488
  0
ARC
  5
1C4
330
1F
100
AcDbEntity
  8
0
  6
Continuous
 62
     7
100
AcDbCircle
 10
-90.6858500314
 20
53.4668807373
 30
0.0
 40
80.43750000000003
100
AcDbArc
 50
354.7657405492
 51
355.4323607667
  0
ARC
  5
1C5
330
1F
100
AcDbEntity
  8
0
  6
Continuous
 62
     7
100
AcDbCircle
 10
-24.9166853555
 20
18.9113897418
 30
0.0
 40
31.62500000000002
100
AcDbArc
 50
62.8872603671
 51
68.8553163064
  0
ARC
  5
1C6
330
1F
100
AcDbEntity
  8
0
  6
Continuous
 62
     7
100
AcDbCircle
 10
-90.6858500314
 20
53.4668807373
 30
0.0
 40
77.34275000000005
100
AcDbArc
 50
356.2490605884
 51
357.0794755101
  0
ARC
  5
1C7
330
1F
100
AcDbEntity
  8
0
  6
Continuous
 62
     7
100
AcDbCircle
 10
-21.3475111176
 20
80.1475804426
 30
0.0
 40
31.625
100
AcDbArc
 50
284.4732197922
 51
290.4412757314
  0
ARC
  5
1C8
330
1F
100
AcDbEntity
  8
0
  6
Continuous
 62
     7
100
AcDbCircle
 10
-90.6858500314
 20
53.4668807373
 30
0.0
 40
80.4375
100
AcDbArc
 50
357.8961753319
 51
358.5627955493
  0
ARC
  5
1C9
330
1F
100
AcDbEntity
  8
0
  6
Continuous
 62
     7
100
AcDbCircle
 10
-23.1277776302
 20
22.5545557919
 30
0.0
 40
31.625
100
AcDbArc
 50
66.0176951497
 51
71.985751089
  0
ARC
  5
1CA
330
1F
100
AcDbEntity
  8
0
  6
Continuous
 62
     7
100
AcDbCircle
 10
-90.6858500314
 20
53.4668807373
 30
0.0
 40
77.34275000000005
100
AcDbArc
 50
359.379495371
 51
0.2099102927
  0
ARC
  5
1CB
330
1F
100
AcDbEntity
  8
0
  6
Continuous
 62
     7
100
AcDbCircle
 10
-22.9079896171
 20
83.8942798663
 30
0.0
 40
31.62500000000004
100
AcDbArc
 50
287.6036545748
 51
293.571710514
  0
ARC
  5
1CC
330
1F
100
AcDbEntity
  8
0
  6
Continuous
 62
     7
100
AcDbCircle
 10
-90.6858500314
 20
53.4668807373
 30
0.0
 40
80.43750000000003
100
AcDbArc
 50
1.0266101145
 51
1.6932303319
  0
ARC
  5
1CD
330
1F
100
AcDbEntity
  8
0
  6
Continuous
 62
     7
100
AcDbCircle
 10
-21.5404897455
 20
26.2899763693
 30
0.0
 40
31.62500000000001
100
AcDbArc
 50
69.1481299323
 51
75.1161858716
  0
ARC
  5
1CE
330
1F
100
AcDbEntity
  8
0
  6
Continuous
 62
     7
100
AcDbCircle
 10
-90.6858500314
 20
53.4668807373
 30
0.0
 40
77.34275000000005
100
AcDbArc
 50
2.5099301536
 51
3.3403450754
  0
ARC
  5
1CF
330
1F
100
AcDbEntity
  8
0
  6
Continuous
 62
     7
100
AcDbCircle
 10
-24.6707438911
 20
87.5501719719
 30
0.0
 40
31.625
100
AcDbArc
 50
290.7340893574
 51
296.7021452967
  0
ARC
  5
1D0
330
1F
100
AcDbEntity
  8
0
  6
Continuous
 62
     7
100
AcDbCircle
 10
-90.6858500314
 20
53.4668807373
 30
0.0
 40
80.43750000000001
100
AcDbArc
 50
4.1570448971
 51
4.8236651145
  0
ARC
  5
1D1
330
1F
100
AcDbEntity
  8
0
  6
Continuous
 62
     7
100
AcDbCircle
 10
-20.1595587924
 20
30.1065035107
 30
0.0
 40
31.62499999999999
100
AcDbArc
 50
72.2785647149
 51
78.2466206542
  0
ARC
  5
1D2
330
1F
100
AcDbEntity
  8
0
  6
Continuous
 62
     7
100
AcDbCircle
 10
-90.6858500314
 20
53.4668807373
 30
0.0
 40
77.34275000000002
100
AcDbArc
 50
5.6403649362
 51
6.470779858
  0
ARC
  5
1D3
330
1F
100
AcDbEntity
  8
0
  6
Continuous
 62
     7
100
AcDbCircle
 10
-26.6305131881
 20
91.1043461406
 30
0.0
 40
31.62499999999999
100
AcDbArc
 50
293.86452414
 51
299.8325800793
  0
ARC
  5
1D4
330
1F
100
AcDbEntity
  8
0
  6
Continuous
 62
     7
100
AcDbCircle
 10
-90.6858500314
 20
53.4668807373
 30
0.0
 40
80.4375
100
AcDbArc
 50
7.2874796797
 51
7.9540998971
  0
ARC
  5
1D5
330
1F
100
AcDbEntity
  8
0
  6
Continuous
 62
     7
100
AcDbCircle
 10
-18.9891060116
 20
33.9927471992
 30
0.0
 40
31.62499999999999
100
AcDbArc
 50
75.4089994976
 51
81.3770554368
  0
ARC
  5
1D6
330
1F
100
AcDbEntity
  8
0
  6
Continuous
 62
     7
100
AcDbCircle
 10
-90.6858500314
 20
53.4668807373
 30
0.0
 40
77.34275000000002
100
AcDbArc
 50
8.7707997189
 51
9.6012146406
  0
ARC
  5
1D7
330
1F
100
AcDbEntity
  8
0
  6
Continuous
 62
     7
100
AcDbCircle
 10
-28.7814487861
 20
94.5461953197
 30
0.0
 40
31.625
100
AcDbArc
 50
296.9949589226
 51
302.9630148619
  0
ARC
  5
1D8
330
1F
100
AcDbEntity
  8
0
  6
Continuous
 62
     7
100
AcDbCircle
 10
-90.6858500314
 20
53.4668807373
 30
0.0
 40
80.4375
100
AcDbArc
 50
10.4179144623
 51
11.0845346798
  0
ARC
  5
1D9
330
1F
100
AcDbEntity
  8
0
  6
Continuous
 62
     7
100
AcDbCircle
 10
-18.0326244943
 20
37.9371093562
 30
0.0
 40
31.62499999999998
100
AcDbArc
 50
78.5394342802
 51
84.5074902194
  0
ARC
  5
1DA
330
1F
100
AcDbEntity
  8
0
  6
Continuous
 62
     7
100
AcDbCircle
 10
-90.6858500314
 20
53.4668807373
 30
0.0
 40
77.34275000000004
100
AcDbArc
 50
11.9012345015
 51
12.7316494232
  0
ARC
  5
1DB
330
1F
100
AcDbEntity
  8
0
  6
Continuous
 62
     7
100
AcDbCircle
 10
-31.117131448
 20
97.8654476785
 30
0.0
 40
31.625
100
AcDbArc
 50
300.1253937052
 51
306.0934496445
  0
ARC
  5
1DC
330
1F
100
AcDbEntity
  8
0
  6
Continuous
 62
     7
100
AcDbCircle
 10
-90.6858500314
 20
53.4668807373
 30
0.0
 40
80.43750000000001
100
AcDbArc
 50
13.5483492449
 51
14.2149694624
  0
ARC
  5
1DD
330
1F
100
AcDbEntity
  8
0
  6
Continuous
 62
     7
100
AcDbCircle
 10
-17.2929687571
 20
41.9278184547
 30
0.0
 40
31.62500000000002
100
AcDbArc
 50
81.6698690628
 51
87.6379250021
  0
ARC
  5
1DE
330
1F
100
AcDbEntity
  8
0
  6
Continuous
 62
     7
100
AcDbCircle
 10
-90.6858500314
 20
53.4668807373
 30
0.0
 40
77.34275000000004
100
AcDbArc
 50
15.0316692841
 51
15.8620842058
  0
ARC
  5
1DF
330
1F
100
AcDbEntity
  8
0
  6
Continuous
 62
     7
100
AcDbCircle
 10
-33.6305905787
 20
101.0521972633
 30
0.0
 40
31.62499999999997
100
AcDbArc
 50
303.2558284878
 51
309.2238844271
  0
ARC
  5
1E0
330
1F
100
AcDbEntity
  8
0
  6
Continuous
 62
     7
100
AcDbCircle
 10
-90.6858500314
 20
53.4668807373
 30
0.0
 40
80.43750000000001
100
AcDbArc
 50
16.6787840275
 51
17.345404245
  0
ARC
  5
1E1
330
1F
100
AcDbEntity
  8
0
  6
Continuous
 62
     7
100
AcDbCircle
 10
-16.7723462237
 20
45.9529646503
 30
0.0
 40
31.62500000000001
100
AcDbArc
 50
84.8003038454
 51
90.7683597847
  0
ARC
  5
1E2
330
1F
100
AcDbEntity
  8
0
  6
Continuous
 62
     7
100
AcDbCircle
 10
-90.6858500314
 20
53.4668807373
 30
0.0
 40
77.34275000000004
100
AcDbArc
 50
18.1621040667
 51
18.9925189884
  0
ARC
  5
1E3
330
1F
100
AcDbEntity
  8
0
  6
Continuous
 62
     7
100
AcDbCircle
 10
-36.3143250283
 20
104.096933561
 30
0.0
 40
31.62499999999999
100
AcDbArc
 50
306.3862632704
 51
312.3543192097
  0
ARC
  5
1E4
330
1F
100
AcDbEntity
  8
0
  6
Continuous
 62
     7
100
AcDbCircle
 10
-90.6858500314
 20
53.4668807373
 30
0.0
 40
80.4375
100
AcDbArc
 50
19.8092188101
 51
20.4758390276
  0
ARC
  5
1E5
330
1F
100
AcDbEntity
  8
0
  6
Continuous
 62
     7
100
AcDbCircle
 10
-16.4723106361
 20
50.0005353248
 30
0.0
 40
31.62499999999999
100
AcDbArc
 50
87.930738628
 51
93.8987945673
  0
ARC
  5
1E6
330
1F
100
AcDbEntity
  8
0
  6
Continuous
 62
     7
100
AcDbCircle
 10
-90.6858500314
 20
53.4668807373
 30
0.0
 40
77.34275000000005
100
AcDbArc
 50
21.2925388493
 51
22.122953771
  0
ARC
  5
1E7
330
1F
100
AcDbEntity
  8
0
  6
Continuous
 62
     7
100
AcDbCircle
 10
-39.1603254784
 20
106.9905698818
 30
0.0
 40
31.62500000000001
100
AcDbArc
 50
309.516698053
 51
315.4847539923
  0
ARC
  5
1E8
330
1F
100
AcDbEntity
  8
0
  6
Continuous
 62
     7
100
AcDbCircle
 10
-90.6858500314
 20
53.4668807373
 30
0.0
 40
80.4375
100
AcDbArc
 50
22.9396535927
 51
23.6062738102
  0
ARC
  5
1E9
330
1F
100
AcDbEntity
  8
0
  6
Continuous
 62
     7
100
AcDbCircle
 10
-16.3937574185
 20
54.0584509364
 30
0.0
 40
31.625
100
AcDbArc
 50
91.0611734106
 51
97.0292293499
  0
ARC
  5
1EA
330
1F
100
AcDbEntity
  8
0
  6
Continuous
 62
     7
100
AcDbCircle
 10
-90.6858500314
 20
53.4668807373
 30
0.0
 40
77.34275000000005
100
AcDbArc
 50
24.4229736319
 51
25.2533885536
  0
ARC
  5
1EB
330
1F
100
AcDbEntity
  8
0
  6
Continuous
 62
     7
100
AcDbCircle
 10
-42.160098345
 20
109.7244704774
 30
0.0
 40
31.62499999999996
100
AcDbArc
 50
312.6471328356
 51
318.6151887749
  0
ARC
  5
1EC
330
1F
100
AcDbEntity
  8
0
  6
Continuous
 62
     7
100
AcDbCircle
 10
-90.6858500314
 20
53.4668807373
 30
0.0
 40
80.43750000000001
100
AcDbArc
 50
26.0700883753
 51
26.7367085928
  0
ARC
  5
1ED
330
1F
100
AcDbEntity
  8
0
  6
Continuous
 62
     7
100
AcDbCircle
 10
-16.5369210047
 20
58.1146010699
 30
0.0
 40
31.62499999999998
100
AcDbArc
 50
94.1916081932
 51
100.1596641325
  0
ARC
  5
1EE
330
1F
100
AcDbEntity
  8
0
  6
Continuous
 62
     7
100
AcDbCircle
 10
-90.6858500314
 20
53.4668807373
 30
0.0
 40
77.34275000000002
100
AcDbArc
 50
27.5534084145
 51
28.3838233362
  0
ARC
  5
1EF
330
1F
100
AcDbEntity
  8
0
  6
Continuous
 62
     7
100
AcDbCircle
 10
-45.304691127
 20
112.2904763142
 30
0.0
 40
31.62500000000001
100
AcDbArc
 50
315.7775676182
 51
321.7456235575
  0
ARC
  5
1F0
330
1F
100
AcDbEntity
  8
0
  6
Continuous
 62
     7
100
AcDbCircle
 10
-90.6858500314
 20
53.4668807373
 30
0.0
 40
80.43750000000001
100
AcDbArc
 50
29.2005231579
 51
29.8671433754
  0
ARC
  5
1F1
330
1F
100
AcDbEntity
  8
0
  6
Continuous
 62
     7
100
AcDbCircle
 10
-16.9013741381
 20
62.1568805793
 30
0.0
 40
31.625
100
AcDbArc
 50
97.3220429758
 51
103.2900989151
  0
ARC
  5
1F2
330
1F
100
AcDbEntity
  8
0
  6
Continuous
 62
     7
100
AcDbCircle
 10
-90.6858500314
 20
53.4668807373
 30
0.0
 40
77.34275000000004
100
AcDbArc
 50
30.6838431971
 51
31.5142581188
  0
ARC
  5
1F3
330
1F
100
AcDbEntity
  8
0
  6
Continuous
 62
     7
100
AcDbCircle
 10
-48.5847191235
 20
114.680929422
 30
0.0
 40
31.62499999999999
100
AcDbArc
 50
318.9080024009
 51
324.8760583401
  0
ARC
  5
1F4
330
1F
100
AcDbEntity
  8
0
  6
Continuous
 62
     7
100
AcDbCircle
 10
-90.6858500314
 20
53.4668807373
 30
0.0
 40
80.43749999999999
100
AcDbArc
 50
32.3309579405
 51
32.997578158
  0
ARC
  5
1F5
330
1F
100
AcDbEntity
  8
0
  6
Continuous
 62
     7
100
AcDbCircle
 10
-17.4860291475
 20
66.1732257137
 30
0.0
 40
31.62500000000001
100
AcDbArc
 50
100.4524777584
 51
106.4205336977
  0
ARC
  5
1F6
330
1F
100
AcDbEntity
  8
0
  6
Continuous
 62
     7
100
AcDbCircle
 10
-90.6858500314
 20
53.4668807373
 30
0.0
 40
77.34275000000004
100
AcDbArc
 50
33.8142779797
 51
34.6446929014
  0
ARC
  5
1F7
330
1F
100
AcDbEntity
  8
0
  6
Continuous
 62
     7
100
AcDbCircle
 10
-51.9903934418
 20
116.8886957493
 30
0.0
 40
31.62500000000001
100
AcDbArc
 50
322.0384371835
 51
328.0064931227
  0
ARC
  5
1F8
330
1F
100
AcDbEntity
  8
0
  6
Continuous
 62
     7
100
AcDbCircle
 10
-90.6858500314
 20
53.4668807373
 30
0.0
 40
80.43750000000001
100
AcDbArc
 50
35.4613927232
 51
36.1280129406
  0
ARC
  5
1F9
330
1F
100
AcDbEntity
  8
0
  6
Continuous
 62
     7
100
AcDbCircle
 10
-18.2891411924
 20
70.1516501207
 30
0.0
 40
31.62500000000002
100
AcDbArc
 50
103.582912541
 51
109.5509684803
  0
ARC
  5
1FA
330
1F
100
AcDbEntity
  8
0
  6
Continuous
 62
     7
100
AcDbCircle
 10
-90.6858500314
 20
53.4668807373
 30
0.0
 40
77.34275000000004
100
AcDbArc
 50
36.9447127623
 51
37.775127684
  0
ARC
  5
1FB
330
1F
100
AcDbEntity
  8
0
  6
Continuous
 62
     7
100
AcDbCircle
 10
-55.5115502112
 20
118.9071864537
 30
0.0
 40
31.62500000000005
100
AcDbArc
 50
325.1688719661
 51
331.1369279054
  0
ARC
  5
1FC
330
1F
100
AcDbEntity
  8
0
  6
Continuous
 62
     7
100
AcDbCircle
 10
-90.6858500314
 20
53.4668807373
 30
0.0
 40
80.4375
100
AcDbArc
 50
38.5918275058
 51
39.2584477232
  0
ARC
  5
1FD
330
1F
100
AcDbEntity
  8
0
  6
Continuous
 62
     7
100
AcDbCircle
 10
-19.3083134709
 20
74.0802806181
 30
0.0
 40
31.62500000000002
100
AcDbArc
 50
106.7133473236
 51
112.6814032629
  0
ARC
  5
1FE
330
1F
100
AcDbEntity
  8
0
  6
Continuous
 62
     7
100
AcDbCircle
 10
-90.6858500314
 20
53.4668807373
 30
0.0
 40
77.34275000000004
100
AcDbArc
 50
40.0751475449
 51
40.9055624667
  0
ARC
  5
1FF
330
1F
100
AcDbEntity
  8
0
  6
Continuous
 62
     7
100
AcDbCircle
 10
-59.137680916
 20
120.7303775656
 30
0.0
 40
31.625
100
AcDbArc
 50
328.2993067487
 51
334.267362688
  0
ARC
  5
200
330
1F
100
AcDbEntity
  8
0
  6
Continuous
 62
     7
100
AcDbCircle
 10
-90.6858500314
 20
53.4668807373
 30
0.0
 40
80.43750000000001
100
AcDbArc
 50
41.7222622884
 51
42.3888825058
  0
ARC
  5
201
330
1F
100
AcDbEntity
  8
0
  6
Continuous
 62
     7
100
AcDbCircle
 10
-20.5405043722
 20
77.9473926285
 30
0.0
 40
31.62499999999999
100
AcDbArc
 50
109.8437821063
 51
115.8118380455
  0
ARC
  5
202
330
1F
100
AcDbEntity
  8
0
  6
Continuous
 62
     7
100
AcDbCircle
 10
-90.6858500314
 20
53.4668807373
 30
0.0
 40
77.34275000000004
100
AcDbArc
 50
43.2055823276
 51
44.0359972493
  0
ARC
  5
203
330
1F
100
AcDbEntity
  8
0
  6
Continuous
 62
     7
100
AcDbCircle
 10
-62.857963757
 20
122.352827966
 30
0.0
 40
31.62500000000002
100
AcDbArc
 50
331.4297415313
 51
337.3977974706
  0
ARC
  5
204
330
1F
100
AcDbEntity
  8
0
  6
Continuous
 62
     7
100
AcDbCircle
 10
-90.6858500314
 20
53.4668807373
 30
0.0
 40
80.4375
100
AcDbArc
 50
44.852697071
 51
45.5193172884
  0
ARC
  5
205
330
1F
100
AcDbEntity
  8
0
  6
Continuous
 62
     7
100
AcDbCircle
 10
-21.9820365546
 20
81.7414451697
 30
0.0
 40
31.62500000000001
100
AcDbArc
 50
112.9742168889
 51
118.9422728281
  0
ARC
  5
206
330
1F
100
AcDbEntity
  8
0
  6
Continuous
 62
     7
100
AcDbCircle
 10
-90.6858500314
 20
53.4668807373
 30
0.0
 40
77.34275000000002
100
AcDbArc
 50
46.3360171102
 51
47.1664320319
  0
ARC
  5
207
330
1F
100
AcDbEntity
  8
0
  6
Continuous
 62
     7
100
AcDbCircle
 10
-66.6612959479
 20
123.7696956254
 30
0.0
 40
31.625
100
AcDbArc
 50
334.5601763139
 51
340.5282322532
  0
ARC
  5
208
330
1F
100
AcDbEntity
  8
0
  6
Continuous
 62
     7
100
AcDbCircle
 10
-90.6858500314
 20
53.4668807373
 30
0.0
 40
80.4375
100
AcDbArc
 50
47.9831318536
 51
48.6497520711
  0
ARC
  5
209
330
1F
100
AcDbEntity
  8
0
  6
Continuous
 62
     7
100
AcDbCircle
 10
-23.6286079194
 20
85.4511152979
 30
0.0
 40
31.625
100
AcDbArc
 50
116.1046516715
 51
122.0727076107
  0
ARC
  5
20A
330
1F
100
AcDbEntity
  8
0
  6
Continuous
 62
     7
100
AcDbCircle
 10
-90.6858500314
 20
53.4668807373
 30
0.0
 40
77.34275000000004
100
AcDbArc
 50
49.4664518928
 51
50.2968668145
  0
ARC
  5
20B
330
1F
100
AcDbEntity
  8
0
  6
Continuous
 62
     7
100
AcDbCircle
 10
-70.5363268507
 20
124.9767520537
 30
0.0
 40
31.625
100
AcDbArc
 50
337.6906110965
 51
343.6586670358
  0
ARC
  5
20C
330
1F
100
AcDbEntity
  8
0
  6
Continuous
 62
     7
100
AcDbCircle
 10
-90.6858500314
 20
53.4668807373
 30
0.0
 40
80.43749999999997
100
AcDbArc
 50
51.1135666362
 51
51.7801868537
  0
ARC
  5
20D
330
1F
100
AcDbEntity
  8
0
  6
Continuous
 62
     7
100
AcDbCircle
 10
-25.4753044504
 20
89.0653318991
 30
0.0
 40
31.62499999999998
100
AcDbArc
 50
119.2350864541
 51
125.2031423934
  0
ARC
  5
20E
330
1F
100
AcDbEntity
  8
0
  6
Continuous
 62
     7
100
AcDbCircle
 10
-90.6858500314
 20
53.4668807373
 30
0.0
 40
77.34275000000001
100
AcDbArc
 50
52.5968866754
 51
53.4273015971
  0
ARC
  5
20F
330
1F
100
AcDbEntity
  8
0
  6
Continuous
 62
     7
100
AcDbCircle
 10
-74.47149185
 20
125.9703949201
 30
0.0
 40
31.62499999999998
100
AcDbArc
 50
340.8210458791
 51
346.7891018184
  0
ARC
  5
210
330
1F
100
AcDbEntity
  8
0
  6
Continuous
 62
     7
100
AcDbCircle
 10
-90.6858500314
 20
53.4668807373
 30
0.0
 40
80.43750000000001
100
AcDbArc
 50
54.2440014188
 51
54.9106216363
  0
ARC
  5
211
330
1F
100
AcDbEntity
  8
0
  6
Continuous
 62
     7
100
AcDbCircle
 10
-27.5166148794
 20
92.5733087307
 30
0.0
 40
31.625
100
AcDbArc
 50
122.3655212367
 51
128.333577176
  0
ARC
  5
212
330
1F
100
AcDbEntity
  8
0
  6
Continuous
 62
     7
100
AcDbCircle
 10
-90.6858500314
 20
53.4668807373
 30
0.0
 40
77.34275000000002
100
AcDbArc
 50
55.727321458
 51
56.5577363797
  0
ARC
  5
213
330
1F
100
AcDbEntity
  8
0
  6
Continuous
 62
     7
100
AcDbCircle
 10
-78.455046867
 20
126.7476588039
 30
0.0
 40
31.625
100
AcDbArc
 50
343.9514806617
 51
349.919536601
  0
ARC
  5
214
330
1F
100
AcDbEntity
  8
0
  6
Continuous
 62
     7
100
AcDbCircle
 10
-90.6858500314
 20
53.4668807373
 30
0.0
 40
80.4375
100
AcDbArc
 50
57.3744362014
 51
58.0410564189
  0
ARC
  5
215
330
1F
100
AcDbEntity
  8
0
  6
Continuous
 62
     7
100
AcDbCircle
 10
-29.7464471337
 20
95.964576611
 30
0.0
 40
31.625
100
AcDbArc
 50
125.4959560193
 51
131.4640119586
  0
ARC
  5
216
330
1F
100
AcDbEntity
  8
0
  6
Continuous
 62
     7
100
AcDbCircle
 10
-90.6858500314
 20
53.4668807373
 30
0.0
 40
77.34275000000002
100
AcDbArc
 50
58.8577562406
 51
59.6881711623
  0
ARC
  5
217
330
1F
100
AcDbEntity
  8
0
  6
Continuous
 62
     7
100
AcDbCircle
 10
-82.4751034078
 20
127.3062240441
 30
0.0
 40
31.625
100
AcDbArc
 50
347.0819154443
 51
353.0499713836
  0
ARC
  5
218
330
1F
100
AcDbEntity
  8
0
  6
Continuous
 62
     7
100
AcDbCircle
 10
-90.6858500314
 20
53.4668807373
 30
0.0
 40
80.4375
100
AcDbArc
 50
60.504870984
 51
61.1714912015
  0
ARC
  5
219
330
1F
100
AcDbEntity
  8
0
  6
Continuous
 62
     7
100
AcDbCircle
 10
-32.1581465176
 20
99.2290146637
 30
0.0
 40
31.62500000000002
100
AcDbArc
 50
128.6263908019
 51
134.5944467412
  0
ARC
  5
21A
330
1F
100
AcDbEntity
  8
0
  6
Continuous
 62
     7
100
AcDbCircle
 10
-90.6858500314
 20
53.4668807373
 30
0.0
 40
77.34275000000004
100
AcDbArc
 50
61.9881910232
 51
62.8186059449
  0
ARC
  5
21B
330
1F
100
AcDbEntity
  8
0
  6
Continuous
 62
     7
100
AcDbCircle
 10
-86.5196640436
 20
127.6444236624
 30
0.0
 40
31.625
100
AcDbArc
 50
350.2123502269
 51
356.1804061662
  0
ARC
  5
21C
330
1F
100
AcDbEntity
  8
0
  6
Continuous
 62
     7
100
AcDbCircle
 10
-90.6858500314
 20
53.4668807373
 30
0.0
 40
80.43749999999999
100
AcDbArc
 50
63.6353057666
 51
64.3019259841
  0
ARC
  5
21D
330
1F
100
AcDbEntity
  8
0
  6
Continuous
 62
     7
100
AcDbCircle
 10
-34.7445155722
 20
102.3568805228
 30
0.0
 40
31.62500000000002
100
AcDbArc
 50
131.7568255845
 51
137.7248815238
  0
ARC
  5
21E
330
1F
100
AcDbEntity
  8
0
  6
Continuous
 62
     7
100
AcDbCircle
 10
-90.6858500314
 20
53.4668807373
 30
0.0
 40
77.34275000000002
100
AcDbArc
 50
65.1186258058
 51
65.9490407275
  0
ARC
  5
21F
330
1F
100
AcDbEntity
  8
0
  6
Continuous
 62
     7
100
AcDbCircle
 10
-90.5766582159
 20
127.7612483384
 30
0.0
 40
31.625
100
AcDbArc
 50
353.3427850096
 51
359.3108409488
  0
ARC
  5
220
330
1F
100
AcDbEntity
  8
0
  6
Continuous
 62
     7
100
AcDbCircle
 10
-90.6858500314
 20
53.4668807373
 30
0.0
 40
80.43750000000001
100
AcDbArc
 50
66.7657405492
 51
67.4323607667
  0
ARC
  5
221
330
1F
100
AcDbEntity
  8
0
  6
Continuous
 62
     7
100
AcDbCircle
 10
-37.4978355557
 20
105.338839407
 30
0.0
 40
31.625
100
AcDbArc
 50
134.8872603671
 51
140.8553163064
  0
ARC
  5
222
330
1F
100
AcDbEntity
  8
0
  6
Continuous
 62
     7
100
AcDbCircle
 10
-90.6858500314
 20
53.4668807373
 30
0.0
 40
77.34275000000004
100
AcDbArc
 50
68.2490605884
 51
69.0794755101
  0
ARC
  5
223
330
1F
100
AcDbEntity
  8
0
  6
Continuous
 62
     7
100
AcDbCircle
 10
-94.6339782594
 20
127.6563494211
 30
0.0
 40
31.62500000000002
100
AcDbArc
 50
356.4732197922
 51
2.4412757314
  0
ARC
  5
224
330
1F
100
AcDbEntity
  8
0
  6
Continuous
 62
     7
100
AcDbCircle
 10
-90.6858500314
 20
53.4668807373
 30
0.0
 40
80.43750000000001
100
AcDbArc
 50
69.8961753319
 51
70.5627955493
  0
ARC
  5
225
330
1F
100
AcDbEntity
  8
0
  6
Continuous
 62
     7
100
AcDbCircle
 10
-40.4098894791
 20
108.1659919791
 30
0.0
 40
31.62499999999999
100
AcDbArc
 50
138.0176951497
 51
143.985751089
  0
ARC
  5
226
330
1F
100
AcDbEntity
  8
0
  6
Continuous
 62
     7
100
AcDbCircle
 10
-90.6858500314
 20
53.4668807373
 30
0.0
 40
77.34275000000002
100
AcDbArc
 50
71.379495371
 51
72.2099102927
  0
ARC
  5
227
330
1F
100
AcDbEntity
  8
0
  6
Continuous
 62
     7
100
AcDbCircle
 10
-98.6795155366
 20
127.3300399704
 30
0.0
 40
31.62500000000001
100
AcDbArc
 50
359.6036545748
 51
5.571710514
  0
ARC
  5
228
330
1F
100
AcDbEntity
  8
0
  6
Continuous
 62
     7
100
AcDbCircle
 10
-90.6858500314
 20
53.4668807373
 30
0.0
 40
80.43749999999997
100
AcDbArc
 50
73.0266101145
 51
73.6932303319
  0
ARC
  5
229
330
1F
100
AcDbEntity
  8
0
  6
Continuous
 62
     7
100
AcDbCircle
 10
-43.4719866289
 20
110.8299009046
 30
0.0
 40
31.625
100
AcDbArc
 50
141.1481299323
 51
147.1161858716
  0
ARC
  5
22A
330
1F
100
AcDbEntity
  8
0
  6
Continuous
 62
     7
100
AcDbCircle
 10
-90.6858500314
 20
53.4668807373
 30
0.0
 40
77.34275000000004
100
AcDbArc
 50
74.5099301536
 51
75.3403450754
  0
ARC
  5
22B
330
1F
100
AcDbEntity
  8
0
  6
Continuous
 62
     7
100
AcDbCircle
 10
-102.7011965741
 20
126.7832938217
 30
0.0
 40
31.62500000000001
100
AcDbArc
 50
2.7340893574
 51
8.7021452967
  0
ARC
  5
22C
330
1F
100
AcDbEntity
  8
0
  6
Continuous
 62
     7
100
AcDbCircle
 10
-90.6858500314
 20
53.4668807373
 30
0.0
 40
80.4375
100
AcDbArc
 50
76.1570448971
 51
76.8236651145
  0
ARC
  5
22D
330
1F
100
AcDbEntity
  8
0
  6
Continuous
 62
     7
100
AcDbCircle
 10
-46.6749885038
 20
113.3226160322
 30
0.0
 40
31.62500000000002
100
AcDbArc
 50
144.2785647149
 51
150.2466206542
  0
ARC
  5
22E
330
1F
100
AcDbEntity
  8
0
  6
Continuous
 62
     7
100
AcDbCircle
 10
-90.6858500314
 20
53.4668807373
 30
0.0
 40
77.34275000000004
100
AcDbArc
 50
77.6403649362
 51
78.470779858
  0
ARC
  5
22F
330
1F
100
AcDbEntity
  8
0
  6
Continuous
 62
     7
100
AcDbCircle
 10
-106.687019095
 20
126.0177426804
 30
0.0
 40
31.625
100
AcDbArc
 50
5.86452414
 51
11.8325800793
  0
ARC
  5
230
330
1F
100
AcDbEntity
  8
0
  6
Continuous
 62
     7
100
AcDbCircle
 10
-90.6858500314
 20
53.4668807373
 30
0.0
 40
80.43750000000003
100
AcDbArc
 50
79.2874796797
 51
79.9540998971
  0
ARC
  5
231
330
1F
100
AcDbEntity
  8
0
  6
Continuous
 62
     7
100
AcDbCircle
 10
-50.0093360873
 20
115.6366981205
 30
0.0
 40
31.62500000000003
100
AcDbArc
 50
147.4089994976
 51
153.3770554368
  0
ARC
  5
232
330
1F
100
AcDbEntity
  8
0
  6
Continuous
 62
     7
100
AcDbCircle
 10
-90.6858500314
 20
53.4668807373
 30
0.0
 40
77.34275000000002
100
AcDbArc
 50
80.7707997189
 51
81.6012146406
  0
ARC
  5
233
330
1F
100
AcDbEntity
  8
0
  6
Continuous
 62
     7
100
AcDbCircle
 10
-110.6250878385
 20
125.0356712522
 30
0.0
 40
31.62500000000001
100
AcDbArc
 50
8.9949589226
 51
14.9630148619
  0
ARC
  5
234
330
1F
100
AcDbEntity
  8
0
  6
Continuous
 62
     7
100
AcDbCircle
 10
-90.6858500314
 20
53.4668807373
 30
0.0
 40
80.4375
100
AcDbArc
 50
82.4179144623
 51
83.0845346798
  0
ARC
  5
235
330
1F
100
AcDbEntity
  8
0
  6
Continuous
 62
     7
100
AcDbCircle
 10
-53.4650783757
 20
117.7652410387
 30
0.0
 40
31.62499999999999
100
AcDbArc
 50
150.5394342802
 51
156.5074902194
  0
ARC
  5
236
330
1F
100
AcDbEntity
  8
0
  6
Continuous
 62
     7
100
AcDbCircle
 10
-90.6858500314
 20
53.4668807373
 30
0.0
 40
77.34275000000002
100
AcDbArc
 50
83.9012345015
 51
84.7316494232
  0
ARC
  5
237
330
1F
100
AcDbEntity
  8
0
  6
Continuous
 62
     7
100
AcDbCircle
 10
-114.5036500596
 20
123.8400104241
 30
0.0
 40
31.62500000000001
100
AcDbArc
 50
12.1253937052
 51
18.0934496445
  0
ARC
  5
238
330
1F
100
AcDbEntity
  8
0
  6
Continuous
 62
     7
100
AcDbCircle
 10
-90.6858500314
 20
53.4668807373
 30
0.0
 40
80.4375
100
AcDbArc
 50
85.5483492449
 51
86.2149694624
  0
ARC
  5
239
330
1F
100
AcDbEntity
  8
0
  6
Continuous
 62
     7
100
AcDbCircle
 10
-57.0319020757
 20
119.7018923784
 30
0.0
 40
31.62500000000001
100
AcDbArc
 50
153.6698690628
 51
159.6379250021
  0
ARC
  5
23A
330
1F
100
AcDbEntity
  8
0
  6
Continuous
 62
     7
100
AcDbCircle
 10
-90.6858500314
 20
53.4668807373
 30
0.0
 40
77.34275000000005
100
AcDbArc
 50
87.0316692841
 51
87.8620842058
  0
ARC
  5
23B
330
1F
100
AcDbEntity
  8
0
  6
Continuous
 62
     7
100
AcDbCircle
 10
-118.3111306041
 20
122.4343285179
 30
0.0
 40
31.62500000000001
100
AcDbArc
 50
15.2558284878
 51
21.2238844271
  0
ARC
  5
23C
330
1F
100
AcDbEntity
  8
0
  6
Continuous
 62
     7
100
AcDbCircle
 10
-90.6858500314
 20
53.4668807373
 30
0.0
 40
80.4375
100
AcDbArc
 50
88.6787840275
 51
89.345404245
  0
ARC
  5
23D
330
1F
100
AcDbEntity
  8
0
  6
Continuous
 62
     7
100
AcDbCircle
 10
-60.6991623836
 20
121.4408724107
 30
0.0
 40
31.62500000000001
100
AcDbArc
 50
156.8003038454
 51
162.7683597847
  0
ARC
  5
23E
330
1F
100
AcDbEntity
  8
0
  6
Continuous
 62
     7
100
AcDbCircle
 10
-90.6858500314
 20
53.4668807373
 30
0.0
 40
77.34275000000002
100
AcDbArc
 50
90.1621040667
 51
90.9925189884
  0
ARC
  5
23F
330
1F
100
AcDbEntity
  8
0
  6
Continuous
 62
     7
100
AcDbCircle
 10
-122.0361664538
 20
120.822820641
 30
0.0
 40
31.62500000000002
100
AcDbArc
 50
18.3862632704
 51
24.3543192097
  0
ARC
  5
240
330
1F
100
AcDbEntity
  8
0
  6
Continuous
 62
     7
100
AcDbCircle
 10
-90.6858500314
 20
53.4668807373
 30
0.0
 40
80.43750000000001
100
AcDbArc
 50
91.8092188101
 51
92.4758390276
  0
ARC
  5
241
330
1F
100
AcDbEntity
  8
0
  6
Continuous
 62
     7
100
AcDbCircle
 10
-64.4559147533
 20
122.9769913357
 30
0.0
 40
31.625
100
AcDbArc
 50
159.930738628
 51
165.8987945673
  0
ARC
  5
242
330
1F
100
AcDbEntity
  8
0
  6
Continuous
 62
     7
100
AcDbCircle
 10
-90.6858500314
 20
53.4668807373
 30
0.0
 40
77.34275000000005
100
AcDbArc
 50
93.2925388493
 51
94.122953771
  0
ARC
  5
243
330
1F
100
AcDbEntity
  8
0
  6
Continuous
 62
     7
100
AcDbCircle
 10
-125.6676406375
 20
119.0102961662
 30
0.0
 40
31.62500000000004
100
AcDbArc
 50
21.516698053
 51
27.4847539923
  0
ARC
  5
244
330
1F
100
AcDbEntity
  8
0
  6
Continuous
 62
     7
100
AcDbCircle
 10
-90.6858500314
 20
53.4668807373
 30
0.0
 40
80.4375
100
AcDbArc
 50
94.9396535927
 51
95.6062738102
  0
ARC
  5
245
330
1F
100
AcDbEntity
  8
0
  6
Continuous
 62
     7
100
AcDbCircle
 10
-68.290947559
 20
124.3056647708
 30
0.0
 40
31.62500000000003
100
AcDbArc
 50
163.0611734106
 51
169.0292293499
  0
ARC
  5
246
330
1F
100
AcDbEntity
  8
0
  6
Continuous
 62
     7
100
AcDbCircle
 10
-90.6858500314
 20
53.4668807373
 30
0.0
 40
77.34275000000005
100
AcDbArc
 50
96.4229736319
 51
97.2533885536
  0
ARC
  5
247
330
1F
100
AcDbEntity
  8
0
  6
Continuous
 62
     7
100
AcDbCircle
 10
-129.1947154089
 20
117.002164379
 30
0.0
 40
31.62500000000002
100
AcDbArc
 50
24.6471328356
 51
30.6151887749
  0
ARC
  5
248
330
1F
100
AcDbEntity
  8
0
  6
Continuous
 62
     7
100
AcDbCircle
 10
-90.6858500314
 20
53.4668807373
 30
0.0
 40
80.43749999999999
100
AcDbArc
 50
98.0700883753
 51
98.7367085928
  0
ARC
  5
249
330
1F
100
AcDbEntity
  8
0
  6
Continuous
 62
     7
100
AcDbCircle
 10
-72.1928155557
 20
125.4229274323
 30
0.0
 40
31.62499999999997
100
AcDbArc
 50
166.1916081932
 51
172.1596641325
  0
ARC
  5
24A
330
1F
100
AcDbEntity
  8
0
  6
Continuous
 62
     7
100
AcDbCircle
 10
-90.6858500314
 20
53.4668807373
 30
0.0
 40
77.34275000000002
100
AcDbArc
 50
99.5534084145
 51
100.3838233362
  0
ARC
  5
24B
330
1F
100
AcDbEntity
  8
0
  6
Continuous
 62
     7
100
AcDbCircle
 10
-132.6068645908
 20
114.8044183338
 30
0.0
 40
31.62500000000001
100
AcDbArc
 50
27.7775676182
 51
33.7456235575
  0
LINE
  5
24C
330
1F
100
AcDbEntity
  8
0
  6
Continuous
 62
     7
100
AcDbLine
 10
-200.2442767466
 20
97.7001851193
 30
0.0
 11
-200.2442767466
 21
-6.4030216179
 31
0.0
  0
LINE
  5
24D
330
1F
100
AcDbEntity
  8
0
  6
Continuous
 62
     7
100
AcDbLine
 10
-190.2442767466
 20
-6.4030216179
 30
0.0
 11
-190.2442767466
 21
97.7001851193
 31
0.0
  0
LINE
  5
24E
330
1F
100
AcDbEntity
  8
0
  6
Continuous
 62
     7
100
AcDbLine
 10
-93.5601196782
 20
-67.7764570382
 30
0.0
 11
-93.5601196782
 21
-123.8991311526
 31
0.0
  0
LINE
  5
24F
330
1F
100
AcDbEntity
  8
0
  6
Continuous
 62
     7
100
AcDbLine
 10
-83.5601196782
 20
-133.8991311526
 30
0.0
 11
198.2442767466
 21
-133.8991311526
 31
0.0
  0
LINE
  5
250
330
1F
100
AcDbEntity
  8
0
  6
Continuous
 62
     7
100
AcDbLine
 10
208.2442767466
 20
-123.8991311526
 30
0.0
 11
208.2442767466
 21
-72.8991311526
 31
0.0
  0
LINE
  5
251
330
1F
100
AcDbEntity
  8
0
  6
Continuous
 62
     7
100
AcDbLine
 10
198.2442767466
 20
-62.8991311526
 30
0.0
 11
120.2058009736
 21
-62.8991311526
 31
0.0
  0
LINE
  5
252
330
1F
100
AcDbEntity
  8
0
  6
Continuous
 62
     7
100
AcDbLine
 10
115.2058009736
 20
-61.5593851904
 30
0.0
 11
10.7442767466
 21
-1.2484960579
 31
0.0
  0
LINE
  5
253
330
1F
100
AcDbEntity
  8
0
  6
Continuous
 62
     7
100
AcDbLine
 10
-17.1472601366
 20
-3.1988623124
 30
0.0
 11
-89.7167344315
 21
-59.8963495021
 31
0.0
  0
LINE
  5
254
330
1F
100
AcDbEntity
  8
0
  6
Continuous
 62
     7
100
AcDbLine
 10
-182.9630267466
 20
107.7001851193
 30
0.0
 11
-203.2442767466
 21
107.7001851193
 31
0.0
  0
LINE
  5
255
330
1F
100
AcDbEntity
  8
0
  6
Continuous
 62
     7
100
AcDbLine
 10
-208.2442767466
 20
102.7001851193
 30
0.0
 11
-208.2442767466
 21
-16.4030216179
 31
0.0
  0
LINE
  5
256
330
1F
100
AcDbEntity
  8
0
  6
Continuous
 62
     7
100
AcDbLine
 10
-208.2442767466
 20
-16.4030216179
 30
0.0
 11
-183.0089510364
 21
-16.4030216179
 31
0.0
  0
LINE
  5
257
330
1F
100
AcDbEntity
  8
0
  6
Continuous
 62
     7
100
AcDbLine
 10
-183.0089510364
 20
-16.4030216179
 30
0.0
 11
-179.8692767466
 21
-15.2602736312
 31
0.0
  0
LINE
  5
258
330
1F
100
AcDbEntity
  8
0
  6
Continuous
 62
     7
100
AcDbLine
 10
-179.8692767466
 20
-15.2602736312
 30
0.0
 11
-179.8692767466
 21
-14.4002736312
 31
0.0
  0
LINE
  5
259
330
1F
100
AcDbEntity
  8
0
  6
Continuous
 62
     7
100
AcDbLine
 10
-179.8692767466
 20
-14.4002736312
 30
0.0
 11
-183.0089510364
 21
-13.2575256444
 31
0.0
  0
LINE
  5
25A
330
1F
100
AcDbEntity
  8
0
  6
Continuous
 62
     7
100
AcDbLine
 10
-183.0089510364
 20
-13.2575256444
 30
0.0
 11
-183.0089510364
 21
-12.0575256444
 31
0.0
  0
LINE
  5
25B
330
1F
100
AcDbEntity
  8
0
  6
Continuous
 62
     7
100
AcDbLine
 10
-183.0089510364
 20
-12.0575256444
 30
0.0
 11
-179.8692767466
 21
-10.9147776576
 31
0.0
  0
LINE
  5
25C
330
1F
100
AcDbEntity
  8
0
  6
Continuous
 62
     7
100
AcDbLine
 10
-179.8692767466
 20
-10.9147776576
 30
0.0
 11
-179.8692767466
 21
-10.0498508549
 31
0.0
  0
LINE
  5
25D
330
1F
100
AcDbEntity
  8
0
  6
Continuous
 62
     7
100
AcDbLine
 10
-179.8692767466
 20
-10.0498508549
 30
0.0
 11
-182.9630267466
 21
-8.9238179427
 31
0.0
  0
LINE
  5
25E
330
1F
100
AcDbEntity
  8
0
  6
Continuous
 62
     7
100
AcDbLine
 10
-182.9630267466
 20
-8.9238179427
 30
0.0
 11
-182.9630267466
 21
-7.7211206761
 31
0.0
  0
LINE
  5
25F
330
1F
100
AcDbEntity
  8
0
  6
Continuous
 62
     7
100
AcDbLine
 10
-182.9630267466
 20
-7.7211206761
 30
0.0
 11
-179.8692767466
 21
-6.5950877638
 31
0.0
  0
LINE
  5
260
330
1F
100
AcDbEntity
  8
0
  6
Continuous
 62
     7
100
AcDbLine
 10
-179.8692767466
 20
-6.5950877638
 30
0.0
 11
-179.8692767466
 21
-5.7301609612
 31
0.0
  0
LINE
  5
261
330
1F
100
AcDbEntity
  8
0
  6
Continuous
 62
     7
100
AcDbLine
 10
-179.8692767466
 20
-5.7301609612
 30
0.0
 11
-182.9630267466
 21
-4.6041280489
 31
0.0
  0
LINE
  5
262
330
1F
100
AcDbEntity
  8
0
  6
Continuous
 62
     7
100
AcDbLine
 10
-182.9630267466
 20
-4.6041280489
 30
0.0
 11
-182.9630267466
 21
-3.4014307824
 31
0.0
  0
LINE
  5
263
330
1F
100
AcDbEntity
  8
0
  6
Continuous
 62
     7
100
AcDbLine
 10
-182.9630267466
 20
-3.4014307824
 30
0.0
 11
-179.8692767466
 21
-2.2753978701
 31
0.0
  0
LINE
  5
264
330
1F
100
AcDbEntity
  8
0
  6
Continuous
 62
     7
100
AcDbLine
 10
-179.8692767466
 20
-2.2753978701
 30
0.0
 11
-179.8692767466
 21
-1.4104710674
 31
0.0
  0
LINE
  5
265
330
1F
100
AcDbEntity
  8
0
  6
Continuous
 62
     7
100
AcDbLine
 10
-179.8692767466
 20
-1.4104710674
 30
0.0
 11
-182.9630267466
 21
-0.2844381552
 31
0.0
  0
LINE
  5
266
330
1F
100
AcDbEntity
  8
0
  6
Continuous
 62
     7
100
AcDbLine
 10
-182.9630267466
 20
-0.2844381552
 30
0.0
 11
-182.9630267466
 21
0.9182591114
 31
0.0
  0
LINE
  5
267
330
1F
100
AcDbEntity
  8
0
  6
Continuous
 62
     7
100
AcDbLine
 10
-182.9630267466
 20
0.9182591114
 30
0.0
 11
-179.8692767466
 21
2.0442920237
 31
0.0
  0
LINE
  5
268
330
1F
100
AcDbEntity
  8
0
  6
Continuous
 62
     7
100
AcDbLine
 10
-179.8692767466
 20
2.0442920237
 30
0.0
 11
-179.8692767466
 21
2.9092188263
 31
0.0
  0
LINE
  5
269
330
1F
100
AcDbEntity
  8
0
  6
Continuous
 62
     7
100
AcDbLine
 10
-179.8692767466
 20
2.9092188263
 30
0.0
 11
-182.9630267466
 21
4.0352517386
 31
0.0
  0
LINE
  5
26A
330
1F
100
AcDbEntity
  8
0
  6
Continuous
 62
     7
100
AcDbLine
 10
-182.9630267466
 20
4.0352517386
 30
0.0
 11
-182.9630267466
 21
5.2379490051
 31
0.0
  0
LINE
  5
26B
330
1F
100
AcDbEntity
  8
0
  6
Continuous
 62
     7
100
AcDbLine
 10
-182.9630267466
 20
5.2379490051
 30
0.0
 11
-179.8692767466
 21
6.3639819174
 31
0.0
  0
LINE
  5
26C
330
1F
100
AcDbEntity
  8
0
  6
Continuous
 62
     7
100
AcDbLine
 10
-179.8692767466
 20
6.3639819174
 30
0.0
 11
-179.8692767466
 21
7.2289087201
 31
0.0
  0
LINE
  5
26D
330
1F
100
AcDbEntity
  8
0
  6
Continuous
 62
     7
100
AcDbLine
 10
-179.8692767466
 20
7.2289087201
 30
0.0
 11
-182.9630267466
 21
8.3549416323
 31
0.0
  0
LINE
  5
26E
330
1F
100
AcDbEntity
  8
0
  6
Continuous
 62
     7
100
AcDbLine
 10
-182.9630267466
 20
8.3549416323
 30
0.0
 11
-182.9630267466
 21
9.5576388989
 31
0.0
  0
LINE
  5
26F
330
1F
100
AcDbEntity
  8
0
  6
Continuous
 62
     7
100
AcDbLine
 10
-182.9630267466
 20
9.5576388989
 30
0.0
 11
-179.8692767466
 21
10.6836718112
 31
0.0
  0
LINE
  5
270
330
1F
100
AcDbEntity
  8
0
  6
Continuous
 62
     7
100
AcDbLine
 10
-179.8692767466
 20
10.6836718112
 30
0.0
 11
-179.8692767466
 21
11.5485986138
 31
0.0
  0
LINE
  5
271
330
1F
100
AcDbEntity
  8
0
  6
Continuous
 62
     7
100
AcDbLine
 10
-179.8692767466
 20
11.5485986138
 30
0.0
 11
-182.9630267466
 21
12.6746315261
 31
0.0
  0
LINE
  5
272
330
1F
100
AcDbEntity
  8
0
  6
Continuous
 62
     7
100
AcDbLine
 10
-182.9630267466
 20
12.6746315261
 30
0.0
 11
-182.9630267466
 21
13.8773287926
 31
0.0
  0
LINE
  5
273
330
1F
100
AcDbEntity
  8
0
  6
Continuous
 62
     7
100
AcDbLine
 10
-182.9630267466
 20
13.8773287926
 30
0.0
 11
-179.8692767466
 21
15.0033617049
 31
0.0
  0
LINE
  5
274
330
1F
100
AcDbEntity
  8
0
  6
Continuous
 62
     7
100
AcDbLine
 10
-179.8692767466
 20
15.0033617049
 30
0.0
 11
-179.8692767466
 21
15.8682885076
 31
0.0
  0
LINE
  5
275
330
1F
100
AcDbEntity
  8
0
  6
Continuous
 62
     7
100
AcDbLine
 10
-179.8692767466
 20
15.8682885076
 30
0.0
 11
-182.9630267466
 21
16.9943214198
 31
0.0
  0
LINE
  5
276
330
1F
100
AcDbEntity
  8
0
  6
Continuous
 62
     7
100
AcDbLine
 10
-182.9630267466
 20
16.9943214198
 30
0.0
 11
-182.9630267466
 21
18.1970186864
 31
0.0
  0
LINE
  5
277
330
1F
100
AcDbEntity
  8
0
  6
Continuous
 62
     7
100
AcDbLine
 10
-182.9630267466
 20
18.1970186864
 30
0.0
 11
-179.8692767466
 21
19.3230515987
 31
0.0
  0
LINE
  5
278
330
1F
100
AcDbEntity
  8
0
  6
Continuous
 62
     7
100
AcDbLine
 10
-179.8692767466
 20
19.3230515987
 30
0.0
 11
-179.8692767466
 21
20.1879784013
 31
0.0
  0
LINE
  5
279
330
1F
100
AcDbEntity
  8
0
  6
Continuous
 62
     7
100
AcDbLine
 10
-179.8692767466
 20
20.1879784013
 30
0.0
 11
-182.9630267466
 21
21.3140113136
 31
0.0
  0
LINE
  5
27A
330
1F
100
AcDbEntity
  8
0
  6
Continuous
 62
     7
100
AcDbLine
 10
-182.9630267466
 20
21.3140113136
 30
0.0
 11
-182.9630267466
 21
22.5167085801
 31
0.0
  0
LINE
  5
27B
330
1F
100
AcDbEntity
  8
0
  6
Continuous
 62
     7
100
AcDbLine
 10
-182.9630267466
 20
22.5167085801
 30
0.0
 11
-179.8692767466
 21
23.6427414924
 31
0.0
  0
LINE
  5
27C
330
1F
100
AcDbEntity
  8
0
  6
Continuous
 62
     7
100
AcDbLine
 10
-179.8692767466
 20
23.6427414924
 30
0.0
 11
-179.8692767466
 21
24.5076682951
 31
0.0
  0
LINE
  5
27D
330
1F
100
AcDbEntity
  8
0
  6
Continuous
 62
     7
100
AcDbLine
 10
-179.8692767466
 20
24.5076682951
 30
0.0
 11
-182.9630267466
 21
25.6337012073
 31
0.0
  0
LINE
  5
27E
330
1F
100
AcDbEntity
  8
0
  6
Continuous
 62
     7
100
AcDbLine
 10
-182.9630267466
 20
25.6337012073
 30
0.0
 11
-182.9630267466
 21
26.8363984739
 31
0.0
  0
LINE
  5
27F
330
1F
100
AcDbEntity
  8
0
  6
Continuous
 62
     7
100
AcDbLine
 10
-182.9630267466
 20
26.8363984739
 30
0.0
 11
-179.8692767466
 21
27.9624313862
 31
0.0
  0
LINE
  5
280
330
1F
100
AcDbEntity
  8
0
  6
Continuous
 62
     7
100
AcDbLine
 10
-179.8692767466
 20
27.9624313862
 30
0.0
 11
-179.8692767466
 21
28.8273581888
 31
0.0
  0
LINE
  5
281
330
1F
100
AcDbEntity
  8
0
  6
Continuous
 62
     7
100
AcDbLine
 10
-179.8692767466
 20
28.8273581888
 30
0.0
 11
-182.9630267466
 21
29.9533911011
 31
0.0
  0
LINE
  5
282
330
1F
100
AcDbEntity
  8
0
  6
Continuous
 62
     7
100
AcDbLine
 10
-182.9630267466
 20
29.9533911011
 30
0.0
 11
-182.9630267466
 21
31.1560883676
 31
0.0
  0
LINE
  5
283
330
1F
100
AcDbEntity
  8
0
  6
Continuous
 62
     7
100
AcDbLine
 10
-182.9630267466
 20
31.1560883676
 30
0.0
 11
-179.8692767466
 21
32.2821212799
 31
0.0
  0
LINE
  5
284
330
1F
100
AcDbEntity
  8
0
  6
Continuous
 62
     7
100
AcDbLine
 10
-179.8692767466
 20
32.2821212799
 30
0.0
 11
-179.8692767466
 21
33.1470480826
 31
0.0
  0
LINE
  5
285
330
1F
100
AcDbEntity
  8
0
  6
Continuous
 62
     7
100
AcDbLine
 10
-179.8692767466
 20
33.1470480826
 30
0.0
 11
-182.9630267466
 21
34.2730809948
 31
0.0
  0
LINE
  5
286
330
1F
100
AcDbEntity
  8
0
  6
Continuous
 62
     7
100
AcDbLine
 10
-182.9630267466
 20
34.2730809948
 30
0.0
 11
-182.9630267466
 21
35.4757782614
 31
0.0
  0
LINE
  5
287
330
1F
100
AcDbEntity
  8
0
  6
Continuous
 62
     7
100
AcDbLine
 10
-182.9630267466
 20
35.4757782614
 30
0.0
 11
-179.8692767466
 21
36.6018111737
 31
0.0
  0
LINE
  5
288
330
1F
100
AcDbEntity
  8
0
  6
Continuous
 62
     7
100
AcDbLine
 10
-179.8692767466
 20
36.6018111737
 30
0.0
 11
-179.8692767466
 21
37.4667379763
 31
0.0
  0
LINE
  5
289
330
1F
100
AcDbEntity
  8
0
  6
Continuous
 62
     7
100
AcDbLine
 10
-179.8692767466
 20
37.4667379763
 30
0.0
 11
-182.9630267466
 21
38.5927708886
 31
0.0
  0
LINE
  5
28A
330
1F
100
AcDbEntity
  8
0
  6
Continuous
 62
     7
100
AcDbLine
 10
-182.9630267466
 20
38.5927708886
 30
0.0
 11
-182.9630267466
 21
39.7954681551
 31
0.0
  0
LINE
  5
28B
330
1F
100
AcDbEntity
  8
0
  6
Continuous
 62
     7
100
AcDbLine
 10
-182.9630267466
 20
39.7954681551
 30
0.0
 11
-179.8692767466
 21
40.9215010674
 31
0.0
  0
LINE
  5
28C
330
1F
100
AcDbEntity
  8
0
  6
Continuous
 62
     7
100
AcDbLine
 10
-179.8692767466
 20
40.9215010674
 30
0.0
 11
-179.8692767466
 21
41.7864278701
 31
0.0
  0
LINE
  5
28D
330
1F
100
AcDbEntity
  8
0
  6
Continuous
 62
     7
100
AcDbLine
 10
-179.8692767466
 20
41.7864278701
 30
0.0
 11
-182.9630267466
 21
42.9124607823
 31
0.0
  0
LINE
  5
28E
330
1F
100
AcDbEntity
  8
0
  6
Continuous
 62
     7
100
AcDbLine
 10
-182.9630267466
 20
42.9124607823
 30
0.0
 11
-182.9630267466
 21
44.1151580489
 31
0.0
  0
LINE
  5
28F
330
1F
100
AcDbEntity
  8
0
  6
Continuous
 62
     7
100
AcDbLine
 10
-182.9630267466
 20
44.1151580489
 30
0.0
 11
-179.8692767466
 21
45.2411909612
 31
0.0
  0
LINE
  5
290
330
1F
100
AcDbEntity
  8
0
  6
Continuous
 62
     7
100
AcDbLine
 10
-179.8692767466
 20
45.2411909612
 30
0.0
 11
-179.8692767466
 21
46.1061177638
 31
0.0
  0
LINE
  5
291
330
1F
100
AcDbEntity
  8
0
  6
Continuous
 62
     7
100
AcDbLine
 10
-179.8692767466
 20
46.1061177638
 30
0.0
 11
-182.9630267466
 21
47.2321506761
 31
0.0
  0
LINE
  5
292
330
1F
100
AcDbEntity
  8
0
  6
Continuous
 62
     7
100
AcDbLine
 10
-182.9630267466
 20
47.2321506761
 30
0.0
 11
-182.9630267466
 21
48.4348479426
 31
0.0
  0
LINE
  5
293
330
1F
100
AcDbEntity
  8
0
  6
Continuous
 62
     7
100
AcDbLine
 10
-182.9630267466
 20
48.4348479426
 30
0.0
 11
-179.8692767466
 21
49.5608808549
 31
0.0
  0
LINE
  5
294
330
1F
100
AcDbEntity
  8
0
  6
Continuous
 62
     7
100
AcDbLine
 10
-179.8692767466
 20
49.5608808549
 30
0.0
 11
-179.8692767466
 21
50.4258076576
 31
0.0
  0
LINE
  5
295
330
1F
100
AcDbEntity
  8
0
  6
Continuous
 62
     7
100
AcDbLine
 10
-179.8692767466
 20
50.4258076576
 30
0.0
 11
-182.9630267466
 21
51.5518405698
 31
0.0
  0
LINE
  5
296
330
1F
100
AcDbEntity
  8
0
  6
Continuous
 62
     7
100
AcDbLine
 10
-182.9630267466
 20
51.5518405698
 30
0.0
 11
-182.9630267466
 21
52.7545378364
 31
0.0
  0
LINE
  5
297
330
1F
100
AcDbEntity
  8
0
  6
Continuous
 62
     7
100
AcDbLine
 10
-182.9630267466
 20
52.7545378364
 30
0.0
 11
-179.8692767466
 21
53.8805707487
 31
0.0
  0
LINE
  5
298
330
1F
100
AcDbEntity
  8
0
  6
Continuous
 62
     7
100
AcDbLine
 10
-179.8692767466
 20
53.8805707487
 30
0.0
 11
-179.8692767466
 21
54.7454975513
 31
0.0
  0
LINE
  5
299
330
1F
100
AcDbEntity
  8
0
  6
Continuous
 62
     7
100
AcDbLine
 10
-179.8692767466
 20
54.7454975513
 30
0.0
 11
-182.9630267466
 21
55.8715304636
 31
0.0
  0
LINE
  5
29A
330
1F
100
AcDbEntity
  8
0
  6
Continuous
 62
     7
100
AcDbLine
 10
-182.9630267466
 20
55.8715304636
 30
0.0
 11
-182.9630267466
 21
57.0742277301
 31
0.0
  0
LINE
  5
29B
330
1F
100
AcDbEntity
  8
0
  6
Continuous
 62
     7
100
AcDbLine
 10
-182.9630267466
 20
57.0742277301
 30
0.0
 11
-179.8692767466
 21
58.2002606424
 31
0.0
  0
LINE
  5
29C
330
1F
100
AcDbEntity
  8
0
  6
Continuous
 62
     7
100
AcDbLine
 10
-179.8692767466
 20
58.2002606424
 30
0.0
 11
-179.8692767466
 21
59.0651874451
 31
0.0
  0
LINE
  5
29D
330
1F
100
AcDbEntity
  8
0
  6
Continuous
 62
     7
100
AcDbLine
 10
-179.8692767466
 20
59.0651874451
 30
0.0
 11
-182.9630267466
 21
60.1912203573
 31
0.0
  0
LINE
  5
29E
330
1F
100
AcDbEntity
  8
0
  6
Continuous
 62
     7
100
AcDbLine
 10
-182.9630267466
 20
60.1912203573
 30
0.0
 11
-182.9630267466
 21
61.3939176239
 31
0.0
  0
LINE
  5
29F
330
1F
100
AcDbEntity
  8
0
  6
Continuous
 62
     7
100
AcDbLine
 10
-182.9630267466
 20
61.3939176239
 30
0.0
 11
-179.8692767466
 21
62.5199505362
 31
0.0
  0
LINE
  5
2A0
330
1F
100
AcDbEntity
  8
0
  6
Continuous
 62
     7
100
AcDbLine
 10
-179.8692767466
 20
62.5199505362
 30
0.0
 11
-179.8692767466
 21
63.3848773388
 31
0.0
  0
LINE
  5
2A1
330
1F
100
AcDbEntity
  8
0
  6
Continuous
 62
     7
100
AcDbLine
 10
-179.8692767466
 20
63.3848773388
 30
0.0
 11
-182.9630267466
 21
64.5109102511
 31
0.0
  0
LINE
  5
2A2
330
1F
100
AcDbEntity
  8
0
  6
Continuous
 62
     7
100
AcDbLine
 10
-182.9630267466
 20
64.5109102511
 30
0.0
 11
-182.9630267466
 21
65.7136075176
 31
0.0
  0
LINE
  5
2A3
330
1F
100
AcDbEntity
  8
0
  6
Continuous
 62
     7
100
AcDbLine
 10
-182.9630267466
 20
65.7136075176
 30
0.0
 11
-179.8692767466
 21
66.8396404299
 31
0.0
  0
LINE
  5
2A4
330
1F
100
AcDbEntity
  8
0
  6
Continuous
 62
     7
100
AcDbLine
 10
-179.8692767466
 20
66.8396404299
 30
0.0
 11
-179.8692767466
 21
67.7045672326
 31
0.0
  0
LINE
  5
2A5
330
1F
100
AcDbEntity
  8
0
  6
Continuous
 62
     7
100
AcDbLine
 10
-179.8692767466
 20
67.7045672326
 30
0.0
 11
-182.9630267466
 21
68.8306001448
 31
0.0
  0
LINE
  5
2A6
330
1F
100
AcDbEntity
  8
0
  6
Continuous
 62
     7
100
AcDbLine
 10
-182.9630267466
 20
68.8306001448
 30
0.0
 11
-182.9630267466
 21
70.0332974114
 31
0.0
  0
LINE
  5
2A7
330
1F
100
AcDbEntity
  8
0
  6
Continuous
 62
     7
100
AcDbLine
 10
-182.9630267466
 20
70.0332974114
 30
0.0
 11
-179.8692767466
 21
71.1593303237
 31
0.0
  0
LINE
  5
2A8
330
1F
100
AcDbEntity
  8
0
  6
Continuous
 62
     7
100
AcDbLine
 10
-179.8692767466
 20
71.1593303237
 30
0.0
 11
-179.8692767466
 21
72.0242571263
 31
0.0
  0
LINE
  5
2A9
330
1F
100
AcDbEntity
  8
0
  6
Continuous
 62
     7
100
AcDbLine
 10
-179.8692767466
 20
72.0242571263
 30
0.0
 11
-182.9630267466
 21
73.1502900386
 31
0.0
  0
LINE
  5
2AA
330
1F
100
AcDbEntity
  8
0
  6
Continuous
 62
     7
100
AcDbLine
 10
-182.9630267466
 20
73.1502900386
 30
0.0
 11
-182.9630267466
 21
74.3529873051
 31
0.0
  0
LINE
  5
2AB
330
1F
100
AcDbEntity
  8
0
  6
Continuous
 62
     7
100
AcDbLine
 10
-182.9630267466
 20
74.3529873051
 30
0.0
 11
-179.8692767466
 21
75.4790202174
 31
0.0
  0
LINE
  5
2AC
330
1F
100
AcDbEntity
  8
0
  6
Continuous
 62
     7
100
AcDbLine
 10
-179.8692767466
 20
75.4790202174
 30
0.0
 11
-179.8692767466
 21
76.3439470201
 31
0.0
  0
LINE
  5
2AD
330
1F
100
AcDbEntity
  8
0
  6
Continuous
 62
     7
100
AcDbLine
 10
-179.8692767466
 20
76.3439470201
 30
0.0
 11
-182.9630267466
 21
77.4699799323
 31
0.0
  0
LINE
  5
2AE
330
1F
100
AcDbEntity
  8
0
  6
Continuous
 62
     7
100
AcDbLine
 10
-182.9630267466
 20
77.4699799323
 30
0.0
 11
-182.9630267466
 21
78.6726771989
 31
0.0
  0
LINE
  5
2AF
330
1F
100
AcDbEntity
  8
0
  6
Continuous
 62
     7
100
AcDbLine
 10
-182.9630267466
 20
78.6726771989
 30
0.0
 11
-179.8692767466
 21
79.7987101112
 31
0.0
  0
LINE
  5
2B0
330
1F
100
AcDbEntity
  8
0
  6
Continuous
 62
     7
100
AcDbLine
 10
-179.8692767466
 20
79.7987101112
 30
0.0
 11
-179.8692767466
 21
80.6636369138
 31
0.0
  0
LINE
  5
2B1
330
1F
100
AcDbEntity
  8
0
  6
Continuous
 62
     7
100
AcDbLine
 10
-179.8692767466
 20
80.6636369138
 30
0.0
 11
-182.9630267466
 21
81.7896698261
 31
0.0
  0
LINE
  5
2B2
330
1F
100
AcDbEntity
  8
0
  6
Continuous
 62
     7
100
AcDbLine
 10
-182.9630267466
 20
81.7896698261
 30
0.0
 11
-182.9630267466
 21
82.9923670926
 31
0.0
  0
LINE
  5
2B3
330
1F
100
AcDbEntity
  8
0
  6
Continuous
 62
     7
100
AcDbLine
 10
-182.9630267466
 20
82.9923670926
 30
0.0
 11
-179.8692767466
 21
84.1184000049
 31
0.0
  0
LINE
  5
2B4
330
1F
100
AcDbEntity
  8
0
  6
Continuous
 62
     7
100
AcDbLine
 10
-179.8692767466
 20
84.1184000049
 30
0.0
 11
-179.8692767466
 21
84.9833268076
 31
0.0
  0
LINE
  5
2B5
330
1F
100
AcDbEntity
  8
0
  6
Continuous
 62
     7
100
AcDbLine
 10
-179.8692767466
 20
84.9833268076
 30
0.0
 11
-182.9630267466
 21
86.1093597198
 31
0.0
  0
LINE
  5
2B6
330
1F
100
AcDbEntity
  8
0
  6
Continuous
 62
     7
100
AcDbLine
 10
-182.9630267466
 20
86.1093597198
 30
0.0
 11
-182.9630267466
 21
87.3120569864
 31
0.0
  0
LINE
  5
2B7
330
1F
100
AcDbEntity
  8
0
  6
Continuous
 62
     7
100
AcDbLine
 10
-182.9630267466
 20
87.3120569864
 30
0.0
 11
-179.8692767466
 21
88.4380898987
 31
0.0
  0
LINE
  5
2B8
330
1F
100
AcDbEntity
  8
0
  6
Continuous
 62
     7
100
AcDbLine
 10
-179.8692767466
 20
88.4380898987
 30
0.0
 11
-179.8692767466
 21
89.3030167013
 31
0.0
  0
LINE
  5
2B9
330
1F
100
AcDbEntity
  8
0
  6
Continuous
 62
     7
100
AcDbLine
 10
-179.8692767466
 20
89.3030167013
 30
0.0
 11
-182.9630267466
 21
90.4290496136
 31
0.0
  0
LINE
  5
2BA
330
1F
100
AcDbEntity
  8
0
  6
Continuous
 62
     7
100
AcDbLine
 10
-182.9630267466
 20
90.4290496136
 30
0.0
 11
-182.9630267466
 21
91.6317468801
 31
0.0
  0
LINE
  5
2BB
330
1F
100
AcDbEntity
  8
0
  6
Continuous
 62
     7
100
AcDbLine
 10
-182.9630267466
 20
91.6317468801
 30
0.0
 11
-179.8692767466
 21
92.7577797924
 31
0.0
  0
LINE
  5
2BC
330
1F
100
AcDbEntity
  8
0
  6
Continuous
 62
     7
100
AcDbLine
 10
-179.8692767466
 20
92.7577797924
 30
0.0
 11
-179.8692767466
 21
93.6227065951
 31
0.0
  0
LINE
  5
2BD
330
1F
100
AcDbEntity
  8
0
  6
Continuous
 62
     7
100
AcDbLine
 10
-179.8692767466
 20
93.6227065951
 30
0.0
 11
-182.9630267466
 21
94.7487395073
 31
0.0
  0
LINE
  5
2BE
330
1F
100
AcDbEntity
  8
0
  6
Continuous
 62
     7
100
AcDbLine
 10
-182.9630267466
 20
94.7487395073
 30
0.0
 11
-182.9630267466
 21
95.9514367739
 31
0.0
  0
LINE
  5
2BF
330
1F
100
AcDbEntity
  8
0
  6
Continuous
 62
     7
100
AcDbLine
 10
-182.9630267466
 20
95.9514367739
 30
0.0
 11
-179.8692767466
 21
97.0774696862
 31
0.0
  0
LINE
  5
2C0
330
1F
100
AcDbEntity
  8
0
  6
Continuous
 62
     7
100
AcDbLine
 10
-179.8692767466
 20
97.0774696862
 30
0.0
 11
-179.8692767466
 21
97.9423964888
 31
0.0
  0
LINE
  5
2C1
330
1F
100
AcDbEntity
  8
0
  6
Continuous
 62
     7
100
AcDbLine
 10
-179.8692767466
 20
97.9423964888
 30
0.0
 11
-182.9630267466
 21
99.0684294011
 31
0.0
  0
LINE
  5
2C2
330
1F
100
AcDbEntity
  8
0
  6
Continuous
 62
     7
100
AcDbLine
 10
-182.9630267466
 20
99.0684294011
 30
0.0
 11
-182.9630267466
 21
100.2711266676
 31
0.0
  0
LINE
  5
2C3
330
1F
100
AcDbEntity
  8
0
  6
Continuous
 62
     7
100
AcDbLine
 10
-182.9630267466
 20
100.2711266676
 30
0.0
 11
-179.8692767466
 21
101.3971595799
 31
0.0
  0
LINE
  5
2C4
330
1F
100
AcDbEntity
  8
0
  6
Continuous
 62
     7
100
AcDbLine
 10
-179.8692767466
 20
101.3971595799
 30
0.0
 11
-179.8692767466
 21
102.2620863826
 31
0.0
  0
LINE
  5
2C5
330
1F
100
AcDbEntity
  8
0
  6
Continuous
 62
     7
100
AcDbLine
 10
-179.8692767466
 20
102.2620863826
 30
0.0
 11
-182.9630267466
 21
103.3881192948
 31
0.0
  0
LINE
  5
2C6
330
1F
100
AcDbEntity
  8
0
  6
Continuous
 62
     7
100
AcDbLine
 10
-182.9630267466
 20
103.3881192948
 30
0.0
 11
-182.9630267466
 21
104.5881192948
 31
0.0
  0
LINE
  5
2C7
330
1F
100
AcDbEntity
  8
0
  6
Continuous
 62
     7
100
AcDbLine
 10
-182.9630267466
 20
104.5881192948
 30
0.0
 11
-179.8692767466
 21
105.7141522071
 31
0.0
  0
LINE
  5
2C8
330
1F
100
AcDbEntity
  8
0
  6
Continuous
 62
     7
100
AcDbLine
 10
-179.8692767466
 20
105.7141522071
 30
0.0
 11
-179.8692767466
 21
106.5741522071
 31
0.0
  0
LINE
  5
2C9
330
1F
100
AcDbEntity
  8
0
  6
Continuous
 62
     7
100
AcDbLine
 10
-179.8692767466
 20
106.5741522071
 30
0.0
 11
-182.9630267466
 21
107.7001851193
 31
0.0
  0
MTEXT
  5
2CB
330
1F
100
AcDbEntity
  8
0
  6
Continuous
 62
     7
100
AcDbMText
 10
-208.2442767466
 20
-134.9186975442
 30
0.0
 40
4.83362
 41
0.0
 71
     1
 72
     1
  1
SolidWorks Student Edition.
  7
SLDTEXTSTYLE0
 73
     1
 44
1.0
  0
MTEXT
  5
2CC
330
1F
100
AcDbEntity
  8
0
  6
Continuous
 62
     7
100
AcDbMText
 10
-208.2442767466
 20
-142.1691275442
 30
0.0
 40
4.83362
 41
0.0
 71
     1
 72
     1
  1
For Academic Use Only.
  7
SLDTEXTSTYLE0
 73
     1
 44
1.0
  0
ENDSEC
  0
SECTION
  2
OBJECTS
  0
DICTIONARY
  5
C
330
0
100
AcDbDictionary
281
     1
  3
ACAD_GROUP
350
D
  3
ACAD_LAYOUT
350
1A
  3
ACAD_MLINESTYLE
350
17
  3
ACAD_PLOTSETTINGS
350
19
  3
ACAD_PLOTSTYLENAME
350
E
  3
ACAD_SCALELIST
350
47
  0
DICTIONARY
  5
D
102
{ACAD_REACTORS
330
C
102
}
330
C
100
AcDbDictionary
281
     1
  0
DICTIONARY
  5
1A
102
{ACAD_REACTORS
330
C
102
}
330
C
100
AcDbDictionary
281
     1
  3
Layout1
350
1E
  3
Layout2
350
26
  3
Model
350
22
  0
DICTIONARY
  5
17
102
{ACAD_REACTORS
330
C
102
}
330
C
100
AcDbDictionary
281
     1
  3
Standard
350
18
  0
DICTIONARY
  5
19
102
{ACAD_REACTORS
330
C
102
}
330
C
100
AcDbDictionary
281
     1
  0
ACDBDICTIONARYWDFLT
  5
E
102
{ACAD_REACTORS
330
C
102
}
330
C
100
AcDbDictionary
281
     1
  3
Normal
350
F
100
AcDbDictionaryWithDefault
340
F
  0
DICTIONARY
  5
47
102
{ACAD_REACTORS
330
C
102
}
330
C
100
AcDbDictionary
281
     1
  3
A0
350
48
  3
A1
350
49
  3
A2
350
4A
  3
A3
350
4B
  3
A4
350
4C
  3
A5
350
4D
  3
A6
350
4E
  3
A7
350
4F
  3
A8
350
50
  3
A9
350
51
  3
B0
350
52
  3
B1
350
53
  3
B2
350
54
  3
B3
350
55
  3
B4
350
56
  3
B5
350
57
  3
B6
350
58
  3
B7
350
59
  3
B8
350
5A
  3
B9
350
5B
  3
C0
350
5C
  3
C1
350
5D
  3
C2
350
5E
  3
C3
350
5F
  3
C4
350
60
  3
C5
350
61
  3
C6
350
62
  3
C7
350
63
  3
C8
350
64
  3
C9
350
65
  3
D0
350
66
  3
D1
350
67
  3
D2
350
68
  0
LAYOUT
  5
1E
102
{ACAD_REACTORS
330
1A
102
}
330
1A
100
AcDbPlotSettings
  1

  2
none_device
  4

  6

 40
0.0
 41
0.0
 42
0.0
 43
0.0
 44
0.0
 45
0.0
 46
0.0
 47
0.0
 48
0.0
 49
0.0
140
0.0
141
0.0
142
1.0
143
1.0
 70
   688
 72
     1
 73
     0
 74
     5
  7

 75
    16
147
1.0
148
0.0
149
0.0
100
AcDbLayout
  1
Layout1
 70
     1
 71
     1
 10
0.0
 20
0.0
 11
420.0
 21
297.0
 12
0.0
 22
0.0
 32
0.0
 14
1.0000000000E+20
 24
1.0000000000E+20
 34
1.0000000000E+20
 15
-1.0000000000E+20
 25
-1.0000000000E+20
 35
-1.0000000000E+20
146
0.0
 13
0.0
 23
0.0
 33
0.0
 16
1.0
 26
0.0
 36
0.0
 17
0.0
 27
1.0
 37
0.0
 76
     0
330
1B
  0
LAYOUT
  5
26
102
{ACAD_REACTORS
330
1A
102
}
330
1A
100
AcDbPlotSettings
  1

  2
none_device
  4

  6

 40
0.0
 41
0.0
 42
0.0
 43
0.0
 44
0.0
 45
0.0
 46
0.0
 47
0.0
 48
0.0
 49
0.0
140
0.0
141
0.0
142
1.0
143
1.0
 70
   688
 72
     1
 73
     0
 74
     5
  7

 75
    16
147
1.0
148
0.0
149
0.0
100
AcDbLayout
  1
Layout2
 70
     1
 71
     2
 10
0.0
 20
0.0
 11
0.0
 21
0.0
 12
0.0
 22
0.0
 32
0.0
 14
0.0
 24
0.0
 34
0.0
 15
0.0
 25
0.0
 35
0.0
146
0.0
 13
0.0
 23
0.0
 33
0.0
 16
1.0
 26
0.0
 36
0.0
 17
0.0
 27
1.0
 37
0.0
 76
     0
330
23
  0
LAYOUT
  5
22
102
{ACAD_REACTORS
330
1A
102
}
330
1A
100
AcDbPlotSettings
  1

  2
none_device
  4
ANSI_A_(11.00_x_8.50_Inches)
  6

 40
6.35
 41
19.05
 42
6.35000508
 43
19.05000254
 44
279.4
 45
215.9
 46
133.34999746
 47
88.89999873
 48
0.0
 49
0.0
140
0.0
141
0.0
142
0.0261471772
143
1.0
 70
  1696
 72
     0
 73
     0
 74
     0
  7

 75
     0
147
0.0179189148
148
-1300.4909072572
149
0.0
100
AcDbLayout
  1
Model
 70
     1
 71
     0
 10
0.0
 20
0.0
 11
420.0
 21
297.0
 12
0.0
 22
0.0
 32
0.0
 14
-208.2442767466
 24
-133.8991311526
 34
0.0
 15
208.2442767466
 25
133.8991311526
 35
0.0
146
0.0
 13
0.0
 23
0.0
 33
0.0
 16
1.0
 26
0.0
 36
0.0
 17
0.0
 27
1.0
 37
0.0
 76
     0
330
1F
331
29
  0
MLINESTYLE
  5
18
102
{ACAD_REACTORS
330
17
102
}
330
17
100
AcDbMlineStyle
  2
Standard
 70
     0
  3

 62
   256
 51
90.0
 52
90.0
 71
     2
 49
0.5
 62
   256
  6
BYLAYER
 49
-0.5
 62
   256
  6
BYLAYER
  0
ACDBPLACEHOLDER
  5
F
102
{ACAD_REACTORS
330
E
102
}
330
E
  0
SCALE
  5
48
102
{ACAD_REACTORS
330
47
102
}
330
47
100
AcDbScale
 70
     0
300
1:1
140
1.0
141
1.0
290
     1
  0
SCALE
  5
49
102
{ACAD_REACTORS
330
47
102
}
330
47
100
AcDbScale
 70
     0
300
1:2
140
1.0
141
2.0
290
     0
  0
SCALE
  5
4A
102
{ACAD_REACTORS
330
47
102
}
330
47
100
AcDbScale
 70
     0
300
1:4
140
1.0
141
4.0
290
     0
  0
SCALE
  5
4B
102
{ACAD_REACTORS
330
47
102
}
330
47
100
AcDbScale
 70
     0
300
1:5
140
1.0
141
5.0
290
     0
  0
SCALE
  5
4C
102
{ACAD_REACTORS
330
47
102
}
330
47
100
AcDbScale
 70
     0
300
1:8
140
1.0
141
8.0
290
     0
  0
SCALE
  5
4D
102
{ACAD_REACTORS
330
47
102
}
330
47
100
AcDbScale
 70
     0
300
1:10
140
1.0
141
10.0
290
     0
  0
SCALE
  5
4E
102
{ACAD_REACTORS
330
47
102
}
330
47
100
AcDbScale
 70
     0
300
1:16
140
1.0
141
16.0
290
     0
  0
SCALE
  5
4F
102
{ACAD_REACTORS
330
47
102
}
330
47
100
AcDbScale
 70
     0
300
1:20
140
1.0
141
20.0
290
     0
  0
SCALE
  5
50
102
{ACAD_REACTORS
330
47
102
}
330
47
100
AcDbScale
 70
     0
300
1:30
140
1.0
141
30.0
290
     0
  0
SCALE
  5
51
102
{ACAD_REACTORS
330
47
102
}
330
47
100
AcDbScale
 70
     0
300
1:40
140
1.0
141
40.0
290
     0
  0
SCALE
  5
52
102
{ACAD_REACTORS
330
47
102
}
330
47
100
AcDbScale
 70
     0
300
1:50
140
1.0
141
50.0
290
     0
  0
SCALE
  5
53
102
{ACAD_REACTORS
330
47
102
}
330
47
100
AcDbScale
 70
     0
300
1:100
140
1.0
141
100.0
290
     0
  0
SCALE
  5
54
102
{ACAD_REACTORS
330
47
102
}
330
47
100
AcDbScale
 70
     0
300
2:1
140
2.0
141
1.0
290
     0
  0
SCALE
  5
55
102
{ACAD_REACTORS
330
47
102
}
330
47
100
AcDbScale
 70
     0
300
4:1
140
4.0
141
1.0
290
     0
  0
SCALE
  5
56
102
{ACAD_REACTORS
330
47
102
}
330
47
100
AcDbScale
 70
     0
300
8:1
140
8.0
141
1.0
290
     0
  0
SCALE
  5
57
102
{ACAD_REACTORS
330
47
102
}
330
47
100
AcDbScale
 70
     0
300
10:1
140
10.0
141
1.0
290
     0
  0
SCALE
  5
58
102
{ACAD_REACTORS
330
47
102
}
330
47
100
AcDbScale
 70
     0
300
100:1
140
100.0
141
1.0
290
     0
  0
SCALE
  5
59
102
{ACAD_REACTORS
330
47
102
}
330
47
100
AcDbScale
 70
     0
300
1/128" = 1'-0"
140
0.0078125
141
12.0
290
     0
  0
SCALE
  5
5A
102
{ACAD_REACTORS
330
47
102
}
330
47
100
AcDbScale
 70
     0
300
1/64" = 1'-0"
140
0.015625
141
12.0
290
     0
  0
SCALE
  5
5B
102
{ACAD_REACTORS
330
47
102
}
330
47
100
AcDbScale
 70
     0
300
1/32" = 1'-0"
140
0.03125
141
12.0
290
     0
  0
SCALE
  5
5C
102
{ACAD_REACTORS
330
47
102
}
330
47
100
AcDbScale
 70
     0
300
1/16" = 1'-0"
140
0.0625
141
12.0
290
     0
  0
SCALE
  5
5D
102
{ACAD_REACTORS
330
47
102
}
330
47
100
AcDbScale
 70
     0
300
3/32" = 1'-0"
140
0.09375
141
12.0
290
     0
  0
SCALE
  5
5E
102
{ACAD_REACTORS
330
47
102
}
330
47
100
AcDbScale
 70
     0
300
1/8" = 1'-0"
140
0.125
141
12.0
290
     0
  0
SCALE
  5
5F
102
{ACAD_REACTORS
330
47
102
}
330
47
100
AcDbScale
 70
     0
300
3/16" = 1'-0"
140
0.1875
141
12.0
290
     0
  0
SCALE
  5
60
102
{ACAD_REACTORS
330
47
102
}
330
47
100
AcDbScale
 70
     0
300
1/4" = 1'-0"
140
0.25
141
12.0
290
     0
  0
SCALE
  5
61
102
{ACAD_REACTORS
330
47
102
}
330
47
100
AcDbScale
 70
     0
300
3/8" = 1'-0"
140
0.375
141
12.0
290
     0
  0
SCALE
  5
62
102
{ACAD_REACTORS
330
47
102
}
330
47
100
AcDbScale
 70
     0
300
1/2" = 1'-0"
140
0.5
141
12.0
290
     0
  0
SCALE
  5
63
102
{ACAD_REACTORS
330
47
102
}
330
47
100
AcDbScale
 70
     0
300
3/4" = 1'-0"
140
0.75
141
12.0
290
     0
  0
SCALE
  5
64
102
{ACAD_REACTORS
330
47
102
}
330
47
100
AcDbScale
 70
     0
300
1" = 1'-0"
140
1.0
141
12.0
290
     0
  0
SCALE
  5
65
102
{ACAD_REACTORS
330
47
102
}
330
47
100
AcDbScale
 70
     0
300
1-1/2" = 1'-0"
140
1.5
141
12.0
290
     0
  0
SCALE
  5
66
102
{ACAD_REACTORS
330
47
102
}
330
47
100
AcDbScale
 70
     0
300
3" = 1'-0"
140
3.0
141
12.0
290
     0
  0
SCALE
  5
67
102
{ACAD_REACTORS
330
47
102
}
330
47
100
AcDbScale
 70
     0
300
6" = 1'-0"
140
6.0
141
12.0
290
     0
  0
SCALE
  5
68
102
{ACAD_REACTORS
330
47
102
}
330
47
100
AcDbScale
 70
     0
300
1'-0" = 1'-0"
140
12.0
141
12.0
290
     0
  0
ENDSEC
  0
EOF
