0
SECTION
2
HEADER
9
$INSUNITS
70
4
9
$ACADVER
1
AC1014
9
$HANDSEED
5
FFFF
0
ENDSEC
0
SECTION
2
TABLES
0
TABLE
2
VPORT
5
8
100
AcDbSymbolTable
0
ENDTAB
0
TABLE
2
LTYPE
5
5
100
AcDbSymbolTable
0
LTYPE
5
14
100
AcDbSymbolTableRecord
100
AcDbLinetypeTableRecord
2
BYBLOCK
70
0
0
LTYPE
5
15
100
AcDbSymbolTableRecord
100
AcDbLinetypeTableRecord
2
BYLAYER
70
0
0
ENDTAB
0
TABLE
2
LAYER
5
2
100
AcDbSymbolTable
70
2
0
LAYER
5
50
100
AcDbSymbolTableRecord
100
AcDbLayerTableRecord
2
0
70
0
6
CONTINUOUS
0
ENDTAB
0
TABLE
2
STYLE
5
3
100
AcDbSymbolTable
70
1
0
STYLE
5
11
100
AcDbSymbolTableRecord
100
AcDbTextStyleTableRecord
2
STANDARD
70
0
0
ENDTAB
0
TABLE
2
VIEW
5
6
100
AcDbSymbolTable
70
0
0
ENDTAB
0
TABLE
2
UCS
5
7
100
AcDbSymbolTable
70
0
0
ENDTAB
0
TABLE
2
APPID
5
9
100
AcDbSymbolTable
70
2
0
APPID
5
12
100
AcDbSymbolTableRecord
100
AcDbRegAppTableRecord
2
ACAD
70
0
0
ENDTAB
0
TABLE
2
DIMSTYLE
5
A
100
AcDbSymbolTable
70
1
0
ENDTAB
0
TABLE
2
BLOCK_RECORD
5
1
100
AcDbSymbolTable
70
1
0
BLOCK_RECORD
5
1F
100
AcDbSymbolTableRecord
100
AcDbBlockTableRecord
2
*MODEL_SPACE
0
BLOCK_RECORD
5
1B
100
AcDbSymbolTableRecord
100
AcDbBlockTableRecord
2
*PAPER_SPACE
0
ENDTAB
0
ENDSEC
0
SECTION
2
BLOCKS
0
BLOCK
5
20
100
AcDbEntity
100
AcDbBlockBegin
2
*MODEL_SPACE
0
ENDBLK
5
21
100
AcDbEntity
100
AcDbBlockEnd
0
BLOCK
5
1C
100
AcDbEntity
100
AcDbBlockBegin
2
*PAPER_SPACE
0
ENDBLK
5
1D
100
AcDbEntity
100
AcDbBlockEnd
0
ENDSEC
0
SECTION
2
ENTITIES
0
LINE
5
100
100
AcDbEntity
8
0
100
AcDbLine
10
172.52630061403789
20
366.07894736842093
30
0
11
156.84209008772206
21
366.07894736842093
31
0
0
LINE
5
101
100
AcDbEntity
8
0
100
AcDbLine
10
141.15787956140628
20
366.07894736842093
30
0
11
125.47366903509052
21
366.07894736842093
31
0
0
LINE
5
102
100
AcDbEntity
8
0
100
AcDbLine
10
16.68418181410614
20
359.27894736842097
30
0
11
19.684181814106051
21
359.27894736842097
31
0
0
LINE
5
103
100
AcDbEntity
8
0
100
AcDbLine
10
218.89472330533152
20
19.000002160668323
30
0
11
218.89472330533152
21
16.000002160668338
31
0
0
LINE
5
104
100
AcDbEntity
8
0
100
AcDbLine
10
311.99999783933163
20
62.052196989542168
30
0
11
311.99999999999994
21
77.736196989542123
31
0
0
LINE
5
105
100
AcDbEntity
8
0
100
AcDbLine
10
219.57893219298512
20
366.07894736842093
30
0
11
219.57893219298512
21
369.0789473684211
31
0
0
LINE
5
106
100
AcDbEntity
8
0
100
AcDbLine
10
78.421037456143097
20
320.07894572975886
30
0
11
78.421037456143097
21
317.07894572975886
31
0
0
LINE
5
107
100
AcDbEntity
8
0
100
AcDbLine
10
156.84209008772206
20
320.07894572975886
30
0
11
172.52630061403789
21
320.07894572975886
31
0
0
LINE
5
108
100
AcDbEntity
8
0
100
AcDbLine
10
311.99999783933163
20
156.15619698954217
30
0
11
311.99999999999994
21
171.84019698954216
31
0
0
LINE
5
109
100
AcDbEntity
8
0
100
AcDbLine
10
109.78945850877466
20
317.07894572975886
30
0
11
125.47366903509052
21
317.07894572975897
31
0
0
LINE
5
110
100
AcDbEntity
8
0
100
AcDbLine
10
188.21051114035359
20
366.07894736842093
30
0
11
188.21051114035359
21
369.07894736842093
31
0
0
LINE
5
111
100
AcDbEntity
8
0
100
AcDbLine
10
219.57893219298512
20
369.0789473684211
30
0
11
203.89472166666934
21
369.0789473684211
31
0
0
LINE
5
112
100
AcDbEntity
8
0
100
AcDbLine
10
125.47366903509052
20
317.07894572975897
30
0
11
125.47366903509052
21
320.07894572975886
31
0
0
LINE
5
113
100
AcDbEntity
8
0
100
AcDbLine
10
265.94735488427887
20
309.00000216066837
30
0
11
265.94735488427887
21
312.00000216066832
31
0
0
LINE
5
114
100
AcDbEntity
8
0
100
AcDbLine
10
308.99999783933168
20
203.20819698954216
30
0
11
308.99999783933168
21
218.89219698954213
31
0
0
LINE
5
115
100
AcDbEntity
8
0
100
AcDbLine
10
219.57893219298512
20
317.07894572975908
30
0
11
219.57893219298512
21
320.07894572975897
31
0
0
LINE
5
116
100
AcDbEntity
8
0
100
AcDbLine
10
312.6841953508798
20
326.87894736842111
30
0
11
309.68419535088003
21
326.87894736842111
31
0
0
LINE
5
117
100
AcDbEntity
8
0
100
AcDbLine
10
18.999997839331613
20
77.736196989542123
30
0
11
15.999997839331627
21
77.736196989542123
31
0
0
LINE
5
118
100
AcDbEntity
8
0
100
AcDbLine
10
312.6841953508798
20
359.2789473684212
30
0
11
312.6841953508798
21
369.0789473684211
31
0
0
LINE
5
119
100
AcDbEntity
8
0
100
AcDbLine
10
188.21051114035359
20
320.07894572975886
30
0
11
203.89472166666934
21
320.07894572975897
31
0
0
LINE
5
120
100
AcDbEntity
8
0
100
AcDbLine
10
282.31577429824836
20
366.07894736842121
30
0
11
282.31577429824836
21
369.0789473684211
31
0
0
LINE
5
121
100
AcDbEntity
8
0
100
AcDbLine
10
309.68419535088003
20
326.87894736842111
30
0
11
309.68419535088003
21
337.67894736842106
31
0
0
LINE
5
122
100
AcDbEntity
8
0
100
AcDbLine
10
15.999997839331627
20
124.78819698954214
30
0
11
18.999997839331613
21
124.78819698954214
31
0
0
LINE
5
123
100
AcDbEntity
8
0
100
AcDbLine
10
311.99999783933163
20
187.52419698954216
30
0
11
311.99999999999994
21
203.20819698954216
31
0
0
LINE
5
124
100
AcDbEntity
8
0
100
AcDbLine
10
19.684181814106051
20
359.27894736842097
30
0
11
19.684181814106051
21
348.47894736842085
31
0
0
LINE
5
125
100
AcDbEntity
8
0
100
AcDbLine
10
311.99999999999994
20
140.47219698954217
30
0
11
308.99999783933168
21
140.47219698954217
31
0
0
LINE
5
126
100
AcDbEntity
8
0
100
AcDbLine
10
46.368407515857932
20
16
30
0
11
46.368407515857932
21
19.000002160668323
31
0
0
LINE
5
127
100
AcDbEntity
8
0
100
AcDbLine
10
203.21051277901574
20
309.00000216066837
30
0
11
203.21051277901574
21
312.00000216066832
31
0
0
LINE
5
128
100
AcDbEntity
8
0
100
AcDbLine
10
18.999997839331613
20
124.78819698954214
30
0
11
18.999997839331613
21
109.10419698954216
31
0
0
LINE
5
129
100
AcDbEntity
8
0
100
AcDbLine
10
265.94735488427887
20
312.00000216066832
30
0
11
250.26314435796311
21
312.00000216066832
31
0
0
LINE
5
130
100
AcDbEntity
8
0
100
AcDbLine
10
187.52630225269999
20
16.000002160668338
30
0
11
203.21051277901574
21
16
31
0
0
LINE
5
131
100
AcDbEntity
8
0
100
AcDbLine
10
141.15787956140628
20
317.07894572975897
30
0
11
156.84209008772206
21
317.07894572975897
31
0
0
LINE
5
132
100
AcDbEntity
8
0
100
AcDbLine
10
14.999986463226378
20
19.000002160668359
30
0
11
18.999997839331613
21
19.000002160668359
31
0
0
LINE
5
133
100
AcDbEntity
8
0
100
AcDbLine
10
234.5789338316473
20
309.00000216066837
30
0
11
234.5789338316473
21
312.00000216066832
31
0
0
LINE
5
134
100
AcDbEntity
8
0
100
AcDbLine
10
308.99999783933168
20
140.47219698954217
30
0
11
308.99999783933168
21
156.15619698954217
31
0
0
LINE
5
135
100
AcDbEntity
8
0
100
AcDbLine
10
250.9473532456168
20
320.07894572975897
30
0
11
266.63156377193246
21
320.07894572975897
31
0
0
LINE
5
136
100
AcDbEntity
8
0
100
AcDbLine
10
203.89472166666934
20
369.0789473684211
30
0
11
203.89472166666934
21
366.07894736842093
31
0
0
LINE
5
137
100
AcDbEntity
8
0
100
AcDbLine
10
297.31577593691043
20
19.000002160668323
30
0
11
308.99999783933168
21
19.000002160668359
31
0
0
LWPOLYLINE
5
138
100
AcDbEntity
8
0
100
AcDbPolyline
90
92
70
1
43
0.0
10
319.86080481649054
20
248.94950700457457
10
319.86080481649054
20
233.26529647825882
10
322.8608048164906
20
233.26529647825882
10
322.8608048164906
20
217.58108595194301
10
319.86080481649054
20
217.58108595194301
10
319.86080481649054
20
201.8968754256272
10
322.8608048164906
20
201.8968754256272
10
322.8608048164906
20
186.21266489931159
10
319.86080481649054
20
186.21266489931159
10
319.86080481649054
20
170.52845437299578
10
322.8608048164906
20
170.52845437299578
10
322.8608048164906
20
154.84424384668006
10
319.86080481649054
20
154.84424384668006
10
319.86080481649054
20
139.16003332036428
10
322.8608048164906
20
139.16003332036428
10
322.86080481649066
20
123.47582279404848
10
319.86080481649071
20
123.47582279404848
10
319.86080481649054
20
107.79161226773267
10
322.8608048164906
20
107.79161226773267
10
322.8608048164906
20
92.107401741416908
10
319.86080481649054
20
92.107401741416908
10
319.86080481649054
20
76.423191215101156
10
322.8608048164906
20
76.423191215101156
10
322.8608048164906
20
60.738980688785418
10
319.86080481649054
20
60.738980688785418
10
319.86080481649054
20
45.054770162469701
10
322.86080481649043
20
45.054770162469701
10
322.86080481649043
20
29.370559636153892
10
319.86080481649054
20
29.370559636153892
10
319.86080481649054
20
14.686335573064387
10
329.66080481649044
20
14.686335573064387
10
329.66080481649044
20
17.686335573064262
10
340.46080481649051
20
17.686335573064262
10
340.46080481649051
20
14.686335573064387
10
351.26080481649041
20
14.686335573064351
10
351.26080481649041
20
17.686335573064227
10
362.06080481649047
20
17.686335573064227
10
362.06080481649047
20
14.686335573064351
10
371.86080645515256
20
14.686335573064351
10
371.86080645515256
20
29.370559636153857
10
368.8608064551525
20
29.370559636153857
10
368.8608064551525
20
45.054770162469673
10
371.86080645515256
20
45.054770162469673
10
371.86080645515261
20
60.738980688785382
10
368.86080645515267
20
60.738980688785382
10
368.8608064551525
20
76.423191215101127
10
371.86080645515261
20
76.423191215101127
10
371.86080645515261
20
92.107401741416908
10
368.8608064551525
20
92.107401741416908
10
368.8608064551525
20
107.79161226773262
10
371.86080645515261
20
107.79161226773262
10
371.86080645515261
20
123.47582279404845
10
368.86080645515267
20
123.47582279404845
10
368.8608064551525
20
139.16003332036422
10
371.86080645515256
20
139.16003332036422
10
371.86080645515256
20
154.84424384668
10
368.8608064551525
20
154.84424384668
10
368.8608064551525
20
170.52845437299567
10
371.86080645515256
20
170.52845437299567
10
371.86080645515256
20
186.21266489931148
10
368.8608064551525
20
186.21266489931148
10
368.8608064551525
20
201.89687542562717
10
371.86080645515256
20
201.89687542562717
10
371.86080645515256
20
217.5810859519429
10
368.8608064551525
20
217.5810859519429
10
368.8608064551525
20
233.26529647825873
10
371.86080645515256
20
233.26529647825873
10
371.86080645515256
20
248.94950700457446
10
368.8608064551525
20
248.94950700457446
10
368.86080645515267
20
264.63371753089007
10
371.86080645515261
20
264.63371753089007
10
371.86080645515261
20
280.3179280572059
10
368.86080645515267
20
280.3179280572059
10
368.86080645515267
20
296.00213858352168
10
371.86080645515261
20
296.00213858352168
10
371.86080645515261
20
310.68634910983735
10
362.06080481649047
20
310.68634910983724
10
362.06080481649047
20
307.68634910983752
10
351.26080481649046
20
307.68634910983752
10
351.26080481649046
20
310.68634910983724
10
340.46080481649057
20
310.68634910983724
10
340.46080481649057
20
307.68634910983752
10
329.6608048164905
20
307.68634910983752
10
329.6608048164905
20
310.68634910983724
10
319.86080481649054
20
310.68634910983735
10
319.86080481649054
20
296.00213858352163
10
322.8608048164906
20
296.00213858352163
10
322.8608048164906
20
280.31792805720602
10
319.86080481649054
20
280.31792805720602
10
319.86080481649054
20
264.63371753089018
10
322.8608048164906
20
264.63371753089018
10
322.8608048164906
20
248.94950700457457
0
LINE
5
139
100
AcDbEntity
8
0
100
AcDbLine
10
62.736826929827316
20
317.07894572975886
30
0
11
62.736826929827316
21
320.07894572975886
31
0
0
LINE
5
140
100
AcDbEntity
8
0
100
AcDbLine
10
203.89472166666934
20
320.07894572975897
30
0
11
203.89472166666934
21
317.07894572975908
31
0
0
LINE
5
141
100
AcDbEntity
8
0
100
AcDbLine
10
172.52630061403789
20
317.07894572975897
30
0
11
188.21051114035359
21
317.07894572975897
31
0
0
LINE
5
142
100
AcDbEntity
8
0
100
AcDbLine
10
312.68419535087992
20
317.07894572975908
30
0
11
312.6841953508798
21
326.87894736842111
31
0
0
LINE
5
143
100
AcDbEntity
8
0
100
AcDbLine
10
78.421037456143097
20
369.07894736842087
30
0
11
78.421037456143097
21
366.07894736842093
31
0
0
LINE
5
144
100
AcDbEntity
8
0
100
AcDbLine
10
16.68418181410614
20
337.67894736842095
30
0
11
19.684181814106051
21
337.67894736842095
31
0
0
LINE
5
145
100
AcDbEntity
8
0
100
AcDbLine
10
47.052616403511543
20
320.07894572975886
30
0
11
47.052616403511543
21
317.07894572975886
31
0
0
LINE
5
146
100
AcDbEntity
8
0
100
AcDbLine
10
47.052616403511543
20
369.07894736842087
30
0
11
47.052616403511543
21
366.07894736842093
31
0
0
LINE
5
147
100
AcDbEntity
8
0
100
AcDbLine
10
156.84209008772206
20
369.07894736842087
30
0
11
141.15787956140628
21
369.07894736842087
31
0
0
LINE
5
148
100
AcDbEntity
8
0
100
AcDbLine
10
19.684181814106051
20
337.67894736842095
30
0
11
19.684181814106051
21
326.87894736842105
31
0
0
LINE
5
149
100
AcDbEntity
8
0
100
AcDbLine
10
312.6841953508798
20
348.47894736842107
30
0
11
309.68419535088003
21
348.47894736842107
31
0
0
LINE
5
150
100
AcDbEntity
8
0
100
AcDbLine
10
235.26314271930096
20
317.07894572975908
30
0
11
250.9473532456168
21
317.07894572975908
31
0
0
LINE
5
151
100
AcDbEntity
8
0
100
AcDbLine
10
78.421037456143097
20
366.07894736842093
30
0
11
62.736826929827316
21
366.07894736842093
31
0
0
LINE
5
152
100
AcDbEntity
8
0
100
AcDbLine
10
219.57893219298512
20
320.07894572975897
30
0
11
235.26314271930096
21
320.07894572975897
31
0
0
LINE
5
153
100
AcDbEntity
8
0
100
AcDbLine
10
141.15787956140628
20
369.07894736842087
30
0
11
141.15787956140628
21
366.07894736842093
31
0
0
LINE
5
154
100
AcDbEntity
8
0
100
AcDbLine
10
250.9473532456168
20
366.07894736842093
30
0
11
250.9473532456168
21
369.0789473684211
31
0
0
LINE
5
155
100
AcDbEntity
8
0
100
AcDbLine
10
78.421037456143097
20
317.07894572975886
30
0
11
94.105247982458877
21
317.07894572975886
31
0
0
LINE
5
156
100
AcDbEntity
8
0
100
AcDbLine
10
297.99998482456408
20
369.0789473684211
30
0
11
297.99998482456408
21
366.07894736842121
31
0
0
LINE
5
157
100
AcDbEntity
8
0
100
AcDbLine
10
250.9473532456168
20
317.07894572975908
30
0
11
250.9473532456168
21
320.07894572975897
31
0
0
LINE
5
158
100
AcDbEntity
8
0
100
AcDbLine
10
31.368405877195684
20
366.07894736842093
30
0
11
31.368405877195684
21
369.07894736842087
31
0
0
LINE
5
159
100
AcDbEntity
8
0
100
AcDbLine
10
62.736826929827316
20
369.07894736842087
30
0
11
47.052616403511543
21
369.07894736842087
31
0
0
LINE
5
160
100
AcDbEntity
8
0
100
AcDbLine
10
188.21051114035359
20
369.07894736842093
30
0
11
172.52630061403789
21
369.07894736842087
31
0
0
LINE
5
161
100
AcDbEntity
8
0
100
AcDbLine
10
94.105247982458877
20
320.07894572975886
30
0
11
109.78945850877466
21
320.07894572975886
31
0
0
LINE
5
162
100
AcDbEntity
8
0
100
AcDbLine
10
235.26314271930096
20
369.0789473684211
30
0
11
235.26314271930096
21
366.07894736842093
31
0
0
LINE
5
163
100
AcDbEntity
8
0
100
AcDbLine
10
16.68418181410614
20
348.47894736842085
30
0
11
16.68418181410614
21
337.67894736842095
31
0
0
LINE
5
164
100
AcDbEntity
8
0
100
AcDbLine
10
235.26314271930096
20
366.07894736842093
30
0
11
219.57893219298512
21
366.07894736842093
31
0
0
LINE
5
165
100
AcDbEntity
8
0
100
AcDbLine
10
188.21051114035359
20
317.07894572975897
30
0
11
188.21051114035359
21
320.07894572975886
31
0
0
LINE
5
166
100
AcDbEntity
8
0
100
AcDbLine
10
125.47366903509052
20
366.07894736842093
30
0
11
125.47366903509052
21
369.07894736842087
31
0
0
LINE
5
167
100
AcDbEntity
8
0
100
AcDbLine
10
47.052616403511543
20
317.07894572975886
30
0
11
62.736826929827316
21
317.07894572975886
31
0
0
LINE
5
168
100
AcDbEntity
8
0
100
AcDbLine
10
62.736826929827316
20
320.07894572975886
30
0
11
78.421037456143097
21
320.07894572975886
31
0
0
LINE
5
169
100
AcDbEntity
8
0
100
AcDbLine
10
309.68419535088003
20
359.2789473684212
30
0
11
312.6841953508798
21
359.2789473684212
31
0
0
LINE
5
170
100
AcDbEntity
8
0
100
AcDbLine
10
94.105247982458877
20
317.07894572975886
30
0
11
94.105247982458877
21
320.07894572975886
31
0
0
LINE
5
171
100
AcDbEntity
8
0
100
AcDbLine
10
297.99998482456419
20
320.07894572975897
30
0
11
297.99998482456419
21
317.07894572975908
31
0
0
LINE
5
172
100
AcDbEntity
8
0
100
AcDbLine
10
109.78945850877466
20
366.07894736842093
30
0
11
94.105247982458877
21
366.07894736842093
31
0
0
LINE
5
173
100
AcDbEntity
8
0
100
AcDbLine
10
282.31577429824836
20
369.0789473684211
30
0
11
266.63156377193246
21
369.0789473684211
31
0
0
LINE
5
174
100
AcDbEntity
8
0
100
AcDbLine
10
282.31577429824836
20
320.07894572975897
30
0
11
297.99998482456419
21
320.07894572975897
31
0
0
LINE
5
175
100
AcDbEntity
8
0
100
AcDbLine
10
309.68419535088003
20
337.67894736842106
30
0
11
312.6841953508798
21
337.67894736842106
31
0
0
LINE
5
176
100
AcDbEntity
8
0
100
AcDbLine
10
309.68419535088003
20
348.47894736842107
30
0
11
309.68419535088003
21
359.2789473684212
31
0
0
LINE
5
177
100
AcDbEntity
8
0
100
AcDbLine
10
172.52630061403789
20
320.07894572975886
30
0
11
172.52630061403789
21
317.07894572975897
31
0
0
LINE
5
178
100
AcDbEntity
8
0
100
AcDbLine
10
94.105247982458877
20
366.07894736842093
30
0
11
94.105247982458877
21
369.07894736842087
31
0
0
LINE
5
179
100
AcDbEntity
8
0
100
AcDbLine
10
203.89472166666934
20
317.07894572975908
30
0
11
219.57893219298512
21
317.07894572975908
31
0
0
LINE
5
180
100
AcDbEntity
8
0
100
AcDbLine
10
297.99998482456419
20
317.07894572975908
30
0
11
312.68419535087992
21
317.07894572975908
31
0
0
LINE
5
181
100
AcDbEntity
8
0
100
AcDbLine
10
109.78945850877466
20
320.07894572975886
30
0
11
109.78945850877466
21
317.07894572975886
31
0
0
LINE
5
182
100
AcDbEntity
8
0
100
AcDbLine
10
297.99998482456408
20
366.07894736842121
30
0
11
282.31577429824836
21
366.07894736842121
31
0
0
LINE
5
183
100
AcDbEntity
8
0
100
AcDbLine
10
312.6841953508798
20
337.67894736842106
30
0
11
312.6841953508798
21
348.47894736842107
31
0
0
LINE
5
184
100
AcDbEntity
8
0
100
AcDbLine
10
62.736826929827316
20
366.07894736842093
30
0
11
62.736826929827316
21
369.07894736842087
31
0
0
LINE
5
185
100
AcDbEntity
8
0
100
AcDbLine
10
282.31577429824836
20
317.07894572975908
30
0
11
282.31577429824836
21
320.07894572975897
31
0
0
LINE
5
186
100
AcDbEntity
8
0
100
AcDbLine
10
109.78945850877466
20
369.07894736842087
30
0
11
109.78945850877466
21
366.07894736842093
31
0
0
LINE
5
187
100
AcDbEntity
8
0
100
AcDbLine
10
125.47366903509052
20
320.07894572975886
30
0
11
141.15787956140628
21
320.07894572975886
31
0
0
LINE
5
188
100
AcDbEntity
8
0
100
AcDbLine
10
235.26314271930096
20
320.07894572975897
30
0
11
235.26314271930096
21
317.07894572975908
31
0
0
LINE
5
189
100
AcDbEntity
8
0
100
AcDbLine
10
312.6841953508798
20
369.0789473684211
30
0
11
297.31577593691043
21
369.0789473684211
31
0
0
LINE
5
190
100
AcDbEntity
8
0
100
AcDbLine
10
94.105247982458877
20
369.07894736842087
30
0
11
78.421037456143097
21
369.07894736842087
31
0
0
LINE
5
191
100
AcDbEntity
8
0
100
AcDbLine
10
31.368405877195684
20
320.07894572975886
30
0
11
47.052616403511543
21
320.07894572975886
31
0
0
LINE
5
192
100
AcDbEntity
8
0
100
AcDbLine
10
266.63156377193246
20
317.07894572975908
30
0
11
282.31577429824836
21
317.07894572975908
31
0
0
LINE
5
193
100
AcDbEntity
8
0
100
AcDbLine
10
31.368405877195684
20
369.07894736842087
30
0
11
16.68418181410614
21
369.07894736842087
31
0
0
LINE
5
194
100
AcDbEntity
8
0
100
AcDbLine
10
47.052616403511543
20
366.07894736842093
30
0
11
31.368405877195684
21
366.07894736842093
31
0
0
LWPOLYLINE
5
195
100
AcDbEntity
8
0
100
AcDbPolyline
90
84
70
1
43
0.0
10
379.75835077479729
20
171.05023659270032
10
382.75835077479735
20
171.05023659270032
10
382.75835077479735
20
155.36623659270037
10
379.75835077479729
20
155.36623659270037
10
379.75835077479729
20
139.68223659270029
10
382.75835077479735
20
139.68223659270029
10
382.75835077479735
20
123.99823659270029
10
379.75835077479729
20
123.99823659270029
10
379.75835077479729
20
108.31423659270031
10
382.75835077479735
20
108.31423659270031
10
382.75835077479735
20
92.630236592700442
10
379.75835077479729
20
92.630236592700442
10
379.75835077479729
20
76.946236592700259
10
382.75835077479735
20
76.946236592700259
10
382.75835077479735
20
61.262236592700326
10
379.75835077479729
20
61.262236592700326
10
379.75835077479729
20
45.578236592700321
10
382.75835077479735
20
45.578236592700321
10
382.75835077479735
20
18.210026066384565
10
389.55835241345937
20
18.210026066384565
10
389.55835241345937
20
15.210039603158211
10
400.35835241345927
20
15.210039603158211
10
400.35835241345927
20
18.210026066384565
10
411.1583524134594
20
18.210026066384565
10
411.1583524134594
20
15.210039603158211
10
421.95835241345947
20
15.210039603158215
10
421.95835241345947
20
18.210026066384565
10
428.75835241345925
20
18.210026066384568
10
428.75835241345925
20
45.578236592700321
10
431.75835241345931
20
45.578236592700321
10
431.75835241345931
20
61.262236592700326
10
428.75835241345925
20
61.262236592700326
10
428.75835241345925
20
76.946236592700259
10
431.75835241345931
20
76.946236592700259
10
431.75835241345931
20
92.630236592700442
10
428.75835241345925
20
92.630236592700442
10
428.75835241345925
20
108.31423659270031
10
431.75835241345919
20
108.31423659270031
10
431.75835241345919
20
123.99823659270029
10
428.75835241345925
20
123.99823659270029
10
428.75835241345925
20
139.68223659270029
10
431.75835241345919
20
139.68223659270029
10
431.75835241345919
20
155.36623659270037
10
428.75835241345925
20
155.36623659270037
10
428.75835241345925
20
171.05023659270032
10
431.75835241345919
20
171.05023659270032
10
431.75835241345919
20
186.73423659270028
10
428.75835241345925
20
186.73423659270028
10
428.75835241345925
20
202.4182365927004
10
431.75835241345919
20
202.4182365927004
10
431.75835241345919
20
218.10223659270022
10
428.75835241345925
20
218.10223659270022
10
428.75835241345925
20
233.78623659270033
10
431.75835241345919
20
233.78623659270033
10
431.75835241345919
20
249.47023659270027
10
428.75835241345925
20
249.47023659270027
10
428.75835241345925
20
265.15423659270022
10
431.75835241345919
20
265.15423659270022
10
431.75835241345919
20
280.8382365927003
10
428.75835241345925
20
280.8382365927003
10
428.75835241345925
20
308.21003960315807
10
421.95835241345918
20
308.21003960315795
10
421.95835241345918
20
311.2100396031579
10
411.15835241345917
20
311.2100396031579
10
411.15835241345917
20
308.21003960315795
10
400.35835241345922
20
308.21003960315795
10
400.35835241345922
20
311.2100396031579
10
389.55835241345932
20
311.2100396031579
10
389.55835241345932
20
308.21003960315795
10
382.75835077479712
20
308.21003960315795
10
382.75835077479724
20
280.8382365927003
10
379.75835077479729
20
280.8382365927003
10
379.75835077479729
20
265.15423659270022
10
382.75835077479735
20
265.15423659270022
10
382.75835077479735
20
249.47023659270027
10
379.75835077479729
20
249.47023659270027
10
379.75835077479729
20
233.78623659270033
10
382.75835077479735
20
233.78623659270033
10
382.75835077479735
20
218.10223659270022
10
379.75835077479729
20
218.10223659270022
10
379.75835077479729
20
202.4182365927004
10
382.75835077479735
20
202.4182365927004
10
382.75835077479735
20
186.73423659270028
10
379.75835077479729
20
186.73423659270028
0
LINE
5
196
100
AcDbEntity
8
0
100
AcDbLine
10
16.68418181410614
20
317.07894572975886
30
0
11
31.368405877195684
21
317.07894572975886
31
0
0
LINE
5
197
100
AcDbEntity
8
0
100
AcDbLine
10
16.68418181410614
20
369.07894736842087
30
0
11
16.68418181410614
21
359.27894736842097
31
0
0
LINE
5
198
100
AcDbEntity
8
0
100
AcDbLine
10
266.63156377193246
20
320.07894572975897
30
0
11
266.63156377193246
21
317.07894572975908
31
0
0
LINE
5
199
100
AcDbEntity
8
0
100
AcDbLine
10
172.52630061403789
20
369.07894736842087
30
0
11
172.52630061403789
21
366.07894736842093
31
0
0
LINE
5
200
100
AcDbEntity
8
0
100
AcDbLine
10
156.84209008772206
20
366.07894736842093
30
0
11
156.84209008772206
21
369.07894736842087
31
0
0
LINE
5
201
100
AcDbEntity
8
0
100
AcDbLine
10
31.368405877195684
20
317.07894572975886
30
0
11
31.368405877195684
21
320.07894572975886
31
0
0
LINE
5
202
100
AcDbEntity
8
0
100
AcDbLine
10
19.684181814106051
20
348.47894736842085
30
0
11
16.68418181410614
21
348.47894736842085
31
0
0
LINE
5
203
100
AcDbEntity
8
0
100
AcDbLine
10
16.68418181410614
20
326.87894736842105
30
0
11
16.68418181410614
21
317.07894572975886
31
0
0
LINE
5
204
100
AcDbEntity
8
0
100
AcDbLine
10
19.684181814106051
20
326.87894736842105
30
0
11
16.68418181410614
21
326.87894736842105
31
0
0
LWPOLYLINE
5
205
100
AcDbEntity
8
0
100
AcDbPolyline
90
84
70
1
43
0.0
10
486.86877653855078
20
61.276504449800555
10
486.86877653855078
20
76.960504449800453
10
489.86877653855083
20
76.960504449800453
10
489.86877653855083
20
92.644504449800507
10
486.86877653855078
20
92.644504449800507
10
486.86877653855078
20
108.32850444980045
10
489.86877653855072
20
108.32850444980045
10
489.86877653855083
20
124.01250444980036
10
486.868776538551
20
124.01250444980036
10
486.868776538551
20
139.69650444980033
10
489.86877653855083
20
139.69650444980033
10
489.86877653855083
20
155.38050444980033
10
486.868776538551
20
155.38050444980033
10
486.868776538551
20
171.06450444980021
10
489.86877653855083
20
171.06450444980021
10
489.86877653855083
20
186.74850444980012
10
486.868776538551
20
186.74850444980012
10
486.868776538551
20
202.43250444980015
10
489.86877653855083
20
202.43250444980015
10
489.86877653855083
20
218.11650444980003
10
486.868776538551
20
218.11650444980003
10
486.868776538551
20
233.8005044498
10
489.86877653855083
20
233.8005044498
10
489.86877653855083
20
249.48450444979989
10
486.868776538551
20
249.48450444979989
10
486.868776538551
20
265.1685044497998
10
489.86877653855083
20
265.1685044497998
10
489.86877653855083
20
280.85250444979982
10
486.868776538551
20
280.85250444979982
10
486.868776538551
20
308.22430746025759
10
480.06877653855094
20
308.22430746025748
10
480.06877653855094
20
311.22430746025759
10
469.26877653855087
20
311.22430746025759
10
469.26877653855087
20
308.22430746025748
10
458.46877653855103
20
308.22430746025748
10
458.46877653855103
20
311.22430746025759
10
447.66877653855101
20
311.22430746025759
10
447.66877653855101
20
308.22430746025748
10
440.86877489988888
20
308.22430746025748
10
440.86877489988888
20
280.85250444979988
10
437.86877489988899
20
280.85250444979988
10
437.86877489988899
20
265.16850444979985
10
440.86877489988893
20
265.16850444979985
10
440.86877489988893
20
249.48450444979997
10
437.86877489988899
20
249.48450444979997
10
437.86877489988899
20
233.8005044498
10
440.86877489988893
20
233.8005044498
10
440.86877489988893
20
218.11650444980003
10
437.86877489988899
20
218.11650444980003
10
437.86877489988899
20
202.43250444980015
10
440.86877489988893
20
202.43250444980015
10
440.86877489988893
20
186.74850444980012
10
437.8687748998891
20
186.74850444980012
10
437.8687748998891
20
171.06450444980024
10
440.86877489988893
20
171.06450444980024
10
440.86877489988893
20
155.38050444980038
10
437.8687748998891
20
155.38050444980038
10
437.8687748998891
20
139.69650444980036
10
440.86877489988893
20
139.69650444980036
10
440.86877489988893
20
124.01250444980036
10
437.8687748998891
20
124.01250444980036
10
437.86877489988899
20
108.32850444980046
10
440.86877489988888
20
108.32850444980046
10
440.86877489988888
20
92.644504449800564
10
437.86877489988899
20
92.644504449800564
10
437.86877489988899
20
76.960504449800482
10
440.86877489988888
20
76.960504449800482
10
440.86877489988888
20
61.276504449800598
10
437.86877489988899
20
61.276504449800598
10
437.86877489988899
20
45.592504449800614
10
440.86877489988888
20
45.592504449800614
10
440.86877489988888
20
18.22429392348495
10
447.66877653855101
20
18.224293923484932
10
447.66877653855101
20
15.224307460258588
10
458.46877653855103
20
15.224307460258588
10
458.46877653855103
20
18.224293923484932
10
469.26877653855087
20
18.224293923484925
10
469.26877653855087
20
15.224307460258579
10
480.06877653855094
20
15.224307460258579
10
480.06877653855094
20
18.224293923484925
10
486.868776538551
20
18.224293923484929
10
486.868776538551
20
45.592504449800579
10
489.86877653855083
20
45.592504449800579
10
489.86877653855083
20
61.276504449800555
0
LINE
5
206
100
AcDbEntity
8
0
100
AcDbLine
10
77.7368285684895
20
309.00000216066837
30
0
11
77.7368285684895
21
312.00000216066832
31
0
0
LINE
5
207
100
AcDbEntity
8
0
100
AcDbLine
10
18.999997839331613
20
203.20819698954216
30
0
11
15.999997839331627
21
203.20819698954216
31
0
0
LINE
5
208
100
AcDbEntity
8
0
100
AcDbLine
10
30.684196989542158
20
312.00000216066832
30
0
11
30.684196989542158
21
309.00000216066837
31
0
0
LINE
5
209
100
AcDbEntity
8
0
100
AcDbLine
10
77.7368285684895
20
312.00000216066832
30
0
11
62.052618042173719
21
312.00000216066832
31
0
0
LINE
5
210
100
AcDbEntity
8
0
100
AcDbLine
10
15.999997839331627
20
140.47219698954217
30
0
11
15.999997839331627
21
124.78819698954214
31
0
0
LINE
5
211
100
AcDbEntity
8
0
100
AcDbLine
10
30.684196989542158
20
309.00000216066837
30
0
11
14.999986463226378
21
309.00000216066837
31
0
0
LINE
5
212
100
AcDbEntity
8
0
100
AcDbLine
10
18.999997839331613
20
234.57619698954215
30
0
11
15.999997839331627
21
234.57619698954215
31
0
0
LINE
5
213
100
AcDbEntity
8
0
100
AcDbLine
10
15.999997839331627
20
218.89219698954213
30
0
11
18.999997839331613
21
218.89219698954213
31
0
0
LINE
5
214
100
AcDbEntity
8
0
100
AcDbLine
10
15.999997839331627
20
187.52419698954216
30
0
11
18.999997839331613
21
187.52419698954216
31
0
0
LINE
5
215
100
AcDbEntity
8
0
100
AcDbLine
10
18.999997839331613
20
156.15619698954217
30
0
11
18.999997839331613
21
140.47219698954217
31
0
0
LINE
5
216
100
AcDbEntity
8
0
100
AcDbLine
10
18.999997839331613
20
250.26019698954215
30
0
11
18.999997839331613
21
234.57619698954215
31
0
0
LINE
5
217
100
AcDbEntity
8
0
100
AcDbLine
10
18.999997839331613
20
187.52419698954216
30
0
11
18.999997839331613
21
171.84019698954216
31
0
0
LINE
5
218
100
AcDbEntity
8
0
100
AcDbLine
10
62.052618042173719
20
312.00000216066832
30
0
11
62.052618042173719
21
309.00000216066837
31
0
0
LINE
5
219
100
AcDbEntity
8
0
100
AcDbLine
10
18.999997839331613
20
281.62819698954218
30
0
11
18.999997839331613
21
265.94419698954215
31
0
0
LINE
5
220
100
AcDbEntity
8
0
100
AcDbLine
10
15.999997839331627
20
265.94419698954215
30
0
11
15.999997839331627
21
250.26019698954215
31
0
0
LINE
5
221
100
AcDbEntity
8
0
100
AcDbLine
10
18.999997839331613
20
265.94419698954215
30
0
11
15.999997839331627
21
265.94419698954215
31
0
0
LINE
5
222
100
AcDbEntity
8
0
100
AcDbLine
10
15.999997839331627
20
250.26019698954215
30
0
11
18.999997839331613
21
250.26019698954215
31
0
0
LINE
5
223
100
AcDbEntity
8
0
100
AcDbLine
10
15.999997839331627
20
171.84019698954216
30
0
11
15.999997839331627
21
156.15619698954217
31
0
0
LINE
5
224
100
AcDbEntity
8
0
100
AcDbLine
10
15.999997839331627
20
234.57619698954215
30
0
11
15.999997839331627
21
218.89219698954213
31
0
0
LINE
5
225
100
AcDbEntity
8
0
100
AcDbLine
10
15.999997839331627
20
203.20819698954216
30
0
11
15.999997839331627
21
187.52419698954216
31
0
0
LINE
5
226
100
AcDbEntity
8
0
100
AcDbLine
10
93.42103909480528
20
309.00000216066837
30
0
11
77.7368285684895
21
309.00000216066837
31
0
0
LINE
5
227
100
AcDbEntity
8
0
100
AcDbLine
10
18.999997839331613
20
140.47219698954217
30
0
11
15.999997839331627
21
140.47219698954217
31
0
0
LINE
5
228
100
AcDbEntity
8
0
100
AcDbLine
10
18.999997839331613
20
171.84019698954216
30
0
11
15.999997839331627
21
171.84019698954216
31
0
0
LINE
5
229
100
AcDbEntity
8
0
100
AcDbLine
10
46.368407515857932
20
312.00000216066832
30
0
11
30.684196989542158
21
312.00000216066832
31
0
0
LINE
5
230
100
AcDbEntity
8
0
100
AcDbLine
10
62.052618042173719
20
309.00000216066837
30
0
11
46.368407515857932
21
309.00000216066837
31
0
0
LINE
5
231
100
AcDbEntity
8
0
100
AcDbLine
10
265.94735488427887
20
16
30
0
11
265.94735488427887
21
19.000002160668323
31
0
0
LINE
5
232
100
AcDbEntity
8
0
100
AcDbLine
10
218.89472330533152
20
309.00000216066837
30
0
11
203.21051277901574
21
309.00000216066837
31
0
0
LINE
5
233
100
AcDbEntity
8
0
100
AcDbLine
10
311.99999783933163
20
218.89219698954213
30
0
11
311.99999999999994
21
234.57619698954215
31
0
0
LINE
5
234
100
AcDbEntity
8
0
100
AcDbLine
10
308.99999783933168
20
93.420196989542163
30
0
11
311.99999783933163
21
93.420196989542163
31
0
0
LINE
5
235
100
AcDbEntity
8
0
100
AcDbLine
10
15.999997839331627
20
156.15619698954217
30
0
11
18.999997839331613
21
156.15619698954217
31
0
0
LINE
5
236
100
AcDbEntity
8
0
100
AcDbLine
10
308.99999783933168
20
281.62819698954218
30
0
11
311.99999783933163
21
281.62819698954218
31
0
0
LINE
5
237
100
AcDbEntity
8
0
100
AcDbLine
10
140.47367067375262
20
16
30
0
11
140.47367067375262
21
19.000002160668323
31
0
0
LINE
5
238
100
AcDbEntity
8
0
100
AcDbLine
10
124.78946014743684
20
309.00000216066837
30
0
11
109.10524962112106
21
309.00000216066837
31
0
0
LINE
5
239
100
AcDbEntity
8
0
100
AcDbLine
10
308.99999783933168
20
265.94419698954215
30
0
11
308.99999783933168
21
281.62819698954218
31
0
0
LINE
5
240
100
AcDbEntity
8
0
100
AcDbLine
10
265.94735488427887
20
19.000002160668323
30
0
11
281.63156541059465
21
19.000002160668323
31
0
0
LINE
5
241
100
AcDbEntity
8
0
100
AcDbLine
10
281.63156541059465
20
16.000002160668338
30
0
11
297.31577593691043
21
16
31
0
0
LINE
5
242
100
AcDbEntity
8
0
100
AcDbLine
10
109.10524962112106
20
312.00000216066832
30
0
11
93.42103909480528
21
312.00000216066832
31
0
0
LINE
5
243
100
AcDbEntity
8
0
100
AcDbLine
10
311.99999783933163
20
281.62819698954218
30
0
11
311.99999999999994
21
309.00000216066837
31
0
0
LINE
5
244
100
AcDbEntity
8
0
100
AcDbLine
10
140.47367067375262
20
312.00000216066832
30
0
11
124.78946014743684
21
312.00000216066832
31
0
0
LINE
5
245
100
AcDbEntity
8
0
100
AcDbLine
10
62.052618042173719
20
19.000002160668323
30
0
11
62.052618042173719
21
16.000002160668338
31
0
0
LINE
5
246
100
AcDbEntity
8
0
100
AcDbLine
10
93.42103909480528
20
19.000002160668323
30
0
11
93.42103909480528
21
16.000002160668338
31
0
0
LINE
5
247
100
AcDbEntity
8
0
100
AcDbLine
10
77.7368285684895
20
16
30
0
11
77.7368285684895
21
19.000002160668323
31
0
0
LINE
5
248
100
AcDbEntity
8
0
100
AcDbLine
10
308.99999783933168
20
250.26019698954215
30
0
11
311.99999783933163
21
250.26019698954215
31
0
0
LINE
5
249
100
AcDbEntity
8
0
100
AcDbLine
10
18.999997839331613
20
218.89219698954213
30
0
11
18.999997839331613
21
203.20819698954216
31
0
0
LINE
5
250
100
AcDbEntity
8
0
100
AcDbLine
10
308.99999783933168
20
77.736196989542123
30
0
11
308.99999783933168
21
93.420196989542163
31
0
0
LINE
5
251
100
AcDbEntity
8
0
100
AcDbLine
10
234.5789338316473
20
312.00000216066832
30
0
11
218.89472330533152
21
312.00000216066832
31
0
0
LINE
5
252
100
AcDbEntity
8
0
100
AcDbLine
10
250.26314435796311
20
19.000002160668323
30
0
11
250.26314435796311
21
16.000002160668338
31
0
0
LINE
5
253
100
AcDbEntity
8
0
100
AcDbLine
10
124.78946014743684
20
312.00000216066832
30
0
11
124.78946014743684
21
309.00000216066837
31
0
0
LINE
5
254
100
AcDbEntity
8
0
100
AcDbLine
10
311.99999999999994
20
46.368196989542163
30
0
11
308.99999783933168
21
46.368196989542163
31
0
0
LINE
5
255
100
AcDbEntity
8
0
100
AcDbLine
10
234.5789338316473
20
19.000002160668323
30
0
11
250.26314435796311
21
19.000002160668323
31
0
0
LINE
5
256
100
AcDbEntity
8
0
100
AcDbLine
10
311.99999999999994
20
234.57619698954215
30
0
11
308.99999783933168
21
234.57619698954215
31
0
0
LINE
5
257
100
AcDbEntity
8
0
100
AcDbLine
10
308.99999783933168
20
234.57619698954215
30
0
11
308.99999783933168
21
250.26019698954215
31
0
0
LINE
5
258
100
AcDbEntity
8
0
100
AcDbLine
10
15.999997839331627
20
309.00000216066837
30
0
11
15.999997839331627
21
281.62819698954218
31
0
0
LINE
5
259
100
AcDbEntity
8
0
100
AcDbLine
10
308.99999783933168
20
171.84019698954216
30
0
11
308.99999783933168
21
187.52419698954216
31
0
0
LINE
5
260
100
AcDbEntity
8
0
100
AcDbLine
10
308.99999783933168
20
19.000002160668359
30
0
11
311.99999999999994
21
19.000002160668327
31
0
0
LINE
5
261
100
AcDbEntity
8
0
100
AcDbLine
10
311.99999999999994
20
265.94419698954215
30
0
11
308.99999783933168
21
265.94419698954215
31
0
0
LINE
5
262
100
AcDbEntity
8
0
100
AcDbLine
10
218.89472330533152
20
312.00000216066832
30
0
11
218.89472330533152
21
309.00000216066837
31
0
0
LINE
5
263
100
AcDbEntity
8
0
100
AcDbLine
10
46.368407515857932
20
309.00000216066837
30
0
11
46.368407515857932
21
312.00000216066832
31
0
0
LINE
5
264
100
AcDbEntity
8
0
100
AcDbLine
10
140.47367067375262
20
19.000002160668323
30
0
11
156.1578812000684
21
19.000002160668323
31
0
0
LINE
5
265
100
AcDbEntity
8
0
100
AcDbLine
10
46.368407515857932
20
19.000002160668323
30
0
11
62.052618042173719
21
19.000002160668323
31
0
0
LINE
5
266
100
AcDbEntity
8
0
100
AcDbLine
10
311.99999783933163
20
93.420196989542163
30
0
11
311.99999999999994
21
109.10419698954216
31
0
0
LINE
5
267
100
AcDbEntity
8
0
100
AcDbLine
10
308.99999783933168
20
124.78819698954214
30
0
11
311.99999783933163
21
124.78819698954214
31
0
0
LINE
5
268
100
AcDbEntity
8
0
100
AcDbLine
10
156.1578812000684
20
312.00000216066832
30
0
11
156.1578812000684
21
309.00000216066837
31
0
0
LINE
5
269
100
AcDbEntity
8
0
100
AcDbLine
10
93.42103909480528
20
16.000002160668338
30
0
11
109.10524962112106
21
16
31
0
0
LINE
5
270
100
AcDbEntity
8
0
100
AcDbLine
10
171.84209172638421
20
16
30
0
11
171.84209172638421
21
19.000002160668323
31
0
0
LINE
5
271
100
AcDbEntity
8
0
100
AcDbLine
10
140.47367067375262
20
309.00000216066837
30
0
11
140.47367067375262
21
312.00000216066832
31
0
0
LINE
5
272
100
AcDbEntity
8
0
100
AcDbLine
10
156.1578812000684
20
19.000002160668323
30
0
11
156.1578812000684
21
16.000002160668338
31
0
0
LINE
5
273
100
AcDbEntity
8
0
100
AcDbLine
10
171.84209172638421
20
312.00000216066832
30
0
11
156.1578812000684
21
312.00000216066832
31
0
0
LINE
5
274
100
AcDbEntity
8
0
100
AcDbLine
10
93.42103909480528
20
312.00000216066832
30
0
11
93.42103909480528
21
309.00000216066837
31
0
0
LINE
5
275
100
AcDbEntity
8
0
100
AcDbLine
10
15.999997839331627
20
281.62819698954218
30
0
11
18.999997839331613
21
281.62819698954218
31
0
0
LINE
5
276
100
AcDbEntity
8
0
100
AcDbLine
10
311.99999783933163
20
250.26019698954215
30
0
11
311.99999999999994
21
265.94419698954215
31
0
0
LINE
5
277
100
AcDbEntity
8
0
100
AcDbLine
10
203.21051277901574
20
312.00000216066832
30
0
11
187.52630225269999
21
312.00000216066832
31
0
0
LINE
5
278
100
AcDbEntity
8
0
100
AcDbLine
10
308.99999783933168
20
109.10419698954216
30
0
11
308.99999783933168
21
124.78819698954214
31
0
0
LINE
5
279
100
AcDbEntity
8
0
100
AcDbLine
10
250.26314435796311
20
16.000002160668338
30
0
11
265.94735488427887
21
16
31
0
0
LINE
5
280
100
AcDbEntity
8
0
100
AcDbLine
10
234.5789338316473
20
16
30
0
11
234.5789338316473
21
19.000002160668323
31
0
0
LINE
5
281
100
AcDbEntity
8
0
100
AcDbLine
10
124.78946014743684
20
19.000002160668323
30
0
11
124.78946014743684
21
16.000002160668338
31
0
0
LINE
5
282
100
AcDbEntity
8
0
100
AcDbLine
10
187.52630225269999
20
312.00000216066832
30
0
11
187.52630225269999
21
309.00000216066837
31
0
0
LINE
5
283
100
AcDbEntity
8
0
100
AcDbLine
10
311.99999783933163
20
124.78819698954214
30
0
11
311.99999999999994
21
140.47219698954217
31
0
0
LINE
5
284
100
AcDbEntity
8
0
100
AcDbLine
10
109.10524962112106
20
19.000002160668323
30
0
11
124.78946014743684
21
19.000002160668323
31
0
0
LINE
5
285
100
AcDbEntity
8
0
100
AcDbLine
10
109.10524962112106
20
16
30
0
11
109.10524962112106
21
19.000002160668323
31
0
0
LINE
5
286
100
AcDbEntity
8
0
100
AcDbLine
10
109.10524962112106
20
309.00000216066837
30
0
11
109.10524962112106
21
312.00000216066832
31
0
0
LINE
5
287
100
AcDbEntity
8
0
100
AcDbLine
10
297.31577593691043
20
16
30
0
11
297.31577593691043
21
19.000002160668323
31
0
0
LINE
5
288
100
AcDbEntity
8
0
100
AcDbLine
10
187.52630225269999
20
309.00000216066837
30
0
11
171.84209172638421
21
309.00000216066837
31
0
0
LINE
5
289
100
AcDbEntity
8
0
100
AcDbLine
10
311.99999999999994
20
109.10419698954216
30
0
11
308.99999783933168
21
109.10419698954216
31
0
0
LINE
5
290
100
AcDbEntity
8
0
100
AcDbLine
10
62.052618042173719
20
16.000002160668338
30
0
11
77.7368285684895
21
16
31
0
0
LINE
5
291
100
AcDbEntity
8
0
100
AcDbLine
10
124.78946014743684
20
16.000002160668338
30
0
11
140.47367067375262
21
16
31
0
0
LINE
5
292
100
AcDbEntity
8
0
100
AcDbLine
10
15.999997839331627
20
93.420196989542163
30
0
11
18.999997839331613
21
93.420196989542163
31
0
0
LINE
5
293
100
AcDbEntity
8
0
100
AcDbLine
10
308.99999783933168
20
46.368196989542163
30
0
11
308.99999783933168
21
62.052196989542168
31
0
0
LINE
5
294
100
AcDbEntity
8
0
100
AcDbLine
10
156.1578812000684
20
16.000002160668338
30
0
11
171.84209172638421
21
16
31
0
0
LINE
5
295
100
AcDbEntity
8
0
100
AcDbLine
10
156.1578812000684
20
309.00000216066837
30
0
11
140.47367067375262
21
309.00000216066837
31
0
0
LINE
5
296
100
AcDbEntity
8
0
100
AcDbLine
10
250.9473532456168
20
369.0789473684211
30
0
11
235.26314271930096
21
369.0789473684211
31
0
0
LINE
5
297
100
AcDbEntity
8
0
100
AcDbLine
10
30.684196989542158
20
16.000002160668338
30
0
11
46.368407515857932
21
16
31
0
0
LINE
5
298
100
AcDbEntity
8
0
100
AcDbLine
10
15.999997839331627
20
46.368196989542163
30
0
11
15.999997839331627
21
19.000002160668323
31
0
0
LINE
5
299
100
AcDbEntity
8
0
100
AcDbLine
10
171.84209172638421
20
19.000002160668323
30
0
11
187.52630225269999
21
19.000002160668323
31
0
0
LINE
5
300
100
AcDbEntity
8
0
100
AcDbLine
10
250.26314435796311
20
312.00000216066832
30
0
11
250.26314435796311
21
309.00000216066837
31
0
0
LINE
5
301
100
AcDbEntity
8
0
100
AcDbLine
10
125.47366903509052
20
369.07894736842087
30
0
11
109.78945850877466
21
369.07894736842087
31
0
0
LINE
5
302
100
AcDbEntity
8
0
100
AcDbLine
10
141.15787956140628
20
320.07894572975886
30
0
11
141.15787956140628
21
317.07894572975897
31
0
0
LINE
5
303
100
AcDbEntity
8
0
100
AcDbLine
10
266.63156377193246
20
366.07894736842121
30
0
11
250.9473532456168
21
366.07894736842093
31
0
0
LINE
5
304
100
AcDbEntity
8
0
100
AcDbLine
10
18.999997839331613
20
62.052196989542168
30
0
11
18.999997839331613
21
46.368196989542163
31
0
0
LINE
5
305
100
AcDbEntity
8
0
100
AcDbLine
10
281.63156541059465
20
19.000002160668323
30
0
11
281.63156541059465
21
16.000002160668338
31
0
0
LINE
5
306
100
AcDbEntity
8
0
100
AcDbLine
10
77.7368285684895
20
19.000002160668323
30
0
11
93.42103909480528
21
19.000002160668323
31
0
0
LINE
5
307
100
AcDbEntity
8
0
100
AcDbLine
10
311.99999999999994
20
309.00000216066837
30
0
11
308.99999783933168
21
309.00000216066837
31
0
0
LINE
5
308
100
AcDbEntity
8
0
100
AcDbLine
10
203.89472166666934
20
366.07894736842093
30
0
11
188.21051114035359
21
366.07894736842093
31
0
0
LINE
5
309
100
AcDbEntity
8
0
100
AcDbLine
10
281.63156541059465
20
309.00000216066837
30
0
11
265.94735488427887
21
309.00000216066837
31
0
0
LINE
5
310
100
AcDbEntity
8
0
100
AcDbLine
10
281.63156541059465
20
312.00000216066832
30
0
11
281.63156541059465
21
309.00000216066837
31
0
0
LINE
5
311
100
AcDbEntity
8
0
100
AcDbLine
10
30.684196989542158
20
19.000002160668323
30
0
11
30.684196989542158
21
16.000002160668338
31
0
0
LINE
5
312
100
AcDbEntity
8
0
100
AcDbLine
10
15.999997839331627
20
77.736196989542123
30
0
11
15.999997839331627
21
62.052196989542168
31
0
0
LINE
5
313
100
AcDbEntity
8
0
100
AcDbLine
10
311.99999999999994
20
77.736196989542123
30
0
11
308.99999783933168
21
77.736196989542123
31
0
0
LINE
5
314
100
AcDbEntity
8
0
100
AcDbLine
10
250.26314435796311
20
309.00000216066837
30
0
11
234.5789338316473
21
309.00000216066837
31
0
0
LINE
5
315
100
AcDbEntity
8
0
100
AcDbLine
10
218.89472330533152
20
16.000002160668338
30
0
11
234.5789338316473
21
16
31
0
0
LINE
5
316
100
AcDbEntity
8
0
100
AcDbLine
10
18.999997839331613
20
19.000002160668359
30
0
11
30.684196989542158
21
19.000002160668323
31
0
0
LINE
5
317
100
AcDbEntity
8
0
100
AcDbLine
10
18.999997839331613
20
93.420196989542163
30
0
11
18.999997839331613
21
77.736196989542123
31
0
0
LINE
5
318
100
AcDbEntity
8
0
100
AcDbLine
10
156.84209008772206
20
317.07894572975897
30
0
11
156.84209008772206
21
320.07894572975886
31
0
0
LINE
5
319
100
AcDbEntity
8
0
100
AcDbLine
10
308.99999783933168
20
309.00000216066837
30
0
11
297.31577593691043
21
309.00000216066837
31
0
0
LINE
5
320
100
AcDbEntity
8
0
100
AcDbLine
10
308.99999783933168
20
156.15619698954217
30
0
11
311.99999783933163
21
156.15619698954217
31
0
0
LINE
5
321
100
AcDbEntity
8
0
100
AcDbLine
10
297.31577593691043
20
312.00000216066832
30
0
11
281.63156541059465
21
312.00000216066832
31
0
0
LINE
5
322
100
AcDbEntity
8
0
100
AcDbLine
10
311.99999999999994
20
19.000002160668327
30
0
11
311.99999999999994
21
46.368196989542163
31
0
0
LINE
5
323
100
AcDbEntity
8
0
100
AcDbLine
10
15.999997839331627
20
62.052196989542168
30
0
11
18.999997839331613
21
62.052196989542168
31
0
0
LINE
5
324
100
AcDbEntity
8
0
100
AcDbLine
10
308.99999783933168
20
187.52419698954216
30
0
11
311.99999783933163
21
187.52419698954216
31
0
0
LINE
5
325
100
AcDbEntity
8
0
100
AcDbLine
10
171.84209172638421
20
309.00000216066837
30
0
11
171.84209172638421
21
312.00000216066832
31
0
0
LINE
5
326
100
AcDbEntity
8
0
100
AcDbLine
10
308.99999783933168
20
62.052196989542168
30
0
11
311.99999783933163
21
62.052196989542168
31
0
0
LINE
5
327
100
AcDbEntity
8
0
100
AcDbLine
10
15.999997839331627
20
109.10419698954216
30
0
11
15.999997839331627
21
93.420196989542163
31
0
0
LINE
5
328
100
AcDbEntity
8
0
100
AcDbLine
10
308.99999783933168
20
218.89219698954213
30
0
11
311.99999783933163
21
218.89219698954213
31
0
0
LINE
5
329
100
AcDbEntity
8
0
100
AcDbLine
10
203.21051277901574
20
19.000002160668323
30
0
11
218.89472330533152
21
19.000002160668323
31
0
0
LINE
5
330
100
AcDbEntity
8
0
100
AcDbLine
10
18.999997839331613
20
109.10419698954216
30
0
11
15.999997839331627
21
109.10419698954216
31
0
0
LINE
5
331
100
AcDbEntity
8
0
100
AcDbLine
10
18.999997839331613
20
46.368196989542163
30
0
11
15.999997839331627
21
46.368196989542163
31
0
0
LINE
5
332
100
AcDbEntity
8
0
100
AcDbLine
10
203.21051277901574
20
16
30
0
11
203.21051277901574
21
19.000002160668323
31
0
0
LINE
5
333
100
AcDbEntity
8
0
100
AcDbLine
10
311.99999999999994
20
171.84019698954216
30
0
11
308.99999783933168
21
171.84019698954216
31
0
0
LINE
5
334
100
AcDbEntity
8
0
100
AcDbLine
10
311.99999999999994
20
203.20819698954216
30
0
11
308.99999783933168
21
203.20819698954216
31
0
0
LINE
5
335
100
AcDbEntity
8
0
100
AcDbLine
10
266.63156377193246
20
369.0789473684211
30
0
11
266.63156377193246
21
366.07894736842121
31
0
0
LINE
5
336
100
AcDbEntity
8
0
100
AcDbLine
10
297.31577593691043
20
309.00000216066837
30
0
11
297.31577593691043
21
312.00000216066832
31
0
0
LINE
5
337
100
AcDbEntity
8
0
100
AcDbLine
10
187.52630225269999
20
19.000002160668323
30
0
11
187.52630225269999
21
16.000002160668338
31
0
0
ENDSEC
0
SECTION
2
OBJECTS
0
DICTIONARY
5
C
100
AcDbDictionary
3
ACAD_GROUP
350
D
3
ACAD_MLINESTYLE
350
17
0
DICTIONARY
5
D
100
AcDbDictionary
0
DICTIONARY
5
1A
330
C
100
AcDbDictionary
0
DICTIONARY
5
17
100
AcDbDictionary
0
ENDSEC
0
EOF
