ISO-10303-21;
HEADER;
/* Generated by software containing ST-Developer
 * from STEP Tools, Inc. (www.steptools.com) 
 */

FILE_DESCRIPTION(
/* description */ (''),
/* implementation_level */ '2;1');

FILE_NAME(
/* name */ 
'/Users/tom/Dropbox/Mara/Budik/krabicka_peshi_components/sklo_2.step',
/* time_stamp */ '2020-04-15T00:32:31+02:00',
/* author */ (''),
/* organization */ (''),
/* preprocessor_version */ 'ST-DEVELOPER v18',
/* originating_system */ 'Autodesk Translation Framework v8.12.0.6',
/* authorisation */ '');

FILE_SCHEMA (('AUTOMOTIVE_DESIGN { 1 0 10303 214 3 1 1 }'));
ENDSEC;

DATA;
#10=MECHANICAL_DESIGN_GEOMETRIC_PRESENTATION_REPRESENTATION('',(#14,#15),
#184);
#11=SHAPE_REPRESENTATION_RELATIONSHIP('SRR','None',#191,#12);
#12=ADVANCED_BREP_SHAPE_REPRESENTATION('',(#13),#183);
#13=MANIFOLD_SOLID_BREP('sklo_2',#108);
#14=STYLED_ITEM('',(#201),#106);
#15=STYLED_ITEM('',(#200),#13);
#16=FACE_OUTER_BOUND('',#22,.T.);
#17=FACE_OUTER_BOUND('',#23,.T.);
#18=FACE_OUTER_BOUND('',#24,.T.);
#19=FACE_OUTER_BOUND('',#25,.T.);
#20=FACE_OUTER_BOUND('',#26,.T.);
#21=FACE_OUTER_BOUND('',#27,.T.);
#22=EDGE_LOOP('',(#72,#73,#74,#75));
#23=EDGE_LOOP('',(#76,#77,#78,#79));
#24=EDGE_LOOP('',(#80,#81,#82,#83));
#25=EDGE_LOOP('',(#84,#85,#86,#87));
#26=EDGE_LOOP('',(#88,#89,#90,#91));
#27=EDGE_LOOP('',(#92,#93,#94,#95));
#28=LINE('',#158,#40);
#29=LINE('',#160,#41);
#30=LINE('',#162,#42);
#31=LINE('',#163,#43);
#32=LINE('',#166,#44);
#33=LINE('',#168,#45);
#34=LINE('',#169,#46);
#35=LINE('',#172,#47);
#36=LINE('',#174,#48);
#37=LINE('',#175,#49);
#38=LINE('',#177,#50);
#39=LINE('',#178,#51);
#40=VECTOR('',#132,10.);
#41=VECTOR('',#133,10.);
#42=VECTOR('',#134,10.);
#43=VECTOR('',#135,10.);
#44=VECTOR('',#138,10.);
#45=VECTOR('',#139,10.);
#46=VECTOR('',#140,10.);
#47=VECTOR('',#143,10.);
#48=VECTOR('',#144,10.);
#49=VECTOR('',#145,10.);
#50=VECTOR('',#148,10.);
#51=VECTOR('',#149,10.);
#52=VERTEX_POINT('',#156);
#53=VERTEX_POINT('',#157);
#54=VERTEX_POINT('',#159);
#55=VERTEX_POINT('',#161);
#56=VERTEX_POINT('',#165);
#57=VERTEX_POINT('',#167);
#58=VERTEX_POINT('',#171);
#59=VERTEX_POINT('',#173);
#60=EDGE_CURVE('',#52,#53,#28,.T.);
#61=EDGE_CURVE('',#53,#54,#29,.T.);
#62=EDGE_CURVE('',#55,#54,#30,.T.);
#63=EDGE_CURVE('',#52,#55,#31,.T.);
#64=EDGE_CURVE('',#56,#52,#32,.T.);
#65=EDGE_CURVE('',#57,#55,#33,.T.);
#66=EDGE_CURVE('',#56,#57,#34,.T.);
#67=EDGE_CURVE('',#58,#56,#35,.T.);
#68=EDGE_CURVE('',#59,#57,#36,.T.);
#69=EDGE_CURVE('',#58,#59,#37,.T.);
#70=EDGE_CURVE('',#53,#58,#38,.T.);
#71=EDGE_CURVE('',#54,#59,#39,.T.);
#72=ORIENTED_EDGE('',*,*,#60,.T.);
#73=ORIENTED_EDGE('',*,*,#61,.T.);
#74=ORIENTED_EDGE('',*,*,#62,.F.);
#75=ORIENTED_EDGE('',*,*,#63,.F.);
#76=ORIENTED_EDGE('',*,*,#64,.T.);
#77=ORIENTED_EDGE('',*,*,#63,.T.);
#78=ORIENTED_EDGE('',*,*,#65,.F.);
#79=ORIENTED_EDGE('',*,*,#66,.F.);
#80=ORIENTED_EDGE('',*,*,#67,.T.);
#81=ORIENTED_EDGE('',*,*,#66,.T.);
#82=ORIENTED_EDGE('',*,*,#68,.F.);
#83=ORIENTED_EDGE('',*,*,#69,.F.);
#84=ORIENTED_EDGE('',*,*,#70,.T.);
#85=ORIENTED_EDGE('',*,*,#69,.T.);
#86=ORIENTED_EDGE('',*,*,#71,.F.);
#87=ORIENTED_EDGE('',*,*,#61,.F.);
#88=ORIENTED_EDGE('',*,*,#71,.T.);
#89=ORIENTED_EDGE('',*,*,#68,.T.);
#90=ORIENTED_EDGE('',*,*,#65,.T.);
#91=ORIENTED_EDGE('',*,*,#62,.T.);
#92=ORIENTED_EDGE('',*,*,#70,.F.);
#93=ORIENTED_EDGE('',*,*,#60,.F.);
#94=ORIENTED_EDGE('',*,*,#64,.F.);
#95=ORIENTED_EDGE('',*,*,#67,.F.);
#96=PLANE('',#122);
#97=PLANE('',#123);
#98=PLANE('',#124);
#99=PLANE('',#125);
#100=PLANE('',#126);
#101=PLANE('',#127);
#102=ADVANCED_FACE('',(#16),#96,.T.);
#103=ADVANCED_FACE('',(#17),#97,.T.);
#104=ADVANCED_FACE('',(#18),#98,.T.);
#105=ADVANCED_FACE('',(#19),#99,.T.);
#106=ADVANCED_FACE('',(#20),#100,.T.);
#107=ADVANCED_FACE('',(#21),#101,.F.);
#108=CLOSED_SHELL('',(#102,#103,#104,#105,#106,#107));
#109=DERIVED_UNIT_ELEMENT(#111,1.);
#110=DERIVED_UNIT_ELEMENT(#186,3.);
#111=(
MASS_UNIT()
NAMED_UNIT(*)
SI_UNIT(.KILO.,.GRAM.)
);
#112=DERIVED_UNIT((#109,#110));
#113=MEASURE_REPRESENTATION_ITEM('density measure',
POSITIVE_RATIO_MEASURE(7850.),#112);
#114=PROPERTY_DEFINITION_REPRESENTATION(#119,#116);
#115=PROPERTY_DEFINITION_REPRESENTATION(#120,#117);
#116=REPRESENTATION('material name',(#118),#183);
#117=REPRESENTATION('density',(#113),#183);
#118=DESCRIPTIVE_REPRESENTATION_ITEM('Steel','Steel');
#119=PROPERTY_DEFINITION('material property','material name',#193);
#120=PROPERTY_DEFINITION('material property','density of part',#193);
#121=AXIS2_PLACEMENT_3D('placement',#154,#128,#129);
#122=AXIS2_PLACEMENT_3D('',#155,#130,#131);
#123=AXIS2_PLACEMENT_3D('',#164,#136,#137);
#124=AXIS2_PLACEMENT_3D('',#170,#141,#142);
#125=AXIS2_PLACEMENT_3D('',#176,#146,#147);
#126=AXIS2_PLACEMENT_3D('',#179,#150,#151);
#127=AXIS2_PLACEMENT_3D('',#180,#152,#153);
#128=DIRECTION('axis',(0.,0.,1.));
#129=DIRECTION('refdir',(1.,0.,0.));
#130=DIRECTION('center_axis',(2.68519057118643E-17,0.,-1.));
#131=DIRECTION('ref_axis',(1.,0.,2.68519057118643E-17));
#132=DIRECTION('',(1.,0.,2.68519057118643E-17));
#133=DIRECTION('',(0.,-1.,0.));
#134=DIRECTION('',(1.,0.,2.68519057118643E-17));
#135=DIRECTION('',(0.,-1.,0.));
#136=DIRECTION('center_axis',(-1.,0.,5.96744875736024E-15));
#137=DIRECTION('ref_axis',(-5.96744875736024E-15,0.,-1.));
#138=DIRECTION('',(-5.96744875736024E-15,0.,-1.));
#139=DIRECTION('',(-5.96744875736024E-15,0.,-1.));
#140=DIRECTION('',(0.,-1.,0.));
#141=DIRECTION('center_axis',(0.,0.,1.));
#142=DIRECTION('ref_axis',(-1.,0.,0.));
#143=DIRECTION('',(-1.,0.,0.));
#144=DIRECTION('',(-1.,0.,0.));
#145=DIRECTION('',(0.,-1.,0.));
#146=DIRECTION('center_axis',(1.,0.,0.));
#147=DIRECTION('ref_axis',(0.,0.,1.));
#148=DIRECTION('',(0.,0.,1.));
#149=DIRECTION('',(0.,0.,1.));
#150=DIRECTION('center_axis',(0.,-1.,0.));
#151=DIRECTION('ref_axis',(0.,0.,-1.));
#152=DIRECTION('center_axis',(0.,-1.,0.));
#153=DIRECTION('ref_axis',(1.,0.,0.));
#154=CARTESIAN_POINT('',(0.,0.,0.));
#155=CARTESIAN_POINT('Origin',(-1.99999999999999,-51.,-2.00000000000002));
#156=CARTESIAN_POINT('',(-1.99999999999999,-51.,-2.00000000000002));
#157=CARTESIAN_POINT('',(266.75,-51.,-2.00000000000001));
#158=CARTESIAN_POINT('',(-1.99999999999999,-51.,-2.00000000000002));
#159=CARTESIAN_POINT('',(266.75,-55.,-2.00000000000001));
#160=CARTESIAN_POINT('',(266.75,-51.,-2.00000000000001));
#161=CARTESIAN_POINT('',(-1.99999999999999,-55.,-2.00000000000002));
#162=CARTESIAN_POINT('',(-1.99999999999999,-55.,-2.00000000000002));
#163=CARTESIAN_POINT('',(-1.99999999999999,-51.,-2.00000000000002));
#164=CARTESIAN_POINT('Origin',(-1.99999999999999,-51.,83.25));
#165=CARTESIAN_POINT('',(-1.99999999999999,-51.,83.25));
#166=CARTESIAN_POINT('',(-1.99999999999999,-51.,83.25));
#167=CARTESIAN_POINT('',(-1.99999999999999,-55.,83.25));
#168=CARTESIAN_POINT('',(-1.99999999999999,-55.,83.25));
#169=CARTESIAN_POINT('',(-1.99999999999999,-51.,83.25));
#170=CARTESIAN_POINT('Origin',(266.75,-51.,83.25));
#171=CARTESIAN_POINT('',(266.75,-51.,83.25));
#172=CARTESIAN_POINT('',(266.75,-51.,83.25));
#173=CARTESIAN_POINT('',(266.75,-55.,83.25));
#174=CARTESIAN_POINT('',(266.75,-55.,83.25));
#175=CARTESIAN_POINT('',(266.75,-51.,83.25));
#176=CARTESIAN_POINT('Origin',(266.75,-51.,-2.00000000000001));
#177=CARTESIAN_POINT('',(266.75,-51.,81.25));
#178=CARTESIAN_POINT('',(266.75,-55.,81.25));
#179=CARTESIAN_POINT('Origin',(132.375,-55.,40.625));
#180=CARTESIAN_POINT('Origin',(132.375,-51.,40.625));
#181=UNCERTAINTY_MEASURE_WITH_UNIT(LENGTH_MEASURE(0.01),#185,
'DISTANCE_ACCURACY_VALUE',
'Maximum model space distance between geometric entities at asserted c
onnectivities');
#182=UNCERTAINTY_MEASURE_WITH_UNIT(LENGTH_MEASURE(0.01),#185,
'DISTANCE_ACCURACY_VALUE',
'Maximum model space distance between geometric entities at asserted c
onnectivities');
#183=(
GEOMETRIC_REPRESENTATION_CONTEXT(3)
GLOBAL_UNCERTAINTY_ASSIGNED_CONTEXT((#181))
GLOBAL_UNIT_ASSIGNED_CONTEXT((#185,#187,#188))
REPRESENTATION_CONTEXT('','3D')
);
#184=(
GEOMETRIC_REPRESENTATION_CONTEXT(3)
GLOBAL_UNCERTAINTY_ASSIGNED_CONTEXT((#182))
GLOBAL_UNIT_ASSIGNED_CONTEXT((#185,#187,#188))
REPRESENTATION_CONTEXT('','3D')
);
#185=(
LENGTH_UNIT()
NAMED_UNIT(*)
SI_UNIT(.MILLI.,.METRE.)
);
#186=(
LENGTH_UNIT()
NAMED_UNIT(*)
SI_UNIT($,.METRE.)
);
#187=(
NAMED_UNIT(*)
PLANE_ANGLE_UNIT()
SI_UNIT($,.RADIAN.)
);
#188=(
NAMED_UNIT(*)
SI_UNIT($,.STERADIAN.)
SOLID_ANGLE_UNIT()
);
#189=SHAPE_DEFINITION_REPRESENTATION(#190,#191);
#190=PRODUCT_DEFINITION_SHAPE('',$,#193);
#191=SHAPE_REPRESENTATION('',(#121),#183);
#192=PRODUCT_DEFINITION_CONTEXT('part definition',#197,'design');
#193=PRODUCT_DEFINITION('sklo_2','sklo_2',#194,#192);
#194=PRODUCT_DEFINITION_FORMATION('',$,#199);
#195=PRODUCT_RELATED_PRODUCT_CATEGORY('sklo_2','sklo_2',(#199));
#196=APPLICATION_PROTOCOL_DEFINITION('international standard',
'automotive_design',2009,#197);
#197=APPLICATION_CONTEXT(
'Core Data for Automotive Mechanical Design Process');
#198=PRODUCT_CONTEXT('part definition',#197,'mechanical');
#199=PRODUCT('sklo_2','sklo_2',$,(#198));
#200=PRESENTATION_STYLE_ASSIGNMENT((#202));
#201=PRESENTATION_STYLE_ASSIGNMENT((#203));
#202=SURFACE_STYLE_USAGE(.BOTH.,#204);
#203=SURFACE_STYLE_USAGE(.BOTH.,#205);
#204=SURFACE_SIDE_STYLE('',(#206));
#205=SURFACE_SIDE_STYLE('',(#207));
#206=SURFACE_STYLE_FILL_AREA(#208);
#207=SURFACE_STYLE_FILL_AREA(#209);
#208=FILL_AREA_STYLE('Steel - Satin',(#210));
#209=FILL_AREA_STYLE('Glass - Light Color (Blue)',(#211));
#210=FILL_AREA_STYLE_COLOUR('Steel - Satin',#212);
#211=FILL_AREA_STYLE_COLOUR('Glass - Light Color (Blue)',#213);
#212=COLOUR_RGB('Steel - Satin',0.627450980392157,0.627450980392157,0.627450980392157);
#213=COLOUR_RGB('Glass - Light Color (Blue)',0.423529411764706,0.768627450980392,
0.854901960784314);
ENDSEC;
END-ISO-10303-21;
