  0
SECTION
  2
HEADER
  9
$ACADVER
  1
AC1015
  9
$ACADMAINTVER
 70
     6
  9
$DWGCODEPAGE
  3
ANSI_932
  9
$INSBASE
 10
0.0
 20
0.0
 30
0.0
  9
$EXTMIN
 10
1.000000000000000E+20
 20
1.000000000000000E+20
 30
1.000000000000000E+20
  9
$EXTMAX
 10
-1.000000000000000E+20
 20
-1.000000000000000E+20
 30
-1.000000000000000E+20
  9
$LIMMIN
 10
0.0
 20
0.0
  9
$LIMMAX
 10
12.0
 20
9.0
  9
$ORTHOMODE
 70
     0
  9
$REGENMODE
 70
     1
  9
$FILLMODE
 70
     1
  9
$QTEXTMODE
 70
     0
  9
$MIRRTEXT
 70
     1
  9
$LTSCALE
 40
1.0
  9
$ATTMODE
 70
     1
  9
$TEXTSIZE
 40
0.2
  9
$TRACEWID
 40
0.05
  9
$TEXTSTYLE
  7
Standard
  9
$CLAYER
  8
0
  9
$CELTYPE
  6
ByLayer
  9
$CECOLOR
 62
   256
  9
$CELTSCALE
 40
1.0
  9
$DISPSILH
 70
     0
  9
$DIMSCALE
 40
1.0
  9
$DIMASZ
 40
0.18
  9
$DIMEXO
 40
0.0625
  9
$DIMDLI
 40
0.38
  9
$DIMRND
 40
0.0
  9
$DIMDLE
 40
0.0
  9
$DIMEXE
 40
0.18
  9
$DIMTP
 40
0.0
  9
$DIMTM
 40
0.0
  9
$DIMTXT
 40
0.18
  9
$DIMCEN
 40
0.09
  9
$DIMTSZ
 40
0.0
  9
$DIMTOL
 70
     0
  9
$DIMLIM
 70
     0
  9
$DIMTIH
 70
     1
  9
$DIMTOH
 70
     1
  9
$DIMSE1
 70
     0
  9
$DIMSE2
 70
     0
  9
$DIMTAD
 70
     0
  9
$DIMZIN
 70
     0
  9
$DIMBLK
  1

  9
$DIMASO
 70
     1
  9
$DIMSHO
 70
     1
  9
$DIMPOST
  1

  9
$DIMAPOST
  1

  9
$DIMALT
 70
     0
  9
$DIMALTD
 70
     2
  9
$DIMALTF
 40
25.4
  9
$DIMLFAC
 40
1.0
  9
$DIMTOFL
 70
     0
  9
$DIMTVP
 40
0.0
  9
$DIMTIX
 70
     0
  9
$DIMSOXD
 70
     0
  9
$DIMSAH
 70
     0
  9
$DIMBLK1
  1

  9
$DIMBLK2
  1

  9
$DIMSTYLE
  2
Standard
  9
$DIMCLRD
 70
     0
  9
$DIMCLRE
 70
     0
  9
$DIMCLRT
 70
     0
  9
$DIMTFAC
 40
1.0
  9
$DIMGAP
 40
0.09
  9
$DIMJUST
 70
     0
  9
$DIMSD1
 70
     0
  9
$DIMSD2
 70
     0
  9
$DIMTOLJ
 70
     1
  9
$DIMTZIN
 70
     0
  9
$DIMALTZ
 70
     0
  9
$DIMALTTZ
 70
     0
  9
$DIMUPT
 70
     0
  9
$DIMDEC
 70
     4
  9
$DIMTDEC
 70
     4
  9
$DIMALTU
 70
     2
  9
$DIMALTTD
 70
     2
  9
$DIMTXSTY
  7
Standard
  9
$DIMAUNIT
 70
     0
  9
$DIMADEC
 70
     0
  9
$DIMALTRND
 40
0.0
  9
$DIMAZIN
 70
     0
  9
$DIMDSEP
 70
    46
  9
$DIMATFIT
 70
     3
  9
$DIMFRAC
 70
     0
  9
$DIMLDRBLK
  1

  9
$DIMLUNIT
 70
     2
  9
$DIMLWD
 70
    -2
  9
$DIMLWE
 70
    -2
  9
$DIMTMOVE
 70
     0
  9
$LUNITS
 70
     2
  9
$LUPREC
 70
     4
  9
$SKETCHINC
 40
0.1
  9
$FILLETRAD
 40
0.5
  9
$AUNITS
 70
     0
  9
$AUPREC
 70
     0
  9
$MENU
  1
.
  9
$ELEVATION
 40
0.0
  9
$PELEVATION
 40
0.0
  9
$THICKNESS
 40
0.0
  9
$LIMCHECK
 70
     0
  9
$CHAMFERA
 40
0.5
  9
$CHAMFERB
 40
0.5
  9
$CHAMFERC
 40
1.0
  9
$CHAMFERD
 40
0.0
  9
$SKPOLY
 70
     0
  9
$TDCREATE
 40
2458862.865497685
  9
$TDUCREATE
 40
2458862.823831019
  9
$TDUPDATE
 40
2458862.865497697
  9
$TDUUPDATE
 40
2458862.82383103
  9
$TDINDWG
 40
0.0000000116
  9
$TDUSRTIMER
 40
0.0000000116
  9
$USRTIMER
 70
     1
  9
$ANGBASE
 50
0.0
  9
$ANGDIR
 70
     0
  9
$PDMODE
 70
     0
  9
$PDSIZE
 40
0.0
  9
$PLINEWID
 40
0.0
  9
$SPLFRAME
 70
     0
  9
$SPLINETYPE
 70
     6
  9
$SPLINESEGS
 70
     8
  9
$HANDSEED
  5
349
  9
$SURFTAB1
 70
     6
  9
$SURFTAB2
 70
     6
  9
$SURFTYPE
 70
     6
  9
$SURFU
 70
     6
  9
$SURFV
 70
     6
  9
$UCSBASE
  2

  9
$UCSNAME
  2

  9
$UCSORG
 10
0.0
 20
0.0
 30
0.0
  9
$UCSXDIR
 10
1.0
 20
0.0
 30
0.0
  9
$UCSYDIR
 10
0.0
 20
1.0
 30
0.0
  9
$UCSORTHOREF
  2

  9
$UCSORTHOVIEW
 70
     0
  9
$UCSORGTOP
 10
0.0
 20
0.0
 30
0.0
  9
$UCSORGBOTTOM
 10
0.0
 20
0.0
 30
0.0
  9
$UCSORGLEFT
 10
0.0
 20
0.0
 30
0.0
  9
$UCSORGRIGHT
 10
0.0
 20
0.0
 30
0.0
  9
$UCSORGFRONT
 10
0.0
 20
0.0
 30
0.0
  9
$UCSORGBACK
 10
0.0
 20
0.0
 30
0.0
  9
$PUCSBASE
  2

  9
$PUCSNAME
  2

  9
$PUCSORG
 10
0.0
 20
0.0
 30
0.0
  9
$PUCSXDIR
 10
1.0
 20
0.0
 30
0.0
  9
$PUCSYDIR
 10
0.0
 20
1.0
 30
0.0
  9
$PUCSORTHOREF
  2

  9
$PUCSORTHOVIEW
 70
     0
  9
$PUCSORGTOP
 10
0.0
 20
0.0
 30
0.0
  9
$PUCSORGBOTTOM
 10
0.0
 20
0.0
 30
0.0
  9
$PUCSORGLEFT
 10
0.0
 20
0.0
 30
0.0
  9
$PUCSORGRIGHT
 10
0.0
 20
0.0
 30
0.0
  9
$PUCSORGFRONT
 10
0.0
 20
0.0
 30
0.0
  9
$PUCSORGBACK
 10
0.0
 20
0.0
 30
0.0
  9
$USERI1
 70
     0
  9
$USERI2
 70
     0
  9
$USERI3
 70
     0
  9
$USERI4
 70
     0
  9
$USERI5
 70
     0
  9
$USERR1
 40
0.0
  9
$USERR2
 40
0.0
  9
$USERR3
 40
0.0
  9
$USERR4
 40
0.0
  9
$USERR5
 40
0.0
  9
$WORLDVIEW
 70
     1
  9
$SHADEDGE
 70
     3
  9
$SHADEDIF
 70
    70
  9
$TILEMODE
 70
     1
  9
$MAXACTVP
 70
    64
  9
$PINSBASE
 10
0.0
 20
0.0
 30
0.0
  9
$PLIMCHECK
 70
     0
  9
$PEXTMIN
 10
1.000000000000000E+20
 20
1.000000000000000E+20
 30
1.000000000000000E+20
  9
$PEXTMAX
 10
-1.000000000000000E+20
 20
-1.000000000000000E+20
 30
-1.000000000000000E+20
  9
$PLIMMIN
 10
0.0
 20
0.0
  9
$PLIMMAX
 10
12.0
 20
9.0
  9
$UNITMODE
 70
     0
  9
$VISRETAIN
 70
     1
  9
$PLINEGEN
 70
     0
  9
$PSLTSCALE
 70
     1
  9
$TREEDEPTH
 70
  3020
  9
$CMLSTYLE
  2
Standard
  9
$CMLJUST
 70
     0
  9
$CMLSCALE
 40
1.0
  9
$PROXYGRAPHICS
 70
     1
  9
$MEASUREMENT
 70
     0
  9
$CELWEIGHT
370
    -1
  9
$ENDCAPS
280
     0
  9
$JOINSTYLE
280
     0
  9
$LWDISPLAY
290
     1
  9
$INSUNITS
 70
     1
  9
$HYPERLINKBASE
  1

  9
$STYLESHEET
  1

  9
$XEDIT
290
     1
  9
$CEPSNTYPE
380
     0
  9
$PSTYLEMODE
290
     1
  9
$FINGERPRINTGUID
  2
{7115F2BC-C160-32F9-6103-BEA4A11D906F}
  9
$VERSIONGUID
  2
{FAEB1C32-E019-11D5-929B-00C0DF256EC4}
  9
$EXTNAMES
290
     1
  9
$PSVPSCALE
 40
0.0
  9
$OLESTARTUP
290
     0
  0
ENDSEC
  0
SECTION
  2
CLASSES
  0
CLASS
  1
ACDBDICTIONARYWDFLT
  2
AcDbDictionaryWithDefault
  3
ObjectDBX Classes
 90
        0
280
     0
281
     0
  0
CLASS
  1
VISUALSTYLE
  2
AcDbVisualStyle
  3
ObjectDBX Classes
 90
     4095
280
     0
281
     0
  0
CLASS
  1
ACDBPLACEHOLDER
  2
AcDbPlaceHolder
  3
ObjectDBX Classes
 90
        0
280
     0
281
     0
  0
CLASS
  1
LAYOUT
  2
AcDbLayout
  3
ObjectDBX Classes
 90
        0
280
     0
281
     0
  0
ENDSEC
  0
SECTION
  2
TABLES
  0
TABLE
  2
VPORT
  5
8
330
0
100
AcDbSymbolTable
 70
     1
  0
VPORT
  5
29
330
8
100
AcDbSymbolTableRecord
100
AcDbViewportTableRecord
  2
*Active
 70
     0
 10
0.0
 20
0.0
 11
1.0
 21
1.0
 12
0.0
 22
0.0
 13
0.0
 23
0.0
 14
0.5
 24
0.5
 15
0.5
 25
0.5
 16
0.0
 26
0.0
 36
1.0
 17
148.6958332961594
 27
105.1276916241087
 37
0.0
 40
297.0001314904201
 41
0.7070701563805867
 42
50.0
 43
0.0
 44
0.0
 50
0.0
 51
0.0
 71
     0
 72
   100
 73
     1
 74
     3
 75
     0
 76
     0
 77
     0
 78
     0
281
     0
 65
     1
110
0.0
120
0.0
130
0.0
111
1.0
121
0.0
131
0.0
112
0.0
122
1.0
132
0.0
 79
     0
146
0.0
  0
ENDTAB
  0
TABLE
  2
LTYPE
  5
5
330
0
100
AcDbSymbolTable
 70
     1
  0
LTYPE
  5
14
330
5
100
AcDbSymbolTableRecord
100
AcDbLinetypeTableRecord
  2
ByBlock
 70
     0
  3

 72
    65
 73
     0
 40
0.0
  0
LTYPE
  5
15
330
5
100
AcDbSymbolTableRecord
100
AcDbLinetypeTableRecord
  2
ByLayer
 70
     0
  3

 72
    65
 73
     0
 40
0.0
  0
LTYPE
  5
16
330
5
100
AcDbSymbolTableRecord
100
AcDbLinetypeTableRecord
  2
Continuous
 70
     0
  3
Solid line
 72
    65
 73
     0
 40
0.0
  0
ENDTAB
  0
TABLE
  2
LAYER
  5
2
330
0
100
AcDbSymbolTable
 70
     3
  0
LAYER
  5
10
330
2
100
AcDbSymbolTableRecord
100
AcDbLayerTableRecord
  2
0
 70
     0
 62
     7
  6
Continuous
370
    -3
390
F
  0
LAYER
  5
3B
330
2
100
AcDbSymbolTableRecord
100
AcDbLayerTableRecord
  2
Schneiden
 70
     0
 62
     7
  6
Continuous
370
    -3
390
F
  0
LAYER
  5
28E
330
2
100
AcDbSymbolTableRecord
100
AcDbLayerTableRecord
  2
Gravieren
 70
     0
 62
     7
  6
Continuous
370
    -3
390
F
  0
ENDTAB
  0
TABLE
  2
STYLE
  5
3
330
0
100
AcDbSymbolTable
 70
     1
  0
STYLE
  5
11
330
3
100
AcDbSymbolTableRecord
100
AcDbTextStyleTableRecord
  2
Standard
 70
     0
 40
0.0
 41
1.0
 50
0.0
 71
     0
 42
0.2
  3
txt
  4

  0
ENDTAB
  0
TABLE
  2
VIEW
  5
6
330
0
100
AcDbSymbolTable
 70
     0
  0
ENDTAB
  0
TABLE
  2
UCS
  5
7
330
0
100
AcDbSymbolTable
 70
     0
  0
ENDTAB
  0
TABLE
  2
APPID
  5
9
330
0
100
AcDbSymbolTable
 70
     1
  0
APPID
  5
12
330
9
100
AcDbSymbolTableRecord
100
AcDbRegAppTableRecord
  2
ACAD
 70
     0
  0
ENDTAB
  0
TABLE
  2
DIMSTYLE
  5
A
330
0
100
AcDbSymbolTable
 70
     1
100
AcDbDimStyleTable
  0
DIMSTYLE
105
27
330
A
100
AcDbSymbolTableRecord
100
AcDbDimStyleTableRecord
  2
Standard
 70
     0
340
11
  0
ENDTAB
  0
TABLE
  2
BLOCK_RECORD
  5
1
330
0
100
AcDbSymbolTable
 70
    96
  0
BLOCK_RECORD
  5
1F
330
1
100
AcDbSymbolTableRecord
100
AcDbBlockTableRecord
  2
*Model_Space
340
22
  0
BLOCK_RECORD
  5
1B
330
1
100
AcDbSymbolTableRecord
100
AcDbBlockTableRecord
  2
*Paper_Space
340
1E
  0
BLOCK_RECORD
  5
23
330
1
100
AcDbSymbolTableRecord
100
AcDbBlockTableRecord
  2
*Paper_Space0
340
26
  0
BLOCK_RECORD
  5
3C
330
1
100
AcDbSymbolTableRecord
100
AcDbBlockTableRecord
  2
block 2
340
0
102
{BLKREFS
331
3D
102
}
  0
BLOCK_RECORD
  5
47
330
1
100
AcDbSymbolTableRecord
100
AcDbBlockTableRecord
  2
block 3
340
0
102
{BLKREFS
331
48
102
}
  0
BLOCK_RECORD
  5
52
330
1
100
AcDbSymbolTableRecord
100
AcDbBlockTableRecord
  2
block 4
340
0
102
{BLKREFS
331
53
102
}
  0
BLOCK_RECORD
  5
5D
330
1
100
AcDbSymbolTableRecord
100
AcDbBlockTableRecord
  2
block 5
340
0
102
{BLKREFS
331
5E
102
}
  0
BLOCK_RECORD
  5
68
330
1
100
AcDbSymbolTableRecord
100
AcDbBlockTableRecord
  2
block 6
340
0
102
{BLKREFS
331
69
102
}
  0
BLOCK_RECORD
  5
73
330
1
100
AcDbSymbolTableRecord
100
AcDbBlockTableRecord
  2
block 7
340
0
102
{BLKREFS
331
74
102
}
  0
BLOCK_RECORD
  5
7E
330
1
100
AcDbSymbolTableRecord
100
AcDbBlockTableRecord
  2
block 8
340
0
102
{BLKREFS
331
7F
102
}
  0
BLOCK_RECORD
  5
89
330
1
100
AcDbSymbolTableRecord
100
AcDbBlockTableRecord
  2
block 9
340
0
102
{BLKREFS
331
8A
102
}
  0
BLOCK_RECORD
  5
94
330
1
100
AcDbSymbolTableRecord
100
AcDbBlockTableRecord
  2
block 10
340
0
102
{BLKREFS
331
95
102
}
  0
BLOCK_RECORD
  5
9F
330
1
100
AcDbSymbolTableRecord
100
AcDbBlockTableRecord
  2
block 11
340
0
102
{BLKREFS
331
A0
102
}
  0
BLOCK_RECORD
  5
AA
330
1
100
AcDbSymbolTableRecord
100
AcDbBlockTableRecord
  2
block 12
340
0
102
{BLKREFS
331
AB
102
}
  0
BLOCK_RECORD
  5
B5
330
1
100
AcDbSymbolTableRecord
100
AcDbBlockTableRecord
  2
block 13
340
0
102
{BLKREFS
331
B6
102
}
  0
BLOCK_RECORD
  5
BD
330
1
100
AcDbSymbolTableRecord
100
AcDbBlockTableRecord
  2
block 14
340
0
102
{BLKREFS
331
BE
102
}
  0
BLOCK_RECORD
  5
C5
330
1
100
AcDbSymbolTableRecord
100
AcDbBlockTableRecord
  2
block 15
340
0
102
{BLKREFS
331
C6
102
}
  0
BLOCK_RECORD
  5
CD
330
1
100
AcDbSymbolTableRecord
100
AcDbBlockTableRecord
  2
block 16
340
0
102
{BLKREFS
331
CE
102
}
  0
BLOCK_RECORD
  5
D5
330
1
100
AcDbSymbolTableRecord
100
AcDbBlockTableRecord
  2
block 17
340
0
102
{BLKREFS
331
D6
102
}
  0
BLOCK_RECORD
  5
DD
330
1
100
AcDbSymbolTableRecord
100
AcDbBlockTableRecord
  2
block 18
340
0
102
{BLKREFS
331
DE
102
}
  0
BLOCK_RECORD
  5
E5
330
1
100
AcDbSymbolTableRecord
100
AcDbBlockTableRecord
  2
block 19
340
0
102
{BLKREFS
331
E6
102
}
  0
BLOCK_RECORD
  5
F0
330
1
100
AcDbSymbolTableRecord
100
AcDbBlockTableRecord
  2
block 20
340
0
102
{BLKREFS
331
F1
102
}
  0
BLOCK_RECORD
  5
F8
330
1
100
AcDbSymbolTableRecord
100
AcDbBlockTableRecord
  2
block 21
340
0
102
{BLKREFS
331
F9
102
}
  0
BLOCK_RECORD
  5
100
330
1
100
AcDbSymbolTableRecord
100
AcDbBlockTableRecord
  2
block 22
340
0
102
{BLKREFS
331
101
102
}
  0
BLOCK_RECORD
  5
108
330
1
100
AcDbSymbolTableRecord
100
AcDbBlockTableRecord
  2
block 23
340
0
102
{BLKREFS
331
109
102
}
  0
BLOCK_RECORD
  5
110
330
1
100
AcDbSymbolTableRecord
100
AcDbBlockTableRecord
  2
block 24
340
0
102
{BLKREFS
331
111
102
}
  0
BLOCK_RECORD
  5
115
330
1
100
AcDbSymbolTableRecord
100
AcDbBlockTableRecord
  2
block 25
340
0
102
{BLKREFS
331
116
102
}
  0
BLOCK_RECORD
  5
11A
330
1
100
AcDbSymbolTableRecord
100
AcDbBlockTableRecord
  2
block 26
340
0
102
{BLKREFS
331
11B
102
}
  0
BLOCK_RECORD
  5
125
330
1
100
AcDbSymbolTableRecord
100
AcDbBlockTableRecord
  2
block 27
340
0
102
{BLKREFS
331
126
102
}
  0
BLOCK_RECORD
  5
130
330
1
100
AcDbSymbolTableRecord
100
AcDbBlockTableRecord
  2
block 28
340
0
102
{BLKREFS
331
131
102
}
  0
BLOCK_RECORD
  5
13B
330
1
100
AcDbSymbolTableRecord
100
AcDbBlockTableRecord
  2
block 29
340
0
102
{BLKREFS
331
13C
102
}
  0
BLOCK_RECORD
  5
146
330
1
100
AcDbSymbolTableRecord
100
AcDbBlockTableRecord
  2
block 30
340
0
102
{BLKREFS
331
147
102
}
  0
BLOCK_RECORD
  5
151
330
1
100
AcDbSymbolTableRecord
100
AcDbBlockTableRecord
  2
block 31
340
0
102
{BLKREFS
331
152
102
}
  0
BLOCK_RECORD
  5
15C
330
1
100
AcDbSymbolTableRecord
100
AcDbBlockTableRecord
  2
block 32
340
0
102
{BLKREFS
331
15D
102
}
  0
BLOCK_RECORD
  5
161
330
1
100
AcDbSymbolTableRecord
100
AcDbBlockTableRecord
  2
block 33
340
0
102
{BLKREFS
331
162
102
}
  0
BLOCK_RECORD
  5
166
330
1
100
AcDbSymbolTableRecord
100
AcDbBlockTableRecord
  2
block 34
340
0
102
{BLKREFS
331
167
102
}
  0
BLOCK_RECORD
  5
16B
330
1
100
AcDbSymbolTableRecord
100
AcDbBlockTableRecord
  2
block 35
340
0
102
{BLKREFS
331
16C
102
}
  0
BLOCK_RECORD
  5
173
330
1
100
AcDbSymbolTableRecord
100
AcDbBlockTableRecord
  2
block 36
340
0
102
{BLKREFS
331
174
102
}
  0
BLOCK_RECORD
  5
178
330
1
100
AcDbSymbolTableRecord
100
AcDbBlockTableRecord
  2
block 37
340
0
102
{BLKREFS
331
179
102
}
  0
BLOCK_RECORD
  5
180
330
1
100
AcDbSymbolTableRecord
100
AcDbBlockTableRecord
  2
block 38
340
0
102
{BLKREFS
331
181
102
}
  0
BLOCK_RECORD
  5
185
330
1
100
AcDbSymbolTableRecord
100
AcDbBlockTableRecord
  2
block 39
340
0
102
{BLKREFS
331
186
102
}
  0
BLOCK_RECORD
  5
18D
330
1
100
AcDbSymbolTableRecord
100
AcDbBlockTableRecord
  2
block 40
340
0
102
{BLKREFS
331
18E
102
}
  0
BLOCK_RECORD
  5
192
330
1
100
AcDbSymbolTableRecord
100
AcDbBlockTableRecord
  2
block 41
340
0
102
{BLKREFS
331
193
102
}
  0
BLOCK_RECORD
  5
19A
330
1
100
AcDbSymbolTableRecord
100
AcDbBlockTableRecord
  2
block 42
340
0
102
{BLKREFS
331
19B
102
}
  0
BLOCK_RECORD
  5
19F
330
1
100
AcDbSymbolTableRecord
100
AcDbBlockTableRecord
  2
block 43
340
0
102
{BLKREFS
331
1A0
102
}
  0
BLOCK_RECORD
  5
1A7
330
1
100
AcDbSymbolTableRecord
100
AcDbBlockTableRecord
  2
block 44
340
0
102
{BLKREFS
331
1A8
102
}
  0
BLOCK_RECORD
  5
1AC
330
1
100
AcDbSymbolTableRecord
100
AcDbBlockTableRecord
  2
block 45
340
0
102
{BLKREFS
331
1AD
102
}
  0
BLOCK_RECORD
  5
1B4
330
1
100
AcDbSymbolTableRecord
100
AcDbBlockTableRecord
  2
block 46
340
0
102
{BLKREFS
331
1B5
102
}
  0
BLOCK_RECORD
  5
1B9
330
1
100
AcDbSymbolTableRecord
100
AcDbBlockTableRecord
  2
block 47
340
0
102
{BLKREFS
331
1BA
102
}
  0
BLOCK_RECORD
  5
1C1
330
1
100
AcDbSymbolTableRecord
100
AcDbBlockTableRecord
  2
block 48
340
0
102
{BLKREFS
331
1C2
102
}
  0
BLOCK_RECORD
  5
1C6
330
1
100
AcDbSymbolTableRecord
100
AcDbBlockTableRecord
  2
block 49
340
0
102
{BLKREFS
331
1C7
102
}
  0
BLOCK_RECORD
  5
1CE
330
1
100
AcDbSymbolTableRecord
100
AcDbBlockTableRecord
  2
block 50
340
0
102
{BLKREFS
331
1CF
102
}
  0
BLOCK_RECORD
  5
1D3
330
1
100
AcDbSymbolTableRecord
100
AcDbBlockTableRecord
  2
block 51
340
0
102
{BLKREFS
331
1D4
102
}
  0
BLOCK_RECORD
  5
1DB
330
1
100
AcDbSymbolTableRecord
100
AcDbBlockTableRecord
  2
block 52
340
0
102
{BLKREFS
331
1DC
102
}
  0
BLOCK_RECORD
  5
1E0
330
1
100
AcDbSymbolTableRecord
100
AcDbBlockTableRecord
  2
block 53
340
0
102
{BLKREFS
331
1E1
102
}
  0
BLOCK_RECORD
  5
1E8
330
1
100
AcDbSymbolTableRecord
100
AcDbBlockTableRecord
  2
block 54
340
0
102
{BLKREFS
331
1E9
102
}
  0
BLOCK_RECORD
  5
1ED
330
1
100
AcDbSymbolTableRecord
100
AcDbBlockTableRecord
  2
block 55
340
0
102
{BLKREFS
331
1EE
102
}
  0
BLOCK_RECORD
  5
1F5
330
1
100
AcDbSymbolTableRecord
100
AcDbBlockTableRecord
  2
block 56
340
0
102
{BLKREFS
331
1F6
102
}
  0
BLOCK_RECORD
  5
1FA
330
1
100
AcDbSymbolTableRecord
100
AcDbBlockTableRecord
  2
block 57
340
0
102
{BLKREFS
331
1FB
102
}
  0
BLOCK_RECORD
  5
202
330
1
100
AcDbSymbolTableRecord
100
AcDbBlockTableRecord
  2
block 58
340
0
102
{BLKREFS
331
203
102
}
  0
BLOCK_RECORD
  5
207
330
1
100
AcDbSymbolTableRecord
100
AcDbBlockTableRecord
  2
block 59
340
0
102
{BLKREFS
331
208
102
}
  0
BLOCK_RECORD
  5
20F
330
1
100
AcDbSymbolTableRecord
100
AcDbBlockTableRecord
  2
block 60
340
0
102
{BLKREFS
331
210
102
}
  0
BLOCK_RECORD
  5
217
330
1
100
AcDbSymbolTableRecord
100
AcDbBlockTableRecord
  2
block 61
340
0
102
{BLKREFS
331
218
102
}
  0
BLOCK_RECORD
  5
21F
330
1
100
AcDbSymbolTableRecord
100
AcDbBlockTableRecord
  2
block 62
340
0
102
{BLKREFS
331
220
102
}
  0
BLOCK_RECORD
  5
227
330
1
100
AcDbSymbolTableRecord
100
AcDbBlockTableRecord
  2
block 63
340
0
102
{BLKREFS
331
228
102
}
  0
BLOCK_RECORD
  5
22F
330
1
100
AcDbSymbolTableRecord
100
AcDbBlockTableRecord
  2
block 64
340
0
102
{BLKREFS
331
230
102
}
  0
BLOCK_RECORD
  5
23A
330
1
100
AcDbSymbolTableRecord
100
AcDbBlockTableRecord
  2
block 65
340
0
102
{BLKREFS
331
23B
102
}
  0
BLOCK_RECORD
  5
245
330
1
100
AcDbSymbolTableRecord
100
AcDbBlockTableRecord
  2
block 66
340
0
102
{BLKREFS
331
246
102
}
  0
BLOCK_RECORD
  5
250
330
1
100
AcDbSymbolTableRecord
100
AcDbBlockTableRecord
  2
block 67
340
0
102
{BLKREFS
331
251
102
}
  0
BLOCK_RECORD
  5
25B
330
1
100
AcDbSymbolTableRecord
100
AcDbBlockTableRecord
  2
block 68
340
0
102
{BLKREFS
331
25C
102
}
  0
BLOCK_RECORD
  5
266
330
1
100
AcDbSymbolTableRecord
100
AcDbBlockTableRecord
  2
block 69
340
0
102
{BLKREFS
331
267
102
}
  0
BLOCK_RECORD
  5
26E
330
1
100
AcDbSymbolTableRecord
100
AcDbBlockTableRecord
  2
block 70
340
0
102
{BLKREFS
331
26F
102
}
  0
BLOCK_RECORD
  5
276
330
1
100
AcDbSymbolTableRecord
100
AcDbBlockTableRecord
  2
block 71
340
0
102
{BLKREFS
331
277
102
}
  0
BLOCK_RECORD
  5
27E
330
1
100
AcDbSymbolTableRecord
100
AcDbBlockTableRecord
  2
block 72
340
0
102
{BLKREFS
331
27F
102
}
  0
BLOCK_RECORD
  5
286
330
1
100
AcDbSymbolTableRecord
100
AcDbBlockTableRecord
  2
block 73
340
0
102
{BLKREFS
331
287
102
}
  0
BLOCK_RECORD
  5
28F
330
1
100
AcDbSymbolTableRecord
100
AcDbBlockTableRecord
  2
block 74
340
0
102
{BLKREFS
331
290
102
}
  0
BLOCK_RECORD
  5
297
330
1
100
AcDbSymbolTableRecord
100
AcDbBlockTableRecord
  2
block 75
340
0
102
{BLKREFS
331
298
102
}
  0
BLOCK_RECORD
  5
29F
330
1
100
AcDbSymbolTableRecord
100
AcDbBlockTableRecord
  2
block 76
340
0
102
{BLKREFS
331
2A0
102
}
  0
BLOCK_RECORD
  5
2A7
330
1
100
AcDbSymbolTableRecord
100
AcDbBlockTableRecord
  2
block 77
340
0
102
{BLKREFS
331
2A8
102
}
  0
BLOCK_RECORD
  5
2AF
330
1
100
AcDbSymbolTableRecord
100
AcDbBlockTableRecord
  2
block 78
340
0
102
{BLKREFS
331
2B0
102
}
  0
BLOCK_RECORD
  5
2B7
330
1
100
AcDbSymbolTableRecord
100
AcDbBlockTableRecord
  2
block 79
340
0
102
{BLKREFS
331
2B8
102
}
  0
BLOCK_RECORD
  5
2BF
330
1
100
AcDbSymbolTableRecord
100
AcDbBlockTableRecord
  2
block 80
340
0
102
{BLKREFS
331
2C0
102
}
  0
BLOCK_RECORD
  5
2C7
330
1
100
AcDbSymbolTableRecord
100
AcDbBlockTableRecord
  2
block 81
340
0
102
{BLKREFS
331
2C8
102
}
  0
BLOCK_RECORD
  5
2CF
330
1
100
AcDbSymbolTableRecord
100
AcDbBlockTableRecord
  2
block 82
340
0
102
{BLKREFS
331
2D0
102
}
  0
BLOCK_RECORD
  5
2D7
330
1
100
AcDbSymbolTableRecord
100
AcDbBlockTableRecord
  2
block 83
340
0
102
{BLKREFS
331
2D8
102
}
  0
BLOCK_RECORD
  5
2DF
330
1
100
AcDbSymbolTableRecord
100
AcDbBlockTableRecord
  2
block 84
340
0
102
{BLKREFS
331
2E0
102
}
  0
BLOCK_RECORD
  5
2E7
330
1
100
AcDbSymbolTableRecord
100
AcDbBlockTableRecord
  2
block 85
340
0
102
{BLKREFS
331
2E8
102
}
  0
BLOCK_RECORD
  5
2EF
330
1
100
AcDbSymbolTableRecord
100
AcDbBlockTableRecord
  2
block 86
340
0
102
{BLKREFS
331
2F0
102
}
  0
BLOCK_RECORD
  5
2F7
330
1
100
AcDbSymbolTableRecord
100
AcDbBlockTableRecord
  2
block 87
340
0
102
{BLKREFS
331
2F8
102
}
  0
BLOCK_RECORD
  5
2FF
330
1
100
AcDbSymbolTableRecord
100
AcDbBlockTableRecord
  2
block 88
340
0
102
{BLKREFS
331
300
102
}
  0
BLOCK_RECORD
  5
307
330
1
100
AcDbSymbolTableRecord
100
AcDbBlockTableRecord
  2
block 89
340
0
102
{BLKREFS
331
308
102
}
  0
BLOCK_RECORD
  5
30F
330
1
100
AcDbSymbolTableRecord
100
AcDbBlockTableRecord
  2
block 90
340
0
102
{BLKREFS
331
310
102
}
  0
BLOCK_RECORD
  5
317
330
1
100
AcDbSymbolTableRecord
100
AcDbBlockTableRecord
  2
block 91
340
0
102
{BLKREFS
331
318
102
}
  0
BLOCK_RECORD
  5
31F
330
1
100
AcDbSymbolTableRecord
100
AcDbBlockTableRecord
  2
block 92
340
0
102
{BLKREFS
331
320
102
}
  0
BLOCK_RECORD
  5
327
330
1
100
AcDbSymbolTableRecord
100
AcDbBlockTableRecord
  2
block 93
340
0
102
{BLKREFS
331
328
102
}
  0
BLOCK_RECORD
  5
32F
330
1
100
AcDbSymbolTableRecord
100
AcDbBlockTableRecord
  2
block 94
340
0
102
{BLKREFS
331
330
102
}
  0
BLOCK_RECORD
  5
337
330
1
100
AcDbSymbolTableRecord
100
AcDbBlockTableRecord
  2
block 95
340
0
102
{BLKREFS
331
338
102
}
  0
BLOCK_RECORD
  5
33F
330
1
100
AcDbSymbolTableRecord
100
AcDbBlockTableRecord
  2
block 96
340
0
102
{BLKREFS
331
340
102
}
  0
ENDTAB
  0
ENDSEC
  0
SECTION
  2
BLOCKS
  0
BLOCK
  5
20
330
1F
100
AcDbEntity
  8
0
100
AcDbBlockBegin
  2
*Model_Space
 70
     0
 71
     0
 10
0.0
 20
0.0
 30
0.0
  3
*Model_Space
  1

  0
ENDBLK
  5
21
330
1F
100
AcDbEntity
  8
0
100
AcDbBlockEnd
  0
BLOCK
  5
1C
330
1B
100
AcDbEntity
 67
     1
  8
0
100
AcDbBlockBegin
  2
*Paper_Space
 70
     0
 71
     0
 10
0.0
 20
0.0
 30
0.0
  3
*Paper_Space
  1

  0
ENDBLK
  5
1D
330
1B
100
AcDbEntity
 67
     1
  8
0
100
AcDbBlockEnd
  0
BLOCK
  5
24
330
23
100
AcDbEntity
  8
0
100
AcDbBlockBegin
  2
*Paper_Space0
 70
     0
 71
     0
 10
0.0
 20
0.0
 30
0.0
  3
*Paper_Space0
  1

  0
ENDBLK
  5
25
330
23
100
AcDbEntity
  8
0
100
AcDbBlockEnd
  0
BLOCK
  5
3E
330
3C
100
AcDbEntity
  8
0
100
AcDbBlockBegin
  2
block 2
 70
     0
 71
     0
 10
0.0
 20
0.0
 30
0.0
  3
block 2
  1

  0
POLYLINE
  5
40
330
3C
100
AcDbEntity
  8
Schneiden
370
     0
100
AcDb2dPolyline
 66
     1
 10
0.0
 20
0.0
 30
0.0
  0
VERTEX
  5
41
330
40
100
AcDbEntity
  8
Schneiden
370
     0
100
AcDbVertex
100
AcDb2dVertex
 10
188.845665100358
 20
160.6277492545479
 30
0.0
  0
VERTEX
  5
42
330
40
100
AcDbEntity
  8
Schneiden
370
     0
100
AcDbVertex
100
AcDb2dVertex
 10
188.845665100358
 20
150.6278428442875
 30
0.0
  0
VERTEX
  5
43
330
40
100
AcDbEntity
  8
Schneiden
370
     0
100
AcDbVertex
100
AcDb2dVertex
 10
191.6957925953052
 20
150.6278428442875
 30
0.0
  0
VERTEX
  5
44
330
40
100
AcDbEntity
  8
Schneiden
370
     0
100
AcDbVertex
100
AcDb2dVertex
 10
191.6957925953052
 20
160.6277492545479
 30
0.0
  0
VERTEX
  5
45
330
40
100
AcDbEntity
  8
Schneiden
370
     0
100
AcDbVertex
100
AcDb2dVertex
 10
188.845665100358
 20
160.6277492545479
 30
0.0
  0
SEQEND
  5
46
330
40
100
AcDbEntity
  8
Schneiden
370
     0
  0
ENDBLK
  5
3F
330
3C
100
AcDbEntity
  8
0
100
AcDbBlockEnd
  0
BLOCK
  5
49
330
47
100
AcDbEntity
  8
0
100
AcDbBlockBegin
  2
block 3
 70
     0
 71
     0
 10
0.0
 20
0.0
 30
0.0
  3
block 3
  1

  0
POLYLINE
  5
4B
330
47
100
AcDbEntity
  8
Schneiden
370
     0
100
AcDb2dPolyline
 66
     1
 10
0.0
 20
0.0
 30
0.0
  0
VERTEX
  5
4C
330
4B
100
AcDbEntity
  8
Schneiden
370
     0
100
AcDbVertex
100
AcDb2dVertex
 10
188.845665100358
 20
32.62781032170416
 30
0.0
  0
VERTEX
  5
4D
330
4B
100
AcDbEntity
  8
Schneiden
370
     0
100
AcDbVertex
100
AcDb2dVertex
 10
188.845665100358
 20
22.62773165666946
 30
0.0
  0
VERTEX
  5
4E
330
4B
100
AcDbEntity
  8
Schneiden
370
     0
100
AcDbVertex
100
AcDb2dVertex
 10
191.6957925953052
 20
22.62773165666946
 30
0.0
  0
VERTEX
  5
4F
330
4B
100
AcDbEntity
  8
Schneiden
370
     0
100
AcDbVertex
100
AcDb2dVertex
 10
191.6957925953052
 20
32.62781032170416
 30
0.0
  0
VERTEX
  5
50
330
4B
100
AcDbEntity
  8
Schneiden
370
     0
100
AcDbVertex
100
AcDb2dVertex
 10
188.845665100358
 20
32.62781032170416
 30
0.0
  0
SEQEND
  5
51
330
4B
100
AcDbEntity
  8
Schneiden
370
     0
  0
ENDBLK
  5
4A
330
47
100
AcDbEntity
  8
0
100
AcDbBlockEnd
  0
BLOCK
  5
54
330
52
100
AcDbEntity
  8
0
100
AcDbBlockBegin
  2
block 4
 70
     0
 71
     0
 10
0.0
 20
0.0
 30
0.0
  3
block 4
  1

  0
POLYLINE
  5
56
330
52
100
AcDbEntity
  8
Schneiden
370
     0
100
AcDb2dPolyline
 66
     1
 10
0.0
 20
0.0
 30
0.0
  0
VERTEX
  5
57
330
56
100
AcDbEntity
  8
Schneiden
370
     0
100
AcDbVertex
100
AcDb2dVertex
 10
210.6958387060066
 20
32.62781032170416
 30
0.0
  0
VERTEX
  5
58
330
56
100
AcDbEntity
  8
Schneiden
370
     0
100
AcDbVertex
100
AcDb2dVertex
 10
210.6958387060066
 20
22.62773165666946
 30
0.0
  0
VERTEX
  5
59
330
56
100
AcDbEntity
  8
Schneiden
370
     0
100
AcDbVertex
100
AcDb2dVertex
 10
213.5459662009538
 20
22.62773165666946
 30
0.0
  0
VERTEX
  5
5A
330
56
100
AcDbEntity
  8
Schneiden
370
     0
100
AcDbVertex
100
AcDb2dVertex
 10
213.5459662009538
 20
32.62781032170416
 30
0.0
  0
VERTEX
  5
5B
330
56
100
AcDbEntity
  8
Schneiden
370
     0
100
AcDbVertex
100
AcDb2dVertex
 10
210.6958387060066
 20
32.62781032170416
 30
0.0
  0
SEQEND
  5
5C
330
56
100
AcDbEntity
  8
Schneiden
370
     0
  0
ENDBLK
  5
55
330
52
100
AcDbEntity
  8
0
100
AcDbBlockEnd
  0
BLOCK
  5
5F
330
5D
100
AcDbEntity
  8
0
100
AcDbBlockBegin
  2
block 5
 70
     0
 71
     0
 10
0.0
 20
0.0
 30
0.0
  3
block 5
  1

  0
POLYLINE
  5
61
330
5D
100
AcDbEntity
  8
Schneiden
370
     0
100
AcDb2dPolyline
 66
     1
 10
0.0
 20
0.0
 30
0.0
  0
VERTEX
  5
62
330
61
100
AcDbEntity
  8
Schneiden
370
     0
100
AcDbVertex
100
AcDb2dVertex
 10
210.6958387060066
 20
160.6277492545479
 30
0.0
  0
VERTEX
  5
63
330
61
100
AcDbEntity
  8
Schneiden
370
     0
100
AcDbVertex
100
AcDb2dVertex
 10
210.6958387060066
 20
150.6278428442875
 30
0.0
  0
VERTEX
  5
64
330
61
100
AcDbEntity
  8
Schneiden
370
     0
100
AcDbVertex
100
AcDb2dVertex
 10
213.5459662009538
 20
150.6278428442875
 30
0.0
  0
VERTEX
  5
65
330
61
100
AcDbEntity
  8
Schneiden
370
     0
100
AcDbVertex
100
AcDb2dVertex
 10
213.5459662009538
 20
160.6277492545479
 30
0.0
  0
VERTEX
  5
66
330
61
100
AcDbEntity
  8
Schneiden
370
     0
100
AcDbVertex
100
AcDb2dVertex
 10
210.6958387060066
 20
160.6277492545479
 30
0.0
  0
SEQEND
  5
67
330
61
100
AcDbEntity
  8
Schneiden
370
     0
  0
ENDBLK
  5
60
330
5D
100
AcDbEntity
  8
0
100
AcDbBlockEnd
  0
BLOCK
  5
6A
330
68
100
AcDbEntity
  8
0
100
AcDbBlockBegin
  2
block 6
 70
     0
 71
     0
 10
0.0
 20
0.0
 30
0.0
  3
block 6
  1

  0
POLYLINE
  5
6C
330
68
100
AcDbEntity
  8
Schneiden
370
     0
100
AcDb2dPolyline
 66
     1
 10
0.0
 20
0.0
 30
0.0
  0
VERTEX
  5
6D
330
6C
100
AcDbEntity
  8
Schneiden
370
     0
100
AcDbVertex
100
AcDb2dVertex
 10
206.1958549831733
 20
237.1278170522632
 30
0.0
  0
VERTEX
  5
6E
330
6C
100
AcDbEntity
  8
Schneiden
370
     0
100
AcDbVertex
100
AcDb2dVertex
 10
206.1958549831733
 20
234.2778618120903
 30
0.0
  0
VERTEX
  5
6F
330
6C
100
AcDbEntity
  8
Schneiden
370
     0
100
AcDbVertex
100
AcDb2dVertex
 10
216.195933648208
 20
234.2778618120903
 30
0.0
  0
VERTEX
  5
70
330
6C
100
AcDbEntity
  8
Schneiden
370
     0
100
AcDbVertex
100
AcDb2dVertex
 10
216.195933648208
 20
237.1278170522632
 30
0.0
  0
VERTEX
  5
71
330
6C
100
AcDbEntity
  8
Schneiden
370
     0
100
AcDbVertex
100
AcDb2dVertex
 10
206.1958549831733
 20
237.1278170522632
 30
0.0
  0
SEQEND
  5
72
330
6C
100
AcDbEntity
  8
Schneiden
370
     0
  0
ENDBLK
  5
6B
330
68
100
AcDbEntity
  8
0
100
AcDbBlockEnd
  0
BLOCK
  5
75
330
73
100
AcDbEntity
  8
0
100
AcDbBlockBegin
  2
block 7
 70
     0
 71
     0
 10
0.0
 20
0.0
 30
0.0
  3
block 7
  1

  0
POLYLINE
  5
77
330
73
100
AcDbEntity
  8
Schneiden
370
     0
100
AcDb2dPolyline
 66
     1
 10
0.0
 20
0.0
 30
0.0
  0
VERTEX
  5
78
330
77
100
AcDbEntity
  8
Schneiden
370
     0
100
AcDbVertex
100
AcDb2dVertex
 10
138.8457885395073
 20
175.6278672521
 30
0.0
  0
VERTEX
  5
79
330
77
100
AcDbEntity
  8
Schneiden
370
     0
100
AcDbVertex
100
AcDb2dVertex
 10
138.8457885395073
 20
165.6277885870653
 30
0.0
  0
VERTEX
  5
7A
330
77
100
AcDbEntity
  8
Schneiden
370
     0
100
AcDbVertex
100
AcDb2dVertex
 10
141.6957437796802
 20
165.6277885870653
 30
0.0
  0
VERTEX
  5
7B
330
77
100
AcDbEntity
  8
Schneiden
370
     0
100
AcDbVertex
100
AcDb2dVertex
 10
141.6957437796802
 20
175.6278672521
 30
0.0
  0
VERTEX
  5
7C
330
77
100
AcDbEntity
  8
Schneiden
370
     0
100
AcDbVertex
100
AcDb2dVertex
 10
138.8457885395073
 20
175.6278672521
 30
0.0
  0
SEQEND
  5
7D
330
77
100
AcDbEntity
  8
Schneiden
370
     0
  0
ENDBLK
  5
76
330
73
100
AcDbEntity
  8
0
100
AcDbBlockEnd
  0
BLOCK
  5
80
330
7E
100
AcDbEntity
  8
0
100
AcDbBlockBegin
  2
block 8
 70
     0
 71
     0
 10
0.0
 20
0.0
 30
0.0
  3
block 8
  1

  0
POLYLINE
  5
82
330
7E
100
AcDbEntity
  8
Schneiden
370
     0
100
AcDb2dPolyline
 66
     1
 10
0.0
 20
0.0
 30
0.0
  0
VERTEX
  5
83
330
82
100
AcDbEntity
  8
Schneiden
370
     0
100
AcDbVertex
100
AcDb2dVertex
 10
71.19582653385035
 20
237.1278170522632
 30
0.0
  0
VERTEX
  5
84
330
82
100
AcDbEntity
  8
Schneiden
370
     0
100
AcDbVertex
100
AcDb2dVertex
 10
71.19582653385035
 20
234.2778618120903
 30
0.0
  0
VERTEX
  5
85
330
82
100
AcDbEntity
  8
Schneiden
370
     0
100
AcDbVertex
100
AcDb2dVertex
 10
81.19590519888506
 20
234.2778618120903
 30
0.0
  0
VERTEX
  5
86
330
82
100
AcDbEntity
  8
Schneiden
370
     0
100
AcDbVertex
100
AcDb2dVertex
 10
81.19590519888506
 20
237.1278170522632
 30
0.0
  0
VERTEX
  5
87
330
82
100
AcDbEntity
  8
Schneiden
370
     0
100
AcDbVertex
100
AcDb2dVertex
 10
71.19582653385035
 20
237.1278170522632
 30
0.0
  0
SEQEND
  5
88
330
82
100
AcDbEntity
  8
Schneiden
370
     0
  0
ENDBLK
  5
81
330
7E
100
AcDbEntity
  8
0
100
AcDbBlockEnd
  0
BLOCK
  5
8B
330
89
100
AcDbEntity
  8
0
100
AcDbBlockBegin
  2
block 9
 70
     0
 71
     0
 10
0.0
 20
0.0
 30
0.0
  3
block 9
  1

  0
POLYLINE
  5
8D
330
89
100
AcDbEntity
  8
Schneiden
370
     0
100
AcDb2dPolyline
 66
     1
 10
0.0
 20
0.0
 30
0.0
  0
VERTEX
  5
8E
330
8D
100
AcDbEntity
  8
Schneiden
370
     0
100
AcDbVertex
100
AcDb2dVertex
 10
145.6958441476038
 20
56.62772351014863
 30
0.0
  0
VERTEX
  5
8F
330
8D
100
AcDbEntity
  8
Schneiden
370
     0
100
AcDbVertex
100
AcDb2dVertex
 10
145.6958441476038
 20
46.62764484511393
 30
0.0
  0
VERTEX
  5
90
330
8D
100
AcDbEntity
  8
Schneiden
370
     0
100
AcDbVertex
100
AcDb2dVertex
 10
148.545971642551
 20
46.62764484511393
 30
0.0
  0
VERTEX
  5
91
330
8D
100
AcDbEntity
  8
Schneiden
370
     0
100
AcDbVertex
100
AcDb2dVertex
 10
148.545971642551
 20
56.62772351014863
 30
0.0
  0
VERTEX
  5
92
330
8D
100
AcDbEntity
  8
Schneiden
370
     0
100
AcDbVertex
100
AcDb2dVertex
 10
145.6958441476038
 20
56.62772351014863
 30
0.0
  0
SEQEND
  5
93
330
8D
100
AcDbEntity
  8
Schneiden
370
     0
  0
ENDBLK
  5
8C
330
89
100
AcDbEntity
  8
0
100
AcDbBlockEnd
  0
BLOCK
  5
96
330
94
100
AcDbEntity
  8
0
100
AcDbBlockBegin
  2
block 10
 70
     0
 71
     0
 10
0.0
 20
0.0
 30
0.0
  3
block 10
  1

  0
POLYLINE
  5
98
330
94
100
AcDbEntity
  8
Schneiden
370
     0
100
AcDb2dPolyline
 66
     1
 10
0.0
 20
0.0
 30
0.0
  0
VERTEX
  5
99
330
98
100
AcDbEntity
  8
Schneiden
370
     0
100
AcDbVertex
100
AcDb2dVertex
 10
95.69579533197883
 20
32.62781032170416
 30
0.0
  0
VERTEX
  5
9A
330
98
100
AcDbEntity
  8
Schneiden
370
     0
100
AcDbVertex
100
AcDb2dVertex
 10
95.69579533197883
 20
22.62773165666946
 30
0.0
  0
VERTEX
  5
9B
330
98
100
AcDbEntity
  8
Schneiden
370
     0
100
AcDbVertex
100
AcDb2dVertex
 10
98.54592282692603
 20
22.62773165666946
 30
0.0
  0
VERTEX
  5
9C
330
98
100
AcDbEntity
  8
Schneiden
370
     0
100
AcDbVertex
100
AcDb2dVertex
 10
98.54592282692603
 20
32.62781032170416
 30
0.0
  0
VERTEX
  5
9D
330
98
100
AcDbEntity
  8
Schneiden
370
     0
100
AcDbVertex
100
AcDb2dVertex
 10
95.69579533197883
 20
32.62781032170416
 30
0.0
  0
SEQEND
  5
9E
330
98
100
AcDbEntity
  8
Schneiden
370
     0
  0
ENDBLK
  5
97
330
94
100
AcDbEntity
  8
0
100
AcDbBlockEnd
  0
BLOCK
  5
A1
330
9F
100
AcDbEntity
  8
0
100
AcDbBlockBegin
  2
block 11
 70
     0
 71
     0
 10
0.0
 20
0.0
 30
0.0
  3
block 11
  1

  0
POLYLINE
  5
A3
330
9F
100
AcDbEntity
  8
Schneiden
370
     0
100
AcDb2dPolyline
 66
     1
 10
0.0
 20
0.0
 30
0.0
  0
VERTEX
  5
A4
330
A3
100
AcDbEntity
  8
Schneiden
370
     0
100
AcDbVertex
100
AcDb2dVertex
 10
73.84579398110452
 20
32.62781032170416
 30
0.0
  0
VERTEX
  5
A5
330
A3
100
AcDbEntity
  8
Schneiden
370
     0
100
AcDbVertex
100
AcDb2dVertex
 10
73.84579398110452
 20
22.62773165666946
 30
0.0
  0
VERTEX
  5
A6
330
A3
100
AcDbEntity
  8
Schneiden
370
     0
100
AcDbVertex
100
AcDb2dVertex
 10
76.69574922127745
 20
22.62773165666946
 30
0.0
  0
VERTEX
  5
A7
330
A3
100
AcDbEntity
  8
Schneiden
370
     0
100
AcDbVertex
100
AcDb2dVertex
 10
76.69574922127745
 20
32.62781032170416
 30
0.0
  0
VERTEX
  5
A8
330
A3
100
AcDbEntity
  8
Schneiden
370
     0
100
AcDbVertex
100
AcDb2dVertex
 10
73.84579398110452
 20
32.62781032170416
 30
0.0
  0
SEQEND
  5
A9
330
A3
100
AcDbEntity
  8
Schneiden
370
     0
  0
ENDBLK
  5
A2
330
9F
100
AcDbEntity
  8
0
100
AcDbBlockEnd
  0
BLOCK
  5
AC
330
AA
100
AcDbEntity
  8
0
100
AcDbBlockBegin
  2
block 12
 70
     0
 71
     0
 10
0.0
 20
0.0
 30
0.0
  3
block 12
  1

  0
POLYLINE
  5
AE
330
AA
100
AcDbEntity
  8
Schneiden
370
     0
100
AcDb2dPolyline
 66
     1
 10
0.0
 20
0.0
 30
0.0
  0
VERTEX
  5
AF
330
AE
100
AcDbEntity
  8
Schneiden
370
     0
100
AcDbVertex
100
AcDb2dVertex
 10
71.19582653385035
 20
160.6277492545479
 30
0.0
  0
VERTEX
  5
B0
330
AE
100
AcDbEntity
  8
Schneiden
370
     0
100
AcDbVertex
100
AcDb2dVertex
 10
71.19582653385035
 20
150.6278428442875
 30
0.0
  0
VERTEX
  5
B1
330
AE
100
AcDbEntity
  8
Schneiden
370
     0
100
AcDbVertex
100
AcDb2dVertex
 10
74.04578177402328
 20
150.6278428442875
 30
0.0
  0
VERTEX
  5
B2
330
AE
100
AcDbEntity
  8
Schneiden
370
     0
100
AcDbVertex
100
AcDb2dVertex
 10
74.04578177402328
 20
160.6277492545479
 30
0.0
  0
VERTEX
  5
B3
330
AE
100
AcDbEntity
  8
Schneiden
370
     0
100
AcDbVertex
100
AcDb2dVertex
 10
71.19582653385035
 20
160.6277492545479
 30
0.0
  0
SEQEND
  5
B4
330
AE
100
AcDbEntity
  8
Schneiden
370
     0
  0
ENDBLK
  5
AD
330
AA
100
AcDbEntity
  8
0
100
AcDbBlockEnd
  0
BLOCK
  5
B7
330
B5
100
AcDbEntity
  8
0
100
AcDbBlockBegin
  2
block 13
 70
     0
 71
     0
 10
0.0
 20
0.0
 30
0.0
  3
block 13
  1

  0
POLYLINE
  5
B9
330
B5
100
AcDbEntity
  8
Schneiden
370
     0
100
AcDb2dPolyline
 66
     1
 10
0.0
 20
0.0
 30
0.0
  0
VERTEX
  5
BA
330
B9
100
AcDbEntity
  8
Schneiden
370
     0
100
AcDbVertex
100
AcDb2dVertex
 10
56.19588079107256
 20
32.62781032170416
 30
0.0
  0
VERTEX
  5
BB
330
B9
100
AcDbEntity
  8
Schneiden
370
     0
100
AcDbVertex
100
AcDb2dVertex
 10
56.19588079107256
 20
17.62786457892637
 30
0.0
  0
SEQEND
  5
BC
330
B9
100
AcDbEntity
  8
Schneiden
370
     0
  0
ENDBLK
  5
B8
330
B5
100
AcDbEntity
  8
0
100
AcDbBlockEnd
  0
BLOCK
  5
BF
330
BD
100
AcDbEntity
  8
0
100
AcDbBlockBegin
  2
block 14
 70
     0
 71
     0
 10
0.0
 20
0.0
 30
0.0
  3
block 14
  1

  0
POLYLINE
  5
C1
330
BD
100
AcDbEntity
  8
Schneiden
370
     0
100
AcDb2dPolyline
 66
     1
 10
0.0
 20
0.0
 30
0.0
  0
VERTEX
  5
C2
330
C1
100
AcDbEntity
  8
Schneiden
370
     0
100
AcDbVertex
100
AcDb2dVertex
 10
231.1958793909858
 20
17.62786457892637
 30
0.0
  0
VERTEX
  5
C3
330
C1
100
AcDbEntity
  8
Schneiden
370
     0
100
AcDbVertex
100
AcDb2dVertex
 10
231.1958793909858
 20
32.62781032170416
 30
0.0
  0
SEQEND
  5
C4
330
C1
100
AcDbEntity
  8
Schneiden
370
     0
  0
ENDBLK
  5
C0
330
BD
100
AcDbEntity
  8
0
100
AcDbBlockEnd
  0
BLOCK
  5
C7
330
C5
100
AcDbEntity
  8
0
100
AcDbBlockBegin
  2
block 15
 70
     0
 71
     0
 10
0.0
 20
0.0
 30
0.0
  3
block 15
  1

  0
POLYLINE
  5
C9
330
C5
100
AcDbEntity
  8
Schneiden
370
     0
100
AcDb2dPolyline
 66
     1
 10
0.0
 20
0.0
 30
0.0
  0
VERTEX
  5
CA
330
C9
100
AcDbEntity
  8
Schneiden
370
     0
100
AcDbVertex
100
AcDb2dVertex
 10
198.6958821117844
 20
245.1278455333361
 30
0.0
  0
VERTEX
  5
CB
330
C9
100
AcDbEntity
  8
Schneiden
370
     0
100
AcDbVertex
100
AcDb2dVertex
 10
198.6958821117844
 20
230.1277275357841
 30
0.0
  0
SEQEND
  5
CC
330
C9
100
AcDbEntity
  8
Schneiden
370
     0
  0
ENDBLK
  5
C8
330
C5
100
AcDbEntity
  8
0
100
AcDbBlockEnd
  0
BLOCK
  5
CF
330
CD
100
AcDbEntity
  8
0
100
AcDbBlockBegin
  2
block 16
 70
     0
 71
     0
 10
0.0
 20
0.0
 30
0.0
  3
block 16
  1

  0
POLYLINE
  5
D1
330
CD
100
AcDbEntity
  8
Schneiden
370
     0
100
AcDb2dPolyline
 66
     1
 10
0.0
 20
0.0
 30
0.0
  0
VERTEX
  5
D2
330
D1
100
AcDbEntity
  8
Schneiden
370
     0
100
AcDbVertex
100
AcDb2dVertex
 10
198.6958821117844
 20
230.1277275357841
 30
0.0
  0
VERTEX
  5
D3
330
D1
100
AcDbEntity
  8
Schneiden
370
     0
100
AcDbVertex
100
AcDb2dVertex
 10
98.69578448053439
 20
230.1277275357841
 30
0.0
  0
SEQEND
  5
D4
330
D1
100
AcDbEntity
  8
Schneiden
370
     0
  0
ENDBLK
  5
D0
330
CD
100
AcDbEntity
  8
0
100
AcDbBlockEnd
  0
BLOCK
  5
D7
330
D5
100
AcDbEntity
  8
0
100
AcDbBlockBegin
  2
block 17
 70
     0
 71
     0
 10
0.0
 20
0.0
 30
0.0
  3
block 17
  1

  0
POLYLINE
  5
D9
330
D5
100
AcDbEntity
  8
Schneiden
370
     0
100
AcDb2dPolyline
 66
     1
 10
0.0
 20
0.0
 30
0.0
  0
VERTEX
  5
DA
330
D9
100
AcDbEntity
  8
Schneiden
370
     0
100
AcDbVertex
100
AcDb2dVertex
 10
98.69578448053439
 20
230.1277275357841
 30
0.0
  0
VERTEX
  5
DB
330
D9
100
AcDbEntity
  8
Schneiden
370
     0
100
AcDbVertex
100
AcDb2dVertex
 10
98.69578448053439
 20
245.1278455333361
 30
0.0
  0
SEQEND
  5
DC
330
D9
100
AcDbEntity
  8
Schneiden
370
     0
  0
ENDBLK
  5
D8
330
D5
100
AcDbEntity
  8
0
100
AcDbBlockEnd
  0
BLOCK
  5
DF
330
DD
100
AcDbEntity
  8
0
100
AcDbBlockBegin
  2
block 18
 70
     0
 71
     0
 10
0.0
 20
0.0
 30
0.0
  3
block 18
  1

  0
POLYLINE
  5
E1
330
DD
100
AcDbEntity
  8
Schneiden
370
     0
100
AcDb2dPolyline
 66
     1
 10
0.0
 20
0.0
 30
0.0
  0
VERTEX
  5
E2
330
E1
100
AcDbEntity
  8
Schneiden
370
     0
100
AcDbVertex
100
AcDb2dVertex
 10
241.1959580560205
 20
245.1278455333361
 30
0.0
  0
VERTEX
  5
E3
330
E1
100
AcDbEntity
  8
Schneiden
370
     0
100
AcDbVertex
100
AcDb2dVertex
 10
198.6958821117844
 20
245.1278455333361
 30
0.0
  0
SEQEND
  5
E4
330
E1
100
AcDbEntity
  8
Schneiden
370
     0
  0
ENDBLK
  5
E0
330
DD
100
AcDbEntity
  8
0
100
AcDbBlockEnd
  0
BLOCK
  5
E7
330
E5
100
AcDbEntity
  8
0
100
AcDbBlockBegin
  2
block 19
 70
     0
 71
     0
 10
0.0
 20
0.0
 30
0.0
  3
block 19
  1

  0
POLYLINE
  5
E9
330
E5
100
AcDbEntity
  8
Schneiden
370
     0
100
AcDb2dPolyline
 66
     1
 10
0.0
 20
0.0
 30
0.0
  0
VERTEX
  5
EA
330
E9
100
AcDbEntity
  8
Schneiden
370
     0
100
AcDbVertex
100
AcDb2dVertex
 10
231.1958793909858
 20
8.627897133259692
 30
0.0
  0
VERTEX
  5
EB
330
E9
100
AcDbEntity
  8
Schneiden
370
     0
100
AcDbVertex
100
AcDb2dVertex
 10
231.1958793909858
 20
-7.872387693344403
 30
0.0
  0
VERTEX
  5
EC
330
E9
100
AcDbEntity
  8
Schneiden
370
     0
100
AcDbVertex
100
AcDb2dVertex
 10
56.19588079107256
 20
-7.872387693344403
 30
0.0
  0
VERTEX
  5
ED
330
E9
100
AcDbEntity
  8
Schneiden
370
     0
100
AcDbVertex
100
AcDb2dVertex
 10
56.19588079107256
 20
8.627897133259692
 30
0.0
  0
VERTEX
  5
EE
330
E9
100
AcDbEntity
  8
Schneiden
370
     0
100
AcDbVertex
100
AcDb2dVertex
 10
231.1958793909858
 20
8.627897133259692
 30
0.0
  0
SEQEND
  5
EF
330
E9
100
AcDbEntity
  8
Schneiden
370
     0
  0
ENDBLK
  5
E8
330
E5
100
AcDbEntity
  8
0
100
AcDbBlockEnd
  0
BLOCK
  5
F2
330
F0
100
AcDbEntity
  8
0
100
AcDbBlockBegin
  2
block 20
 70
     0
 71
     0
 10
0.0
 20
0.0
 30
0.0
  3
block 20
  1

  0
POLYLINE
  5
F4
330
F0
100
AcDbEntity
  8
Schneiden
370
     0
100
AcDb2dPolyline
 66
     1
 10
0.0
 20
0.0
 30
0.0
  0
VERTEX
  5
F5
330
F4
100
AcDbEntity
  8
Schneiden
370
     0
100
AcDbVertex
100
AcDb2dVertex
 10
56.19588079107256
 20
-25.87232258467775
 30
0.0
  0
VERTEX
  5
F6
330
F4
100
AcDbEntity
  8
Schneiden
370
     0
100
AcDbVertex
100
AcDb2dVertex
 10
56.19588079107256
 20
-34.87229003034443
 30
0.0
  0
SEQEND
  5
F7
330
F4
100
AcDbEntity
  8
Schneiden
370
     0
  0
ENDBLK
  5
F3
330
F0
100
AcDbEntity
  8
0
100
AcDbBlockEnd
  0
BLOCK
  5
FA
330
F8
100
AcDbEntity
  8
0
100
AcDbBlockBegin
  2
block 21
 70
     0
 71
     0
 10
0.0
 20
0.0
 30
0.0
  3
block 21
  1

  0
POLYLINE
  5
FC
330
F8
100
AcDbEntity
  8
Schneiden
370
     0
100
AcDb2dPolyline
 66
     1
 10
0.0
 20
0.0
 30
0.0
  0
VERTEX
  5
FD
330
FC
100
AcDbEntity
  8
Schneiden
370
     0
100
AcDbVertex
100
AcDb2dVertex
 10
56.19588079107256
 20
-34.87229003034443
 30
0.0
  0
VERTEX
  5
FE
330
FC
100
AcDbEntity
  8
Schneiden
370
     0
100
AcDbVertex
100
AcDb2dVertex
 10
123.6958088883469
 20
-34.87229003034443
 30
0.0
  0
SEQEND
  5
FF
330
FC
100
AcDbEntity
  8
Schneiden
370
     0
  0
ENDBLK
  5
FB
330
F8
100
AcDbEntity
  8
0
100
AcDbBlockEnd
  0
BLOCK
  5
102
330
100
100
AcDbEntity
  8
0
100
AcDbBlockBegin
  2
block 22
 70
     0
 71
     0
 10
0.0
 20
0.0
 30
0.0
  3
block 22
  1

  0
POLYLINE
  5
104
330
100
100
AcDbEntity
  8
Schneiden
370
     0
100
AcDb2dPolyline
 66
     1
 10
0.0
 20
0.0
 30
0.0
  0
VERTEX
  5
105
330
104
100
AcDbEntity
  8
Schneiden
370
     0
100
AcDbVertex
100
AcDb2dVertex
 10
163.6957790389372
 20
-34.87229003034443
 30
0.0
  0
VERTEX
  5
106
330
104
100
AcDbEntity
  8
Schneiden
370
     0
100
AcDbVertex
100
AcDb2dVertex
 10
231.1958793909858
 20
-34.87229003034443
 30
0.0
  0
SEQEND
  5
107
330
104
100
AcDbEntity
  8
Schneiden
370
     0
  0
ENDBLK
  5
103
330
100
100
AcDbEntity
  8
0
100
AcDbBlockEnd
  0
BLOCK
  5
10A
330
108
100
AcDbEntity
  8
0
100
AcDbBlockBegin
  2
block 23
 70
     0
 71
     0
 10
0.0
 20
0.0
 30
0.0
  3
block 23
  1

  0
POLYLINE
  5
10C
330
108
100
AcDbEntity
  8
Schneiden
370
     0
100
AcDb2dPolyline
 66
     1
 10
0.0
 20
0.0
 30
0.0
  0
VERTEX
  5
10D
330
10C
100
AcDbEntity
  8
Schneiden
370
     0
100
AcDbVertex
100
AcDb2dVertex
 10
231.1958793909858
 20
-34.87229003034443
 30
0.0
  0
VERTEX
  5
10E
330
10C
100
AcDbEntity
  8
Schneiden
370
     0
100
AcDbVertex
100
AcDb2dVertex
 10
231.1958793909858
 20
-25.87232258467775
 30
0.0
  0
SEQEND
  5
10F
330
10C
100
AcDbEntity
  8
Schneiden
370
     0
  0
ENDBLK
  5
10B
330
108
100
AcDbEntity
  8
0
100
AcDbBlockEnd
  0
BLOCK
  5
112
330
110
100
AcDbEntity
  8
0
100
AcDbBlockBegin
  2
block 24
 70
     0
 71
     0
 10
0.0
 20
0.0
 30
0.0
  3
block 24
  1

  0
SPLINE
  5
114
330
110
100
AcDbEntity
  8
Schneiden
370
     0
100
AcDbSpline
210
0.0
220
0.0
230
1.0
 70
    11
 71
     3
 72
    20
 73
    16
 74
     0
 42
0.0000000001
 43
0.0000000001
 40
0.0
 40
0.0
 40
0.0
 40
0.0
 40
1.0
 40
1.0
 40
1.0
 40
2.0
 40
2.0
 40
2.0
 40
3.0
 40
3.0
 40
3.0
 40
4.0
 40
4.0
 40
4.0
 40
5.0
 40
5.0
 40
5.0
 40
5.0
 10
107.9296739096495
 20
237.6278726619472
 30
0.0
 10
107.9296739096495
 20
238.3458305610733
 30
0.0
 10
107.3476250274166
 20
238.927707188532
 30
0.0
 10
106.6296671282905
 20
238.927707188532
 30
0.0
 10
105.9117092291644
 20
238.927707188532
 30
0.0
 10
105.3296603469315
 20
238.3458305610733
 30
0.0
 10
105.3296603469315
 20
237.6278726619472
 30
0.0
 10
105.3296603469315
 20
236.9097425080469
 30
0.0
 10
105.9117092291644
 20
236.3276936258139
 30
0.0
 10
106.6296671282905
 20
236.3276936258139
 30
0.0
 10
107.3476250274166
 20
236.3276936258139
 30
0.0
 10
107.9296739096495
 20
236.9097425080469
 30
0.0
 10
107.9296739096495
 20
237.6278726619472
 30
0.0
 10
107.9296739096495
 20
237.6278726619472
 30
0.0
 10
107.9296739096495
 20
237.6278726619472
 30
0.0
 10
107.9296739096495
 20
237.6278726619472
 30
0.0
  0
ENDBLK
  5
113
330
110
100
AcDbEntity
  8
0
100
AcDbBlockEnd
  0
BLOCK
  5
117
330
115
100
AcDbEntity
  8
0
100
AcDbBlockBegin
  2
block 25
 70
     0
 71
     0
 10
0.0
 20
0.0
 30
0.0
  3
block 25
  1

  0
SPLINE
  5
119
330
115
100
AcDbEntity
  8
Schneiden
370
     0
100
AcDbSpline
210
0.0
220
0.0
230
1.0
 70
    11
 71
     3
 72
    20
 73
    16
 74
     0
 42
0.0000000001
 43
0.0000000001
 40
0.0
 40
0.0
 40
0.0
 40
0.0
 40
1.0
 40
1.0
 40
1.0
 40
2.0
 40
2.0
 40
2.0
 40
3.0
 40
3.0
 40
3.0
 40
4.0
 40
4.0
 40
4.0
 40
5.0
 40
5.0
 40
5.0
 40
5.0
 10
178.695724781715
 20
244.877731601107
 30
0.0
 10
178.695724781715
 20
244.877731601107
 30
0.0
 10
178.695724781715
 20
230.3778414680132
 30
0.0
 10
178.695724781715
 20
230.3778414680132
 30
0.0
 10
178.695724781715
 20
230.3778414680132
 30
0.0
 10
106.6296671282905
 20
230.3778414680132
 30
0.0
 10
106.6296671282905
 20
230.3778414680132
 30
0.0
 10
102.6256049005589
 20
230.3778414680132
 30
0.0
 10
99.37963593435649
 20
233.6236381794413
 30
0.0
 10
99.37963593435649
 20
237.6278726619472
 30
0.0
 10
99.37963593435649
 20
241.6317626349046
 30
0.0
 10
102.6256049005589
 20
244.877731601107
 30
0.0
 10
106.6296671282905
 20
244.877731601107
 30
0.0
 10
106.6296671282905
 20
244.877731601107
 30
0.0
 10
178.695724781715
 20
244.877731601107
 30
0.0
 10
178.695724781715
 20
244.877731601107
 30
0.0
  0
ENDBLK
  5
118
330
115
100
AcDbEntity
  8
0
100
AcDbBlockEnd
  0
BLOCK
  5
11C
330
11A
100
AcDbEntity
  8
0
100
AcDbBlockBegin
  2
block 26
 70
     0
 71
     0
 10
0.0
 20
0.0
 30
0.0
  3
block 26
  1

  0
POLYLINE
  5
11E
330
11A
100
AcDbEntity
  8
Schneiden
370
     0
100
AcDb2dPolyline
 66
     1
 10
0.0
 20
0.0
 30
0.0
  0
VERTEX
  5
11F
330
11E
100
AcDbEntity
  8
Schneiden
370
     0
100
AcDbVertex
100
AcDb2dVertex
 10
108.6958631455691
 20
-29.02217338684168
 30
0.0
  0
VERTEX
  5
120
330
11E
100
AcDbEntity
  8
Schneiden
370
     0
100
AcDbVertex
100
AcDb2dVertex
 10
108.6958631455691
 20
-31.87230088178887
 30
0.0
  0
VERTEX
  5
121
330
11E
100
AcDbEntity
  8
Schneiden
370
     0
100
AcDbVertex
100
AcDb2dVertex
 10
118.6957695558295
 20
-31.87230088178887
 30
0.0
  0
VERTEX
  5
122
330
11E
100
AcDbEntity
  8
Schneiden
370
     0
100
AcDbVertex
100
AcDb2dVertex
 10
118.6957695558295
 20
-29.02217338684168
 30
0.0
  0
VERTEX
  5
123
330
11E
100
AcDbEntity
  8
Schneiden
370
     0
100
AcDbVertex
100
AcDb2dVertex
 10
108.6958631455691
 20
-29.02217338684168
 30
0.0
  0
SEQEND
  5
124
330
11E
100
AcDbEntity
  8
Schneiden
370
     0
  0
ENDBLK
  5
11D
330
11A
100
AcDbEntity
  8
0
100
AcDbBlockEnd
  0
BLOCK
  5
127
330
125
100
AcDbEntity
  8
0
100
AcDbBlockBegin
  2
block 27
 70
     0
 71
     0
 10
0.0
 20
0.0
 30
0.0
  3
block 27
  1

  0
POLYLINE
  5
129
330
125
100
AcDbEntity
  8
Schneiden
370
     0
100
AcDb2dPolyline
 66
     1
 10
0.0
 20
0.0
 30
0.0
  0
VERTEX
  5
12A
330
129
100
AcDbEntity
  8
Schneiden
370
     0
100
AcDbVertex
100
AcDb2dVertex
 10
61.19592012358991
 20
-29.02217338684168
 30
0.0
  0
VERTEX
  5
12B
330
129
100
AcDbEntity
  8
Schneiden
370
     0
100
AcDbVertex
100
AcDb2dVertex
 10
61.19592012358991
 20
-31.87230088178887
 30
0.0
  0
VERTEX
  5
12C
330
129
100
AcDbEntity
  8
Schneiden
370
     0
100
AcDbVertex
100
AcDb2dVertex
 10
71.19582653385035
 20
-31.87230088178887
 30
0.0
  0
VERTEX
  5
12D
330
129
100
AcDbEntity
  8
Schneiden
370
     0
100
AcDbVertex
100
AcDb2dVertex
 10
71.19582653385035
 20
-29.02217338684168
 30
0.0
  0
VERTEX
  5
12E
330
129
100
AcDbEntity
  8
Schneiden
370
     0
100
AcDbVertex
100
AcDb2dVertex
 10
61.19592012358991
 20
-29.02217338684168
 30
0.0
  0
SEQEND
  5
12F
330
129
100
AcDbEntity
  8
Schneiden
370
     0
  0
ENDBLK
  5
128
330
125
100
AcDbEntity
  8
0
100
AcDbBlockEnd
  0
BLOCK
  5
132
330
130
100
AcDbEntity
  8
0
100
AcDbBlockBegin
  2
block 28
 70
     0
 71
     0
 10
0.0
 20
0.0
 30
0.0
  3
block 28
  1

  0
POLYLINE
  5
134
330
130
100
AcDbEntity
  8
Schneiden
370
     0
100
AcDb2dPolyline
 66
     1
 10
0.0
 20
0.0
 30
0.0
  0
VERTEX
  5
135
330
134
100
AcDbEntity
  8
Schneiden
370
     0
100
AcDbVertex
100
AcDb2dVertex
 10
84.9458916345795
 20
-29.02217338684168
 30
0.0
  0
VERTEX
  5
136
330
134
100
AcDbEntity
  8
Schneiden
370
     0
100
AcDbVertex
100
AcDb2dVertex
 10
84.9458916345795
 20
-31.87230088178887
 30
0.0
  0
VERTEX
  5
137
330
134
100
AcDbEntity
  8
Schneiden
370
     0
100
AcDbVertex
100
AcDb2dVertex
 10
94.94579804483995
 20
-31.87230088178887
 30
0.0
  0
VERTEX
  5
138
330
134
100
AcDbEntity
  8
Schneiden
370
     0
100
AcDbVertex
100
AcDb2dVertex
 10
94.94579804483995
 20
-29.02217338684168
 30
0.0
  0
VERTEX
  5
139
330
134
100
AcDbEntity
  8
Schneiden
370
     0
100
AcDbVertex
100
AcDb2dVertex
 10
84.9458916345795
 20
-29.02217338684168
 30
0.0
  0
SEQEND
  5
13A
330
134
100
AcDbEntity
  8
Schneiden
370
     0
  0
ENDBLK
  5
133
330
130
100
AcDbEntity
  8
0
100
AcDbBlockEnd
  0
BLOCK
  5
13D
330
13B
100
AcDbEntity
  8
0
100
AcDbBlockBegin
  2
block 29
 70
     0
 71
     0
 10
0.0
 20
0.0
 30
0.0
  3
block 29
  1

  0
POLYLINE
  5
13F
330
13B
100
AcDbEntity
  8
Schneiden
370
     0
100
AcDb2dPolyline
 66
     1
 10
0.0
 20
0.0
 30
0.0
  0
VERTEX
  5
140
330
13F
100
AcDbEntity
  8
Schneiden
370
     0
100
AcDbVertex
100
AcDb2dVertex
 10
216.195933648208
 20
-29.02217338684168
 30
0.0
  0
VERTEX
  5
141
330
13F
100
AcDbEntity
  8
Schneiden
370
     0
100
AcDbVertex
100
AcDb2dVertex
 10
216.195933648208
 20
-31.87230088178887
 30
0.0
  0
VERTEX
  5
142
330
13F
100
AcDbEntity
  8
Schneiden
370
     0
100
AcDbVertex
100
AcDb2dVertex
 10
226.1960123132427
 20
-31.87230088178887
 30
0.0
  0
VERTEX
  5
143
330
13F
100
AcDbEntity
  8
Schneiden
370
     0
100
AcDbVertex
100
AcDb2dVertex
 10
226.1960123132427
 20
-29.02217338684168
 30
0.0
  0
VERTEX
  5
144
330
13F
100
AcDbEntity
  8
Schneiden
370
     0
100
AcDbVertex
100
AcDb2dVertex
 10
216.195933648208
 20
-29.02217338684168
 30
0.0
  0
SEQEND
  5
145
330
13F
100
AcDbEntity
  8
Schneiden
370
     0
  0
ENDBLK
  5
13E
330
13B
100
AcDbEntity
  8
0
100
AcDbBlockEnd
  0
BLOCK
  5
148
330
146
100
AcDbEntity
  8
0
100
AcDbBlockBegin
  2
block 30
 70
     0
 71
     0
 10
0.0
 20
0.0
 30
0.0
  3
block 30
  1

  0
POLYLINE
  5
14A
330
146
100
AcDbEntity
  8
Schneiden
370
     0
100
AcDb2dPolyline
 66
     1
 10
0.0
 20
0.0
 30
0.0
  0
VERTEX
  5
14B
330
14A
100
AcDbEntity
  8
Schneiden
370
     0
100
AcDbVertex
100
AcDb2dVertex
 10
192.4457898824441
 20
-29.02217338684168
 30
0.0
  0
VERTEX
  5
14C
330
14A
100
AcDbEntity
  8
Schneiden
370
     0
100
AcDbVertex
100
AcDb2dVertex
 10
192.4457898824441
 20
-31.87230088178887
 30
0.0
  0
VERTEX
  5
14D
330
14A
100
AcDbEntity
  8
Schneiden
370
     0
100
AcDbVertex
100
AcDb2dVertex
 10
202.4458685474788
 20
-31.87230088178887
 30
0.0
  0
VERTEX
  5
14E
330
14A
100
AcDbEntity
  8
Schneiden
370
     0
100
AcDbVertex
100
AcDb2dVertex
 10
202.4458685474788
 20
-29.02217338684168
 30
0.0
  0
VERTEX
  5
14F
330
14A
100
AcDbEntity
  8
Schneiden
370
     0
100
AcDbVertex
100
AcDb2dVertex
 10
192.4457898824441
 20
-29.02217338684168
 30
0.0
  0
SEQEND
  5
150
330
14A
100
AcDbEntity
  8
Schneiden
370
     0
  0
ENDBLK
  5
149
330
146
100
AcDbEntity
  8
0
100
AcDbBlockEnd
  0
BLOCK
  5
153
330
151
100
AcDbEntity
  8
0
100
AcDbBlockBegin
  2
block 31
 70
     0
 71
     0
 10
0.0
 20
0.0
 30
0.0
  3
block 31
  1

  0
POLYLINE
  5
155
330
151
100
AcDbEntity
  8
Schneiden
370
     0
100
AcDb2dPolyline
 66
     1
 10
0.0
 20
0.0
 30
0.0
  0
VERTEX
  5
156
330
155
100
AcDbEntity
  8
Schneiden
370
     0
100
AcDbVertex
100
AcDb2dVertex
 10
168.6959906262288
 20
-29.02217338684168
 30
0.0
  0
VERTEX
  5
157
330
155
100
AcDbEntity
  8
Schneiden
370
     0
100
AcDbVertex
100
AcDb2dVertex
 10
168.6959906262288
 20
-31.87230088178887
 30
0.0
  0
VERTEX
  5
158
330
155
100
AcDbEntity
  8
Schneiden
370
     0
100
AcDbVertex
100
AcDb2dVertex
 10
178.695724781715
 20
-31.87230088178887
 30
0.0
  0
VERTEX
  5
159
330
155
100
AcDbEntity
  8
Schneiden
370
     0
100
AcDbVertex
100
AcDb2dVertex
 10
178.695724781715
 20
-29.02217338684168
 30
0.0
  0
VERTEX
  5
15A
330
155
100
AcDbEntity
  8
Schneiden
370
     0
100
AcDbVertex
100
AcDb2dVertex
 10
168.6959906262288
 20
-29.02217338684168
 30
0.0
  0
SEQEND
  5
15B
330
155
100
AcDbEntity
  8
Schneiden
370
     0
  0
ENDBLK
  5
154
330
151
100
AcDbEntity
  8
0
100
AcDbBlockEnd
  0
BLOCK
  5
15E
330
15C
100
AcDbEntity
  8
0
100
AcDbBlockBegin
  2
block 32
 70
     0
 71
     0
 10
0.0
 20
0.0
 30
0.0
  3
block 32
  1

  0
SPLINE
  5
160
330
15C
100
AcDbEntity
  8
Schneiden
370
     0
100
AcDbSpline
210
0.0
220
0.0
230
1.0
 70
    11
 71
     3
 72
    29
 73
    25
 74
     0
 42
0.0000000001
 43
0.0000000001
 40
0.0
 40
0.0
 40
0.0
 40
0.0
 40
1.0
 40
1.0
 40
1.0
 40
2.0
 40
2.0
 40
2.0
 40
3.0
 40
3.0
 40
3.0
 40
4.0
 40
4.0
 40
4.0
 40
5.0
 40
5.0
 40
5.0
 40
6.0
 40
6.0
 40
6.0
 40
7.0
 40
7.0
 40
7.0
 40
8.0
 40
8.0
 40
8.0
 40
8.0
 10
137.6958156665309
 20
136.6278360661035
 30
0.0
 10
137.1435668602454
 20
136.6278360661035
 30
0.0
 10
136.6958767019372
 20
137.0755262244117
 30
0.0
 10
136.6958767019372
 20
137.6277750306972
 30
0.0
 10
136.6958767019372
 20
137.6277750306972
 30
0.0
 10
136.6958767019372
 20
141.6277031438466
 30
0.0
 10
136.6958767019372
 20
141.6277031438466
 30
0.0
 10
136.6958767019372
 20
142.1801242049064
 30
0.0
 10
137.1435668602454
 20
142.6278143632146
 30
0.0
 10
137.6958156665309
 20
142.6278143632146
 30
0.0
 10
137.6958156665309
 20
142.6278143632146
 30
0.0
 10
149.6959445155274
 20
142.6278143632146
 30
0.0
 10
149.6959445155274
 20
142.6278143632146
 30
0.0
 10
150.2481933218129
 20
142.6278143632146
 30
0.0
 10
150.6957112253469
 20
142.1801242049064
 30
0.0
 10
150.6957112253469
 20
141.6277031438466
 30
0.0
 10
150.6957112253469
 20
141.6277031438466
 30
0.0
 10
150.6957112253469
 20
137.6277750306972
 30
0.0
 10
150.6957112253469
 20
137.6277750306972
 30
0.0
 10
150.6957112253469
 20
137.0755262244117
 30
0.0
 10
150.2481933218129
 20
136.6278360661035
 30
0.0
 10
149.6959445155274
 20
136.6278360661035
 30
0.0
 10
149.6959445155274
 20
136.6278360661035
 30
0.0
 10
137.6958156665309
 20
136.6278360661035
 30
0.0
 10
137.6958156665309
 20
136.6278360661035
 30
0.0
  0
ENDBLK
  5
15F
330
15C
100
AcDbEntity
  8
0
100
AcDbBlockEnd
  0
BLOCK
  5
163
330
161
100
AcDbEntity
  8
0
100
AcDbBlockBegin
  2
block 33
 70
     0
 71
     0
 10
0.0
 20
0.0
 30
0.0
  3
block 33
  1

  0
SPLINE
  5
165
330
161
100
AcDbEntity
  8
Schneiden
370
     0
100
AcDbSpline
210
0.0
220
0.0
230
1.0
 70
    11
 71
     3
 72
    20
 73
    16
 74
     0
 42
0.0000000001
 43
0.0000000001
 40
0.0
 40
0.0
 40
0.0
 40
0.0
 40
1.0
 40
1.0
 40
1.0
 40
2.0
 40
2.0
 40
2.0
 40
3.0
 40
3.0
 40
3.0
 40
4.0
 40
4.0
 40
4.0
 40
5.0
 40
5.0
 40
5.0
 40
5.0
 10
128.6958482208642
 20
195.377738395166
 30
0.0
 10
128.6958482208642
 20
198.139154681368
 30
0.0
 10
126.4572251745489
 20
200.3777777276833
 30
0.0
 10
123.6958088883469
 20
200.3777777276833
 30
0.0
 10
120.9343926021449
 20
200.3777777276833
 30
0.0
 10
118.6957695558295
 20
198.139154681368
 30
0.0
 10
118.6957695558295
 20
195.377738395166
 30
0.0
 10
118.6957695558295
 20
192.616322108964
 30
0.0
 10
120.9343926021449
 20
190.3776990626486
 30
0.0
 10
123.6958088883469
 20
190.3776990626486
 30
0.0
 10
126.4572251745489
 20
190.3776990626486
 30
0.0
 10
128.6958482208642
 20
192.616322108964
 30
0.0
 10
128.6958482208642
 20
195.377738395166
 30
0.0
 10
128.6958482208642
 20
195.377738395166
 30
0.0
 10
128.6958482208642
 20
195.377738395166
 30
0.0
 10
128.6958482208642
 20
195.377738395166
 30
0.0
  0
ENDBLK
  5
164
330
161
100
AcDbEntity
  8
0
100
AcDbBlockEnd
  0
BLOCK
  5
168
330
166
100
AcDbEntity
  8
0
100
AcDbBlockBegin
  2
block 34
 70
     0
 71
     0
 10
0.0
 20
0.0
 30
0.0
  3
block 34
  1

  0
SPLINE
  5
16A
330
166
100
AcDbEntity
  8
Schneiden
370
     0
100
AcDbSpline
210
0.0
220
0.0
230
1.0
 70
    11
 71
     3
 72
    20
 73
    16
 74
     0
 42
0.0000000001
 43
0.0000000001
 40
0.0
 40
0.0
 40
0.0
 40
0.0
 40
1.0
 40
1.0
 40
1.0
 40
2.0
 40
2.0
 40
2.0
 40
3.0
 40
3.0
 40
3.0
 40
4.0
 40
4.0
 40
4.0
 40
5.0
 40
5.0
 40
5.0
 40
5.0
 10
168.6959906262288
 20
195.377738395166
 30
0.0
 10
168.6959906262288
 20
198.139154681368
 30
0.0
 10
166.4573675799134
 20
200.3777777276833
 30
0.0
 10
163.6957790389372
 20
200.3777777276833
 30
0.0
 10
160.9345350075094
 20
200.3777777276833
 30
0.0
 10
158.6959119611941
 20
198.139154681368
 30
0.0
 10
158.6959119611941
 20
195.377738395166
 30
0.0
 10
158.6959119611941
 20
192.616322108964
 30
0.0
 10
160.9345350075094
 20
190.3776990626486
 30
0.0
 10
163.6957790389372
 20
190.3776990626486
 30
0.0
 10
166.4573675799134
 20
190.3776990626486
 30
0.0
 10
168.6959906262288
 20
192.616322108964
 30
0.0
 10
168.6959906262288
 20
195.377738395166
 30
0.0
 10
168.6959906262288
 20
195.377738395166
 30
0.0
 10
168.6959906262288
 20
195.377738395166
 30
0.0
 10
168.6959906262288
 20
195.377738395166
 30
0.0
  0
ENDBLK
  5
169
330
166
100
AcDbEntity
  8
0
100
AcDbBlockEnd
  0
BLOCK
  5
16D
330
16B
100
AcDbEntity
  8
0
100
AcDbBlockBegin
  2
block 35
 70
     0
 71
     0
 10
0.0
 20
0.0
 30
0.0
  3
block 35
  1

  0
POLYLINE
  5
16F
330
16B
100
AcDbEntity
  8
Schneiden
370
     0
100
AcDb2dPolyline
 66
     1
 10
0.0
 20
0.0
 30
0.0
  0
VERTEX
  5
170
330
16F
100
AcDbEntity
  8
Schneiden
370
     0
100
AcDbVertex
100
AcDb2dVertex
 10
56.19588079107256
 20
17.62786457892637
 30
0.0
  0
VERTEX
  5
171
330
16F
100
AcDbEntity
  8
Schneiden
370
     0
100
AcDbVertex
100
AcDb2dVertex
 10
78.69579940523924
 20
17.62786457892637
 30
0.0
  0
SEQEND
  5
172
330
16F
100
AcDbEntity
  8
Schneiden
370
     0
  0
ENDBLK
  5
16E
330
16B
100
AcDbEntity
  8
0
100
AcDbBlockEnd
  0
BLOCK
  5
175
330
173
100
AcDbEntity
  8
0
100
AcDbBlockBegin
  2
block 36
 70
     0
 71
     0
 10
0.0
 20
0.0
 30
0.0
  3
block 36
  1

  0
SPLINE
  5
177
330
173
100
AcDbEntity
  8
Schneiden
370
     0
100
AcDbSpline
210
0.0
220
0.0
230
1.0
 70
     8
 71
     3
 72
     8
 73
     4
 74
     0
 42
0.0000000001
 43
0.0000000001
 40
0.0
 40
0.0
 40
0.0
 40
0.0
 40
1.0
 40
1.0
 40
1.0
 40
1.0
 10
78.69579940523924
 20
17.62786457892637
 30
0.0
 10
80.35271807887015
 20
17.62786457892637
 30
0.0
 10
81.69578855379481
 20
18.97076279907676
 30
0.0
 10
81.69578855379481
 20
20.62785372748193
 30
0.0
  0
ENDBLK
  5
176
330
173
100
AcDbEntity
  8
0
100
AcDbBlockEnd
  0
BLOCK
  5
17A
330
178
100
AcDbEntity
  8
0
100
AcDbBlockBegin
  2
block 37
 70
     0
 71
     0
 10
0.0
 20
0.0
 30
0.0
  3
block 37
  1

  0
POLYLINE
  5
17C
330
178
100
AcDbEntity
  8
Schneiden
370
     0
100
AcDb2dPolyline
 66
     1
 10
0.0
 20
0.0
 30
0.0
  0
VERTEX
  5
17D
330
17C
100
AcDbEntity
  8
Schneiden
370
     0
100
AcDbVertex
100
AcDb2dVertex
 10
81.69578855379481
 20
20.62785372748193
 30
0.0
  0
VERTEX
  5
17E
330
17C
100
AcDbEntity
  8
Schneiden
370
     0
100
AcDbVertex
100
AcDb2dVertex
 10
81.69578855379481
 20
46.12776149020417
 30
0.0
  0
SEQEND
  5
17F
330
17C
100
AcDbEntity
  8
Schneiden
370
     0
  0
ENDBLK
  5
17B
330
178
100
AcDbEntity
  8
0
100
AcDbBlockEnd
  0
BLOCK
  5
182
330
180
100
AcDbEntity
  8
0
100
AcDbBlockBegin
  2
block 38
 70
     0
 71
     0
 10
0.0
 20
0.0
 30
0.0
  3
block 38
  1

  0
SPLINE
  5
184
330
180
100
AcDbEntity
  8
Schneiden
370
     0
100
AcDbSpline
210
0.0
220
0.0
230
1.0
 70
     8
 71
     3
 72
     8
 73
     4
 74
     0
 42
0.0000000001
 43
0.0000000001
 40
0.0
 40
0.0
 40
0.0
 40
0.0
 40
1.0
 40
1.0
 40
1.0
 40
1.0
 10
91.1958116091455
 20
55.6276122907806
 30
0.0
 10
85.94910343988425
 20
55.6276122907806
 30
0.0
 10
81.69578855379481
 20
51.37464191423967
 30
0.0
 10
81.69578855379481
 20
46.12776149020417
 30
0.0
  0
ENDBLK
  5
183
330
180
100
AcDbEntity
  8
0
100
AcDbBlockEnd
  0
BLOCK
  5
187
330
185
100
AcDbEntity
  8
0
100
AcDbBlockBegin
  2
block 39
 70
     0
 71
     0
 10
0.0
 20
0.0
 30
0.0
  3
block 39
  1

  0
POLYLINE
  5
189
330
185
100
AcDbEntity
  8
Schneiden
370
     0
100
AcDb2dPolyline
 66
     1
 10
0.0
 20
0.0
 30
0.0
  0
VERTEX
  5
18A
330
189
100
AcDbEntity
  8
Schneiden
370
     0
100
AcDbVertex
100
AcDb2dVertex
 10
91.1958116091455
 20
55.6276122907806
 30
0.0
  0
VERTEX
  5
18B
330
189
100
AcDbEntity
  8
Schneiden
370
     0
100
AcDbVertex
100
AcDb2dVertex
 10
137.6958156665309
 20
55.6276122907806
 30
0.0
  0
SEQEND
  5
18C
330
189
100
AcDbEntity
  8
Schneiden
370
     0
  0
ENDBLK
  5
188
330
185
100
AcDbEntity
  8
0
100
AcDbBlockEnd
  0
BLOCK
  5
18F
330
18D
100
AcDbEntity
  8
0
100
AcDbBlockBegin
  2
block 40
 70
     0
 71
     0
 10
0.0
 20
0.0
 30
0.0
  3
block 40
  1

  0
SPLINE
  5
191
330
18D
100
AcDbEntity
  8
Schneiden
370
     0
100
AcDbSpline
210
0.0
220
0.0
230
1.0
 70
     8
 71
     3
 72
     8
 73
     4
 74
     0
 42
0.0000000001
 43
0.0000000001
 40
0.0
 40
0.0
 40
0.0
 40
0.0
 40
1.0
 40
1.0
 40
1.0
 40
1.0
 10
140.6958048150865
 20
52.62762314222504
 30
0.0
 10
140.6958048150865
 20
54.28471407063022
 30
0.0
 10
139.3527343401618
 20
55.6276122907806
 30
0.0
 10
137.6958156665309
 20
55.6276122907806
 30
0.0
  0
ENDBLK
  5
190
330
18D
100
AcDbEntity
  8
0
100
AcDbBlockEnd
  0
BLOCK
  5
194
330
192
100
AcDbEntity
  8
0
100
AcDbBlockBegin
  2
block 41
 70
     0
 71
     0
 10
0.0
 20
0.0
 30
0.0
  3
block 41
  1

  0
POLYLINE
  5
196
330
192
100
AcDbEntity
  8
Schneiden
370
     0
100
AcDb2dPolyline
 66
     1
 10
0.0
 20
0.0
 30
0.0
  0
VERTEX
  5
197
330
196
100
AcDbEntity
  8
Schneiden
370
     0
100
AcDbVertex
100
AcDb2dVertex
 10
140.6958048150865
 20
52.62762314222504
 30
0.0
  0
VERTEX
  5
198
330
196
100
AcDbEntity
  8
Schneiden
370
     0
100
AcDbVertex
100
AcDb2dVertex
 10
140.6958048150865
 20
49.62763399366948
 30
0.0
  0
SEQEND
  5
199
330
196
100
AcDbEntity
  8
Schneiden
370
     0
  0
ENDBLK
  5
195
330
192
100
AcDbEntity
  8
0
100
AcDbBlockEnd
  0
BLOCK
  5
19C
330
19A
100
AcDbEntity
  8
0
100
AcDbBlockBegin
  2
block 42
 70
     0
 71
     0
 10
0.0
 20
0.0
 30
0.0
  3
block 42
  1

  0
SPLINE
  5
19E
330
19A
100
AcDbEntity
  8
Schneiden
370
     0
100
AcDbSpline
210
0.0
220
0.0
230
1.0
 70
     8
 71
     3
 72
     8
 73
     4
 74
     0
 42
0.0000000001
 43
0.0000000001
 40
0.0
 40
0.0
 40
0.0
 40
0.0
 40
1.0
 40
1.0
 40
1.0
 40
1.0
 10
137.6958156665309
 20
46.62764484511393
 30
0.0
 10
139.3527343401618
 20
46.62764484511393
 30
0.0
 10
140.6958048150865
 20
47.97088757481283
 30
0.0
 10
140.6958048150865
 20
49.62763399366948
 30
0.0
  0
ENDBLK
  5
19D
330
19A
100
AcDbEntity
  8
0
100
AcDbBlockEnd
  0
BLOCK
  5
1A1
330
19F
100
AcDbEntity
  8
0
100
AcDbBlockBegin
  2
block 43
 70
     0
 71
     0
 10
0.0
 20
0.0
 30
0.0
  3
block 43
  1

  0
POLYLINE
  5
1A3
330
19F
100
AcDbEntity
  8
Schneiden
370
     0
100
AcDb2dPolyline
 66
     1
 10
0.0
 20
0.0
 30
0.0
  0
VERTEX
  5
1A4
330
1A3
100
AcDbEntity
  8
Schneiden
370
     0
100
AcDbVertex
100
AcDb2dVertex
 10
137.6958156665309
 20
46.62764484511393
 30
0.0
  0
VERTEX
  5
1A5
330
1A3
100
AcDbEntity
  8
Schneiden
370
     0
100
AcDbVertex
100
AcDb2dVertex
 10
91.1958116091455
 20
46.62764484511393
 30
0.0
  0
SEQEND
  5
1A6
330
1A3
100
AcDbEntity
  8
Schneiden
370
     0
  0
ENDBLK
  5
1A2
330
19F
100
AcDbEntity
  8
0
100
AcDbBlockEnd
  0
BLOCK
  5
1A9
330
1A7
100
AcDbEntity
  8
0
100
AcDbBlockBegin
  2
block 44
 70
     0
 71
     0
 10
0.0
 20
0.0
 30
0.0
  3
block 44
  1

  0
SPLINE
  5
1AB
330
1A7
100
AcDbEntity
  8
Schneiden
370
     0
100
AcDbSpline
210
0.0
220
0.0
230
1.0
 70
     8
 71
     3
 72
     8
 73
     4
 74
     0
 42
0.0000000001
 43
0.0000000001
 40
0.0
 40
0.0
 40
0.0
 40
0.0
 40
1.0
 40
1.0
 40
1.0
 40
1.0
 10
91.1958116091455
 20
46.62764484511393
 30
0.0
 10
90.91968720600272
 20
46.62764484511393
 30
0.0
 10
90.69575599946148
 20
46.40405814812121
 30
0.0
 10
90.69575599946148
 20
46.12776149020417
 30
0.0
  0
ENDBLK
  5
1AA
330
1A7
100
AcDbEntity
  8
0
100
AcDbBlockEnd
  0
BLOCK
  5
1AE
330
1AC
100
AcDbEntity
  8
0
100
AcDbBlockBegin
  2
block 45
 70
     0
 71
     0
 10
0.0
 20
0.0
 30
0.0
  3
block 45
  1

  0
POLYLINE
  5
1B0
330
1AC
100
AcDbEntity
  8
Schneiden
370
     0
100
AcDb2dPolyline
 66
     1
 10
0.0
 20
0.0
 30
0.0
  0
VERTEX
  5
1B1
330
1B0
100
AcDbEntity
  8
Schneiden
370
     0
100
AcDbVertex
100
AcDb2dVertex
 10
90.69575599946148
 20
46.12776149020417
 30
0.0
  0
VERTEX
  5
1B2
330
1B0
100
AcDbEntity
  8
Schneiden
370
     0
100
AcDbVertex
100
AcDb2dVertex
 10
90.69575599946148
 20
20.62785372748193
 30
0.0
  0
SEQEND
  5
1B3
330
1B0
100
AcDbEntity
  8
Schneiden
370
     0
  0
ENDBLK
  5
1AF
330
1AC
100
AcDbEntity
  8
0
100
AcDbBlockEnd
  0
BLOCK
  5
1B6
330
1B4
100
AcDbEntity
  8
0
100
AcDbBlockBegin
  2
block 46
 70
     0
 71
     0
 10
0.0
 20
0.0
 30
0.0
  3
block 46
  1

  0
SPLINE
  5
1B8
330
1B4
100
AcDbEntity
  8
Schneiden
370
     0
100
AcDbSpline
210
0.0
220
0.0
230
1.0
 70
     8
 71
     3
 72
     8
 73
     4
 74
     0
 42
0.0000000001
 43
0.0000000001
 40
0.0
 40
0.0
 40
0.0
 40
0.0
 40
1.0
 40
1.0
 40
1.0
 40
1.0
 10
90.69575599946148
 20
20.62785372748193
 30
0.0
 10
90.69575599946148
 20
18.97076279907676
 30
0.0
 10
92.0389987291604
 20
17.62786457892637
 30
0.0
 10
93.69591740279131
 20
17.62786457892637
 30
0.0
  0
ENDBLK
  5
1B7
330
1B4
100
AcDbEntity
  8
0
100
AcDbBlockEnd
  0
BLOCK
  5
1BB
330
1B9
100
AcDbEntity
  8
0
100
AcDbBlockBegin
  2
block 47
 70
     0
 71
     0
 10
0.0
 20
0.0
 30
0.0
  3
block 47
  1

  0
POLYLINE
  5
1BD
330
1B9
100
AcDbEntity
  8
Schneiden
370
     0
100
AcDb2dPolyline
 66
     1
 10
0.0
 20
0.0
 30
0.0
  0
VERTEX
  5
1BE
330
1BD
100
AcDbEntity
  8
Schneiden
370
     0
100
AcDbVertex
100
AcDb2dVertex
 10
93.69591740279131
 20
17.62786457892637
 30
0.0
  0
VERTEX
  5
1BF
330
1BD
100
AcDbEntity
  8
Schneiden
370
     0
100
AcDbVertex
100
AcDb2dVertex
 10
193.6956705244928
 20
17.62786457892637
 30
0.0
  0
SEQEND
  5
1C0
330
1BD
100
AcDbEntity
  8
Schneiden
370
     0
  0
ENDBLK
  5
1BC
330
1B9
100
AcDbEntity
  8
0
100
AcDbBlockEnd
  0
BLOCK
  5
1C3
330
1C1
100
AcDbEntity
  8
0
100
AcDbBlockBegin
  2
block 48
 70
     0
 71
     0
 10
0.0
 20
0.0
 30
0.0
  3
block 48
  1

  0
SPLINE
  5
1C5
330
1C1
100
AcDbEntity
  8
Schneiden
370
     0
100
AcDbSpline
210
0.0
220
0.0
230
1.0
 70
     8
 71
     3
 72
     8
 73
     4
 74
     0
 42
0.0000000001
 43
0.0000000001
 40
0.0
 40
0.0
 40
0.0
 40
0.0
 40
1.0
 40
1.0
 40
1.0
 40
1.0
 10
193.6956705244928
 20
17.62786457892637
 30
0.0
 10
195.3527614528979
 20
17.62786457892637
 30
0.0
 10
196.6956596730483
 20
18.97076279907676
 30
0.0
 10
196.6956596730483
 20
20.62785372748193
 30
0.0
  0
ENDBLK
  5
1C4
330
1C1
100
AcDbEntity
  8
0
100
AcDbBlockEnd
  0
BLOCK
  5
1C8
330
1C6
100
AcDbEntity
  8
0
100
AcDbBlockBegin
  2
block 49
 70
     0
 71
     0
 10
0.0
 20
0.0
 30
0.0
  3
block 49
  1

  0
POLYLINE
  5
1CA
330
1C6
100
AcDbEntity
  8
Schneiden
370
     0
100
AcDb2dPolyline
 66
     1
 10
0.0
 20
0.0
 30
0.0
  0
VERTEX
  5
1CB
330
1CA
100
AcDbEntity
  8
Schneiden
370
     0
100
AcDbVertex
100
AcDb2dVertex
 10
196.6956596730483
 20
20.62785372748193
 30
0.0
  0
VERTEX
  5
1CC
330
1CA
100
AcDbEntity
  8
Schneiden
370
     0
100
AcDbVertex
100
AcDb2dVertex
 10
196.6956596730483
 20
165.1277329773813
 30
0.0
  0
SEQEND
  5
1CD
330
1CA
100
AcDbEntity
  8
Schneiden
370
     0
  0
ENDBLK
  5
1C9
330
1C6
100
AcDbEntity
  8
0
100
AcDbBlockEnd
  0
BLOCK
  5
1D0
330
1CE
100
AcDbEntity
  8
0
100
AcDbBlockBegin
  2
block 50
 70
     0
 71
     0
 10
0.0
 20
0.0
 30
0.0
  3
block 50
  1

  0
SPLINE
  5
1D2
330
1CE
100
AcDbEntity
  8
Schneiden
370
     0
100
AcDbSpline
210
0.0
220
0.0
230
1.0
 70
     8
 71
     3
 72
     8
 73
     4
 74
     0
 42
0.0000000001
 43
0.0000000001
 40
0.0
 40
0.0
 40
0.0
 40
0.0
 40
1.0
 40
1.0
 40
1.0
 40
1.0
 10
196.6956596730483
 20
165.1277329773813
 30
0.0
 10
196.6956596730483
 20
165.403857380524
 30
0.0
 10
196.4720729760556
 20
165.6277885870653
 30
0.0
 10
196.1957763181386
 20
165.6277885870653
 30
0.0
  0
ENDBLK
  5
1D1
330
1CE
100
AcDbEntity
  8
0
100
AcDbBlockEnd
  0
BLOCK
  5
1D5
330
1D3
100
AcDbEntity
  8
0
100
AcDbBlockBegin
  2
block 51
 70
     0
 71
     0
 10
0.0
 20
0.0
 30
0.0
  3
block 51
  1

  0
POLYLINE
  5
1D7
330
1D3
100
AcDbEntity
  8
Schneiden
370
     0
100
AcDb2dPolyline
 66
     1
 10
0.0
 20
0.0
 30
0.0
  0
VERTEX
  5
1D8
330
1D7
100
AcDbEntity
  8
Schneiden
370
     0
100
AcDbVertex
100
AcDb2dVertex
 10
196.1957763181386
 20
165.6277885870653
 30
0.0
  0
VERTEX
  5
1D9
330
1D7
100
AcDbEntity
  8
Schneiden
370
     0
100
AcDbVertex
100
AcDb2dVertex
 10
149.6959445155274
 20
165.6277885870653
 30
0.0
  0
SEQEND
  5
1DA
330
1D7
100
AcDbEntity
  8
Schneiden
370
     0
  0
ENDBLK
  5
1D6
330
1D3
100
AcDbEntity
  8
0
100
AcDbBlockEnd
  0
BLOCK
  5
1DD
330
1DB
100
AcDbEntity
  8
0
100
AcDbBlockBegin
  2
block 52
 70
     0
 71
     0
 10
0.0
 20
0.0
 30
0.0
  3
block 52
  1

  0
SPLINE
  5
1DF
330
1DB
100
AcDbEntity
  8
Schneiden
370
     0
100
AcDbSpline
210
0.0
220
0.0
230
1.0
 70
     8
 71
     3
 72
     8
 73
     4
 74
     0
 42
0.0000000001
 43
0.0000000001
 40
0.0
 40
0.0
 40
0.0
 40
0.0
 40
1.0
 40
1.0
 40
1.0
 40
1.0
 10
146.6957831121976
 20
168.6277777356208
 30
0.0
 10
146.6957831121976
 20
166.9708590619899
 30
0.0
 10
148.0390258418965
 20
165.6277885870653
 30
0.0
 10
149.6959445155274
 20
165.6277885870653
 30
0.0
  0
ENDBLK
  5
1DE
330
1DB
100
AcDbEntity
  8
0
100
AcDbBlockEnd
  0
BLOCK
  5
1E2
330
1E0
100
AcDbEntity
  8
0
100
AcDbBlockBegin
  2
block 53
 70
     0
 71
     0
 10
0.0
 20
0.0
 30
0.0
  3
block 53
  1

  0
POLYLINE
  5
1E4
330
1E0
100
AcDbEntity
  8
Schneiden
370
     0
100
AcDb2dPolyline
 66
     1
 10
0.0
 20
0.0
 30
0.0
  0
VERTEX
  5
1E5
330
1E4
100
AcDbEntity
  8
Schneiden
370
     0
100
AcDbVertex
100
AcDb2dVertex
 10
146.6957831121976
 20
168.6277777356208
 30
0.0
  0
VERTEX
  5
1E6
330
1E4
100
AcDbEntity
  8
Schneiden
370
     0
100
AcDbVertex
100
AcDb2dVertex
 10
146.6957831121976
 20
171.6277668841764
 30
0.0
  0
SEQEND
  5
1E7
330
1E4
100
AcDbEntity
  8
Schneiden
370
     0
  0
ENDBLK
  5
1E3
330
1E0
100
AcDbEntity
  8
0
100
AcDbBlockEnd
  0
BLOCK
  5
1EA
330
1E8
100
AcDbEntity
  8
0
100
AcDbBlockBegin
  2
block 54
 70
     0
 71
     0
 10
0.0
 20
0.0
 30
0.0
  3
block 54
  1

  0
SPLINE
  5
1EC
330
1E8
100
AcDbEntity
  8
Schneiden
370
     0
100
AcDbSpline
210
0.0
220
0.0
230
1.0
 70
     8
 71
     3
 72
     8
 73
     4
 74
     0
 42
0.0000000001
 43
0.0000000001
 40
0.0
 40
0.0
 40
0.0
 40
0.0
 40
1.0
 40
1.0
 40
1.0
 40
1.0
 10
149.6959445155274
 20
174.627756032732
 30
0.0
 10
148.0390258418965
 20
174.627756032732
 30
0.0
 10
146.6957831121976
 20
173.2846855578073
 30
0.0
 10
146.6957831121976
 20
171.6277668841764
 30
0.0
  0
ENDBLK
  5
1EB
330
1E8
100
AcDbEntity
  8
0
100
AcDbBlockEnd
  0
BLOCK
  5
1EF
330
1ED
100
AcDbEntity
  8
0
100
AcDbBlockBegin
  2
block 55
 70
     0
 71
     0
 10
0.0
 20
0.0
 30
0.0
  3
block 55
  1

  0
POLYLINE
  5
1F1
330
1ED
100
AcDbEntity
  8
Schneiden
370
     0
100
AcDb2dPolyline
 66
     1
 10
0.0
 20
0.0
 30
0.0
  0
VERTEX
  5
1F2
330
1F1
100
AcDbEntity
  8
Schneiden
370
     0
100
AcDbVertex
100
AcDb2dVertex
 10
149.6959445155274
 20
174.627756032732
 30
0.0
  0
VERTEX
  5
1F3
330
1F1
100
AcDbEntity
  8
Schneiden
370
     0
100
AcDbVertex
100
AcDb2dVertex
 10
196.1957763181386
 20
174.627756032732
 30
0.0
  0
SEQEND
  5
1F4
330
1F1
100
AcDbEntity
  8
Schneiden
370
     0
  0
ENDBLK
  5
1F0
330
1ED
100
AcDbEntity
  8
0
100
AcDbBlockEnd
  0
BLOCK
  5
1F7
330
1F5
100
AcDbEntity
  8
0
100
AcDbBlockBegin
  2
block 56
 70
     0
 71
     0
 10
0.0
 20
0.0
 30
0.0
  3
block 56
  1

  0
SPLINE
  5
1F9
330
1F5
100
AcDbEntity
  8
Schneiden
370
     0
100
AcDbSpline
210
0.0
220
0.0
230
1.0
 70
     8
 71
     3
 72
     8
 73
     4
 74
     0
 42
0.0000000001
 43
0.0000000001
 40
0.0
 40
0.0
 40
0.0
 40
0.0
 40
1.0
 40
1.0
 40
1.0
 40
1.0
 10
205.6959716282635
 20
165.1277329773813
 30
0.0
 10
205.6959716282635
 20
170.3744411466425
 30
0.0
 10
201.4426567421741
 20
174.627756032732
 30
0.0
 10
196.1957763181386
 20
174.627756032732
 30
0.0
  0
ENDBLK
  5
1F8
330
1F5
100
AcDbEntity
  8
0
100
AcDbBlockEnd
  0
BLOCK
  5
1FC
330
1FA
100
AcDbEntity
  8
0
100
AcDbBlockBegin
  2
block 57
 70
     0
 71
     0
 10
0.0
 20
0.0
 30
0.0
  3
block 57
  1

  0
POLYLINE
  5
1FE
330
1FA
100
AcDbEntity
  8
Schneiden
370
     0
100
AcDb2dPolyline
 66
     1
 10
0.0
 20
0.0
 30
0.0
  0
VERTEX
  5
1FF
330
1FE
100
AcDbEntity
  8
Schneiden
370
     0
100
AcDbVertex
100
AcDb2dVertex
 10
205.6959716282635
 20
165.1277329773813
 30
0.0
  0
VERTEX
  5
200
330
1FE
100
AcDbEntity
  8
Schneiden
370
     0
100
AcDbVertex
100
AcDb2dVertex
 10
205.6959716282635
 20
20.62785372748193
 30
0.0
  0
SEQEND
  5
201
330
1FE
100
AcDbEntity
  8
Schneiden
370
     0
  0
ENDBLK
  5
1FD
330
1FA
100
AcDbEntity
  8
0
100
AcDbBlockEnd
  0
BLOCK
  5
204
330
202
100
AcDbEntity
  8
0
100
AcDbBlockBegin
  2
block 58
 70
     0
 71
     0
 10
0.0
 20
0.0
 30
0.0
  3
block 58
  1

  0
SPLINE
  5
206
330
202
100
AcDbEntity
  8
Schneiden
370
     0
100
AcDbSpline
210
0.0
220
0.0
230
1.0
 70
     8
 71
     3
 72
     8
 73
     4
 74
     0
 42
0.0000000001
 43
0.0000000001
 40
0.0
 40
0.0
 40
0.0
 40
0.0
 40
1.0
 40
1.0
 40
1.0
 40
1.0
 10
205.6959716282635
 20
20.62785372748193
 30
0.0
 10
205.6959716282635
 20
18.97076279907676
 30
0.0
 10
207.0388698484139
 20
17.62786457892637
 30
0.0
 10
208.6959607768191
 20
17.62786457892637
 30
0.0
  0
ENDBLK
  5
205
330
202
100
AcDbEntity
  8
0
100
AcDbBlockEnd
  0
BLOCK
  5
209
330
207
100
AcDbEntity
  8
0
100
AcDbBlockBegin
  2
block 59
 70
     0
 71
     0
 10
0.0
 20
0.0
 30
0.0
  3
block 59
  1

  0
POLYLINE
  5
20B
330
207
100
AcDbEntity
  8
Schneiden
370
     0
100
AcDb2dPolyline
 66
     1
 10
0.0
 20
0.0
 30
0.0
  0
VERTEX
  5
20C
330
20B
100
AcDbEntity
  8
Schneiden
370
     0
100
AcDbVertex
100
AcDb2dVertex
 10
208.6959607768191
 20
17.62786457892637
 30
0.0
  0
VERTEX
  5
20D
330
20B
100
AcDbEntity
  8
Schneiden
370
     0
100
AcDbVertex
100
AcDb2dVertex
 10
231.1958793909858
 20
17.62786457892637
 30
0.0
  0
SEQEND
  5
20E
330
20B
100
AcDbEntity
  8
Schneiden
370
     0
  0
ENDBLK
  5
20A
330
207
100
AcDbEntity
  8
0
100
AcDbBlockEnd
  0
BLOCK
  5
211
330
20F
100
AcDbEntity
  8
0
100
AcDbBlockBegin
  2
block 60
 70
     0
 71
     0
 10
0.0
 20
0.0
 30
0.0
  3
block 60
  1

  0
POLYLINE
  5
213
330
20F
100
AcDbEntity
  8
Schneiden
370
     0
100
AcDb2dPolyline
 66
     1
 10
0.0
 20
0.0
 30
0.0
  0
VERTEX
  5
214
330
213
100
AcDbEntity
  8
Schneiden
370
     0
100
AcDbVertex
100
AcDb2dVertex
 10
123.6958088883469
 20
-25.87232258467775
 30
0.0
  0
VERTEX
  5
215
330
213
100
AcDbEntity
  8
Schneiden
370
     0
100
AcDbVertex
100
AcDb2dVertex
 10
56.19588079107256
 20
-25.87232258467775
 30
0.0
  0
SEQEND
  5
216
330
213
100
AcDbEntity
  8
Schneiden
370
     0
  0
ENDBLK
  5
212
330
20F
100
AcDbEntity
  8
0
100
AcDbBlockEnd
  0
BLOCK
  5
219
330
217
100
AcDbEntity
  8
0
100
AcDbBlockBegin
  2
block 61
 70
     0
 71
     0
 10
0.0
 20
0.0
 30
0.0
  3
block 61
  1

  0
POLYLINE
  5
21B
330
217
100
AcDbEntity
  8
Schneiden
370
     0
100
AcDb2dPolyline
 66
     1
 10
0.0
 20
0.0
 30
0.0
  0
VERTEX
  5
21C
330
21B
100
AcDbEntity
  8
Schneiden
370
     0
100
AcDbVertex
100
AcDb2dVertex
 10
123.6958088883469
 20
-34.87229003034443
 30
0.0
  0
VERTEX
  5
21D
330
21B
100
AcDbEntity
  8
Schneiden
370
     0
100
AcDbVertex
100
AcDb2dVertex
 10
123.6958088883469
 20
-25.87232258467775
 30
0.0
  0
SEQEND
  5
21E
330
21B
100
AcDbEntity
  8
Schneiden
370
     0
  0
ENDBLK
  5
21A
330
217
100
AcDbEntity
  8
0
100
AcDbBlockEnd
  0
BLOCK
  5
221
330
21F
100
AcDbEntity
  8
0
100
AcDbBlockBegin
  2
block 62
 70
     0
 71
     0
 10
0.0
 20
0.0
 30
0.0
  3
block 62
  1

  0
POLYLINE
  5
223
330
21F
100
AcDbEntity
  8
Schneiden
370
     0
100
AcDb2dPolyline
 66
     1
 10
0.0
 20
0.0
 30
0.0
  0
VERTEX
  5
224
330
223
100
AcDbEntity
  8
Schneiden
370
     0
100
AcDbVertex
100
AcDb2dVertex
 10
231.1958793909858
 20
-25.87232258467775
 30
0.0
  0
VERTEX
  5
225
330
223
100
AcDbEntity
  8
Schneiden
370
     0
100
AcDbVertex
100
AcDb2dVertex
 10
163.6957790389372
 20
-25.87232258467775
 30
0.0
  0
SEQEND
  5
226
330
223
100
AcDbEntity
  8
Schneiden
370
     0
  0
ENDBLK
  5
222
330
21F
100
AcDbEntity
  8
0
100
AcDbBlockEnd
  0
BLOCK
  5
229
330
227
100
AcDbEntity
  8
0
100
AcDbBlockBegin
  2
block 63
 70
     0
 71
     0
 10
0.0
 20
0.0
 30
0.0
  3
block 63
  1

  0
POLYLINE
  5
22B
330
227
100
AcDbEntity
  8
Schneiden
370
     0
100
AcDb2dPolyline
 66
     1
 10
0.0
 20
0.0
 30
0.0
  0
VERTEX
  5
22C
330
22B
100
AcDbEntity
  8
Schneiden
370
     0
100
AcDbVertex
100
AcDb2dVertex
 10
163.6957790389372
 20
-25.87232258467775
 30
0.0
  0
VERTEX
  5
22D
330
22B
100
AcDbEntity
  8
Schneiden
370
     0
100
AcDbVertex
100
AcDb2dVertex
 10
163.6957790389372
 20
-34.87229003034443
 30
0.0
  0
SEQEND
  5
22E
330
22B
100
AcDbEntity
  8
Schneiden
370
     0
  0
ENDBLK
  5
22A
330
227
100
AcDbEntity
  8
0
100
AcDbBlockEnd
  0
BLOCK
  5
231
330
22F
100
AcDbEntity
  8
0
100
AcDbBlockBegin
  2
block 64
 70
     0
 71
     0
 10
0.0
 20
0.0
 30
0.0
  3
block 64
  1

  0
POLYLINE
  5
233
330
22F
100
AcDbEntity
  8
Schneiden
370
     0
100
AcDb2dPolyline
 66
     1
 10
0.0
 20
0.0
 30
0.0
  0
VERTEX
  5
234
330
233
100
AcDbEntity
  8
Schneiden
370
     0
100
AcDbVertex
100
AcDb2dVertex
 10
216.195933648208
 20
0.3028238931534607
 30
0.0
  0
VERTEX
  5
235
330
233
100
AcDbEntity
  8
Schneiden
370
     0
100
AcDbVertex
100
AcDb2dVertex
 10
216.195933648208
 20
-2.54730360179373
 30
0.0
  0
VERTEX
  5
236
330
233
100
AcDbEntity
  8
Schneiden
370
     0
100
AcDbVertex
100
AcDb2dVertex
 10
226.1960123132427
 20
-2.54730360179373
 30
0.0
  0
VERTEX
  5
237
330
233
100
AcDbEntity
  8
Schneiden
370
     0
100
AcDbVertex
100
AcDb2dVertex
 10
226.1960123132427
 20
0.3028238931534607
 30
0.0
  0
VERTEX
  5
238
330
233
100
AcDbEntity
  8
Schneiden
370
     0
100
AcDbVertex
100
AcDb2dVertex
 10
216.195933648208
 20
0.3028238931534607
 30
0.0
  0
SEQEND
  5
239
330
233
100
AcDbEntity
  8
Schneiden
370
     0
  0
ENDBLK
  5
232
330
22F
100
AcDbEntity
  8
0
100
AcDbBlockEnd
  0
BLOCK
  5
23C
330
23A
100
AcDbEntity
  8
0
100
AcDbBlockBegin
  2
block 65
 70
     0
 71
     0
 10
0.0
 20
0.0
 30
0.0
  3
block 65
  1

  0
POLYLINE
  5
23E
330
23A
100
AcDbEntity
  8
Schneiden
370
     0
100
AcDb2dPolyline
 66
     1
 10
0.0
 20
0.0
 30
0.0
  0
VERTEX
  5
23F
330
23E
100
AcDbEntity
  8
Schneiden
370
     0
100
AcDbVertex
100
AcDb2dVertex
 10
168.6959906262288
 20
0.3028238931534607
 30
0.0
  0
VERTEX
  5
240
330
23E
100
AcDbEntity
  8
Schneiden
370
     0
100
AcDbVertex
100
AcDb2dVertex
 10
168.6959906262288
 20
-2.54730360179373
 30
0.0
  0
VERTEX
  5
241
330
23E
100
AcDbEntity
  8
Schneiden
370
     0
100
AcDbVertex
100
AcDb2dVertex
 10
178.695724781715
 20
-2.54730360179373
 30
0.0
  0
VERTEX
  5
242
330
23E
100
AcDbEntity
  8
Schneiden
370
     0
100
AcDbVertex
100
AcDb2dVertex
 10
178.695724781715
 20
0.3028238931534607
 30
0.0
  0
VERTEX
  5
243
330
23E
100
AcDbEntity
  8
Schneiden
370
     0
100
AcDbVertex
100
AcDb2dVertex
 10
168.6959906262288
 20
0.3028238931534607
 30
0.0
  0
SEQEND
  5
244
330
23E
100
AcDbEntity
  8
Schneiden
370
     0
  0
ENDBLK
  5
23D
330
23A
100
AcDbEntity
  8
0
100
AcDbBlockEnd
  0
BLOCK
  5
247
330
245
100
AcDbEntity
  8
0
100
AcDbBlockBegin
  2
block 66
 70
     0
 71
     0
 10
0.0
 20
0.0
 30
0.0
  3
block 66
  1

  0
POLYLINE
  5
249
330
245
100
AcDbEntity
  8
Schneiden
370
     0
100
AcDb2dPolyline
 66
     1
 10
0.0
 20
0.0
 30
0.0
  0
VERTEX
  5
24A
330
249
100
AcDbEntity
  8
Schneiden
370
     0
100
AcDbVertex
100
AcDb2dVertex
 10
138.6957546311247
 20
0.3028238931534607
 30
0.0
  0
VERTEX
  5
24B
330
249
100
AcDbEntity
  8
Schneiden
370
     0
100
AcDbVertex
100
AcDb2dVertex
 10
138.6957546311247
 20
-2.54730360179373
 30
0.0
  0
VERTEX
  5
24C
330
249
100
AcDbEntity
  8
Schneiden
370
     0
100
AcDbVertex
100
AcDb2dVertex
 10
148.6958332961594
 20
-2.54730360179373
 30
0.0
  0
VERTEX
  5
24D
330
249
100
AcDbEntity
  8
Schneiden
370
     0
100
AcDbVertex
100
AcDb2dVertex
 10
148.6958332961594
 20
0.3028238931534607
 30
0.0
  0
VERTEX
  5
24E
330
249
100
AcDbEntity
  8
Schneiden
370
     0
100
AcDbVertex
100
AcDb2dVertex
 10
138.6957546311247
 20
0.3028238931534607
 30
0.0
  0
SEQEND
  5
24F
330
249
100
AcDbEntity
  8
Schneiden
370
     0
  0
ENDBLK
  5
248
330
245
100
AcDbEntity
  8
0
100
AcDbBlockEnd
  0
BLOCK
  5
252
330
250
100
AcDbEntity
  8
0
100
AcDbBlockBegin
  2
block 67
 70
     0
 71
     0
 10
0.0
 20
0.0
 30
0.0
  3
block 67
  1

  0
POLYLINE
  5
254
330
250
100
AcDbEntity
  8
Schneiden
370
     0
100
AcDb2dPolyline
 66
     1
 10
0.0
 20
0.0
 30
0.0
  0
VERTEX
  5
255
330
254
100
AcDbEntity
  8
Schneiden
370
     0
100
AcDbVertex
100
AcDb2dVertex
 10
61.19592012358991
 20
0.3028238931534607
 30
0.0
  0
VERTEX
  5
256
330
254
100
AcDbEntity
  8
Schneiden
370
     0
100
AcDbVertex
100
AcDb2dVertex
 10
61.19592012358991
 20
-2.54730360179373
 30
0.0
  0
VERTEX
  5
257
330
254
100
AcDbEntity
  8
Schneiden
370
     0
100
AcDbVertex
100
AcDb2dVertex
 10
71.19582653385035
 20
-2.54730360179373
 30
0.0
  0
VERTEX
  5
258
330
254
100
AcDbEntity
  8
Schneiden
370
     0
100
AcDbVertex
100
AcDb2dVertex
 10
71.19582653385035
 20
0.3028238931534607
 30
0.0
  0
VERTEX
  5
259
330
254
100
AcDbEntity
  8
Schneiden
370
     0
100
AcDbVertex
100
AcDb2dVertex
 10
61.19592012358991
 20
0.3028238931534607
 30
0.0
  0
SEQEND
  5
25A
330
254
100
AcDbEntity
  8
Schneiden
370
     0
  0
ENDBLK
  5
253
330
250
100
AcDbEntity
  8
0
100
AcDbBlockEnd
  0
BLOCK
  5
25D
330
25B
100
AcDbEntity
  8
0
100
AcDbBlockBegin
  2
block 68
 70
     0
 71
     0
 10
0.0
 20
0.0
 30
0.0
  3
block 68
  1

  0
POLYLINE
  5
25F
330
25B
100
AcDbEntity
  8
Schneiden
370
     0
100
AcDb2dPolyline
 66
     1
 10
0.0
 20
0.0
 30
0.0
  0
VERTEX
  5
260
330
25F
100
AcDbEntity
  8
Schneiden
370
     0
100
AcDbVertex
100
AcDb2dVertex
 10
108.6958631455691
 20
0.3028238931534607
 30
0.0
  0
VERTEX
  5
261
330
25F
100
AcDbEntity
  8
Schneiden
370
     0
100
AcDbVertex
100
AcDb2dVertex
 10
108.6958631455691
 20
-2.54730360179373
 30
0.0
  0
VERTEX
  5
262
330
25F
100
AcDbEntity
  8
Schneiden
370
     0
100
AcDbVertex
100
AcDb2dVertex
 10
118.6957695558295
 20
-2.54730360179373
 30
0.0
  0
VERTEX
  5
263
330
25F
100
AcDbEntity
  8
Schneiden
370
     0
100
AcDbVertex
100
AcDb2dVertex
 10
118.6957695558295
 20
0.3028238931534607
 30
0.0
  0
VERTEX
  5
264
330
25F
100
AcDbEntity
  8
Schneiden
370
     0
100
AcDbVertex
100
AcDb2dVertex
 10
108.6958631455691
 20
0.3028238931534607
 30
0.0
  0
SEQEND
  5
265
330
25F
100
AcDbEntity
  8
Schneiden
370
     0
  0
ENDBLK
  5
25E
330
25B
100
AcDbEntity
  8
0
100
AcDbBlockEnd
  0
BLOCK
  5
268
330
266
100
AcDbEntity
  8
0
100
AcDbBlockBegin
  2
block 69
 70
     0
 71
     0
 10
0.0
 20
0.0
 30
0.0
  3
block 69
  1

  0
POLYLINE
  5
26A
330
266
100
AcDbEntity
  8
Schneiden
370
     0
100
AcDb2dPolyline
 66
     1
 10
0.0
 20
0.0
 30
0.0
  0
VERTEX
  5
26B
330
26A
100
AcDbEntity
  8
Schneiden
370
     0
100
AcDbVertex
100
AcDb2dVertex
 10
66.195787201333
 20
245.1278455333361
 30
0.0
  0
VERTEX
  5
26C
330
26A
100
AcDbEntity
  8
Schneiden
370
     0
100
AcDbVertex
100
AcDb2dVertex
 10
66.195787201333
 20
32.62781032170416
 30
0.0
  0
SEQEND
  5
26D
330
26A
100
AcDbEntity
  8
Schneiden
370
     0
  0
ENDBLK
  5
269
330
266
100
AcDbEntity
  8
0
100
AcDbBlockEnd
  0
BLOCK
  5
270
330
26E
100
AcDbEntity
  8
0
100
AcDbBlockBegin
  2
block 70
 70
     0
 71
     0
 10
0.0
 20
0.0
 30
0.0
  3
block 70
  1

  0
POLYLINE
  5
272
330
26E
100
AcDbEntity
  8
Schneiden
370
     0
100
AcDb2dPolyline
 66
     1
 10
0.0
 20
0.0
 30
0.0
  0
VERTEX
  5
273
330
272
100
AcDbEntity
  8
Schneiden
370
     0
100
AcDbVertex
100
AcDb2dVertex
 10
66.195787201333
 20
32.62781032170416
 30
0.0
  0
VERTEX
  5
274
330
272
100
AcDbEntity
  8
Schneiden
370
     0
100
AcDbVertex
100
AcDb2dVertex
 10
56.19588079107256
 20
32.62781032170416
 30
0.0
  0
SEQEND
  5
275
330
272
100
AcDbEntity
  8
Schneiden
370
     0
  0
ENDBLK
  5
271
330
26E
100
AcDbEntity
  8
0
100
AcDbBlockEnd
  0
BLOCK
  5
278
330
276
100
AcDbEntity
  8
0
100
AcDbBlockBegin
  2
block 71
 70
     0
 71
     0
 10
0.0
 20
0.0
 30
0.0
  3
block 71
  1

  0
POLYLINE
  5
27A
330
276
100
AcDbEntity
  8
Schneiden
370
     0
100
AcDb2dPolyline
 66
     1
 10
0.0
 20
0.0
 30
0.0
  0
VERTEX
  5
27B
330
27A
100
AcDbEntity
  8
Schneiden
370
     0
100
AcDbVertex
100
AcDb2dVertex
 10
98.69578448053439
 20
245.1278455333361
 30
0.0
  0
VERTEX
  5
27C
330
27A
100
AcDbEntity
  8
Schneiden
370
     0
100
AcDbVertex
100
AcDb2dVertex
 10
66.195787201333
 20
245.1278455333361
 30
0.0
  0
SEQEND
  5
27D
330
27A
100
AcDbEntity
  8
Schneiden
370
     0
  0
ENDBLK
  5
279
330
276
100
AcDbEntity
  8
0
100
AcDbBlockEnd
  0
BLOCK
  5
280
330
27E
100
AcDbEntity
  8
0
100
AcDbBlockBegin
  2
block 72
 70
     0
 71
     0
 10
0.0
 20
0.0
 30
0.0
  3
block 72
  1

  0
POLYLINE
  5
282
330
27E
100
AcDbEntity
  8
Schneiden
370
     0
100
AcDb2dPolyline
 66
     1
 10
0.0
 20
0.0
 30
0.0
  0
VERTEX
  5
283
330
282
100
AcDbEntity
  8
Schneiden
370
     0
100
AcDbVertex
100
AcDb2dVertex
 10
231.1958793909858
 20
32.62781032170416
 30
0.0
  0
VERTEX
  5
284
330
282
100
AcDbEntity
  8
Schneiden
370
     0
100
AcDbVertex
100
AcDb2dVertex
 10
241.1959580560205
 20
32.62781032170416
 30
0.0
  0
SEQEND
  5
285
330
282
100
AcDbEntity
  8
Schneiden
370
     0
  0
ENDBLK
  5
281
330
27E
100
AcDbEntity
  8
0
100
AcDbBlockEnd
  0
BLOCK
  5
288
330
286
100
AcDbEntity
  8
0
100
AcDbBlockBegin
  2
block 73
 70
     0
 71
     0
 10
0.0
 20
0.0
 30
0.0
  3
block 73
  1

  0
POLYLINE
  5
28A
330
286
100
AcDbEntity
  8
Schneiden
370
     0
100
AcDb2dPolyline
 66
     1
 10
0.0
 20
0.0
 30
0.0
  0
VERTEX
  5
28B
330
28A
100
AcDbEntity
  8
Schneiden
370
     0
100
AcDbVertex
100
AcDb2dVertex
 10
241.1959580560205
 20
32.62781032170416
 30
0.0
  0
VERTEX
  5
28C
330
28A
100
AcDbEntity
  8
Schneiden
370
     0
100
AcDbVertex
100
AcDb2dVertex
 10
241.1959580560205
 20
245.1278455333361
 30
0.0
  0
SEQEND
  5
28D
330
28A
100
AcDbEntity
  8
Schneiden
370
     0
  0
ENDBLK
  5
289
330
286
100
AcDbEntity
  8
0
100
AcDbBlockEnd
  0
BLOCK
  5
291
330
28F
100
AcDbEntity
  8
0
100
AcDbBlockBegin
  2
block 74
 70
     0
 71
     0
 10
0.0
 20
0.0
 30
0.0
  3
block 74
  1

  0
POLYLINE
  5
293
330
28F
100
AcDbEntity
  8
Gravieren
370
     0
100
AcDb2dPolyline
 66
     1
 10
0.0
 20
0.0
 30
0.0
  0
VERTEX
  5
294
330
293
100
AcDbEntity
  8
Gravieren
370
     0
100
AcDbVertex
100
AcDb2dVertex
 10
185.7071831132954
 20
213.1229084753651
 30
0.0
  0
VERTEX
  5
295
330
293
100
AcDbEntity
  8
Gravieren
370
     0
100
AcDbVertex
100
AcDb2dVertex
 10
101.7066256798685
 20
213.1229084753651
 30
0.0
  0
SEQEND
  5
296
330
293
100
AcDbEntity
  8
Gravieren
370
     0
  0
ENDBLK
  5
292
330
28F
100
AcDbEntity
  8
0
100
AcDbBlockEnd
  0
BLOCK
  5
299
330
297
100
AcDbEntity
  8
0
100
AcDbBlockBegin
  2
block 75
 70
     0
 71
     0
 10
0.0
 20
0.0
 30
0.0
  3
block 75
  1

  0
POLYLINE
  5
29B
330
297
100
AcDbEntity
  8
Gravieren
370
     0
100
AcDb2dPolyline
 66
     1
 10
0.0
 20
0.0
 30
0.0
  0
VERTEX
  5
29C
330
29B
100
AcDbEntity
  8
Gravieren
370
     0
100
AcDbVertex
100
AcDb2dVertex
 10
98.70663653131292
 20
210.1229193268096
 30
0.0
  0
VERTEX
  5
29D
330
29B
100
AcDbEntity
  8
Gravieren
370
     0
100
AcDbVertex
100
AcDb2dVertex
 10
98.70663653131292
 20
180.6229111961637
 30
0.0
  0
SEQEND
  5
29E
330
29B
100
AcDbEntity
  8
Gravieren
370
     0
  0
ENDBLK
  5
29A
330
297
100
AcDbEntity
  8
0
100
AcDbBlockEnd
  0
BLOCK
  5
2A1
330
29F
100
AcDbEntity
  8
0
100
AcDbBlockBegin
  2
block 76
 70
     0
 71
     0
 10
0.0
 20
0.0
 30
0.0
  3
block 76
  1

  0
POLYLINE
  5
2A3
330
29F
100
AcDbEntity
  8
Gravieren
370
     0
100
AcDb2dPolyline
 66
     1
 10
0.0
 20
0.0
 30
0.0
  0
VERTEX
  5
2A4
330
2A3
100
AcDbEntity
  8
Gravieren
370
     0
100
AcDbVertex
100
AcDb2dVertex
 10
101.7066256798685
 20
177.6229220476082
 30
0.0
  0
VERTEX
  5
2A5
330
2A3
100
AcDbEntity
  8
Gravieren
370
     0
100
AcDbVertex
100
AcDb2dVertex
 10
140.706656865865
 20
177.6229220476082
 30
0.0
  0
SEQEND
  5
2A6
330
2A3
100
AcDbEntity
  8
Gravieren
370
     0
  0
ENDBLK
  5
2A2
330
29F
100
AcDbEntity
  8
0
100
AcDbBlockEnd
  0
BLOCK
  5
2A9
330
2A7
100
AcDbEntity
  8
0
100
AcDbBlockBegin
  2
block 77
 70
     0
 71
     0
 10
0.0
 20
0.0
 30
0.0
  3
block 77
  1

  0
POLYLINE
  5
2AB
330
2A7
100
AcDbEntity
  8
Gravieren
370
     0
100
AcDb2dPolyline
 66
     1
 10
0.0
 20
0.0
 30
0.0
  0
VERTEX
  5
2AC
330
2AB
100
AcDbEntity
  8
Gravieren
370
     0
100
AcDbVertex
100
AcDb2dVertex
 10
143.7066460144206
 20
174.6229328990526
 30
0.0
  0
VERTEX
  5
2AD
330
2AB
100
AcDbEntity
  8
Gravieren
370
     0
100
AcDbVertex
100
AcDb2dVertex
 10
143.7066460144206
 20
165.6229654533859
 30
0.0
  0
SEQEND
  5
2AE
330
2AB
100
AcDbEntity
  8
Gravieren
370
     0
  0
ENDBLK
  5
2AA
330
2A7
100
AcDbEntity
  8
0
100
AcDbBlockEnd
  0
BLOCK
  5
2B1
330
2AF
100
AcDbEntity
  8
0
100
AcDbBlockBegin
  2
block 78
 70
     0
 71
     0
 10
0.0
 20
0.0
 30
0.0
  3
block 78
  1

  0
POLYLINE
  5
2B3
330
2AF
100
AcDbEntity
  8
Gravieren
370
     0
100
AcDb2dPolyline
 66
     1
 10
0.0
 20
0.0
 30
0.0
  0
VERTEX
  5
2B4
330
2B3
100
AcDbEntity
  8
Gravieren
370
     0
100
AcDbVertex
100
AcDb2dVertex
 10
146.7066351629761
 20
162.6228040500561
 30
0.0
  0
VERTEX
  5
2B5
330
2B3
100
AcDbEntity
  8
Gravieren
370
     0
100
AcDbVertex
100
AcDb2dVertex
 10
190.7073947005871
 20
162.6228040500561
 30
0.0
  0
SEQEND
  5
2B6
330
2B3
100
AcDbEntity
  8
Gravieren
370
     0
  0
ENDBLK
  5
2B2
330
2AF
100
AcDbEntity
  8
0
100
AcDbBlockEnd
  0
BLOCK
  5
2B9
330
2B7
100
AcDbEntity
  8
0
100
AcDbBlockBegin
  2
block 79
 70
     0
 71
     0
 10
0.0
 20
0.0
 30
0.0
  3
block 79
  1

  0
POLYLINE
  5
2BB
330
2B7
100
AcDbEntity
  8
Gravieren
370
     0
100
AcDb2dPolyline
 66
     1
 10
0.0
 20
0.0
 30
0.0
  0
VERTEX
  5
2BC
330
2BB
100
AcDbEntity
  8
Gravieren
370
     0
100
AcDbVertex
100
AcDb2dVertex
 10
188.707172261851
 20
180.6229111961637
 30
0.0
  0
VERTEX
  5
2BD
330
2BB
100
AcDbEntity
  8
Gravieren
370
     0
100
AcDbVertex
100
AcDb2dVertex
 10
188.707172261851
 20
210.1229193268096
 30
0.0
  0
SEQEND
  5
2BE
330
2BB
100
AcDbEntity
  8
Gravieren
370
     0
  0
ENDBLK
  5
2BA
330
2B7
100
AcDbEntity
  8
0
100
AcDbBlockEnd
  0
BLOCK
  5
2C1
330
2BF
100
AcDbEntity
  8
0
100
AcDbBlockBegin
  2
block 80
 70
     0
 71
     0
 10
0.0
 20
0.0
 30
0.0
  3
block 80
  1

  0
POLYLINE
  5
2C3
330
2BF
100
AcDbEntity
  8
Gravieren
370
     0
100
AcDb2dPolyline
 66
     1
 10
0.0
 20
0.0
 30
0.0
  0
VERTEX
  5
2C4
330
2C3
100
AcDbEntity
  8
Gravieren
370
     0
100
AcDbVertex
100
AcDb2dVertex
 10
196.2071451332399
 20
177.6229220476082
 30
0.0
  0
VERTEX
  5
2C5
330
2C3
100
AcDbEntity
  8
Gravieren
370
     0
100
AcDbVertex
100
AcDb2dVertex
 10
191.7071614104065
 20
177.6229220476082
 30
0.0
  0
SEQEND
  5
2C6
330
2C3
100
AcDbEntity
  8
Gravieren
370
     0
  0
ENDBLK
  5
2C2
330
2BF
100
AcDbEntity
  8
0
100
AcDbBlockEnd
  0
BLOCK
  5
2C9
330
2C7
100
AcDbEntity
  8
0
100
AcDbBlockBegin
  2
block 81
 70
     0
 71
     0
 10
0.0
 20
0.0
 30
0.0
  3
block 81
  1

  0
POLYLINE
  5
2CB
330
2C7
100
AcDbEntity
  8
Gravieren
370
     0
100
AcDb2dPolyline
 66
     1
 10
0.0
 20
0.0
 30
0.0
  0
VERTEX
  5
2CC
330
2CB
100
AcDbEntity
  8
Gravieren
370
     0
100
AcDbVertex
100
AcDb2dVertex
 10
208.7073295919204
 20
23.62301974235814
 30
0.0
  0
VERTEX
  5
2CD
330
2CB
100
AcDbEntity
  8
Gravieren
370
     0
100
AcDbVertex
100
AcDb2dVertex
 10
208.7073295919204
 20
165.1229098437019
 30
0.0
  0
SEQEND
  5
2CE
330
2CB
100
AcDbEntity
  8
Gravieren
370
     0
  0
ENDBLK
  5
2CA
330
2C7
100
AcDbEntity
  8
0
100
AcDbBlockEnd
  0
BLOCK
  5
2D1
330
2CF
100
AcDbEntity
  8
0
100
AcDbBlockBegin
  2
block 82
 70
     0
 71
     0
 10
0.0
 20
0.0
 30
0.0
  3
block 82
  1

  0
POLYLINE
  5
2D3
330
2CF
100
AcDbEntity
  8
Gravieren
370
     0
100
AcDb2dPolyline
 66
     1
 10
0.0
 20
0.0
 30
0.0
  0
VERTEX
  5
2D4
330
2D3
100
AcDbEntity
  8
Gravieren
370
     0
100
AcDbVertex
100
AcDb2dVertex
 10
231.2072482060871
 20
20.62303059380258
 30
0.0
  0
VERTEX
  5
2D5
330
2D3
100
AcDbEntity
  8
Gravieren
370
     0
100
AcDbVertex
100
AcDb2dVertex
 10
211.707318740476
 20
20.62303059380258
 30
0.0
  0
SEQEND
  5
2D6
330
2D3
100
AcDbEntity
  8
Gravieren
370
     0
  0
ENDBLK
  5
2D2
330
2CF
100
AcDbEntity
  8
0
100
AcDbBlockEnd
  0
BLOCK
  5
2D9
330
2D7
100
AcDbEntity
  8
0
100
AcDbBlockBegin
  2
block 83
 70
     0
 71
     0
 10
0.0
 20
0.0
 30
0.0
  3
block 83
  1

  0
POLYLINE
  5
2DB
330
2D7
100
AcDbEntity
  8
Gravieren
370
     0
100
AcDb2dPolyline
 66
     1
 10
0.0
 20
0.0
 30
0.0
  0
VERTEX
  5
2DC
330
2DB
100
AcDbEntity
  8
Gravieren
370
     0
100
AcDbVertex
100
AcDb2dVertex
 10
193.7073838491426
 20
159.6228149015006
 30
0.0
  0
VERTEX
  5
2DD
330
2DB
100
AcDbEntity
  8
Gravieren
370
     0
100
AcDbVertex
100
AcDb2dVertex
 10
193.7073838491426
 20
23.62301974235814
 30
0.0
  0
SEQEND
  5
2DE
330
2DB
100
AcDbEntity
  8
Gravieren
370
     0
  0
ENDBLK
  5
2DA
330
2D7
100
AcDbEntity
  8
0
100
AcDbBlockEnd
  0
BLOCK
  5
2E1
330
2DF
100
AcDbEntity
  8
0
100
AcDbBlockBegin
  2
block 84
 70
     0
 71
     0
 10
0.0
 20
0.0
 30
0.0
  3
block 84
  1

  0
POLYLINE
  5
2E3
330
2DF
100
AcDbEntity
  8
Gravieren
370
     0
100
AcDb2dPolyline
 66
     1
 10
0.0
 20
0.0
 30
0.0
  0
VERTEX
  5
2E4
330
2E3
100
AcDbEntity
  8
Gravieren
370
     0
100
AcDbVertex
100
AcDb2dVertex
 10
190.7073947005871
 20
20.62303059380258
 30
0.0
  0
VERTEX
  5
2E5
330
2E3
100
AcDbEntity
  8
Gravieren
370
     0
100
AcDbVertex
100
AcDb2dVertex
 10
96.70658634735113
 20
20.62303059380258
 30
0.0
  0
SEQEND
  5
2E6
330
2E3
100
AcDbEntity
  8
Gravieren
370
     0
  0
ENDBLK
  5
2E2
330
2DF
100
AcDbEntity
  8
0
100
AcDbBlockEnd
  0
BLOCK
  5
2E9
330
2E7
100
AcDbEntity
  8
0
100
AcDbBlockBegin
  2
block 85
 70
     0
 71
     0
 10
0.0
 20
0.0
 30
0.0
  3
block 85
  1

  0
POLYLINE
  5
2EB
330
2E7
100
AcDbEntity
  8
Gravieren
370
     0
100
AcDb2dPolyline
 66
     1
 10
0.0
 20
0.0
 30
0.0
  0
VERTEX
  5
2EC
330
2EB
100
AcDbEntity
  8
Gravieren
370
     0
100
AcDbVertex
100
AcDb2dVertex
 10
93.70659719879558
 20
23.62301974235814
 30
0.0
  0
VERTEX
  5
2ED
330
2EB
100
AcDbEntity
  8
Gravieren
370
     0
100
AcDbVertex
100
AcDb2dVertex
 10
93.70659719879558
 20
40.62249890477494
 30
0.0
  0
SEQEND
  5
2EE
330
2EB
100
AcDbEntity
  8
Gravieren
370
     0
  0
ENDBLK
  5
2EA
330
2E7
100
AcDbEntity
  8
0
100
AcDbBlockEnd
  0
BLOCK
  5
2F1
330
2EF
100
AcDbEntity
  8
0
100
AcDbBlockBegin
  2
block 86
 70
     0
 71
     0
 10
0.0
 20
0.0
 30
0.0
  3
block 86
  1

  0
POLYLINE
  5
2F3
330
2EF
100
AcDbEntity
  8
Gravieren
370
     0
100
AcDb2dPolyline
 66
     1
 10
0.0
 20
0.0
 30
0.0
  0
VERTEX
  5
2F4
330
2F3
100
AcDbEntity
  8
Gravieren
370
     0
100
AcDbVertex
100
AcDb2dVertex
 10
96.70658634735113
 20
43.62248805333049
 30
0.0
  0
VERTEX
  5
2F5
330
2F3
100
AcDbEntity
  8
Gravieren
370
     0
100
AcDbVertex
100
AcDb2dVertex
 10
140.706656865865
 20
43.62248805333049
 30
0.0
  0
SEQEND
  5
2F6
330
2F3
100
AcDbEntity
  8
Gravieren
370
     0
  0
ENDBLK
  5
2F2
330
2EF
100
AcDbEntity
  8
0
100
AcDbBlockEnd
  0
BLOCK
  5
2F9
330
2F7
100
AcDbEntity
  8
0
100
AcDbBlockBegin
  2
block 87
 70
     0
 71
     0
 10
0.0
 20
0.0
 30
0.0
  3
block 87
  1

  0
POLYLINE
  5
2FB
330
2F7
100
AcDbEntity
  8
Gravieren
370
     0
100
AcDb2dPolyline
 66
     1
 10
0.0
 20
0.0
 30
0.0
  0
VERTEX
  5
2FC
330
2FB
100
AcDbEntity
  8
Gravieren
370
     0
100
AcDbVertex
100
AcDb2dVertex
 10
143.7066460144206
 20
46.62247720188605
 30
0.0
  0
VERTEX
  5
2FD
330
2FB
100
AcDbEntity
  8
Gravieren
370
     0
100
AcDbVertex
100
AcDb2dVertex
 10
143.7066460144206
 20
55.62244464755273
 30
0.0
  0
SEQEND
  5
2FE
330
2FB
100
AcDbEntity
  8
Gravieren
370
     0
  0
ENDBLK
  5
2FA
330
2F7
100
AcDbEntity
  8
0
100
AcDbBlockEnd
  0
BLOCK
  5
301
330
2FF
100
AcDbEntity
  8
0
100
AcDbBlockBegin
  2
block 88
 70
     0
 71
     0
 10
0.0
 20
0.0
 30
0.0
  3
block 88
  1

  0
POLYLINE
  5
303
330
2FF
100
AcDbEntity
  8
Gravieren
370
     0
100
AcDb2dPolyline
 66
     1
 10
0.0
 20
0.0
 30
0.0
  0
VERTEX
  5
304
330
303
100
AcDbEntity
  8
Gravieren
370
     0
100
AcDbVertex
100
AcDb2dVertex
 10
146.7066351629761
 20
58.62243379610828
 30
0.0
  0
VERTEX
  5
305
330
303
100
AcDbEntity
  8
Gravieren
370
     0
100
AcDbVertex
100
AcDb2dVertex
 10
185.7071831132954
 20
58.62243379610828
 30
0.0
  0
SEQEND
  5
306
330
303
100
AcDbEntity
  8
Gravieren
370
     0
  0
ENDBLK
  5
302
330
2FF
100
AcDbEntity
  8
0
100
AcDbBlockEnd
  0
BLOCK
  5
309
330
307
100
AcDbEntity
  8
0
100
AcDbBlockBegin
  2
block 89
 70
     0
 71
     0
 10
0.0
 20
0.0
 30
0.0
  3
block 89
  1

  0
POLYLINE
  5
30B
330
307
100
AcDbEntity
  8
Gravieren
370
     0
100
AcDb2dPolyline
 66
     1
 10
0.0
 20
0.0
 30
0.0
  0
VERTEX
  5
30C
330
30B
100
AcDbEntity
  8
Gravieren
370
     0
100
AcDbVertex
100
AcDb2dVertex
 10
188.707172261851
 20
61.62242294466384
 30
0.0
  0
VERTEX
  5
30D
330
30B
100
AcDbEntity
  8
Gravieren
370
     0
100
AcDbVertex
100
AcDb2dVertex
 10
188.707172261851
 20
145.6228081233165
 30
0.0
  0
SEQEND
  5
30E
330
30B
100
AcDbEntity
  8
Gravieren
370
     0
  0
ENDBLK
  5
30A
330
307
100
AcDbEntity
  8
0
100
AcDbBlockEnd
  0
BLOCK
  5
311
330
30F
100
AcDbEntity
  8
0
100
AcDbBlockBegin
  2
block 90
 70
     0
 71
     0
 10
0.0
 20
0.0
 30
0.0
  3
block 90
  1

  0
POLYLINE
  5
313
330
30F
100
AcDbEntity
  8
Gravieren
370
     0
100
AcDb2dPolyline
 66
     1
 10
0.0
 20
0.0
 30
0.0
  0
VERTEX
  5
314
330
313
100
AcDbEntity
  8
Gravieren
370
     0
100
AcDbVertex
100
AcDb2dVertex
 10
185.7071831132954
 20
148.6227972718721
 30
0.0
  0
VERTEX
  5
315
330
313
100
AcDbEntity
  8
Gravieren
370
     0
100
AcDbVertex
100
AcDb2dVertex
 10
101.7066256798685
 20
148.6227972718721
 30
0.0
  0
SEQEND
  5
316
330
313
100
AcDbEntity
  8
Gravieren
370
     0
  0
ENDBLK
  5
312
330
30F
100
AcDbEntity
  8
0
100
AcDbBlockEnd
  0
BLOCK
  5
319
330
317
100
AcDbEntity
  8
0
100
AcDbBlockBegin
  2
block 91
 70
     0
 71
     0
 10
0.0
 20
0.0
 30
0.0
  3
block 91
  1

  0
POLYLINE
  5
31B
330
317
100
AcDbEntity
  8
Gravieren
370
     0
100
AcDb2dPolyline
 66
     1
 10
0.0
 20
0.0
 30
0.0
  0
VERTEX
  5
31C
330
31B
100
AcDbEntity
  8
Gravieren
370
     0
100
AcDbVertex
100
AcDb2dVertex
 10
98.70663653131292
 20
145.6228081233165
 30
0.0
  0
VERTEX
  5
31D
330
31B
100
AcDbEntity
  8
Gravieren
370
     0
100
AcDbVertex
100
AcDb2dVertex
 10
98.70663653131292
 20
61.62242294466384
 30
0.0
  0
SEQEND
  5
31E
330
31B
100
AcDbEntity
  8
Gravieren
370
     0
  0
ENDBLK
  5
31A
330
317
100
AcDbEntity
  8
0
100
AcDbBlockEnd
  0
BLOCK
  5
321
330
31F
100
AcDbEntity
  8
0
100
AcDbBlockBegin
  2
block 92
 70
     0
 71
     0
 10
0.0
 20
0.0
 30
0.0
  3
block 92
  1

  0
POLYLINE
  5
323
330
31F
100
AcDbEntity
  8
Gravieren
370
     0
100
AcDb2dPolyline
 66
     1
 10
0.0
 20
0.0
 30
0.0
  0
VERTEX
  5
324
330
323
100
AcDbEntity
  8
Gravieren
370
     0
100
AcDbVertex
100
AcDb2dVertex
 10
95.70664738275737
 20
58.62243379610828
 30
0.0
  0
VERTEX
  5
325
330
323
100
AcDbEntity
  8
Gravieren
370
     0
100
AcDbVertex
100
AcDb2dVertex
 10
91.20666365992403
 20
58.62243379610828
 30
0.0
  0
SEQEND
  5
326
330
323
100
AcDbEntity
  8
Gravieren
370
     0
  0
ENDBLK
  5
322
330
31F
100
AcDbEntity
  8
0
100
AcDbBlockEnd
  0
BLOCK
  5
329
330
327
100
AcDbEntity
  8
0
100
AcDbBlockBegin
  2
block 93
 70
     0
 71
     0
 10
0.0
 20
0.0
 30
0.0
  3
block 93
  1

  0
POLYLINE
  5
32B
330
327
100
AcDbEntity
  8
Gravieren
370
     0
100
AcDb2dPolyline
 66
     1
 10
0.0
 20
0.0
 30
0.0
  0
VERTEX
  5
32C
330
32B
100
AcDbEntity
  8
Gravieren
370
     0
100
AcDbVertex
100
AcDb2dVertex
 10
78.70665145601778
 20
46.12293835652482
 30
0.0
  0
VERTEX
  5
32D
330
32B
100
AcDbEntity
  8
Gravieren
370
     0
100
AcDbVertex
100
AcDb2dVertex
 10
78.70665145601778
 20
23.62301974235814
 30
0.0
  0
SEQEND
  5
32E
330
32B
100
AcDbEntity
  8
Gravieren
370
     0
  0
ENDBLK
  5
32A
330
327
100
AcDbEntity
  8
0
100
AcDbBlockEnd
  0
BLOCK
  5
331
330
32F
100
AcDbEntity
  8
0
100
AcDbBlockBegin
  2
block 94
 70
     0
 71
     0
 10
0.0
 20
0.0
 30
0.0
  3
block 94
  1

  0
POLYLINE
  5
333
330
32F
100
AcDbEntity
  8
Gravieren
370
     0
100
AcDb2dPolyline
 66
     1
 10
0.0
 20
0.0
 30
0.0
  0
VERTEX
  5
334
330
333
100
AcDbEntity
  8
Gravieren
370
     0
100
AcDbVertex
100
AcDb2dVertex
 10
75.70666230746222
 20
20.62303059380258
 30
0.0
  0
VERTEX
  5
335
330
333
100
AcDbEntity
  8
Gravieren
370
     0
100
AcDbVertex
100
AcDb2dVertex
 10
56.2067328418511
 20
20.62303059380258
 30
0.0
  0
SEQEND
  5
336
330
333
100
AcDbEntity
  8
Gravieren
370
     0
  0
ENDBLK
  5
332
330
32F
100
AcDbEntity
  8
0
100
AcDbBlockEnd
  0
BLOCK
  5
339
330
337
100
AcDbEntity
  8
0
100
AcDbBlockBegin
  2
block 95
 70
     0
 71
     0
 10
0.0
 20
0.0
 30
0.0
  3
block 95
  1

  0
POLYLINE
  5
33B
330
337
100
AcDbEntity
  8
Gravieren
370
     0
100
AcDb2dPolyline
 66
     1
 10
0.0
 20
0.0
 30
0.0
  0
VERTEX
  5
33C
330
33B
100
AcDbEntity
  8
Gravieren
370
     0
100
AcDbVertex
100
AcDb2dVertex
 10
56.2067328418511
 20
5.622395831927735
 30
0.0
  0
VERTEX
  5
33D
330
33B
100
AcDbEntity
  8
Gravieren
370
     0
100
AcDbVertex
100
AcDb2dVertex
 10
231.2072482060871
 20
5.622395831927735
 30
0.0
  0
SEQEND
  5
33E
330
33B
100
AcDbEntity
  8
Gravieren
370
     0
  0
ENDBLK
  5
33A
330
337
100
AcDbEntity
  8
0
100
AcDbBlockEnd
  0
BLOCK
  5
341
330
33F
100
AcDbEntity
  8
0
100
AcDbBlockBegin
  2
block 96
 70
     0
 71
     0
 10
0.0
 20
0.0
 30
0.0
  3
block 96
  1

  0
POLYLINE
  5
343
330
33F
100
AcDbEntity
  8
Gravieren
370
     0
100
AcDb2dPolyline
 66
     1
 10
0.0
 20
0.0
 30
0.0
  0
VERTEX
  5
344
330
343
100
AcDbEntity
  8
Gravieren
370
     0
100
AcDbVertex
100
AcDb2dVertex
 10
231.2072482060871
 20
20.62303059380258
 30
0.0
  0
VERTEX
  5
345
330
343
100
AcDbEntity
  8
Gravieren
370
     0
100
AcDbVertex
100
AcDb2dVertex
 10
231.2072482060871
 20
245.1228501448825
 30
0.0
  0
SEQEND
  5
346
330
343
100
AcDbEntity
  8
Gravieren
370
     0
  0
ENDBLK
  5
342
330
33F
100
AcDbEntity
  8
0
100
AcDbBlockEnd
  0
ENDSEC
  0
SECTION
  2
ENTITIES
  0
INSERT
  5
3D
330
1F
100
AcDbEntity
  8
Schneiden
100
AcDbBlockReference
  2
block 2
 10
0.0
 20
0.0
 30
0.0
  0
INSERT
  5
48
330
1F
100
AcDbEntity
  8
Schneiden
100
AcDbBlockReference
  2
block 3
 10
0.0
 20
0.0
 30
0.0
  0
INSERT
  5
53
330
1F
100
AcDbEntity
  8
Schneiden
100
AcDbBlockReference
  2
block 4
 10
0.0
 20
0.0
 30
0.0
  0
INSERT
  5
5E
330
1F
100
AcDbEntity
  8
Schneiden
100
AcDbBlockReference
  2
block 5
 10
0.0
 20
0.0
 30
0.0
  0
INSERT
  5
69
330
1F
100
AcDbEntity
  8
Schneiden
100
AcDbBlockReference
  2
block 6
 10
0.0
 20
0.0
 30
0.0
  0
INSERT
  5
74
330
1F
100
AcDbEntity
  8
Schneiden
100
AcDbBlockReference
  2
block 7
 10
0.0
 20
0.0
 30
0.0
  0
INSERT
  5
7F
330
1F
100
AcDbEntity
  8
Schneiden
100
AcDbBlockReference
  2
block 8
 10
0.0
 20
0.0
 30
0.0
  0
INSERT
  5
8A
330
1F
100
AcDbEntity
  8
Schneiden
100
AcDbBlockReference
  2
block 9
 10
0.0
 20
0.0
 30
0.0
  0
INSERT
  5
95
330
1F
100
AcDbEntity
  8
Schneiden
100
AcDbBlockReference
  2
block 10
 10
0.0
 20
0.0
 30
0.0
  0
INSERT
  5
A0
330
1F
100
AcDbEntity
  8
Schneiden
100
AcDbBlockReference
  2
block 11
 10
0.0
 20
0.0
 30
0.0
  0
INSERT
  5
AB
330
1F
100
AcDbEntity
  8
Schneiden
100
AcDbBlockReference
  2
block 12
 10
0.0
 20
0.0
 30
0.0
  0
INSERT
  5
B6
330
1F
100
AcDbEntity
  8
Schneiden
100
AcDbBlockReference
  2
block 13
 10
0.0
 20
0.0
 30
0.0
  0
INSERT
  5
BE
330
1F
100
AcDbEntity
  8
Schneiden
100
AcDbBlockReference
  2
block 14
 10
0.0
 20
0.0
 30
0.0
  0
INSERT
  5
C6
330
1F
100
AcDbEntity
  8
Schneiden
100
AcDbBlockReference
  2
block 15
 10
0.0
 20
0.0
 30
0.0
  0
INSERT
  5
CE
330
1F
100
AcDbEntity
  8
Schneiden
100
AcDbBlockReference
  2
block 16
 10
0.0
 20
0.0
 30
0.0
  0
INSERT
  5
D6
330
1F
100
AcDbEntity
  8
Schneiden
100
AcDbBlockReference
  2
block 17
 10
0.0
 20
0.0
 30
0.0
  0
INSERT
  5
DE
330
1F
100
AcDbEntity
  8
Schneiden
100
AcDbBlockReference
  2
block 18
 10
0.0
 20
0.0
 30
0.0
  0
INSERT
  5
E6
330
1F
100
AcDbEntity
  8
Schneiden
100
AcDbBlockReference
  2
block 19
 10
0.0
 20
0.0
 30
0.0
  0
INSERT
  5
F1
330
1F
100
AcDbEntity
  8
Schneiden
100
AcDbBlockReference
  2
block 20
 10
0.0
 20
0.0
 30
0.0
  0
INSERT
  5
F9
330
1F
100
AcDbEntity
  8
Schneiden
100
AcDbBlockReference
  2
block 21
 10
0.0
 20
0.0
 30
0.0
  0
INSERT
  5
101
330
1F
100
AcDbEntity
  8
Schneiden
100
AcDbBlockReference
  2
block 22
 10
0.0
 20
0.0
 30
0.0
  0
INSERT
  5
109
330
1F
100
AcDbEntity
  8
Schneiden
100
AcDbBlockReference
  2
block 23
 10
0.0
 20
0.0
 30
0.0
  0
INSERT
  5
111
330
1F
100
AcDbEntity
  8
Schneiden
100
AcDbBlockReference
  2
block 24
 10
0.0
 20
0.0
 30
0.0
  0
INSERT
  5
116
330
1F
100
AcDbEntity
  8
Schneiden
100
AcDbBlockReference
  2
block 25
 10
0.0
 20
0.0
 30
0.0
  0
INSERT
  5
11B
330
1F
100
AcDbEntity
  8
Schneiden
100
AcDbBlockReference
  2
block 26
 10
0.0
 20
0.0
 30
0.0
  0
INSERT
  5
126
330
1F
100
AcDbEntity
  8
Schneiden
100
AcDbBlockReference
  2
block 27
 10
0.0
 20
0.0
 30
0.0
  0
INSERT
  5
131
330
1F
100
AcDbEntity
  8
Schneiden
100
AcDbBlockReference
  2
block 28
 10
0.0
 20
0.0
 30
0.0
  0
INSERT
  5
13C
330
1F
100
AcDbEntity
  8
Schneiden
100
AcDbBlockReference
  2
block 29
 10
0.0
 20
0.0
 30
0.0
  0
INSERT
  5
147
330
1F
100
AcDbEntity
  8
Schneiden
100
AcDbBlockReference
  2
block 30
 10
0.0
 20
0.0
 30
0.0
  0
INSERT
  5
152
330
1F
100
AcDbEntity
  8
Schneiden
100
AcDbBlockReference
  2
block 31
 10
0.0
 20
0.0
 30
0.0
  0
INSERT
  5
15D
330
1F
100
AcDbEntity
  8
Schneiden
100
AcDbBlockReference
  2
block 32
 10
0.0
 20
0.0
 30
0.0
  0
INSERT
  5
162
330
1F
100
AcDbEntity
  8
Schneiden
100
AcDbBlockReference
  2
block 33
 10
0.0
 20
0.0
 30
0.0
  0
INSERT
  5
167
330
1F
100
AcDbEntity
  8
Schneiden
100
AcDbBlockReference
  2
block 34
 10
0.0
 20
0.0
 30
0.0
  0
INSERT
  5
16C
330
1F
100
AcDbEntity
  8
Schneiden
100
AcDbBlockReference
  2
block 35
 10
0.0
 20
0.0
 30
0.0
  0
INSERT
  5
174
330
1F
100
AcDbEntity
  8
Schneiden
100
AcDbBlockReference
  2
block 36
 10
0.0
 20
0.0
 30
0.0
  0
INSERT
  5
179
330
1F
100
AcDbEntity
  8
Schneiden
100
AcDbBlockReference
  2
block 37
 10
0.0
 20
0.0
 30
0.0
  0
INSERT
  5
181
330
1F
100
AcDbEntity
  8
Schneiden
100
AcDbBlockReference
  2
block 38
 10
0.0
 20
0.0
 30
0.0
  0
INSERT
  5
186
330
1F
100
AcDbEntity
  8
Schneiden
100
AcDbBlockReference
  2
block 39
 10
0.0
 20
0.0
 30
0.0
  0
INSERT
  5
18E
330
1F
100
AcDbEntity
  8
Schneiden
100
AcDbBlockReference
  2
block 40
 10
0.0
 20
0.0
 30
0.0
  0
INSERT
  5
193
330
1F
100
AcDbEntity
  8
Schneiden
100
AcDbBlockReference
  2
block 41
 10
0.0
 20
0.0
 30
0.0
  0
INSERT
  5
19B
330
1F
100
AcDbEntity
  8
Schneiden
100
AcDbBlockReference
  2
block 42
 10
0.0
 20
0.0
 30
0.0
  0
INSERT
  5
1A0
330
1F
100
AcDbEntity
  8
Schneiden
100
AcDbBlockReference
  2
block 43
 10
0.0
 20
0.0
 30
0.0
  0
INSERT
  5
1A8
330
1F
100
AcDbEntity
  8
Schneiden
100
AcDbBlockReference
  2
block 44
 10
0.0
 20
0.0
 30
0.0
  0
INSERT
  5
1AD
330
1F
100
AcDbEntity
  8
Schneiden
100
AcDbBlockReference
  2
block 45
 10
0.0
 20
0.0
 30
0.0
  0
INSERT
  5
1B5
330
1F
100
AcDbEntity
  8
Schneiden
100
AcDbBlockReference
  2
block 46
 10
0.0
 20
0.0
 30
0.0
  0
INSERT
  5
1BA
330
1F
100
AcDbEntity
  8
Schneiden
100
AcDbBlockReference
  2
block 47
 10
0.0
 20
0.0
 30
0.0
  0
INSERT
  5
1C2
330
1F
100
AcDbEntity
  8
Schneiden
100
AcDbBlockReference
  2
block 48
 10
0.0
 20
0.0
 30
0.0
  0
INSERT
  5
1C7
330
1F
100
AcDbEntity
  8
Schneiden
100
AcDbBlockReference
  2
block 49
 10
0.0
 20
0.0
 30
0.0
  0
INSERT
  5
1CF
330
1F
100
AcDbEntity
  8
Schneiden
100
AcDbBlockReference
  2
block 50
 10
0.0
 20
0.0
 30
0.0
  0
INSERT
  5
1D4
330
1F
100
AcDbEntity
  8
Schneiden
100
AcDbBlockReference
  2
block 51
 10
0.0
 20
0.0
 30
0.0
  0
INSERT
  5
1DC
330
1F
100
AcDbEntity
  8
Schneiden
100
AcDbBlockReference
  2
block 52
 10
0.0
 20
0.0
 30
0.0
  0
INSERT
  5
1E1
330
1F
100
AcDbEntity
  8
Schneiden
100
AcDbBlockReference
  2
block 53
 10
0.0
 20
0.0
 30
0.0
  0
INSERT
  5
1E9
330
1F
100
AcDbEntity
  8
Schneiden
100
AcDbBlockReference
  2
block 54
 10
0.0
 20
0.0
 30
0.0
  0
INSERT
  5
1EE
330
1F
100
AcDbEntity
  8
Schneiden
100
AcDbBlockReference
  2
block 55
 10
0.0
 20
0.0
 30
0.0
  0
INSERT
  5
1F6
330
1F
100
AcDbEntity
  8
Schneiden
100
AcDbBlockReference
  2
block 56
 10
0.0
 20
0.0
 30
0.0
  0
INSERT
  5
1FB
330
1F
100
AcDbEntity
  8
Schneiden
100
AcDbBlockReference
  2
block 57
 10
0.0
 20
0.0
 30
0.0
  0
INSERT
  5
203
330
1F
100
AcDbEntity
  8
Schneiden
100
AcDbBlockReference
  2
block 58
 10
0.0
 20
0.0
 30
0.0
  0
INSERT
  5
208
330
1F
100
AcDbEntity
  8
Schneiden
100
AcDbBlockReference
  2
block 59
 10
0.0
 20
0.0
 30
0.0
  0
INSERT
  5
210
330
1F
100
AcDbEntity
  8
Schneiden
100
AcDbBlockReference
  2
block 60
 10
0.0
 20
0.0
 30
0.0
  0
INSERT
  5
218
330
1F
100
AcDbEntity
  8
Schneiden
100
AcDbBlockReference
  2
block 61
 10
0.0
 20
0.0
 30
0.0
  0
INSERT
  5
220
330
1F
100
AcDbEntity
  8
Schneiden
100
AcDbBlockReference
  2
block 62
 10
0.0
 20
0.0
 30
0.0
  0
INSERT
  5
228
330
1F
100
AcDbEntity
  8
Schneiden
100
AcDbBlockReference
  2
block 63
 10
0.0
 20
0.0
 30
0.0
  0
INSERT
  5
230
330
1F
100
AcDbEntity
  8
Schneiden
100
AcDbBlockReference
  2
block 64
 10
0.0
 20
0.0
 30
0.0
  0
INSERT
  5
23B
330
1F
100
AcDbEntity
  8
Schneiden
100
AcDbBlockReference
  2
block 65
 10
0.0
 20
0.0
 30
0.0
  0
INSERT
  5
246
330
1F
100
AcDbEntity
  8
Schneiden
100
AcDbBlockReference
  2
block 66
 10
0.0
 20
0.0
 30
0.0
  0
INSERT
  5
251
330
1F
100
AcDbEntity
  8
Schneiden
100
AcDbBlockReference
  2
block 67
 10
0.0
 20
0.0
 30
0.0
  0
INSERT
  5
25C
330
1F
100
AcDbEntity
  8
Schneiden
100
AcDbBlockReference
  2
block 68
 10
0.0
 20
0.0
 30
0.0
  0
INSERT
  5
267
330
1F
100
AcDbEntity
  8
Schneiden
100
AcDbBlockReference
  2
block 69
 10
0.0
 20
0.0
 30
0.0
  0
INSERT
  5
26F
330
1F
100
AcDbEntity
  8
Schneiden
100
AcDbBlockReference
  2
block 70
 10
0.0
 20
0.0
 30
0.0
  0
INSERT
  5
277
330
1F
100
AcDbEntity
  8
Schneiden
100
AcDbBlockReference
  2
block 71
 10
0.0
 20
0.0
 30
0.0
  0
INSERT
  5
27F
330
1F
100
AcDbEntity
  8
Schneiden
100
AcDbBlockReference
  2
block 72
 10
0.0
 20
0.0
 30
0.0
  0
INSERT
  5
287
330
1F
100
AcDbEntity
  8
Schneiden
100
AcDbBlockReference
  2
block 73
 10
0.0
 20
0.0
 30
0.0
  0
INSERT
  5
290
330
1F
100
AcDbEntity
  8
Gravieren
100
AcDbBlockReference
  2
block 74
 10
0.0
 20
0.0
 30
0.0
  0
INSERT
  5
298
330
1F
100
AcDbEntity
  8
Gravieren
100
AcDbBlockReference
  2
block 75
 10
0.0
 20
0.0
 30
0.0
  0
INSERT
  5
2A0
330
1F
100
AcDbEntity
  8
Gravieren
100
AcDbBlockReference
  2
block 76
 10
0.0
 20
0.0
 30
0.0
  0
INSERT
  5
2A8
330
1F
100
AcDbEntity
  8
Gravieren
100
AcDbBlockReference
  2
block 77
 10
0.0
 20
0.0
 30
0.0
  0
INSERT
  5
2B0
330
1F
100
AcDbEntity
  8
Gravieren
100
AcDbBlockReference
  2
block 78
 10
0.0
 20
0.0
 30
0.0
  0
INSERT
  5
2B8
330
1F
100
AcDbEntity
  8
Gravieren
100
AcDbBlockReference
  2
block 79
 10
0.0
 20
0.0
 30
0.0
  0
INSERT
  5
2C0
330
1F
100
AcDbEntity
  8
Gravieren
100
AcDbBlockReference
  2
block 80
 10
0.0
 20
0.0
 30
0.0
  0
INSERT
  5
2C8
330
1F
100
AcDbEntity
  8
Gravieren
100
AcDbBlockReference
  2
block 81
 10
0.0
 20
0.0
 30
0.0
  0
INSERT
  5
2D0
330
1F
100
AcDbEntity
  8
Gravieren
100
AcDbBlockReference
  2
block 82
 10
0.0
 20
0.0
 30
0.0
  0
INSERT
  5
2D8
330
1F
100
AcDbEntity
  8
Gravieren
100
AcDbBlockReference
  2
block 83
 10
0.0
 20
0.0
 30
0.0
  0
INSERT
  5
2E0
330
1F
100
AcDbEntity
  8
Gravieren
100
AcDbBlockReference
  2
block 84
 10
0.0
 20
0.0
 30
0.0
  0
INSERT
  5
2E8
330
1F
100
AcDbEntity
  8
Gravieren
100
AcDbBlockReference
  2
block 85
 10
0.0
 20
0.0
 30
0.0
  0
INSERT
  5
2F0
330
1F
100
AcDbEntity
  8
Gravieren
100
AcDbBlockReference
  2
block 86
 10
0.0
 20
0.0
 30
0.0
  0
INSERT
  5
2F8
330
1F
100
AcDbEntity
  8
Gravieren
100
AcDbBlockReference
  2
block 87
 10
0.0
 20
0.0
 30
0.0
  0
INSERT
  5
300
330
1F
100
AcDbEntity
  8
Gravieren
100
AcDbBlockReference
  2
block 88
 10
0.0
 20
0.0
 30
0.0
  0
INSERT
  5
308
330
1F
100
AcDbEntity
  8
Gravieren
100
AcDbBlockReference
  2
block 89
 10
0.0
 20
0.0
 30
0.0
  0
INSERT
  5
310
330
1F
100
AcDbEntity
  8
Gravieren
100
AcDbBlockReference
  2
block 90
 10
0.0
 20
0.0
 30
0.0
  0
INSERT
  5
318
330
1F
100
AcDbEntity
  8
Gravieren
100
AcDbBlockReference
  2
block 91
 10
0.0
 20
0.0
 30
0.0
  0
INSERT
  5
320
330
1F
100
AcDbEntity
  8
Gravieren
100
AcDbBlockReference
  2
block 92
 10
0.0
 20
0.0
 30
0.0
  0
INSERT
  5
328
330
1F
100
AcDbEntity
  8
Gravieren
100
AcDbBlockReference
  2
block 93
 10
0.0
 20
0.0
 30
0.0
  0
INSERT
  5
330
330
1F
100
AcDbEntity
  8
Gravieren
100
AcDbBlockReference
  2
block 94
 10
0.0
 20
0.0
 30
0.0
  0
INSERT
  5
338
330
1F
100
AcDbEntity
  8
Gravieren
100
AcDbBlockReference
  2
block 95
 10
0.0
 20
0.0
 30
0.0
  0
INSERT
  5
340
330
1F
100
AcDbEntity
  8
Gravieren
100
AcDbBlockReference
  2
block 96
 10
0.0
 20
0.0
 30
0.0
  0
MTEXT
  5
347
330
1F
100
AcDbEntity
  8
Gravieren
 62
     7
100
AcDbMText
 10
140.5728149062631
 20
29.6898328918831
 30
0.0
 40
6.956777776038583
 41
0.0
 71
     7
 72
     1
  1
\fMyriad Pro|b0|i0|c0|p34;\W1;4
 73
     1
 44
1.0
  0
ENDSEC
  0
SECTION
  2
OBJECTS
  0
DICTIONARY
  5
C
330
0
100
AcDbDictionary
281
     1
  3
ACAD_GROUP
350
D
  3
ACAD_LAYOUT
350
1A
  3
ACAD_MLINESTYLE
350
17
  3
ACAD_PLOTSETTINGS
350
19
  3
ACAD_PLOTSTYLENAME
350
E
  3
ACAD_TABLESTYLE
350
348
  3
ACAD_VISUALSTYLE
350
2A
  0
DICTIONARY
  5
D
102
{ACAD_REACTORS
330
C
102
}
330
C
100
AcDbDictionary
281
     1
  0
DICTIONARY
  5
1A
102
{ACAD_REACTORS
330
C
102
}
330
C
100
AcDbDictionary
281
     1
  3
Layout1
350
1E
  3
Layout2
350
26
  3
Model
350
22
  0
DICTIONARY
  5
17
102
{ACAD_REACTORS
330
C
102
}
330
C
100
AcDbDictionary
281
     1
  3
Standard
350
18
  0
DICTIONARY
  5
19
102
{ACAD_REACTORS
330
C
102
}
330
C
100
AcDbDictionary
281
     1
  0
ACDBDICTIONARYWDFLT
  5
E
102
{ACAD_REACTORS
330
C
102
}
330
C
100
AcDbDictionary
281
     1
  3
Normal
350
F
100
AcDbDictionaryWithDefault
340
F
  0
DICTIONARY
  5
348
102
{ACAD_REACTORS
330
C
102
}
330
C
100
AcDbDictionary
281
     1
  0
DICTIONARY
  5
2A
102
{ACAD_REACTORS
330
C
102
}
330
C
100
AcDbDictionary
281
     1
  3
2dWireframe
350
2F
  3
3D Hidden
350
31
  3
3dWireframe
350
30
  3
Basic
350
32
  3
Brighten
350
36
  3
ColorChange
350
3A
  3
Conceptual
350
34
  3
Dim
350
35
  3
Facepattern
350
39
  3
Flat
350
2B
  3
FlatWithEdges
350
2C
  3
Gouraud
350
2D
  3
GouraudWithEdges
350
2E
  3
Linepattern
350
38
  3
Realistic
350
33
  3
Thicken
350
37
  0
LAYOUT
  5
1E
102
{ACAD_REACTORS
330
1A
102
}
330
1A
100
AcDbPlotSettings
  1

  2
none_device
  4

  6

 40
0.0
 41
0.0
 42
0.0
 43
0.0
 44
0.0
 45
0.0
 46
0.0
 47
0.0
 48
0.0
 49
0.0
140
0.0
141
0.0
142
1.0
143
1.0
 70
   688
 72
     0
 73
     0
 74
     5
  7

 75
    16
147
1.0
148
0.0
149
0.0
100
AcDbLayout
  1
Layout1
 70
     1
 71
     1
 10
0.0
 20
0.0
 11
12.0
 21
9.0
 12
0.0
 22
0.0
 32
0.0
 14
1.000000000000000E+20
 24
1.000000000000000E+20
 34
1.000000000000000E+20
 15
-1.000000000000000E+20
 25
-1.000000000000000E+20
 35
-1.000000000000000E+20
146
0.0
 13
0.0
 23
0.0
 33
0.0
 16
1.0
 26
0.0
 36
0.0
 17
0.0
 27
1.0
 37
0.0
 76
     0
330
1B
  0
LAYOUT
  5
26
102
{ACAD_REACTORS
330
1A
102
}
330
1A
100
AcDbPlotSettings
  1

  2
none_device
  4

  6

 40
0.0
 41
0.0
 42
0.0
 43
0.0
 44
0.0
 45
0.0
 46
0.0
 47
0.0
 48
0.0
 49
0.0
140
0.0
141
0.0
142
1.0
143
1.0
 70
   688
 72
     0
 73
     0
 74
     5
  7

 75
    16
147
1.0
148
0.0
149
0.0
100
AcDbLayout
  1
Layout2
 70
     1
 71
     2
 10
0.0
 20
0.0
 11
0.0
 21
0.0
 12
0.0
 22
0.0
 32
0.0
 14
0.0
 24
0.0
 34
0.0
 15
0.0
 25
0.0
 35
0.0
146
0.0
 13
0.0
 23
0.0
 33
0.0
 16
1.0
 26
0.0
 36
0.0
 17
0.0
 27
1.0
 37
0.0
 76
     0
330
23
  0
LAYOUT
  5
22
102
{ACAD_REACTORS
330
1A
102
}
330
1A
100
AcDbPlotSettings
  1

  2
none_device
  4

  6

 40
0.0
 41
0.0
 42
0.0
 43
0.0
 44
0.0
 45
0.0
 46
0.0
 47
0.0
 48
0.0
 49
0.0
140
0.0
141
0.0
142
1.0
143
1.0
 70
  1712
 72
     0
 73
     0
 74
     0
  7

 75
     0
147
1.0
148
0.0
149
0.0
100
AcDbLayout
  1
Model
 70
     1
 71
     0
 10
0.0
 20
0.0
 11
12.0
 21
9.0
 12
0.0
 22
0.0
 32
0.0
 14
1.000000000000000E+20
 24
1.000000000000000E+20
 34
1.000000000000000E+20
 15
-1.000000000000000E+20
 25
-1.000000000000000E+20
 35
-1.000000000000000E+20
146
0.0
 13
0.0
 23
0.0
 33
0.0
 16
1.0
 26
0.0
 36
0.0
 17
0.0
 27
1.0
 37
0.0
 76
     0
330
1F
331
29
  0
MLINESTYLE
  5
18
102
{ACAD_REACTORS
330
17
102
}
330
17
100
AcDbMlineStyle
  2
Standard
 70
     0
  3

 62
   256
 51
90.0
 52
90.0
 71
     2
 49
0.5
 62
   256
  6
BYLAYER
 49
-0.5
 62
   256
  6
BYLAYER
  0
ACDBPLACEHOLDER
  5
F
102
{ACAD_REACTORS
330
E
102
}
330
E
  0
VISUALSTYLE
  5
2F
102
{ACAD_REACTORS
330
2A
102
}
330
2A
100
AcDbVisualStyle
  2
2dWireframe
 70
     4
 71
     0
 72
     2
 73
     0
 90
        0
 40
-0.6
 41
-30.0
 62
     5
 63
     7
 74
     1
 91
        4
 64
     7
 65
   257
 75
     1
175
     1
 42
1.0
 92
        0
 66
   257
 43
1.0
 76
     1
 77
     6
 78
     2
 67
     7
 79
     5
170
     0
171
     0
290
     0
174
     0
 93
        1
 44
0.0
173
     0
291
     0
 45
0.0
1001
ACAD
1000
AcDbSavedByObjectVersion
1070
     0
  0
VISUALSTYLE
  5
31
102
{ACAD_REACTORS
330
2A
102
}
330
2A
100
AcDbVisualStyle
  2
3D Hidden
 70
     6
 71
     1
 72
     2
 73
     2
 90
        0
 40
-0.6
 41
-30.0
 62
     5
 63
     7
 74
     2
 91
        2
 64
     7
 65
   257
 75
     2
175
     1
 42
40.0
 92
        0
 66
   257
 43
1.0
 76
     1
 77
     6
 78
     2
 67
     7
 79
     3
170
     0
171
     0
290
     0
174
     0
 93
        1
 44
0.0
173
     0
291
     0
 45
0.0
1001
ACAD
1000
AcDbSavedByObjectVersion
1070
     0
  0
VISUALSTYLE
  5
30
102
{ACAD_REACTORS
330
2A
102
}
330
2A
100
AcDbVisualStyle
  2
3dWireframe
 70
     5
 71
     0
 72
     2
 73
     0
 90
        0
 40
-0.6
 41
-30.0
 62
     5
 63
     7
 74
     1
 91
        4
 64
     7
 65
   257
 75
     1
175
     1
 42
1.0
 92
        0
 66
   257
 43
1.0
 76
     1
 77
     6
 78
     2
 67
     7
 79
     5
170
     0
171
     0
290
     0
174
     0
 93
        1
 44
0.0
173
     0
291
     0
 45
0.0
1001
ACAD
1000
AcDbSavedByObjectVersion
1070
     0
  0
VISUALSTYLE
  5
32
102
{ACAD_REACTORS
330
2A
102
}
330
2A
100
AcDbVisualStyle
  2
Basic
 70
     7
 71
     1
 72
     0
 73
     1
 90
        0
 40
-0.6
 41
-30.0
 62
     5
 63
     7
 74
     0
 91
        4
 64
     7
 65
   257
 75
     1
175
     1
 42
1.0
 92
        8
 66
     7
 43
1.0
 76
     1
 77
     6
 78
     2
 67
     7
 79
     5
170
     0
171
     0
290
     0
174
     0
 93
        1
 44
0.0
173
     0
291
     1
 45
0.0
1001
ACAD
1000
AcDbSavedByObjectVersion
1070
     0
  0
VISUALSTYLE
  5
36
102
{ACAD_REACTORS
330
2A
102
}
330
2A
100
AcDbVisualStyle
  2
Brighten
 70
    12
 71
     2
 72
     2
 73
     0
 90
        0
 40
-0.6
 41
-30.0
 62
     5
 63
     7
 74
     1
 91
        4
 64
     7
 65
   257
 75
     1
175
     1
 42
1.0
 92
        8
 66
     7
 43
1.0
 76
     1
 77
     6
 78
     2
 67
     7
 79
     5
170
     0
171
     0
290
     0
174
     0
 93
        1
 44
50.0
173
     0
291
     1
 45
0.0
1001
ACAD
1000
AcDbSavedByObjectVersion
1070
     0
  0
VISUALSTYLE
  5
3A
102
{ACAD_REACTORS
330
2A
102
}
330
2A
100
AcDbVisualStyle
  2
ColorChange
 70
    16
 71
     2
 72
     2
 73
     3
 90
        0
 40
-0.6
 41
-30.0
 62
     5
 63
     8
 74
     1
 91
        4
 64
     7
 65
   257
 75
     1
175
     1
 42
1.0
 92
        8
 66
     8
 43
1.0
 76
     1
 77
     6
 78
     2
 67
     7
 79
     5
170
     0
171
     0
290
     0
174
     0
 93
        1
 44
0.0
173
     0
291
     1
 45
0.0
1001
ACAD
1000
AcDbSavedByObjectVersion
1070
     0
  0
VISUALSTYLE
  5
34
102
{ACAD_REACTORS
330
2A
102
}
330
2A
100
AcDbVisualStyle
  2
Conceptual
 70
     9
 71
     3
 72
     2
 73
     0
 90
        0
 40
-0.6
 41
-30.0
 62
     5
 63
     7
 74
     2
 91
        2
 64
     7
 65
   257
 75
     1
175
     1
 42
40.0
 92
        8
 66
     7
 43
1.0
 76
     1
 77
     6
 78
     2
 67
     7
 79
     3
170
     0
171
     0
290
     0
174
     0
 93
        1
 44
0.0
173
     0
291
     0
 45
0.0
1001
ACAD
1000
AcDbSavedByObjectVersion
1070
     0
  0
VISUALSTYLE
  5
35
102
{ACAD_REACTORS
330
2A
102
}
330
2A
100
AcDbVisualStyle
  2
Dim
 70
    11
 71
     2
 72
     2
 73
     0
 90
        0
 40
-0.6
 41
-30.0
 62
     5
 63
     7
 74
     1
 91
        4
 64
     7
 65
   257
 75
     1
175
     1
 42
1.0
 92
        8
 66
     7
 43
1.0
 76
     1
 77
     6
 78
     2
 67
     7
 79
     5
170
     0
171
     0
290
     0
174
     0
 93
        1
 44
-50.0
173
     0
291
     1
 45
0.0
1001
ACAD
1000
AcDbSavedByObjectVersion
1070
     0
  0
VISUALSTYLE
  5
39
102
{ACAD_REACTORS
330
2A
102
}
330
2A
100
AcDbVisualStyle
  2
Facepattern
 70
    15
 71
     2
 72
     2
 73
     0
 90
        0
 40
-0.6
 41
-30.0
 62
     5
 63
     7
 74
     1
 91
        4
 64
     7
 65
   257
 75
     1
175
     1
 42
1.0
 92
        8
 66
     7
 43
1.0
 76
     1
 77
     6
 78
     2
 67
     7
 79
     5
170
     0
171
     0
290
     0
174
     0
 93
        1
 44
0.0
173
     0
291
     1
 45
0.0
1001
ACAD
1000
AcDbSavedByObjectVersion
1070
     0
  0
VISUALSTYLE
  5
2B
102
{ACAD_REACTORS
330
2A
102
}
330
2A
100
AcDbVisualStyle
  2
Flat
 70
     0
 71
     2
 72
     1
 73
     1
 90
        2
 40
-0.6
 41
30.0
 62
     5
 63
     7
 74
     0
 91
        4
 64
     7
 65
   257
 75
     1
175
     1
 42
1.0
 92
        8
 66
     7
 43
1.0
 76
     1
 77
     6
 78
     2
 67
     7
 79
     5
170
     0
171
     0
290
     0
174
     0
 93
       13
 44
0.0
173
     0
291
     1
 45
0.0
1001
ACAD
1000
AcDbSavedByObjectVersion
1070
     0
  0
VISUALSTYLE
  5
2C
102
{ACAD_REACTORS
330
2A
102
}
330
2A
100
AcDbVisualStyle
  2
FlatWithEdges
 70
     1
 71
     2
 72
     1
 73
     1
 90
        2
 40
-0.6
 41
30.0
 62
     5
 63
     7
 74
     1
 91
        4
 64
     7
 65
   257
 75
     1
175
     1
 42
1.0
 92
        0
 66
   257
 43
1.0
 76
     1
 77
     6
 78
     2
 67
     7
 79
     5
170
     0
171
     0
290
     0
174
     0
 93
       13
 44
0.0
173
     0
291
     1
 45
0.0
1001
ACAD
1000
AcDbSavedByObjectVersion
1070
     0
  0
VISUALSTYLE
  5
2D
102
{ACAD_REACTORS
330
2A
102
}
330
2A
100
AcDbVisualStyle
  2
Gouraud
 70
     2
 71
     2
 72
     2
 73
     1
 90
        2
 40
-0.6
 41
30.0
 62
     5
 63
     7
 74
     0
 91
        4
 64
     7
 65
   257
 75
     1
175
     1
 42
1.0
 92
        0
 66
     7
 43
1.0
 76
     1
 77
     6
 78
     2
 67
     7
 79
     5
170
     0
171
     0
290
     0
174
     0
 93
       13
 44
0.0
173
     0
291
     1
 45
0.0
1001
ACAD
1000
AcDbSavedByObjectVersion
1070
     0
  0
VISUALSTYLE
  5
2E
102
{ACAD_REACTORS
330
2A
102
}
330
2A
100
AcDbVisualStyle
  2
GouraudWithEdges
 70
     3
 71
     2
 72
     2
 73
     1
 90
        2
 40
-0.6
 41
30.0
 62
     5
 63
     7
 74
     1
 91
        4
 64
     7
 65
   257
 75
     1
175
     1
 42
1.0
 92
        0
 66
   257
 43
1.0
 76
     1
 77
     6
 78
     2
 67
     7
 79
     5
170
     0
171
     0
290
     0
174
     0
 93
       13
 44
0.0
173
     0
291
     1
 45
0.0
1001
ACAD
1000
AcDbSavedByObjectVersion
1070
     0
  0
VISUALSTYLE
  5
38
102
{ACAD_REACTORS
330
2A
102
}
330
2A
100
AcDbVisualStyle
  2
Linepattern
 70
    14
 71
     2
 72
     2
 73
     0
 90
        0
 40
-0.6
 41
-30.0
 62
     5
 63
     7
 74
     1
 91
        4
 64
     7
 65
   257
 75
     7
175
     7
 42
1.0
 92
        8
 66
     7
 43
1.0
 76
     1
 77
     6
 78
     2
 67
     7
 79
     5
170
     0
171
     0
290
     0
174
     0
 93
        1
 44
0.0
173
     0
291
     1
 45
0.0
1001
ACAD
1000
AcDbSavedByObjectVersion
1070
     0
  0
VISUALSTYLE
  5
33
102
{ACAD_REACTORS
330
2A
102
}
330
2A
100
AcDbVisualStyle
  2
Realistic
 70
     8
 71
     2
 72
     2
 73
     0
 90
        0
 40
-0.6
 41
-30.0
 62
     5
 63
     7
 74
     1
 91
        0
 64
     7
 65
   257
 75
     1
175
     1
 42
1.0
 92
        8
 66
     8
 43
1.0
 76
     1
 77
     6
 78
     2
 67
     7
 79
     5
170
     0
171
     0
290
     0
174
     0
 93
       13
 44
0.0
173
     0
291
     0
 45
0.0
1001
ACAD
1000
AcDbSavedByObjectVersion
1070
     0
  0
VISUALSTYLE
  5
37
102
{ACAD_REACTORS
330
2A
102
}
330
2A
100
AcDbVisualStyle
  2
Thicken
 70
    13
 71
     2
 72
     2
 73
     0
 90
        0
 40
-0.6
 41
-30.0
 62
     5
 63
     7
 74
     1
 91
        4
 64
     7
 65
   257
 75
     1
175
     1
 42
1.0
 92
       12
 66
     7
 43
1.0
 76
     1
 77
     6
 78
     2
 67
     7
 79
     5
170
     0
171
     0
290
     0
174
     0
 93
        1
 44
0.0
173
     0
291
     1
 45
0.0
1001
ACAD
1000
AcDbSavedByObjectVersion
1070
     0
  0
ENDSEC
  0
EOF
