  0
SECTION
  2
HEADER
  9
$ACADVER
  1
AC1024
  9
$ACADMAINTVER
 70
     6
  9
$DWGCODEPAGE
  3
ANSI_1252
  9
$INSBASE
 10
0.0
 20
0.0
 30
0.0
  9
$EXTMIN
 10
-381.998199
 20
-77.561747
 30
0.0
  9
$EXTMAX
 10
-5.986489
 20
86.734121
 30
0.0
  9
$LIMMIN
 10
-381.998199
 20
-77.561747
  9
$LIMMAX
 10
-5.986489
 20
86.734121
  9
$ORTHOMODE
 70
     0
  9
$REGENMODE
 70
     1
  9
$FILLMODE
 70
     1
  9
$QTEXTMODE
 70
     0
  9
$MIRRTEXT
 70
     1
  9
$LTSCALE
 40
1.0
  9
$ATTMODE
 70
     1
  9
$TEXTSIZE
 40
0.2
  9
$TRACEWID
 40
0.05
  9
$TEXTSTYLE
  7
STANDARD
  9
$CLAYER
  8
default
  9
$CELTYPE
  6
BYLAYER
  9
$CECOLOR
 62
   256
  9
$CELTSCALE
 40
1.0
  9
$DISPSILH
 70
     0
  9
$DIMSCALE
 40
1.0
  9
$DIMASZ
 40
0.18
  9
$DIMEXO
 40
0.0625
  9
$DIMDLI
 40
0.38
  9
$DIMRND
 40
0.0
  9
$DIMDLE
 40
0.0
  9
$DIMEXE
 40
0.18
  9
$DIMTP
 40
0.0
  9
$DIMTM
 40
0.0
  9
$DIMTXT
 40
0.18
  9
$DIMCEN
 40
0.09
  9
$DIMTSZ
 40
0.0
  9
$DIMTOL
 70
     0
  9
$DIMLIM
 70
     0
  9
$DIMTIH
 70
     1
  9
$DIMTOH
 70
     1
  9
$DIMSE1
 70
     0
  9
$DIMSE2
 70
     0
  9
$DIMTAD
 70
     0
  9
$DIMZIN
 70
     0
  9
$DIMBLK
  1

  9
$DIMASO
 70
     1
  9
$DIMSHO
 70
     1
  9
$DIMPOST
  1

  9
$DIMAPOST
  1

  9
$DIMALT
 70
     0
  9
$DIMALTD
 70
     2
  9
$DIMALTF
 40
25.4
  9
$DIMLFAC
 40
1.0
  9
$DIMTOFL
 70
     0
  9
$DIMTVP
 40
0.0
  9
$DIMTIX
 70
     0
  9
$DIMSOXD
 70
     0
  9
$DIMSAH
 70
     0
  9
$DIMBLK1
  1

  9
$DIMBLK2
  1

  9
$DIMSTYLE
  2
STANDARD
  9
$DIMCLRD
 70
     0
  9
$DIMCLRE
 70
     0
  9
$DIMCLRT
 70
     0
  9
$DIMTFAC
 40
1.0
  9
$DIMGAP
 40
0.09
  9
$DIMJUST
 70
     0
  9
$DIMSD1
 70
     0
  9
$DIMSD2
 70
     0
  9
$DIMTOLJ
 70
     1
  9
$DIMTZIN
 70
     0
  9
$DIMALTZ
 70
     0
  9
$DIMALTTZ
 70
     0
  9
$DIMUPT
 70
     0
  9
$DIMDEC
 70
     4
  9
$DIMTDEC
 70
     4
  9
$DIMALTU
 70
     2
  9
$DIMALTTD
 70
     2
  9
$DIMTXSTY
  7
STANDARD
  9
$DIMAUNIT
 70
     0
  9
$DIMADEC
 70
     0
  9
$DIMALTRND
 40
0.0
  9
$DIMAZIN
 70
     0
  9
$DIMDSEP
 70
    46
  9
$DIMATFIT
 70
     3
  9
$DIMFRAC
 70
     0
  9
$DIMLDRBLK
  1

  9
$DIMLUNIT
 70
     2
  9
$DIMLWD
 70
    -2
  9
$DIMLWE
 70
    -2
  9
$DIMTMOVE
 70
     2
  9
$DIMFXL
 40
1.0
  9
$DIMFXLON
 70
     0
  9
$DIMJOGANG
 40
0.7853981633974483
  9
$DIMTFILL
 70
     0
  9
$DIMTFILLCLR
 70
     0
  9
$DIMARCSYM
 70
     0
  9
$DIMLTYPE
  6

  9
$DIMLTEX1
  6

  9
$DIMLTEX2
  6

  9
$DIMTXTDIRECTION
 70
     0
  9
$LUNITS
 70
     2
  9
$LUPREC
 70
     6
  9
$SKETCHINC
 40
0.1
  9
$FILLETRAD
 40
0.5
  9
$AUNITS
 70
     0
  9
$AUPREC
 70
     0
  9
$MENU
  1
.
  9
$ELEVATION
 40
0.0
  9
$PELEVATION
 40
0.0
  9
$THICKNESS
 40
0.0
  9
$LIMCHECK
 70
     0
  9
$CHAMFERA
 40
0.5
  9
$CHAMFERB
 40
0.5
  9
$CHAMFERC
 40
1.0
  9
$CHAMFERD
 40
0.0
  9
$SKPOLY
 70
     0
  9
$TDCREATE
 40
2459531.593425914
  9
$TDUCREATE
 40
2459531.510092581
  9
$TDUPDATE
 40
2459531.593436933
  9
$TDUUPDATE
 40
2459531.5101036
  9
$TDINDWG
 40
0.0
  9
$TDUSRTIMER
 40
0.0
  9
$USRTIMER
 70
     1
  9
$ANGBASE
 50
0.0
  9
$ANGDIR
 70
     0
  9
$PDMODE
 70
     0
  9
$PDSIZE
 40
0.0
  9
$PLINEWID
 40
0.0
  9
$SPLFRAME
 70
     0
  9
$SPLINETYPE
 70
     6
  9
$SPLINESEGS
 70
     8
  9
$HANDSEED
  5
1C6
  9
$SURFTAB1
 70
     6
  9
$SURFTAB2
 70
     6
  9
$SURFTYPE
 70
     6
  9
$SURFU
 70
     6
  9
$SURFV
 70
     6
  9
$UCSBASE
  2

  9
$UCSNAME
  2

  9
$UCSORG
 10
0.0
 20
0.0
 30
0.0
  9
$UCSXDIR
 10
1.0
 20
0.0
 30
0.0
  9
$UCSYDIR
 10
0.0
 20
1.0
 30
0.0
  9
$UCSORTHOREF
  2

  9
$UCSORTHOVIEW
 70
     0
  9
$UCSORGTOP
 10
0.0
 20
0.0
 30
0.0
  9
$UCSORGBOTTOM
 10
0.0
 20
0.0
 30
0.0
  9
$UCSORGLEFT
 10
0.0
 20
0.0
 30
0.0
  9
$UCSORGRIGHT
 10
0.0
 20
0.0
 30
0.0
  9
$UCSORGFRONT
 10
0.0
 20
0.0
 30
0.0
  9
$UCSORGBACK
 10
0.0
 20
0.0
 30
0.0
  9
$PUCSBASE
  2

  9
$PUCSNAME
  2

  9
$PUCSORG
 10
0.0
 20
0.0
 30
0.0
  9
$PUCSXDIR
 10
1.0
 20
0.0
 30
0.0
  9
$PUCSYDIR
 10
0.0
 20
1.0
 30
0.0
  9
$PUCSORTHOREF
  2

  9
$PUCSORTHOVIEW
 70
     0
  9
$PUCSORGTOP
 10
0.0
 20
0.0
 30
0.0
  9
$PUCSORGBOTTOM
 10
0.0
 20
0.0
 30
0.0
  9
$PUCSORGLEFT
 10
0.0
 20
0.0
 30
0.0
  9
$PUCSORGRIGHT
 10
0.0
 20
0.0
 30
0.0
  9
$PUCSORGFRONT
 10
0.0
 20
0.0
 30
0.0
  9
$PUCSORGBACK
 10
0.0
 20
0.0
 30
0.0
  9
$USERI1
 70
     0
  9
$USERI2
 70
     0
  9
$USERI3
 70
     0
  9
$USERI4
 70
     0
  9
$USERI5
 70
     0
  9
$USERR1
 40
0.0
  9
$USERR2
 40
0.0
  9
$USERR3
 40
0.0
  9
$USERR4
 40
0.0
  9
$USERR5
 40
0.0
  9
$WORLDVIEW
 70
     1
  9
$SHADEDGE
 70
     3
  9
$SHADEDIF
 70
    70
  9
$TILEMODE
 70
     1
  9
$MAXACTVP
 70
    48
  9
$PINSBASE
 10
0.0
 20
0.0
 30
0.0
  9
$PLIMCHECK
 70
     0
  9
$PEXTMIN
 10
1.000000000000000E+20
 20
1.000000000000000E+20
 30
1.000000000000000E+20
  9
$PEXTMAX
 10
-1.000000000000000E+20
 20
-1.000000000000000E+20
 30
-1.000000000000000E+20
  9
$PLIMMIN
 10
0.0
 20
0.0
  9
$PLIMMAX
 10
12.0
 20
9.0
  9
$UNITMODE
 70
     0
  9
$VISRETAIN
 70
     1
  9
$PLINEGEN
 70
     0
  9
$PSLTSCALE
 70
     1
  9
$TREEDEPTH
 70
  3020
  9
$CMLSTYLE
  2
STANDARD
  9
$CMLJUST
 70
     0
  9
$CMLSCALE
 40
1.0
  9
$PROXYGRAPHICS
 70
     1
  9
$MEASUREMENT
 70
     1
  9
$CELWEIGHT
370
    -1
  9
$ENDCAPS
280
     0
  9
$JOINSTYLE
280
     0
  9
$LWDISPLAY
290
     0
  9
$INSUNITS
 70
     4
  9
$HYPERLINKBASE
  1

  9
$STYLESHEET
  1

  9
$XEDIT
290
     1
  9
$CEPSNTYPE
380
     0
  9
$PSTYLEMODE
290
     1
  9
$FINGERPRINTGUID
  2
{4CC6EA1D-19D3-42AC-93EA-C1AC8EF8C64E}
  9
$VERSIONGUID
  2
{FAEB1C32-E019-11D5-929B-00C0DF256EC4}
  9
$EXTNAMES
290
     1
  9
$PSVPSCALE
 40
0.0
  9
$OLESTARTUP
290
     0
  9
$SORTENTS
280
   127
  9
$INDEXCTL
280
     0
  9
$HIDETEXT
280
     1
  9
$XCLIPFRAME
280
     2
  9
$HALOGAP
280
     0
  9
$OBSCOLOR
 70
   257
  9
$OBSLTYPE
280
     0
  9
$INTERSECTIONDISPLAY
280
     0
  9
$INTERSECTIONCOLOR
 70
   257
  9
$DIMASSOC
280
     2
  9
$PROJECTNAME
  1

  9
$CAMERADISPLAY
290
     0
  9
$LENSLENGTH
 40
50.0
  9
$CAMERAHEIGHT
 40
0.0
  9
$STEPSPERSEC
 40
2.0
  9
$STEPSIZE
 40
6.0
  9
$3DDWFPREC
 40
2.0
  9
$PSOLWIDTH
 40
0.25
  9
$PSOLHEIGHT
 40
4.0
  9
$LOFTANG1
 40
1.570796326794897
  9
$LOFTANG2
 40
1.570796326794897
  9
$LOFTMAG1
 40
0.0
  9
$LOFTMAG2
 40
0.0
  9
$LOFTPARAM
 70
     7
  9
$LOFTNORMALS
280
     1
  9
$LATITUDE
 40
37.795
  9
$LONGITUDE
 40
-122.394
  9
$NORTHDIRECTION
 40
0.0
  9
$TIMEZONE
 70
 -8000
  9
$LIGHTGLYPHDISPLAY
280
     1
  9
$TILEMODELIGHTSYNCH
280
     1
  9
$SOLIDHIST
280
     1
  9
$SHOWHIST
280
     1
  9
$DWFFRAME
280
     2
  9
$DGNFRAME
280
     2
  9
$REALWORLDSCALE
290
     1
  9
$INTERFERECOLOR
 62
   256
  9
$CSHADOW
280
     0
  9
$SHADOWPLANELOCATION
 40
0.0
  0
ENDSEC
  0
SECTION
  2
CLASSES
  0
CLASS
  1
SCALE
  2
AcDbScale
  3
ObjectDBX Classes
 90
     1153
 91
        4
280
     0
281
     0
  0
CLASS
  1
VISUALSTYLE
  2
AcDbVisualStyle
  3
ObjectDBX Classes
 90
     4095
 91
        4
280
     0
281
     0
  0
CLASS
  1
MATERIAL
  2
AcDbMaterial
  3
ObjectDBX Classes
 90
     1153
 91
        4
280
     0
281
     0
  0
CLASS
  1
DICTIONARYVAR
  2
AcDbDictionaryVar
  3
ObjectDBX Classes
 90
        0
 91
        4
280
     0
281
     0
  0
ENDSEC
  0
SECTION
  2
TABLES
  0
TABLE
  2
VPORT
  5
8
330
0
100
AcDbSymbolTable
 70
     1
  0
VPORT
  5
1E
330
8
100
AcDbSymbolTableRecord
100
AcDbViewportTableRecord
  2
*ACTIVE
 70
     0
 10
0.0
 20
0.0
 11
1.0
 21
1.0
 12
-193.992344
 22
4.586187
 13
0.0
 23
0.0
 14
0.25
 24
0.25
 15
0.25
 25
0.25
 16
0.0
 26
0.0
 36
1.0
 17
0.0
 27
0.0
 37
0.0
 40
164.295868
 41
2.288625
 42
50.0
 43
0.0
 44
0.0
 50
0.0
 51
0.0
 71
     0
 72
   100
 73
     1
 74
     1
 75
     0
 76
     0
 77
     0
 78
     0
281
     0
 65
     1
110
0.0
120
0.0
130
0.0
111
1.0
121
0.0
131
0.0
112
0.0
122
1.0
132
0.0
 79
     0
146
0.0
348
177
 60
     3
 61
     5
292
     1
282
     1
141
0.0
142
0.0
 63
   256
  0
ENDTAB
  0
TABLE
  2
LTYPE
  5
5
330
0
100
AcDbSymbolTable
 70
     2
  0
LTYPE
  5
12
330
5
100
AcDbSymbolTableRecord
100
AcDbLinetypeTableRecord
  2
BYBLOCK
 70
     0
  3

 72
    65
 73
     0
 40
0.0
  0
LTYPE
  5
13
330
5
100
AcDbSymbolTableRecord
100
AcDbLinetypeTableRecord
  2
BYLAYER
 70
     0
  3

 72
    65
 73
     0
 40
0.0
  0
LTYPE
  5
14
330
5
100
AcDbSymbolTableRecord
100
AcDbLinetypeTableRecord
  2
CONTINUOUS
 70
     0
  3
Solid line
 72
    65
 73
     0
 40
0.0
  0
LTYPE
  5
20
330
5
100
AcDbSymbolTableRecord
100
AcDbLinetypeTableRecord
  2
HIDDEN
 70
     0
  3
_ _ _ _ _ _ _ _ _ _ _ _ _ _ _ _ _ _ _ _ _ _ _
 72
    65
 73
     2
 40
0.375
 49
0.25
 74
     0
 49
-0.125
 74
     0
  0
ENDTAB
  0
TABLE
  2
LAYER
  5
2
330
0
100
AcDbSymbolTable
 70
     2
  0
LAYER
  5
E
330
2
100
AcDbSymbolTableRecord
100
AcDbLayerTableRecord
  2
0
 70
     0
 62
     7
  6
CONTINUOUS
370
    -3
390
0
347
18E
  0
LAYER
  5
21
330
2
100
AcDbSymbolTableRecord
100
AcDbLayerTableRecord
  2
default
 70
     0
 62
     7
  6
CONTINUOUS
370
    -3
390
0
347
18E
  0
ENDTAB
  0
TABLE
  2
STYLE
  5
3
330
0
100
AcDbSymbolTable
 70
     3
  0
STYLE
  5
F
330
3
100
AcDbSymbolTableRecord
100
AcDbTextStyleTableRecord
  2
STANDARD
 70
     0
 40
0.0
 41
1.0
 50
0.0
 71
     0
 42
0.2
  3
txt
  4

  0
STYLE
  5
22
330
3
100
AcDbSymbolTableRecord
100
AcDbTextStyleTableRecord
  2
Arial
 70
     0
 40
0.0
 41
1.0
 50
0.0
 71
     0
 42
0.2
  3
arial.ttf
  4

  0
STYLE
  5
23
330
3
100
AcDbSymbolTableRecord
100
AcDbTextStyleTableRecord
  2
Arial_Bold
 70
     0
 40
0.0
 41
1.0
 50
0.0
 71
     0
 42
0.2
  3
arialbd.ttf
  4

  0
ENDTAB
  0
TABLE
  2
VIEW
  5
6
330
0
100
AcDbSymbolTable
 70
     0
  0
ENDTAB
  0
TABLE
  2
UCS
  5
7
330
0
100
AcDbSymbolTable
 70
     0
  0
ENDTAB
  0
TABLE
  2
APPID
  5
9
330
0
100
AcDbSymbolTable
 70
     1
  0
APPID
  5
10
330
9
100
AcDbSymbolTableRecord
100
AcDbRegAppTableRecord
  2
ACAD
 70
     0
  0
ENDTAB
  0
TABLE
  2
DIMSTYLE
  5
A
330
0
100
AcDbSymbolTable
 70
     1
100
AcDbDimStyleTable
  0
DIMSTYLE
105
1D
330
A
100
AcDbSymbolTableRecord
100
AcDbDimStyleTableRecord
  2
STANDARD
 70
     0
178
     0
340
F
  0
ENDTAB
  0
TABLE
  2
BLOCK_RECORD
  5
1
330
0
100
AcDbSymbolTable
 70
     0
  0
BLOCK_RECORD
  5
18
330
1
100
AcDbSymbolTableRecord
100
AcDbBlockTableRecord
  2
*MODEL_SPACE
340
170
 70
     0
280
     1
281
     0
  0
BLOCK_RECORD
  5
15
330
1
100
AcDbSymbolTableRecord
100
AcDbBlockTableRecord
  2
*PAPER_SPACE
340
171
 70
     0
280
     1
281
     0
  0
ENDTAB
  0
ENDSEC
  0
SECTION
  2
BLOCKS
  0
BLOCK
  5
19
330
18
100
AcDbEntity
  8
0
100
AcDbBlockBegin
  2
*MODEL_SPACE
 70
     0
 10
0.0
 20
0.0
 30
0.0
  3
*MODEL_SPACE
  1
     0
  0
ENDBLK
  5
1A
330
18
100
AcDbEntity
  8
0
100
AcDbBlockEnd
  0
BLOCK
  5
16
330
15
100
AcDbEntity
 67
     1
  8
0
100
AcDbBlockBegin
  2
*PAPER_SPACE
 70
     0
 10
0.0
 20
0.0
 30
0.0
  3
*PAPER_SPACE
  1
     0
  0
ENDBLK
  5
17
330
15
100
AcDbEntity
 67
     1
  8
0
100
AcDbBlockEnd
  0
ENDSEC
  0
SECTION
  2
ENTITIES
  0
LINE
  5
24
330
18
100
AcDbEntity
  8
default
100
AcDbLine
 10
-143.603516
 20
-56.96875
 30
0.0
 11
-132.603516
 21
-67.96875
 31
0.0
  0
LINE
  5
25
330
18
100
AcDbEntity
  8
default
100
AcDbLine
 10
-143.603516
 20
67.03125
 30
0.0
 11
-55.603516
 21
67.03125
 31
0.0
  0
LINE
  5
26
330
18
100
AcDbEntity
  8
default
100
AcDbLine
 10
-132.603516
 20
-67.96875
 30
0.0
 11
-66.603516
 21
-67.96875
 31
0.0
  0
LINE
  5
27
330
18
100
AcDbEntity
  8
default
100
AcDbLine
 10
-66.603516
 20
-67.96875
 30
0.0
 11
-55.603516
 21
-56.96875
 31
0.0
  0
CIRCLE
  5
28
330
18
100
AcDbEntity
  8
default
100
AcDbCircle
 10
-99.603516
 20
-22.96875
 30
0.0
 40
22.0
  0
SOLID
  5
29
330
18
100
AcDbEntity
  8
default
100
AcDbTrace
 10
-57.802404
 20
-55.814498
 30
0.0
 11
-57.33625
 21
-57.294836
 31
0.0
 12
-62.058717
 22
-57.93806
 32
0.0
 13
-62.058717
 23
-57.93806
 33
0.0
  0
TEXT
  5
2A
330
18
100
AcDbEntity
  8
default
100
AcDbText
 10
-23.39435
 20
-49.617868
 30
0.0
 40
3.208421
  1
7.00 DIA
  7
Arial
100
AcDbText
  0
LINE
  5
2B
330
18
100
AcDbEntity
  8
default
100
AcDbLine
 10
-62.058717
 20
-57.93806
 30
0.0
 11
-29.74435
 21
-47.980479
 31
0.0
  0
LINE
  5
2C
330
18
100
AcDbEntity
  8
default
100
AcDbLine
 10
-29.74435
 20
-47.980479
 30
0.0
 11
-24.98185
 21
-47.980479
 31
0.0
  0
SOLID
  5
2D
330
18
100
AcDbEntity
  8
default
100
AcDbTrace
 10
-74.109086
 20
-15.020934
 30
0.0
 11
-73.682065
 21
-16.512533
 31
0.0
 12
-78.419119
 22
-17.033993
 32
0.0
 13
-78.419119
 23
-17.033993
 33
0.0
  0
TEXT
  5
2E
330
18
100
AcDbEntity
  8
default
100
AcDbText
 10
-34.626994
 20
-8.182063
 30
0.0
 40
3.208421
  1
44.00 DIA
  7
Arial
100
AcDbText
  0
LINE
  5
2F
330
18
100
AcDbEntity
  8
default
100
AcDbLine
 10
-78.419119
 20
-17.033993
 30
0.0
 11
-40.976994
 21
-6.544673
 31
0.0
  0
LINE
  5
30
330
18
100
AcDbEntity
  8
default
100
AcDbLine
 10
-40.976994
 20
-6.544673
 30
0.0
 11
-36.214494
 21
-6.544673
 31
0.0
  0
LINE
  5
31
330
18
100
AcDbEntity
  8
default
100
AcDbLine
 10
-156.246381
 20
67.03125
 30
0.0
 11
-143.603516
 21
67.03125
 31
0.0
  0
LINE
  5
32
330
18
100
AcDbEntity
  8
default
100
AcDbLine
 10
-156.807191
 20
67.002164
 30
0.0
 11
-155.685571
 21
67.002164
 31
0.0
  0
LINE
  5
33
330
18
100
AcDbEntity
  8
default
100
AcDbLine
 10
-157.924297
 20
66.901623
 30
0.0
 11
-156.807191
 21
67.002164
 31
0.0
  0
LINE
  5
34
330
18
100
AcDbEntity
  8
default
100
AcDbLine
 10
-159.027893
 20
66.70135
 30
0.0
 11
-157.924297
 21
66.901623
 31
0.0
  0
LINE
  5
35
330
18
100
AcDbEntity
  8
default
100
AcDbLine
 10
-160.109093
 20
66.402957
 30
0.0
 11
-159.027893
 21
66.70135
 31
0.0
  0
LINE
  5
36
330
18
100
AcDbEntity
  8
default
100
AcDbLine
 10
-161.159194
 20
66.008848
 30
0.0
 11
-160.109093
 21
66.402957
 31
0.0
  0
LINE
  5
37
330
18
100
AcDbEntity
  8
default
100
AcDbLine
 10
-162.169739
 20
65.522195
 30
0.0
 11
-161.159194
 21
66.008848
 31
0.0
  0
LINE
  5
38
330
18
100
AcDbEntity
  8
default
100
AcDbLine
 10
-163.132593
 20
64.946917
 30
0.0
 11
-162.169739
 21
65.522195
 31
0.0
  0
LINE
  5
39
330
18
100
AcDbEntity
  8
default
100
AcDbLine
 10
-164.040004
 20
64.287645
 30
0.0
 11
-163.132593
 21
64.946917
 31
0.0
  0
LINE
  5
3A
330
18
100
AcDbEntity
  8
default
100
AcDbLine
 10
-164.884664
 20
63.549687
 30
0.0
 11
-164.040004
 21
64.287645
 31
0.0
  0
LINE
  5
3B
330
18
100
AcDbEntity
  8
default
100
AcDbLine
 10
-165.659774
 20
62.738985
 30
0.0
 11
-164.884664
 21
63.549687
 31
0.0
  0
LINE
  5
3C
330
18
100
AcDbEntity
  8
default
100
AcDbLine
 10
-166.359093
 20
61.862067
 30
0.0
 11
-165.659774
 21
62.738985
 31
0.0
  0
LINE
  5
3D
330
18
100
AcDbEntity
  8
default
100
AcDbLine
 10
-166.976991
 20
60.925992
 30
0.0
 11
-166.359093
 21
61.862067
 31
0.0
  0
LINE
  5
3E
330
18
100
AcDbEntity
  8
default
100
AcDbLine
 10
-167.508492
 20
59.938298
 30
0.0
 11
-166.976991
 21
60.925992
 31
0.0
  0
LINE
  5
3F
330
18
100
AcDbEntity
  8
default
100
AcDbLine
 10
-167.949317
 20
58.906936
 30
0.0
 11
-167.508492
 21
59.938298
 31
0.0
  0
LINE
  5
40
330
18
100
AcDbEntity
  8
default
100
AcDbLine
 10
-168.295917
 20
57.840212
 30
0.0
 11
-167.949317
 21
58.906936
 31
0.0
  0
LINE
  5
41
330
18
100
AcDbEntity
  8
default
100
AcDbLine
 10
-168.545501
 20
56.746712
 30
0.0
 11
-168.295917
 21
57.840212
 31
0.0
  0
LINE
  5
42
330
18
100
AcDbEntity
  8
default
100
AcDbLine
 10
-168.69606
 20
55.635242
 30
0.0
 11
-168.545501
 21
56.746712
 31
0.0
  0
LINE
  5
43
330
18
100
AcDbEntity
  8
default
100
AcDbLine
 10
-168.746381
 20
54.514751
 30
0.0
 11
-168.69606
 21
55.635242
 31
0.0
  0
LINE
  5
44
330
18
100
AcDbEntity
  8
default
100
AcDbLine
 10
-168.746381
 20
54.514751
 30
0.0
 11
-168.69606
 21
53.39426
 31
0.0
  0
LINE
  5
45
330
18
100
AcDbEntity
  8
default
100
AcDbLine
 10
-168.69606
 20
53.39426
 30
0.0
 11
-168.545501
 21
52.28279
 31
0.0
  0
LINE
  5
46
330
18
100
AcDbEntity
  8
default
100
AcDbLine
 10
-168.545501
 20
52.28279
 30
0.0
 11
-168.295917
 21
51.18929
 31
0.0
  0
LINE
  5
47
330
18
100
AcDbEntity
  8
default
100
AcDbLine
 10
-168.295917
 20
51.18929
 30
0.0
 11
-167.949317
 21
50.122566
 31
0.0
  0
LINE
  5
48
330
18
100
AcDbEntity
  8
default
100
AcDbLine
 10
-167.949317
 20
50.122566
 30
0.0
 11
-167.508492
 21
49.091204
 31
0.0
  0
LINE
  5
49
330
18
100
AcDbEntity
  8
default
100
AcDbLine
 10
-167.508492
 20
49.091204
 30
0.0
 11
-166.976991
 21
48.10351
 31
0.0
  0
LINE
  5
4A
330
18
100
AcDbEntity
  8
default
100
AcDbLine
 10
-166.976991
 20
48.10351
 30
0.0
 11
-166.359093
 21
47.167435
 31
0.0
  0
LINE
  5
4B
330
18
100
AcDbEntity
  8
default
100
AcDbLine
 10
-166.359093
 20
47.167435
 30
0.0
 11
-165.659774
 21
46.290517
 31
0.0
  0
LINE
  5
4C
330
18
100
AcDbEntity
  8
default
100
AcDbLine
 10
-165.659774
 20
46.290517
 30
0.0
 11
-164.884664
 21
45.479815
 31
0.0
  0
LINE
  5
4D
330
18
100
AcDbEntity
  8
default
100
AcDbLine
 10
-164.884664
 20
45.479815
 30
0.0
 11
-164.040004
 21
44.741857
 31
0.0
  0
LINE
  5
4E
330
18
100
AcDbEntity
  8
default
100
AcDbLine
 10
-164.040004
 20
44.741857
 30
0.0
 11
-163.132593
 21
44.082585
 31
0.0
  0
LINE
  5
4F
330
18
100
AcDbEntity
  8
default
100
AcDbLine
 10
-163.132593
 20
44.082585
 30
0.0
 11
-162.169739
 21
43.507307
 31
0.0
  0
LINE
  5
50
330
18
100
AcDbEntity
  8
default
100
AcDbLine
 10
-162.169739
 20
43.507307
 30
0.0
 11
-161.159194
 21
43.020654
 31
0.0
  0
LINE
  5
51
330
18
100
AcDbEntity
  8
default
100
AcDbLine
 10
-161.159194
 20
43.020654
 30
0.0
 11
-160.109093
 21
42.626545
 31
0.0
  0
LINE
  5
52
330
18
100
AcDbEntity
  8
default
100
AcDbLine
 10
-160.109093
 20
42.626545
 30
0.0
 11
-159.027893
 21
42.328152
 31
0.0
  0
LINE
  5
53
330
18
100
AcDbEntity
  8
default
100
AcDbLine
 10
-159.027893
 20
42.328152
 30
0.0
 11
-157.924297
 21
42.127879
 31
0.0
  0
LINE
  5
54
330
18
100
AcDbEntity
  8
default
100
AcDbLine
 10
-157.924297
 20
42.127879
 30
0.0
 11
-156.807191
 21
42.027338
 31
0.0
  0
LINE
  5
55
330
18
100
AcDbEntity
  8
default
100
AcDbLine
 10
-156.807191
 20
42.027338
 30
0.0
 11
-155.685571
 21
42.027338
 31
0.0
  0
LINE
  5
56
330
18
100
AcDbEntity
  8
default
100
AcDbLine
 10
-155.899701
 20
42.036781
 30
0.0
 11
-143.603516
 21
42.036781
 31
0.0
  0
LINE
  5
57
330
18
100
AcDbEntity
  8
default
100
AcDbLine
 10
-143.603516
 20
-56.96875
 30
0.0
 11
-143.603516
 21
42.036781
 31
0.0
  0
LINE
  5
58
330
18
100
AcDbEntity
  8
default
100
AcDbLine
 10
-55.603516
 20
67.03125
 30
0.0
 11
-42.96065
 21
67.03125
 31
0.0
  0
LINE
  5
59
330
18
100
AcDbEntity
  8
default
100
AcDbLine
 10
-43.521461
 20
67.002164
 30
0.0
 11
-42.39984
 21
67.002164
 31
0.0
  0
LINE
  5
5A
330
18
100
AcDbEntity
  8
default
100
AcDbLine
 10
-42.39984
 20
67.002164
 30
0.0
 11
-41.282734
 21
66.901623
 31
0.0
  0
LINE
  5
5B
330
18
100
AcDbEntity
  8
default
100
AcDbLine
 10
-41.282734
 20
66.901623
 30
0.0
 11
-40.179139
 21
66.70135
 31
0.0
  0
LINE
  5
5C
330
18
100
AcDbEntity
  8
default
100
AcDbLine
 10
-40.179139
 20
66.70135
 30
0.0
 11
-39.097938
 21
66.402957
 31
0.0
  0
LINE
  5
5D
330
18
100
AcDbEntity
  8
default
100
AcDbLine
 10
-39.097938
 20
66.402957
 30
0.0
 11
-38.047837
 21
66.008848
 31
0.0
  0
LINE
  5
5E
330
18
100
AcDbEntity
  8
default
100
AcDbLine
 10
-38.047837
 20
66.008848
 30
0.0
 11
-37.037292
 21
65.522195
 31
0.0
  0
LINE
  5
5F
330
18
100
AcDbEntity
  8
default
100
AcDbLine
 10
-37.037292
 20
65.522195
 30
0.0
 11
-36.074438
 21
64.946917
 31
0.0
  0
LINE
  5
60
330
18
100
AcDbEntity
  8
default
100
AcDbLine
 10
-36.074438
 20
64.946917
 30
0.0
 11
-35.167028
 21
64.287645
 31
0.0
  0
LINE
  5
61
330
18
100
AcDbEntity
  8
default
100
AcDbLine
 10
-35.167028
 20
64.287645
 30
0.0
 11
-34.322367
 21
63.549687
 31
0.0
  0
LINE
  5
62
330
18
100
AcDbEntity
  8
default
100
AcDbLine
 10
-34.322367
 20
63.549687
 30
0.0
 11
-33.547257
 21
62.738985
 31
0.0
  0
LINE
  5
63
330
18
100
AcDbEntity
  8
default
100
AcDbLine
 10
-33.547257
 20
62.738985
 30
0.0
 11
-32.847938
 21
61.862067
 31
0.0
  0
LINE
  5
64
330
18
100
AcDbEntity
  8
default
100
AcDbLine
 10
-32.847938
 20
61.862067
 30
0.0
 11
-32.23004
 21
60.925992
 31
0.0
  0
LINE
  5
65
330
18
100
AcDbEntity
  8
default
100
AcDbLine
 10
-32.23004
 20
60.925992
 30
0.0
 11
-31.698539
 21
59.938298
 31
0.0
  0
LINE
  5
66
330
18
100
AcDbEntity
  8
default
100
AcDbLine
 10
-31.698539
 20
59.938298
 30
0.0
 11
-31.257714
 21
58.906936
 31
0.0
  0
LINE
  5
67
330
18
100
AcDbEntity
  8
default
100
AcDbLine
 10
-31.257714
 20
58.906936
 30
0.0
 11
-30.911114
 21
57.840212
 31
0.0
  0
LINE
  5
68
330
18
100
AcDbEntity
  8
default
100
AcDbLine
 10
-30.911114
 20
57.840212
 30
0.0
 11
-30.66153
 21
56.746712
 31
0.0
  0
LINE
  5
69
330
18
100
AcDbEntity
  8
default
100
AcDbLine
 10
-30.66153
 20
56.746712
 30
0.0
 11
-30.510972
 21
55.635242
 31
0.0
  0
LINE
  5
6A
330
18
100
AcDbEntity
  8
default
100
AcDbLine
 10
-30.510972
 20
55.635242
 30
0.0
 11
-30.46065
 21
54.514751
 31
0.0
  0
LINE
  5
6B
330
18
100
AcDbEntity
  8
default
100
AcDbLine
 10
-30.510972
 20
53.39426
 30
0.0
 11
-30.46065
 21
54.514751
 31
0.0
  0
LINE
  5
6C
330
18
100
AcDbEntity
  8
default
100
AcDbLine
 10
-30.66153
 20
52.28279
 30
0.0
 11
-30.510972
 21
53.39426
 31
0.0
  0
LINE
  5
6D
330
18
100
AcDbEntity
  8
default
100
AcDbLine
 10
-30.911114
 20
51.18929
 30
0.0
 11
-30.66153
 21
52.28279
 31
0.0
  0
LINE
  5
6E
330
18
100
AcDbEntity
  8
default
100
AcDbLine
 10
-31.257714
 20
50.122566
 30
0.0
 11
-30.911114
 21
51.18929
 31
0.0
  0
LINE
  5
6F
330
18
100
AcDbEntity
  8
default
100
AcDbLine
 10
-31.698539
 20
49.091204
 30
0.0
 11
-31.257714
 21
50.122566
 31
0.0
  0
LINE
  5
70
330
18
100
AcDbEntity
  8
default
100
AcDbLine
 10
-32.23004
 20
48.10351
 30
0.0
 11
-31.698539
 21
49.091204
 31
0.0
  0
LINE
  5
71
330
18
100
AcDbEntity
  8
default
100
AcDbLine
 10
-32.847938
 20
47.167435
 30
0.0
 11
-32.23004
 21
48.10351
 31
0.0
  0
LINE
  5
72
330
18
100
AcDbEntity
  8
default
100
AcDbLine
 10
-33.547257
 20
46.290517
 30
0.0
 11
-32.847938
 21
47.167435
 31
0.0
  0
LINE
  5
73
330
18
100
AcDbEntity
  8
default
100
AcDbLine
 10
-34.322367
 20
45.479815
 30
0.0
 11
-33.547257
 21
46.290517
 31
0.0
  0
LINE
  5
74
330
18
100
AcDbEntity
  8
default
100
AcDbLine
 10
-35.167028
 20
44.741857
 30
0.0
 11
-34.322367
 21
45.479815
 31
0.0
  0
LINE
  5
75
330
18
100
AcDbEntity
  8
default
100
AcDbLine
 10
-36.074438
 20
44.082585
 30
0.0
 11
-35.167028
 21
44.741857
 31
0.0
  0
LINE
  5
76
330
18
100
AcDbEntity
  8
default
100
AcDbLine
 10
-37.037292
 20
43.507307
 30
0.0
 11
-36.074438
 21
44.082585
 31
0.0
  0
LINE
  5
77
330
18
100
AcDbEntity
  8
default
100
AcDbLine
 10
-38.047837
 20
43.020654
 30
0.0
 11
-37.037292
 21
43.507307
 31
0.0
  0
LINE
  5
78
330
18
100
AcDbEntity
  8
default
100
AcDbLine
 10
-39.097938
 20
42.626545
 30
0.0
 11
-38.047837
 21
43.020654
 31
0.0
  0
LINE
  5
79
330
18
100
AcDbEntity
  8
default
100
AcDbLine
 10
-40.179139
 20
42.328152
 30
0.0
 11
-39.097938
 21
42.626545
 31
0.0
  0
LINE
  5
7A
330
18
100
AcDbEntity
  8
default
100
AcDbLine
 10
-41.282734
 20
42.127879
 30
0.0
 11
-40.179139
 21
42.328152
 31
0.0
  0
LINE
  5
7B
330
18
100
AcDbEntity
  8
default
100
AcDbLine
 10
-42.39984
 20
42.027338
 30
0.0
 11
-41.282734
 21
42.127879
 31
0.0
  0
LINE
  5
7C
330
18
100
AcDbEntity
  8
default
100
AcDbLine
 10
-43.521461
 20
42.027338
 30
0.0
 11
-42.39984
 21
42.027338
 31
0.0
  0
LINE
  5
7D
330
18
100
AcDbEntity
  8
default
100
AcDbLine
 10
-55.603516
 20
41.979445
 30
0.0
 11
-43.30733
 21
41.979445
 31
0.0
  0
LINE
  5
7E
330
18
100
AcDbEntity
  8
default
100
AcDbLine
 10
-55.603516
 20
-56.96875
 30
0.0
 11
-55.603516
 21
41.979445
 31
0.0
  0
SOLID
  5
7F
330
18
100
AcDbEntity
  8
default
100
AcDbTrace
 10
-138.905815
 20
35.665645
 30
0.0
 11
-138.905815
 21
34.116619
 31
0.0
 12
-143.603516
 22
34.891132
 32
0.0
 13
-143.603516
 23
34.891132
 33
0.0
  0
SOLID
  5
80
330
18
100
AcDbEntity
  8
default
100
AcDbTrace
 10
-60.301217
 20
34.116619
 30
0.0
 11
-60.301217
 21
35.665645
 31
0.0
 12
-55.603516
 22
34.891132
 32
0.0
 13
-55.603516
 23
34.891132
 33
0.0
  0
LINE
  5
81
330
18
100
AcDbEntity
  8
default
100
AcDbLine
 10
-143.603516
 20
34.891132
 30
0.0
 11
-101.850366
 21
34.891132
 31
0.0
  0
LINE
  5
82
330
18
100
AcDbEntity
  8
default
100
AcDbLine
 10
-87.7893
 20
34.891132
 30
0.0
 11
-55.603516
 21
34.891132
 31
0.0
  0
TEXT
  5
83
330
18
100
AcDbEntity
  8
default
100
AcDbText
 10
-100.262866
 20
33.253743
 30
0.0
 40
3.208421
  1
88.00
  7
Arial
100
AcDbText
  0
SOLID
  5
84
330
18
100
AcDbEntity
  8
default
100
AcDbTrace
 10
-62.705815
 20
27.498011
 30
0.0
 11
-62.705815
 21
25.948984
 31
0.0
 12
-67.403516
 22
26.723497
 32
0.0
 13
-67.403516
 23
26.723497
 33
0.0
  0
SOLID
  5
85
330
18
100
AcDbEntity
  8
default
100
AcDbTrace
 10
-60.301217
 20
25.948984
 30
0.0
 11
-60.301217
 21
27.498011
 31
0.0
 12
-55.603516
 22
26.723497
 32
0.0
 13
-55.603516
 23
26.723497
 33
0.0
  0
LINE
  5
86
330
18
100
AcDbEntity
  8
default
100
AcDbLine
 10
-67.403516
 20
26.723497
 30
0.0
 11
-46.944284
 21
26.723497
 31
0.0
  0
TEXT
  5
87
330
18
100
AcDbEntity
  8
default
100
AcDbText
 10
-45.356784
 20
25.086108
 30
0.0
 40
3.208421
  1
11.80
  7
Arial
100
AcDbText
  0
LINE
  5
88
330
18
100
AcDbEntity
  8
default
100
AcDbLine
 10
-67.403516
 20
16.61875
 30
0.0
 11
-67.403516
 21
29.898497
 31
0.0
  0
CIRCLE
  5
89
330
18
100
AcDbEntity
  8
default
100
AcDbCircle
 10
-131.603516
 20
-56.96875
 30
0.0
 40
3.5
  0
CIRCLE
  5
8A
330
18
100
AcDbEntity
  8
default
100
AcDbCircle
 10
-131.603516
 20
15.03125
 30
0.0
 40
3.5
  0
CIRCLE
  5
8B
330
18
100
AcDbEntity
  8
default
100
AcDbCircle
 10
-67.603516
 20
-56.96875
 30
0.0
 40
3.5
  0
CIRCLE
  5
8C
330
18
100
AcDbEntity
  8
default
100
AcDbCircle
 10
-67.603516
 20
15.03125
 30
0.0
 40
3.5
  0
SOLID
  5
8D
330
18
100
AcDbEntity
  8
default
100
AcDbTrace
 10
-178.371719
 20
62.333549
 30
0.0
 11
-179.954677
 21
62.333549
 31
0.0
 12
-179.163198
 22
67.03125
 32
0.0
 13
-179.163198
 23
67.03125
 33
0.0
  0
SOLID
  5
8E
330
18
100
AcDbEntity
  8
default
100
AcDbTrace
 10
-179.954677
 20
-63.271049
 30
0.0
 11
-178.371719
 21
-63.271049
 31
0.0
 12
-179.163198
 22
-67.96875
 32
0.0
 13
-179.163198
 23
-67.96875
 33
0.0
  0
LINE
  5
8F
330
18
100
AcDbEntity
  8
default
100
AcDbLine
 10
-179.163198
 20
9.510551
 30
0.0
 11
-179.163198
 21
67.03125
 31
0.0
  0
LINE
  5
90
330
18
100
AcDbEntity
  8
default
100
AcDbLine
 10
-179.163198
 20
-67.96875
 30
0.0
 11
-179.163198
 21
2.102217
 31
0.0
  0
TEXT
  5
91
330
18
100
AcDbEntity
  8
default
100
AcDbText
 10
-185.706406
 20
4.168995
 30
0.0
 40
3.208421
  1
135.00
  7
Arial
100
AcDbText
  0
LINE
  5
92
330
18
100
AcDbEntity
  8
default
100
AcDbLine
 10
-182.338198
 20
67.03125
 30
0.0
 11
-145.191016
 21
67.03125
 31
0.0
  0
LINE
  5
93
330
18
100
AcDbEntity
  8
default
100
AcDbLine
 10
-182.338198
 20
-67.96875
 30
0.0
 11
-134.191016
 21
-67.96875
 31
0.0
  0
SOLID
  5
94
330
18
100
AcDbEntity
  8
default
100
AcDbTrace
 10
-126.905815
 20
27.697221
 30
0.0
 11
-126.905815
 21
26.148195
 31
0.0
 12
-131.603516
 22
26.922708
 32
0.0
 13
-131.603516
 23
26.922708
 33
0.0
  0
SOLID
  5
95
330
18
100
AcDbEntity
  8
default
100
AcDbTrace
 10
-72.301217
 20
26.148195
 30
0.0
 11
-72.301217
 21
27.697221
 31
0.0
 12
-67.603516
 22
26.922708
 32
0.0
 13
-67.603516
 23
26.922708
 33
0.0
  0
LINE
  5
96
330
18
100
AcDbEntity
  8
default
100
AcDbLine
 10
-131.603516
 20
26.922708
 30
0.0
 11
-107.151758
 21
26.922708
 31
0.0
  0
LINE
  5
97
330
18
100
AcDbEntity
  8
default
100
AcDbLine
 10
-93.078386
 20
26.922708
 30
0.0
 11
-67.603516
 21
26.922708
 31
0.0
  0
TEXT
  5
98
330
18
100
AcDbEntity
  8
default
100
AcDbText
 10
-105.564258
 20
25.285319
 30
0.0
 40
3.208421
  1
64.00
  7
Arial
100
AcDbText
  0
LINE
  5
99
330
18
100
AcDbEntity
  8
default
100
AcDbLine
 10
-67.603516
 20
16.61875
 30
0.0
 11
-67.603516
 21
30.097708
 31
0.0
  0
LINE
  5
9A
330
18
100
AcDbEntity
  8
default
100
AcDbLine
 10
-131.603516
 20
16.61875
 30
0.0
 11
-131.603516
 21
30.097708
 31
0.0
  0
SOLID
  5
9B
330
18
100
AcDbEntity
  8
default
100
AcDbTrace
 10
-126.905815
 20
-73.501765
 30
0.0
 11
-126.905815
 21
-75.050792
 31
0.0
 12
-131.603516
 22
-74.276279
 32
0.0
 13
-131.603516
 23
-74.276279
 33
0.0
  0
SOLID
  5
9C
330
18
100
AcDbEntity
  8
default
100
AcDbTrace
 10
-72.301217
 20
-75.050792
 30
0.0
 11
-72.301217
 21
-73.501765
 31
0.0
 12
-67.603516
 22
-74.276279
 32
0.0
 13
-67.603516
 23
-74.276279
 33
0.0
  0
LINE
  5
9D
330
18
100
AcDbEntity
  8
default
100
AcDbLine
 10
-131.603516
 20
-74.276279
 30
0.0
 11
-108.038048
 21
-74.276279
 31
0.0
  0
LINE
  5
9E
330
18
100
AcDbEntity
  8
default
100
AcDbLine
 10
-93.964676
 20
-74.276279
 30
0.0
 11
-67.603516
 21
-74.276279
 31
0.0
  0
TEXT
  5
9F
330
18
100
AcDbEntity
  8
default
100
AcDbText
 10
-106.450548
 20
-75.913668
 30
0.0
 40
3.208421
  1
64.00
  7
Arial
100
AcDbText
  0
LINE
  5
A0
330
18
100
AcDbEntity
  8
default
100
AcDbLine
 10
-131.603516
 20
-77.451279
 30
0.0
 11
-131.603516
 21
-58.55625
 31
0.0
  0
LINE
  5
A1
330
18
100
AcDbEntity
  8
default
100
AcDbLine
 10
-67.603516
 20
-77.451279
 30
0.0
 11
-67.603516
 21
-58.55625
 31
0.0
  0
SOLID
  5
A2
330
18
100
AcDbEntity
  8
default
100
AcDbTrace
 10
-153.369149
 20
10.333549
 30
0.0
 11
-154.952107
 21
10.333549
 31
0.0
 12
-154.160628
 22
15.03125
 32
0.0
 13
-154.160628
 23
15.03125
 33
0.0
  0
SOLID
  5
A3
330
18
100
AcDbEntity
  8
default
100
AcDbTrace
 10
-154.952107
 20
-52.271049
 30
0.0
 11
-153.369149
 21
-52.271049
 31
0.0
 12
-154.160628
 22
-56.96875
 32
0.0
 13
-154.160628
 23
-56.96875
 33
0.0
  0
LINE
  5
A4
330
18
100
AcDbEntity
  8
default
100
AcDbLine
 10
-154.160628
 20
-20.758065
 30
0.0
 11
-154.160628
 21
15.03125
 31
0.0
  0
LINE
  5
A5
330
18
100
AcDbEntity
  8
default
100
AcDbLine
 10
-154.160628
 20
-56.96875
 30
0.0
 11
-154.160628
 21
-28.166399
 31
0.0
  0
TEXT
  5
A6
330
18
100
AcDbEntity
  8
default
100
AcDbText
 10
-159.587663
 20
-26.099621
 30
0.0
 40
3.208421
  1
72.00
  7
Arial
100
AcDbText
  0
LINE
  5
A7
330
18
100
AcDbEntity
  8
default
100
AcDbLine
 10
-157.335628
 20
15.03125
 30
0.0
 11
-133.191016
 21
15.03125
 31
0.0
  0
LINE
  5
A8
330
18
100
AcDbEntity
  8
default
100
AcDbLine
 10
-157.335628
 20
-56.96875
 30
0.0
 11
-133.191016
 21
-56.96875
 31
0.0
  0
SOLID
  5
A9
330
18
100
AcDbEntity
  8
default
100
AcDbTrace
 10
-129.074092
 20
-52.943086
 30
0.0
 11
-127.890974
 21
-53.972203
 31
0.0
 12
-131.603516
 22
-56.96875
 32
0.0
 13
-131.603516
 23
-56.96875
 33
0.0
  0
SOLID
  5
AA
330
18
100
AcDbEntity
  8
default
100
AcDbTrace
 10
-70.13294
 20
11.005586
 30
0.0
 11
-71.316058
 21
12.034703
 31
0.0
 12
-67.603516
 22
15.03125
 32
0.0
 13
-67.603516
 23
15.03125
 33
0.0
  0
TEXT
  5
AB
330
18
100
AcDbEntity
  8
default
100
AcDbText
 10
-105.198121
 20
-22.772504
 30
0.0
 40
3.208421
  1
96.33
  7
Arial
100
AcDbText
  0
LINE
  5
AC
330
18
100
AcDbEntity
  8
default
100
AcDbLine
 10
-131.603516
 20
-56.96875
 30
0.0
 11
-102.687555
 21
-24.438294
 31
0.0
  0
LINE
  5
AD
330
18
100
AcDbEntity
  8
default
100
AcDbLine
 10
-96.815237
 20
-17.831936
 30
0.0
 11
-67.603516
 21
15.03125
 31
0.0
  0
LINE
  5
AE
330
18
100
AcDbEntity
  8
default
  6
HIDDEN
100
AcDbLine
 10
-99.603516
 20
-22.96875
 30
0.0
 11
-99.603516
 21
54.624537
 31
0.0
  0
ELLIPSE
  5
AF
330
18
100
AcDbEntity
  8
default
100
AcDbEllipse
 10
-353.713198
 20
-3.108311
 30
0.0
 11
0.0
 21
12.5
 31
0.0
210
0.0
220
0.0
230
1.0
 40
1.0
 41
0.0
 42
6.283185307179586
  0
CIRCLE
  5
B0
330
18
100
AcDbEntity
  8
default
100
AcDbCircle
 10
-321.943404
 20
21.640426
 30
0.0
 40
3.5
  0
ELLIPSE
  5
B1
330
18
100
AcDbEntity
  8
default
100
AcDbEllipse
 10
-321.943404
 20
-27.857048
 30
0.0
 11
3.5
 21
0.0
 31
0.0
210
0.0
220
0.0
230
1.0
 40
1.0
 41
0.0
 42
6.283185307179586
  0
ELLIPSE
  5
B2
330
18
100
AcDbEntity
  8
default
100
AcDbEllipse
 10
-272.44593
 20
-27.857048
 30
0.0
 11
0.0
 21
3.5
 31
0.0
210
0.0
220
0.0
230
1.0
 40
1.0
 41
0.0
 42
6.283185307179586
  0
CIRCLE
  5
B3
330
18
100
AcDbEntity
  8
default
100
AcDbCircle
 10
-272.44593
 20
21.640426
 30
0.0
 40
3.5
  0
LINE
  5
B4
330
18
100
AcDbEntity
  8
default
100
AcDbLine
 10
-353.713198
 20
9.391689
 30
0.0
 11
-342.194667
 21
9.391689
 31
0.0
  0
ARC
  5
B5
330
18
100
AcDbEntity
  8
default
100
AcDbCircle
 10
-342.194667
 20
14.391689
 30
0.0
 40
5.0
100
AcDbArc
 50
270.0
 51
0.0000000002924075
  0
LINE
  5
B6
330
18
100
AcDbEntity
  8
default
100
AcDbLine
 10
-353.713198
 20
-15.608311
 30
0.0
 11
-342.194667
 21
-15.608311
 31
0.0
  0
ARC
  5
B7
330
18
100
AcDbEntity
  8
default
100
AcDbCircle
 10
-342.194667
 20
-20.608311
 30
0.0
 40
5.0
100
AcDbArc
 50
0.000000000584815
 51
90.0
  0
SOLID
  5
B8
330
18
100
AcDbEntity
  8
default
100
AcDbTrace
 10
-334.42445
 20
8.522774
 30
0.0
 11
-335.476871
 21
7.365679
 31
0.0
 12
-338.459758
 22
11.067467
 32
0.0
 13
-338.459758
 23
11.067467
 33
0.0
  0
TEXT
  5
B9
330
18
100
AcDbEntity
  8
default
100
AcDbText
 10
-327.747389
 20
5.547391
 30
0.0
 40
3.208421
  1
5.00 R
  7
Arial
100
AcDbText
  0
LINE
  5
BA
330
18
100
AcDbEntity
  8
default
100
AcDbLine
 10
-338.459758
 20
11.067467
 30
0.0
 11
-334.097389
 21
7.18478
 31
0.0
  0
LINE
  5
BB
330
18
100
AcDbEntity
  8
default
100
AcDbLine
 10
-334.097389
 20
7.18478
 30
0.0
 11
-329.334889
 21
7.18478
 31
0.0
  0
CIRCLE
  5
BC
330
18
100
AcDbEntity
  8
default
100
AcDbCircle
 10
-243.418695
 20
21.640426
 30
0.0
 40
3.5
  0
ARC
  5
BD
330
18
100
AcDbEntity
  8
default
100
AcDbCircle
 10
-353.713198
 20
-3.108311
 30
0.0
 40
116.537062
100
AcDbArc
 50
347.353009
 51
12.646991
  0
ARC
  5
BE
330
18
100
AcDbEntity
  8
default
100
AcDbCircle
 10
-353.713198
 20
-3.108311
 30
0.0
 40
109.537062
100
AcDbArc
 50
346.941876
 51
12.646991
  0
SOLID
  5
BF
330
18
100
AcDbEntity
  8
default
100
AcDbTrace
 10
-316.846858
 20
28.098159
 30
0.0
 11
-315.703296
 21
27.027079
 31
0.0
 12
-319.523318
 22
24.1689
 32
0.0
 13
-319.523318
 23
24.1689
 33
0.0
  0
TEXT
  5
C0
330
18
100
AcDbEntity
  8
default
100
AcDbText
 10
-310.592107
 20
25.228325
 30
0.0
 40
3.208421
  1
7.00 DIA
  7
Arial
100
AcDbText
  0
LINE
  5
C1
330
18
100
AcDbEntity
  8
default
100
AcDbLine
 10
-319.523318
 20
24.1689
 30
0.0
 11
-316.942107
 21
26.865714
 31
0.0
  0
LINE
  5
C2
330
18
100
AcDbEntity
  8
default
100
AcDbLine
 10
-316.942107
 20
26.865714
 30
0.0
 11
-312.179607
 21
26.865714
 31
0.0
  0
SOLID
  5
C3
330
18
100
AcDbEntity
  8
default
100
AcDbTrace
 10
-361.535871
 20
-2.570203
 30
0.0
 11
-361.48798
 21
-4.11852
 31
0.0
 12
-366.207476
 22
-3.486486
 32
0.0
 13
-366.207476
 23
-3.486486
 33
0.0
  0
SOLID
  5
C4
330
18
100
AcDbEntity
  8
default
100
AcDbTrace
 10
-345.890525
 20
-3.646419
 30
0.0
 11
-345.938416
 21
-2.098101
 31
0.0
 12
-341.21892
 22
-2.730136
 32
0.0
 13
-341.21892
 23
-2.730136
 33
0.0
  0
TEXT
  5
C5
330
18
100
AcDbEntity
  8
default
100
AcDbText
 10
-358.994437
 20
-4.603841
 30
0.0
 40
3.208421
  1
25.00 DIA
  7
Arial
100
AcDbText
  0
LINE
  5
C6
330
18
100
AcDbEntity
  8
default
100
AcDbLine
 10
-366.207476
 20
-3.486486
 30
0.0
 11
-360.58121
 21
-3.316191
 31
0.0
  0
SOLID
  5
C7
330
18
100
AcDbEntity
  8
default
100
AcDbTrace
 10
-346.69077
 20
27.193988
 30
0.0
 11
-348.273728
 21
27.193988
 31
0.0
 12
-347.482249
 22
31.891689
 32
0.0
 13
-347.482249
 23
31.891689
 33
0.0
  0
SOLID
  5
C8
330
18
100
AcDbEntity
  8
default
100
AcDbTrace
 10
-348.273728
 20
26.338127
 30
0.0
 11
-346.69077
 21
26.338127
 31
0.0
 12
-347.482249
 22
21.640426
 32
0.0
 13
-347.482249
 23
21.640426
 33
0.0
  0
LINE
  5
C9
330
18
100
AcDbEntity
  8
default
100
AcDbLine
 10
-347.482249
 20
21.640426
 30
0.0
 11
-347.482249
 21
34.670642
 31
0.0
  0
LINE
  5
CA
330
18
100
AcDbEntity
  8
default
100
AcDbLine
 10
-352.244749
 20
34.670642
 30
0.0
 11
-347.482249
 21
34.670642
 31
0.0
  0
TEXT
  5
CB
330
18
100
AcDbEntity
  8
default
100
AcDbText
 10
-364.447579
 20
33.033252
 30
0.0
 40
3.208421
  1
10.25
  7
Arial
100
AcDbText
  0
LINE
  5
CC
330
18
100
AcDbEntity
  8
default
100
AcDbLine
 10
-350.657249
 20
21.640426
 30
0.0
 11
-323.530904
 21
21.640426
 31
0.0
  0
LINE
  5
CD
330
18
100
AcDbEntity
  8
default
100
AcDbLine
 10
-350.657249
 20
31.891689
 30
0.0
 11
-333.782167
 21
31.891689
 31
0.0
  0
SOLID
  5
CE
330
18
100
AcDbEntity
  8
default
100
AcDbTrace
 10
-347.033918
 20
-32.554749
 30
0.0
 11
-348.616876
 21
-32.554749
 31
0.0
 12
-347.825397
 22
-27.857048
 32
0.0
 13
-347.825397
 23
-27.857048
 33
0.0
  0
SOLID
  5
CF
330
18
100
AcDbEntity
  8
default
100
AcDbTrace
 10
-348.616876
 20
-33.41061
 30
0.0
 11
-347.033918
 21
-33.41061
 31
0.0
 12
-347.825397
 22
-38.108311
 32
0.0
 13
-347.825397
 23
-38.108311
 33
0.0
  0
LINE
  5
D0
330
18
100
AcDbEntity
  8
default
100
AcDbLine
 10
-347.825397
 20
-43.37863
 30
0.0
 11
-347.825397
 21
-27.857048
 31
0.0
  0
LINE
  5
D1
330
18
100
AcDbEntity
  8
default
100
AcDbLine
 10
-352.587897
 20
-43.37863
 30
0.0
 11
-347.825397
 21
-43.37863
 31
0.0
  0
TEXT
  5
D2
330
18
100
AcDbEntity
  8
default
100
AcDbText
 10
-364.790726
 20
-45.01602
 30
0.0
 40
3.208421
  1
10.25
  7
Arial
100
AcDbText
  0
LINE
  5
D3
330
18
100
AcDbEntity
  8
default
100
AcDbLine
 10
-351.000397
 20
-27.857048
 30
0.0
 11
-323.530904
 21
-27.857048
 31
0.0
  0
LINE
  5
D4
330
18
100
AcDbEntity
  8
default
100
AcDbLine
 10
-351.000397
 20
-38.108311
 30
0.0
 11
-333.782167
 21
-38.108311
 31
0.0
  0
SOLID
  5
D5
330
18
100
AcDbEntity
  8
default
100
AcDbTrace
 10
-317.245703
 20
-27.341148
 30
0.0
 11
-317.245703
 21
-28.890175
 31
0.0
 12
-321.943404
 22
-28.115662
 32
0.0
 13
-321.943404
 23
-28.115662
 33
0.0
  0
SOLID
  5
D6
330
18
100
AcDbEntity
  8
default
100
AcDbTrace
 10
-277.143631
 20
-28.890175
 30
0.0
 11
-277.143631
 21
-27.341148
 31
0.0
 12
-272.44593
 22
-28.115662
 32
0.0
 13
-272.44593
 23
-28.115662
 33
0.0
  0
LINE
  5
D7
330
18
100
AcDbEntity
  8
default
100
AcDbLine
 10
-321.943404
 20
-28.115662
 30
0.0
 11
-303.446542
 21
-28.115662
 31
0.0
  0
LINE
  5
D8
330
18
100
AcDbEntity
  8
default
100
AcDbLine
 10
-289.259953
 20
-28.115662
 30
0.0
 11
-272.44593
 21
-28.115662
 31
0.0
  0
TEXT
  5
D9
330
18
100
AcDbEntity
  8
default
100
AcDbText
 10
-301.859042
 20
-29.753051
 30
0.0
 40
3.208421
  1
49.50
  7
Arial
100
AcDbText
  0
LINE
  5
DA
330
18
100
AcDbEntity
  8
default
100
AcDbLine
 10
-321.943404
 20
-31.290662
 30
0.0
 11
-321.943404
 21
-29.444548
 31
0.0
  0
LINE
  5
DB
330
18
100
AcDbEntity
  8
default
100
AcDbLine
 10
-272.44593
 20
-31.290662
 30
0.0
 11
-272.44593
 21
-29.444548
 31
0.0
  0
SOLID
  5
DC
330
18
100
AcDbEntity
  8
default
100
AcDbTrace
 10
-256.614509
 20
16.942725
 30
0.0
 11
-258.197467
 21
16.942725
 31
0.0
 12
-257.405988
 22
21.640426
 32
0.0
 13
-257.405988
 23
21.640426
 33
0.0
  0
SOLID
  5
DD
330
18
100
AcDbEntity
  8
default
100
AcDbTrace
 10
-258.197467
 20
-23.159347
 30
0.0
 11
-256.614509
 21
-23.159347
 31
0.0
 12
-257.405988
 22
-27.857048
 32
0.0
 13
-257.405988
 23
-27.857048
 33
0.0
  0
LINE
  5
DE
330
18
100
AcDbEntity
  8
default
100
AcDbLine
 10
-257.405988
 20
1.084601
 30
0.0
 11
-257.405988
 21
21.640426
 31
0.0
  0
LINE
  5
DF
330
18
100
AcDbEntity
  8
default
100
AcDbLine
 10
-257.405988
 20
-27.857048
 30
0.0
 11
-257.405988
 21
-6.323733
 31
0.0
  0
TEXT
  5
E0
330
18
100
AcDbEntity
  8
default
100
AcDbText
 10
-262.911783
 20
-4.256955
 30
0.0
 40
3.208421
  1
49.50
  7
Arial
100
AcDbText
  0
LINE
  5
E1
330
18
100
AcDbEntity
  8
default
100
AcDbLine
 10
-270.85843
 20
21.640426
 30
0.0
 11
-254.230988
 21
21.640426
 31
0.0
  0
LINE
  5
E2
330
18
100
AcDbEntity
  8
default
100
AcDbLine
 10
-270.85843
 20
-27.857048
 30
0.0
 11
-254.230988
 21
-27.857048
 31
0.0
  0
CIRCLE
  5
E3
330
18
100
AcDbEntity
  8
default
100
AcDbCircle
 10
-243.418695
 20
-27.857048
 30
0.0
 40
3.5
  0
SOLID
  5
E4
330
18
100
AcDbEntity
  8
default
100
AcDbTrace
 10
-238.720994
 20
-25.463035
 30
0.0
 11
-238.720994
 21
-27.012062
 31
0.0
 12
-243.418695
 22
-26.237549
 32
0.0
 13
-243.418695
 23
-26.237549
 33
0.0
  0
SOLID
  5
E5
330
18
100
AcDbEntity
  8
default
100
AcDbTrace
 10
-232.873837
 20
-27.012062
 30
0.0
 11
-232.873837
 21
-25.463035
 31
0.0
 12
-228.176136
 22
-26.237549
 32
0.0
 13
-228.176136
 23
-26.237549
 33
0.0
  0
LINE
  5
E6
330
18
100
AcDbEntity
  8
default
100
AcDbLine
 10
-243.418695
 20
-26.237549
 30
0.0
 11
-220.590387
 21
-26.237549
 31
0.0
  0
TEXT
  5
E7
330
18
100
AcDbEntity
  8
default
100
AcDbText
 10
-219.002887
 20
-27.874938
 30
0.0
 40
3.208421
  1
15.24
  7
Arial
100
AcDbText
  0
LINE
  5
E8
330
18
100
AcDbEntity
  8
default
100
AcDbLine
 10
-243.418695
 20
-26.269548
 30
0.0
 11
-243.418695
 21
-23.062549
 31
0.0
  0
SOLID
  5
E9
330
18
100
AcDbEntity
  8
default
100
AcDbTrace
 10
-194.191072
 20
16.942725
 30
0.0
 11
-195.77403
 21
16.942725
 31
0.0
 12
-194.982551
 22
21.640426
 32
0.0
 13
-194.982551
 23
21.640426
 33
0.0
  0
SOLID
  5
EA
330
18
100
AcDbEntity
  8
default
100
AcDbTrace
 10
-195.77403
 20
-23.159347
 30
0.0
 11
-194.191072
 21
-23.159347
 31
0.0
 12
-194.982551
 22
-27.857048
 32
0.0
 13
-194.982551
 23
-27.857048
 33
0.0
  0
LINE
  5
EB
330
18
100
AcDbEntity
  8
default
100
AcDbLine
 10
-194.982551
 20
0.361071
 30
0.0
 11
-194.982551
 21
21.640426
 31
0.0
  0
LINE
  5
EC
330
18
100
AcDbEntity
  8
default
100
AcDbLine
 10
-194.982551
 20
-27.857048
 30
0.0
 11
-194.982551
 21
-7.047262
 31
0.0
  0
TEXT
  5
ED
330
18
100
AcDbEntity
  8
default
100
AcDbText
 10
-200.488346
 20
-4.980485
 30
0.0
 40
3.208421
  1
49.50
  7
Arial
100
AcDbText
  0
LINE
  5
EE
330
18
100
AcDbEntity
  8
default
100
AcDbLine
 10
-241.831195
 20
-27.857048
 30
0.0
 11
-191.807551
 21
-27.857048
 31
0.0
  0
LINE
  5
EF
330
18
100
AcDbEntity
  8
default
100
AcDbLine
 10
-241.831195
 20
21.640426
 30
0.0
 11
-191.807551
 21
21.640426
 31
0.0
  0
SOLID
  5
F0
330
18
100
AcDbEntity
  8
default
100
AcDbTrace
 10
-267.748229
 20
-41.940104
 30
0.0
 11
-267.748229
 21
-43.48913
 31
0.0
 12
-272.44593
 22
-42.714617
 32
0.0
 13
-272.44593
 23
-42.714617
 33
0.0
  0
SOLID
  5
F1
330
18
100
AcDbEntity
  8
default
100
AcDbTrace
 10
-248.116396
 20
-43.48913
 30
0.0
 11
-248.116396
 21
-41.940104
 31
0.0
 12
-243.418695
 22
-42.714617
 32
0.0
 13
-243.418695
 23
-42.714617
 33
0.0
  0
LINE
  5
F2
330
18
100
AcDbEntity
  8
default
100
AcDbLine
 10
-272.44593
 20
-42.714617
 30
0.0
 11
-263.811659
 21
-42.714617
 31
0.0
  0
LINE
  5
F3
330
18
100
AcDbEntity
  8
default
100
AcDbLine
 10
-249.686601
 20
-42.714617
 30
0.0
 11
-243.418695
 21
-42.714617
 31
0.0
  0
TEXT
  5
F4
330
18
100
AcDbEntity
  8
default
100
AcDbText
 10
-262.224159
 20
-44.352006
 30
0.0
 40
3.208421
  1
29.03
  7
Arial
100
AcDbText
  0
LINE
  5
F5
330
18
100
AcDbEntity
  8
default
100
AcDbLine
 10
-243.418695
 20
-45.889617
 30
0.0
 11
-243.418695
 21
-29.444548
 31
0.0
  0
LINE
  5
F6
330
18
100
AcDbEntity
  8
default
100
AcDbLine
 10
-272.44593
 20
-45.889617
 30
0.0
 11
-272.44593
 21
-29.444548
 31
0.0
  0
SOLID
  5
F7
330
18
100
AcDbEntity
  8
default
100
AcDbTrace
 10
-317.245703
 20
-41.940104
 30
0.0
 11
-317.245703
 21
-43.48913
 31
0.0
 12
-321.943404
 22
-42.714617
 32
0.0
 13
-321.943404
 23
-42.714617
 33
0.0
  0
SOLID
  5
F8
330
18
100
AcDbEntity
  8
default
100
AcDbTrace
 10
-277.143631
 20
-43.48913
 30
0.0
 11
-277.143631
 21
-41.940104
 31
0.0
 12
-272.44593
 22
-42.714617
 32
0.0
 13
-272.44593
 23
-42.714617
 33
0.0
  0
LINE
  5
F9
330
18
100
AcDbEntity
  8
default
100
AcDbLine
 10
-321.943404
 20
-42.714617
 30
0.0
 11
-304.676996
 21
-42.714617
 31
0.0
  0
LINE
  5
FA
330
18
100
AcDbEntity
  8
default
100
AcDbLine
 10
-290.490407
 20
-42.714617
 30
0.0
 11
-272.44593
 21
-42.714617
 31
0.0
  0
TEXT
  5
FB
330
18
100
AcDbEntity
  8
default
100
AcDbText
 10
-303.089496
 20
-44.352006
 30
0.0
 40
3.208421
  1
49.50
  7
Arial
100
AcDbText
  0
LINE
  5
FC
330
18
100
AcDbEntity
  8
default
100
AcDbLine
 10
-272.44593
 20
-45.889617
 30
0.0
 11
-272.44593
 21
-29.444548
 31
0.0
  0
LINE
  5
FD
330
18
100
AcDbEntity
  8
default
100
AcDbLine
 10
-321.943404
 20
-45.889617
 30
0.0
 11
-321.943404
 21
-29.444548
 31
0.0
  0
SOLID
  5
FE
330
18
100
AcDbEntity
  8
default
100
AcDbTrace
 10
-361.509775
 20
52.586237
 30
0.0
 11
-361.509775
 21
51.03721
 31
0.0
 12
-366.207476
 22
51.811723
 32
0.0
 13
-366.207476
 23
51.811723
 33
0.0
  0
SOLID
  5
FF
330
18
100
AcDbEntity
  8
default
100
AcDbTrace
 10
-232.873837
 20
51.03721
 30
0.0
 11
-232.873837
 21
52.586237
 31
0.0
 12
-228.176136
 22
51.811723
 32
0.0
 13
-228.176136
 23
51.811723
 33
0.0
  0
LINE
  5
100
330
18
100
AcDbEntity
  8
default
100
AcDbLine
 10
-366.207476
 20
51.811723
 30
0.0
 11
-303.146955
 21
51.811723
 31
0.0
  0
LINE
  5
101
330
18
100
AcDbEntity
  8
default
100
AcDbLine
 10
-286.873234
 20
51.811723
 30
0.0
 11
-228.176136
 21
51.811723
 31
0.0
  0
TEXT
  5
102
330
18
100
AcDbEntity
  8
default
100
AcDbText
 10
-301.559455
 20
50.174334
 30
0.0
 40
3.208421
  1
138.03
  7
Arial
100
AcDbText
  0
LINE
  5
103
330
18
100
AcDbEntity
  8
default
100
AcDbLine
 10
-228.176136
 20
28.479189
 30
0.0
 11
-228.176136
 21
54.986723
 31
0.0
  0
LINE
  5
104
330
18
100
AcDbEntity
  8
default
100
AcDbLine
 10
-366.207476
 20
-1.898986
 30
0.0
 11
-366.207476
 21
54.986723
 31
0.0
  0
SOLID
  5
105
330
18
100
AcDbEntity
  8
default
100
AcDbTrace
 10
-375.716185
 20
27.193988
 30
0.0
 11
-377.299143
 21
27.193988
 31
0.0
 12
-376.507664
 22
31.891689
 32
0.0
 13
-376.507664
 23
31.891689
 33
0.0
  0
SOLID
  5
106
330
18
100
AcDbEntity
  8
default
100
AcDbTrace
 10
-377.299143
 20
-33.41061
 30
0.0
 11
-375.716185
 21
-33.41061
 31
0.0
 12
-376.507664
 22
-38.108311
 32
0.0
 13
-376.507664
 23
-38.108311
 33
0.0
  0
LINE
  5
107
330
18
100
AcDbEntity
  8
default
100
AcDbLine
 10
-376.507664
 20
5.564356
 30
0.0
 11
-376.507664
 21
31.891689
 31
0.0
  0
LINE
  5
108
330
18
100
AcDbEntity
  8
default
100
AcDbLine
 10
-376.507664
 20
-38.108311
 30
0.0
 11
-376.507664
 21
-1.843977
 31
0.0
  0
TEXT
  5
109
330
18
100
AcDbEntity
  8
default
100
AcDbText
 10
-381.934699
 20
0.2228
 30
0.0
 40
3.208421
  1
70.00
  7
Arial
100
AcDbText
  0
LINE
  5
10A
330
18
100
AcDbEntity
  8
default
100
AcDbLine
 10
-379.682664
 20
31.891689
 30
0.0
 11
-333.782167
 21
31.891689
 31
0.0
  0
LINE
  5
10B
330
18
100
AcDbEntity
  8
default
100
AcDbLine
 10
-379.682664
 20
-38.108311
 30
0.0
 11
-333.782167
 21
-38.108311
 31
0.0
  0
LINE
  5
10C
330
18
100
AcDbEntity
  8
default
100
AcDbLine
 10
-233.176136
 20
-38.108311
 30
0.0
 11
-228.176136
 21
-33.108311
 31
0.0
  0
LINE
  5
10D
330
18
100
AcDbEntity
  8
default
100
AcDbLine
 10
-228.176136
 20
-33.108311
 30
0.0
 11
-228.176136
 21
26.891689
 31
0.0
  0
LINE
  5
10E
330
18
100
AcDbEntity
  8
default
100
AcDbLine
 10
-233.176136
 20
31.891689
 30
0.0
 11
-228.176136
 21
26.891689
 31
0.0
  0
LINE
  5
10F
330
18
100
AcDbEntity
  8
default
100
AcDbLine
 10
-332.194667
 20
31.891689
 30
0.0
 11
-233.176136
 21
31.891689
 31
0.0
  0
LINE
  5
110
330
18
100
AcDbEntity
  8
default
100
AcDbLine
 10
-337.194667
 20
14.391689
 30
0.0
 11
-337.194667
 21
26.891689
 31
0.0
  0
LINE
  5
111
330
18
100
AcDbEntity
  8
default
100
AcDbLine
 10
-337.194667
 20
26.891689
 30
0.0
 11
-332.194667
 21
31.891689
 31
0.0
  0
LINE
  5
112
330
18
100
AcDbEntity
  8
default
100
AcDbLine
 10
-332.194667
 20
-38.108311
 30
0.0
 11
-233.176136
 21
-38.108311
 31
0.0
  0
LINE
  5
113
330
18
100
AcDbEntity
  8
default
100
AcDbLine
 10
-337.194667
 20
-33.108311
 30
0.0
 11
-337.194667
 21
-20.608311
 31
0.0
  0
LINE
  5
114
330
18
100
AcDbEntity
  8
default
100
AcDbLine
 10
-337.194667
 20
-33.108311
 30
0.0
 11
-332.194667
 21
-38.108311
 31
0.0
  0
TEXT
  5
115
330
18
100
AcDbEntity
  8
default
100
AcDbText
 10
-224.811767
 20
-39.586558
 30
0.0
 40
3.208421
  1
7 mm chamfer
  7
Arial
100
AcDbText
  0
SOLID
  5
116
330
18
100
AcDbEntity
  8
default
100
AcDbTrace
 10
-292.496966
 20
70.293527
 30
0.0
 11
-292.496966
 21
68.7445
 31
0.0
 12
-297.194667
 22
69.519014
 32
0.0
 13
-297.194667
 23
69.519014
 33
0.0
  0
SOLID
  5
117
330
18
100
AcDbEntity
  8
default
100
AcDbTrace
 10
-232.873837
 20
68.7445
 30
0.0
 11
-232.873837
 21
70.293527
 31
0.0
 12
-228.176136
 22
69.519014
 32
0.0
 13
-228.176136
 23
69.519014
 33
0.0
  0
LINE
  5
118
330
18
100
AcDbEntity
  8
default
100
AcDbLine
 10
-297.194667
 20
69.519014
 30
0.0
 11
-270.949576
 21
69.519014
 31
0.0
  0
LINE
  5
119
330
18
100
AcDbEntity
  8
default
100
AcDbLine
 10
-256.898355
 20
69.519014
 30
0.0
 11
-228.176136
 21
69.519014
 31
0.0
  0
TEXT
  5
11A
330
18
100
AcDbEntity
  8
default
100
AcDbText
 10
-269.362076
 20
67.881624
 30
0.0
 40
3.208421
  1
69.02
  7
Arial
100
AcDbText
  0
LINE
  5
11B
330
18
100
AcDbEntity
  8
default
100
AcDbLine
 10
-297.194667
 20
-1.520811
 30
0.0
 11
-297.194667
 21
72.694014
 31
0.0
  0
LINE
  5
11C
330
18
100
AcDbEntity
  8
default
100
AcDbLine
 10
-228.176136
 20
28.479189
 30
0.0
 11
-228.176136
 21
72.694014
 31
0.0
  0
SOLID
  5
11D
330
18
100
AcDbEntity
  8
default
100
AcDbTrace
 10
-349.015497
 20
70.293527
 30
0.0
 11
-349.015497
 21
68.7445
 31
0.0
 12
-353.713198
 22
69.519014
 32
0.0
 13
-353.713198
 23
69.519014
 33
0.0
  0
SOLID
  5
11E
330
18
100
AcDbEntity
  8
default
100
AcDbTrace
 10
-301.892368
 20
68.7445
 30
0.0
 11
-301.892368
 21
70.293527
 31
0.0
 12
-297.194667
 22
69.519014
 32
0.0
 13
-297.194667
 23
69.519014
 33
0.0
  0
LINE
  5
11F
330
18
100
AcDbEntity
  8
default
100
AcDbLine
 10
-353.713198
 20
69.519014
 30
0.0
 11
-334.06508
 21
69.519014
 31
0.0
  0
LINE
  5
120
330
18
100
AcDbEntity
  8
default
100
AcDbLine
 10
-320.031088
 20
69.519014
 30
0.0
 11
-297.194667
 21
69.519014
 31
0.0
  0
TEXT
  5
121
330
18
100
AcDbEntity
  8
default
100
AcDbText
 10
-332.47758
 20
67.881624
 30
0.0
 40
3.208421
  1
56.52
  7
Arial
100
AcDbText
  0
LINE
  5
122
330
18
100
AcDbEntity
  8
default
100
AcDbLine
 10
-297.194667
 20
-1.520811
 30
0.0
 11
-297.194667
 21
72.694014
 31
0.0
  0
LINE
  5
123
330
18
100
AcDbEntity
  8
default
100
AcDbLine
 10
-353.713198
 20
-1.520811
 30
0.0
 11
-353.713198
 21
72.694014
 31
0.0
  0
LINE
  5
124
330
18
100
AcDbEntity
  8
default
  6
HIDDEN
 62
     3
100
AcDbLine
 10
-353.713198
 20
-3.108311
 30
0.0
 11
-243.418695
 21
21.640426
 31
0.0
  0
LINE
  5
125
330
18
100
AcDbEntity
  8
default
  6
HIDDEN
 62
     3
100
AcDbLine
 10
-353.713198
 20
-3.108311
 30
0.0
 11
-243.418695
 21
-27.857048
 31
0.0
  0
ARC
  5
126
330
18
100
AcDbEntity
  8
default
100
AcDbCircle
 10
-353.713198
 20
-3.108311
 30
0.0
 40
137.31802
100
AcDbArc
 50
1.588984
 51
12.646991
  0
ARC
  5
127
330
18
100
AcDbEntity
  8
default
100
AcDbCircle
 10
-353.713198
 20
-3.108311
 30
0.0
 40
137.31802
100
AcDbArc
 50
347.353009
 51
358.497865
  0
SOLID
  5
128
330
18
100
AcDbEntity
  8
default
100
AcDbTrace
 10
-219.553133
 20
-28.416133
 30
0.0
 11
-218.002881
 21
-28.729006
 31
0.0
 12
-219.726853
 22
-33.173208
 32
0.0
 13
-219.726853
 23
-33.173208
 33
0.0
  0
SOLID
  5
129
330
18
100
AcDbEntity
  8
default
100
AcDbTrace
 10
-218.002881
 20
22.512384
 30
0.0
 11
-219.553133
 21
22.19951
 31
0.0
 12
-219.726853
 22
26.956586
 32
0.0
 13
-219.726853
 23
26.956586
 33
0.0
  0
TEXT
  5
12A
330
18
100
AcDbEntity
  8
default
100
AcDbText
 10
-219.589907
 20
-4.641627
 30
0.0
 40
3.208421
  1
25°
  7
Arial
100
AcDbText
  0
LINE
  5
12B
330
18
100
AcDbEntity
  8
default
100
AcDbLine
 10
-241.869712
 20
-28.204621
 30
0.0
 11
-216.628887
 21
-33.868354
 31
0.0
  0
LINE
  5
12C
330
18
100
AcDbEntity
  8
default
100
AcDbLine
 10
-241.869712
 20
21.987999
 30
0.0
 11
-216.628886
 21
27.651732
 31
0.0
  0
ELLIPSE
  5
12D
330
18
100
AcDbEntity
  8
default
100
AcDbEllipse
 10
-240.676309
 20
-3.688506
 30
0.0
 11
0.0
 21
3.5
 31
0.0
210
0.0
220
0.0
230
1.0
 40
1.0
 41
0.0
 42
6.283185307179586
  0
CIRCLE
  5
12E
330
18
100
AcDbEntity
  8
default
100
AcDbCircle
 10
-297.194667
 20
-3.108311
 30
0.0
 40
22.5
  0
SOLID
  5
12F
330
18
100
AcDbEntity
  8
default
100
AcDbTrace
 10
-279.375956
 20
-2.886896
 30
0.0
 11
-279.464405
 21
-1.340289
 31
0.0
 12
-274.729818
 22
-1.851104
 32
0.0
 13
-274.729818
 23
-1.851104
 33
0.0
  0
SOLID
  5
130
330
18
100
AcDbEntity
  8
default
100
AcDbTrace
 10
-315.013378
 20
-3.329726
 30
0.0
 11
-314.924929
 21
-4.876333
 31
0.0
 12
-319.659516
 22
-4.365518
 32
0.0
 13
-319.659516
 23
-4.365518
 33
0.0
  0
TEXT
  5
131
330
18
100
AcDbEntity
  8
default
100
AcDbText
 10
-308.198965
 20
-4.532258
 30
0.0
 40
2.406316
  1
45.00 DIA
  7
Arial
100
AcDbText
  0
LINE
  5
132
330
18
100
AcDbEntity
  8
default
100
AcDbLine
 10
-291.606532
 20
-2.795581
 30
0.0
 11
-274.729818
 21
-1.851104
 31
0.0
  0
LINE
  5
133
330
18
100
AcDbEntity
  8
default
100
AcDbLine
 10
-319.659516
 20
-4.365518
 30
0.0
 11
-309.783985
 21
-3.812851
 31
0.0
  0
CIRCLE
  5
134
330
18
100
AcDbEntity
  8
default
100
AcDbCircle
 10
-43.134971
 20
54.802604
 30
0.0
 40
3.5
  0
POINT
  5
135
330
18
100
AcDbEntity
  8
default
 62
     1
100
AcDbPoint
 10
-43.134971
 20
54.802604
 30
0.0
  0
SOLID
  5
136
330
18
100
AcDbEntity
  8
default
100
AcDbTrace
 10
-163.998359
 20
84.270134
 30
0.0
 11
-163.998359
 21
82.721108
 31
0.0
 12
-168.69606
 22
83.495621
 32
0.0
 13
-168.69606
 23
83.495621
 33
0.0
  0
SOLID
  5
137
330
18
100
AcDbEntity
  8
default
100
AcDbTrace
 10
-35.208673
 20
82.721108
 30
0.0
 11
-35.208673
 21
84.270134
 31
0.0
 12
-30.510972
 22
83.495621
 32
0.0
 13
-30.510972
 23
83.495621
 33
0.0
  0
LINE
  5
138
330
18
100
AcDbEntity
  8
default
100
AcDbLine
 10
-168.69606
 20
83.495621
 30
0.0
 11
-105.064896
 21
83.495621
 31
0.0
  0
LINE
  5
139
330
18
100
AcDbEntity
  8
default
100
AcDbLine
 10
-92.062163
 20
83.495621
 30
0.0
 11
-30.510972
 21
83.495621
 31
0.0
  0
TEXT
  5
13A
330
18
100
AcDbEntity
  8
default
100
AcDbText
 10
-103.477396
 20
82.267579
 30
0.0
 40
2.406316
  1
138.19
  7
Arial
100
AcDbText
  0
LINE
  5
13B
330
18
100
AcDbEntity
  8
default
100
AcDbLine
 10
-168.69606
 20
57.222742
 30
0.0
 11
-168.69606
 21
86.670621
 31
0.0
  0
LINE
  5
13C
330
18
100
AcDbEntity
  8
default
100
AcDbLine
 10
-30.510972
 20
57.222742
 30
0.0
 11
-30.510972
 21
86.670621
 31
0.0
  0
CIRCLE
  5
13D
330
18
100
AcDbEntity
  8
default
100
AcDbCircle
 10
-156.174698
 20
54.802604
 30
0.0
 40
3.5
  0
POINT
  5
13E
330
18
100
AcDbEntity
  8
default
 62
     1
100
AcDbPoint
 10
-156.174698
 20
54.802604
 30
0.0
  0
SOLID
  5
13F
330
18
100
AcDbEntity
  8
default
 62
     1
100
AcDbTrace
 10
-151.476997
 20
75.511659
 30
0.0
 11
-151.476997
 21
73.962633
 31
0.0
 12
-156.174698
 22
74.737146
 32
0.0
 13
-156.174698
 23
74.737146
 33
0.0
  0
SOLID
  5
140
330
18
100
AcDbEntity
  8
default
 62
     1
100
AcDbTrace
 10
-47.832672
 20
73.962633
 30
0.0
 11
-47.832672
 21
75.511659
 31
0.0
 12
-43.134971
 22
74.737146
 32
0.0
 13
-43.134971
 23
74.737146
 33
0.0
  0
LINE
  5
141
330
18
100
AcDbEntity
  8
default
 62
     1
100
AcDbLine
 10
-156.174698
 20
74.737146
 30
0.0
 11
-113.964867
 21
74.737146
 31
0.0
  0
LINE
  5
142
330
18
100
AcDbEntity
  8
default
 62
     1
100
AcDbLine
 10
-93.064015
 20
74.737146
 30
0.0
 11
-43.134971
 21
74.737146
 31
0.0
  0
TEXT
  5
143
330
18
100
AcDbEntity
  8
default
 62
     1
100
AcDbText
 10
-112.377367
 20
73.099757
 30
0.0
 40
3.208421
  1
113.04 B
  7
Arial_Bold
100
AcDbText
  0
LINE
  5
144
330
18
100
AcDbEntity
  8
default
 62
     1
100
AcDbLine
 10
-156.174698
 20
56.390104
 30
0.0
 11
-156.174698
 21
77.912146
 31
0.0
  0
LINE
  5
145
330
18
100
AcDbEntity
  8
default
 62
     1
100
AcDbLine
 10
-43.134971
 20
56.390104
 30
0.0
 11
-43.134971
 21
77.912146
 31
0.0
  0
SOLID
  5
146
330
18
100
AcDbEntity
  8
default
 62
     1
100
AcDbTrace
 10
-349.015497
 20
-73.548734
 30
0.0
 11
-349.015497
 21
-75.09776
 31
0.0
 12
-353.713198
 22
-74.323247
 32
0.0
 13
-353.713198
 23
-74.323247
 33
0.0
  0
SOLID
  5
147
330
18
100
AcDbEntity
  8
default
 62
     1
100
AcDbTrace
 10
-245.37401
 20
-75.09776
 30
0.0
 11
-245.37401
 21
-73.548734
 31
0.0
 12
-240.676309
 22
-74.323247
 32
0.0
 13
-240.676309
 23
-74.323247
 33
0.0
  0
LINE
  5
148
330
18
100
AcDbEntity
  8
default
 62
     1
100
AcDbLine
 10
-353.713198
 20
-74.323247
 30
0.0
 11
-310.369409
 21
-74.323247
 31
0.0
  0
LINE
  5
149
330
18
100
AcDbEntity
  8
default
 62
     1
100
AcDbLine
 10
-289.266735
 20
-74.323247
 30
0.0
 11
-240.676309
 21
-74.323247
 31
0.0
  0
TEXT
  5
14A
330
18
100
AcDbEntity
  8
default
 62
     1
100
AcDbText
 10
-308.781909
 20
-75.960636
 30
0.0
 40
3.208421
  1
113.04 A
  7
Arial_Bold
100
AcDbText
  0
LINE
  5
14B
330
18
100
AcDbEntity
  8
default
 62
     1
100
AcDbLine
 10
-353.713198
 20
-77.498247
 30
0.0
 11
-353.713198
 21
-4.695811
 31
0.0
  0
LINE
  5
14C
330
18
100
AcDbEntity
  8
default
 62
     1
100
AcDbLine
 10
-240.676309
 20
-77.498247
 30
0.0
 11
-240.676309
 21
-5.276006
 31
0.0
  0
ENDSEC
  0
SECTION
  2
OBJECTS
  0
DICTIONARY
  5
C
330
0
100
AcDbDictionary
281
     1
  3
ACAD_DETAILVIEWSTYLE
350
1C4
  3
ACAD_GROUP
350
D
  3
ACAD_LAYOUT
350
16F
  3
ACAD_MATERIAL
350
18B
  3
ACAD_MLEADERSTYLE
350
1C2
  3
ACAD_MLINESTYLE
350
1B
  3
ACAD_SCALELIST
350
14D
  3
ACAD_SECTIONVIEWSTYLE
350
1C5
  3
ACAD_TABLESTYLE
350
1C1
  3
ACAD_VISUALSTYLE
350
172
  3
AcDbVariableDictionary
350
18F
  0
DICTIONARY
  5
1C4
102
{ACAD_REACTORS
330
C
102
}
330
C
100
AcDbDictionary
281
     1
  0
DICTIONARY
  5
D
102
{ACAD_REACTORS
330
C
102
}
330
C
100
AcDbDictionary
281
     1
  0
DICTIONARY
  5
16F
102
{ACAD_REACTORS
330
C
102
}
330
C
100
AcDbDictionary
281
     1
  3
Layout1
350
171
  3
Model
350
170
  0
DICTIONARY
  5
18B
102
{ACAD_REACTORS
330
C
102
}
330
C
100
AcDbDictionary
281
     1
  3
ByBlock
350
18D
  3
ByLayer
350
18C
  3
Global
350
18E
  0
DICTIONARY
  5
1C2
102
{ACAD_REACTORS
330
C
102
}
330
C
100
AcDbDictionary
281
     1
  0
DICTIONARY
  5
1B
102
{ACAD_REACTORS
330
C
102
}
330
C
100
AcDbDictionary
281
     1
  3
STANDARD
350
1C
  0
DICTIONARY
  5
14D
102
{ACAD_REACTORS
330
C
102
}
330
C
100
AcDbDictionary
281
     1
  3
A0
350
14E
  3
A1
350
14F
  3
A2
350
150
  3
A3
350
151
  3
A4
350
152
  3
A5
350
153
  3
A6
350
154
  3
A7
350
155
  3
A8
350
156
  3
A9
350
157
  3
B0
350
158
  3
B1
350
159
  3
B2
350
15A
  3
B3
350
15B
  3
B4
350
15C
  3
B5
350
15D
  3
B6
350
15E
  3
B7
350
15F
  3
B8
350
160
  3
B9
350
161
  3
C0
350
162
  3
C1
350
163
  3
C2
350
164
  3
C3
350
165
  3
C4
350
166
  3
C5
350
167
  3
C6
350
168
  3
C7
350
169
  3
C8
350
16A
  3
C9
350
16B
  3
D0
350
16C
  3
D1
350
16D
  3
D2
350
16E
  0
DICTIONARY
  5
1C5
102
{ACAD_REACTORS
330
C
102
}
330
C
100
AcDbDictionary
281
     1
  0
DICTIONARY
  5
1C1
102
{ACAD_REACTORS
330
C
102
}
330
C
100
AcDbDictionary
281
     1
  0
DICTIONARY
  5
172
102
{ACAD_REACTORS
330
C
102
}
330
C
100
AcDbDictionary
281
     1
  3
2dWireframe
350
177
  3
Basic
350
17A
  3
Brighten
350
17E
  3
ColorChange
350
182
  3
Conceptual
350
17C
  3
Dim
350
17D
  3
EdgeColorOff
350
185
  3
Facepattern
350
181
  3
Flat
350
173
  3
FlatWithEdges
350
174
  3
Gouraud
350
175
  3
GouraudWithEdges
350
176
  3
Hidden
350
179
  3
JitterOff
350
183
  3
Linepattern
350
180
  3
OverhangOff
350
184
  3
Realistic
350
17B
  3
Shaded
350
18A
  3
Shaded with edges
350
189
  3
Shades of Gray
350
186
  3
Sketchy
350
187
  3
Thicken
350
17F
  3
Wireframe
350
178
  3
X-Ray
350
188
  0
DICTIONARY
  5
18F
102
{ACAD_REACTORS
330
C
102
}
330
C
100
AcDbDictionary
281
     1
  3
CANNOSCALE
350
190
  3
MSLTSCALE
350
1C3
  0
LAYOUT
  5
171
102
{ACAD_REACTORS
330
16F
102
}
330
16F
100
AcDbPlotSettings
  1

  2
none_device
  4

  6

 40
0.0
 41
0.0
 42
0.0
 43
0.0
 44
0.0
 45
0.0
 46
0.0
 47
0.0
 48
0.0
 49
0.0
140
0.0
141
0.0
142
1.0
143
1.0
 70
   688
 72
     1
 73
     0
 74
     5
  7

 75
    16
 76
     0
 77
     2
 78
   300
147
1.0
148
0.0
149
0.0
100
AcDbLayout
  1
Layout1
 70
     1
 71
     1
 10
0.0
 20
0.0
 11
12.0
 21
9.0
 12
0.0
 22
0.0
 32
0.0
 14
1.000000000000000E+20
 24
1.000000000000000E+20
 34
1.000000000000000E+20
 15
-1.000000000000000E+20
 25
-1.000000000000000E+20
 35
-1.000000000000000E+20
146
0.0
 13
0.0
 23
0.0
 33
0.0
 16
1.0
 26
0.0
 36
0.0
 17
0.0
 27
1.0
 37
0.0
 76
     0
330
15
  0
LAYOUT
  5
170
102
{ACAD_REACTORS
330
16F
102
}
330
16F
100
AcDbPlotSettings
  1

  2
none_device
  4
Letter_(8.50_x_11.00_Inches)
  6

 40
6.35
 41
6.35
 42
6.35000508
 43
6.35000508
 44
215.9
 45
279.4
 46
0.0
 47
0.0
 48
0.0
 49
0.0
140
0.0
141
0.0
142
1.0
143
1.850450985737161
 70
  1712
 72
     1
 73
     0
 74
     0
  7

 75
     0
 76
     0
 77
     2
 78
   300
147
0.5404088018044054
148
381.99815945075
149
77.56174700000001
100
AcDbLayout
  1
Model
 70
     1
 71
     0
 10
0.0
 20
0.0
 11
-5.986489
 21
86.734121
 12
0.0
 22
0.0
 32
0.0
 14
-381.998199
 24
-77.561747
 34
0.0
 15
-5.986489
 25
86.734121
 35
0.0
146
0.0
 13
0.0
 23
0.0
 33
0.0
 16
1.0
 26
0.0
 36
0.0
 17
0.0
 27
1.0
 37
0.0
 76
     0
330
18
331
1E
  0
MATERIAL
  5
18D
102
{ACAD_REACTORS
330
18B
102
}
330
18B
100
AcDbMaterial
  1
ByBlock
 72
     1
 94
      127
  0
MATERIAL
  5
18C
102
{ACAD_REACTORS
330
18B
102
}
330
18B
100
AcDbMaterial
  1
ByLayer
 72
     1
 94
      127
  0
MATERIAL
  5
18E
102
{ACAD_REACTORS
330
18B
102
}
330
18B
100
AcDbMaterial
  1
Global
 72
     1
 94
      127
  0
MLINESTYLE
  5
1C
102
{ACAD_REACTORS
330
1B
102
}
330
1B
100
AcDbMlineStyle
  2
STANDARD
 70
     0
  3

 62
   256
 51
90.0
 52
90.0
 71
     2
 49
0.5
 62
   256
  6
BYLAYER
 49
-0.5
 62
   256
  6
BYLAYER
  0
SCALE
  5
14E
102
{ACAD_REACTORS
330
14D
102
}
330
14D
100
AcDbScale
 70
     0
300
1:1
140
1.0
141
1.0
290
     1
  0
SCALE
  5
14F
102
{ACAD_REACTORS
330
14D
102
}
330
14D
100
AcDbScale
 70
     0
300
1:2
140
1.0
141
2.0
290
     0
  0
SCALE
  5
150
102
{ACAD_REACTORS
330
14D
102
}
330
14D
100
AcDbScale
 70
     0
300
1:4
140
1.0
141
4.0
290
     0
  0
SCALE
  5
151
102
{ACAD_REACTORS
330
14D
102
}
330
14D
100
AcDbScale
 70
     0
300
1:5
140
1.0
141
5.0
290
     0
  0
SCALE
  5
152
102
{ACAD_REACTORS
330
14D
102
}
330
14D
100
AcDbScale
 70
     0
300
1:8
140
1.0
141
8.0
290
     0
  0
SCALE
  5
153
102
{ACAD_REACTORS
330
14D
102
}
330
14D
100
AcDbScale
 70
     0
300
1:10
140
1.0
141
10.0
290
     0
  0
SCALE
  5
154
102
{ACAD_REACTORS
330
14D
102
}
330
14D
100
AcDbScale
 70
     0
300
1:16
140
1.0
141
16.0
290
     0
  0
SCALE
  5
155
102
{ACAD_REACTORS
330
14D
102
}
330
14D
100
AcDbScale
 70
     0
300
1:20
140
1.0
141
20.0
290
     0
  0
SCALE
  5
156
102
{ACAD_REACTORS
330
14D
102
}
330
14D
100
AcDbScale
 70
     0
300
1:30
140
1.0
141
30.0
290
     0
  0
SCALE
  5
157
102
{ACAD_REACTORS
330
14D
102
}
330
14D
100
AcDbScale
 70
     0
300
1:40
140
1.0
141
40.0
290
     0
  0
SCALE
  5
158
102
{ACAD_REACTORS
330
14D
102
}
330
14D
100
AcDbScale
 70
     0
300
1:50
140
1.0
141
50.0
290
     0
  0
SCALE
  5
159
102
{ACAD_REACTORS
330
14D
102
}
330
14D
100
AcDbScale
 70
     0
300
1:100
140
1.0
141
100.0
290
     0
  0
SCALE
  5
15A
102
{ACAD_REACTORS
330
14D
102
}
330
14D
100
AcDbScale
 70
     0
300
2:1
140
2.0
141
1.0
290
     0
  0
SCALE
  5
15B
102
{ACAD_REACTORS
330
14D
102
}
330
14D
100
AcDbScale
 70
     0
300
4:1
140
4.0
141
1.0
290
     0
  0
SCALE
  5
15C
102
{ACAD_REACTORS
330
14D
102
}
330
14D
100
AcDbScale
 70
     0
300
8:1
140
8.0
141
1.0
290
     0
  0
SCALE
  5
15D
102
{ACAD_REACTORS
330
14D
102
}
330
14D
100
AcDbScale
 70
     0
300
10:1
140
10.0
141
1.0
290
     0
  0
SCALE
  5
15E
102
{ACAD_REACTORS
330
14D
102
}
330
14D
100
AcDbScale
 70
     0
300
100:1
140
100.0
141
1.0
290
     0
  0
SCALE
  5
15F
102
{ACAD_REACTORS
330
14D
102
}
330
14D
100
AcDbScale
 70
     0
300
1/128" = 1'-0"
140
0.0078125
141
12.0
290
     0
  0
SCALE
  5
160
102
{ACAD_REACTORS
330
14D
102
}
330
14D
100
AcDbScale
 70
     0
300
1/64" = 1'-0"
140
0.015625
141
12.0
290
     0
  0
SCALE
  5
161
102
{ACAD_REACTORS
330
14D
102
}
330
14D
100
AcDbScale
 70
     0
300
1/32" = 1'-0"
140
0.03125
141
12.0
290
     0
  0
SCALE
  5
162
102
{ACAD_REACTORS
330
14D
102
}
330
14D
100
AcDbScale
 70
     0
300
1/16" = 1'-0"
140
0.0625
141
12.0
290
     0
  0
SCALE
  5
163
102
{ACAD_REACTORS
330
14D
102
}
330
14D
100
AcDbScale
 70
     0
300
3/32" = 1'-0"
140
0.09375
141
12.0
290
     0
  0
SCALE
  5
164
102
{ACAD_REACTORS
330
14D
102
}
330
14D
100
AcDbScale
 70
     0
300
1/8" = 1'-0"
140
0.125
141
12.0
290
     0
  0
SCALE
  5
165
102
{ACAD_REACTORS
330
14D
102
}
330
14D
100
AcDbScale
 70
     0
300
3/16" = 1'-0"
140
0.1875
141
12.0
290
     0
  0
SCALE
  5
166
102
{ACAD_REACTORS
330
14D
102
}
330
14D
100
AcDbScale
 70
     0
300
1/4" = 1'-0"
140
0.25
141
12.0
290
     0
  0
SCALE
  5
167
102
{ACAD_REACTORS
330
14D
102
}
330
14D
100
AcDbScale
 70
     0
300
3/8" = 1'-0"
140
0.375
141
12.0
290
     0
  0
SCALE
  5
168
102
{ACAD_REACTORS
330
14D
102
}
330
14D
100
AcDbScale
 70
     0
300
1/2" = 1'-0"
140
0.5
141
12.0
290
     0
  0
SCALE
  5
169
102
{ACAD_REACTORS
330
14D
102
}
330
14D
100
AcDbScale
 70
     0
300
3/4" = 1'-0"
140
0.75
141
12.0
290
     0
  0
SCALE
  5
16A
102
{ACAD_REACTORS
330
14D
102
}
330
14D
100
AcDbScale
 70
     0
300
1" = 1'-0"
140
1.0
141
12.0
290
     0
  0
SCALE
  5
16B
102
{ACAD_REACTORS
330
14D
102
}
330
14D
100
AcDbScale
 70
     0
300
1-1/2" = 1'-0"
140
1.5
141
12.0
290
     0
  0
SCALE
  5
16C
102
{ACAD_REACTORS
330
14D
102
}
330
14D
100
AcDbScale
 70
     0
300
3" = 1'-0"
140
3.0
141
12.0
290
     0
  0
SCALE
  5
16D
102
{ACAD_REACTORS
330
14D
102
}
330
14D
100
AcDbScale
 70
     0
300
6" = 1'-0"
140
6.0
141
12.0
290
     0
  0
SCALE
  5
16E
102
{ACAD_REACTORS
330
14D
102
}
330
14D
100
AcDbScale
 70
     0
300
1'-0" = 1'-0"
140
12.0
141
12.0
290
     0
  0
VISUALSTYLE
  5
177
102
{ACAD_REACTORS
330
172
102
}
102
{ACAD_XDICTIONARY
360
199
102
}
330
172
100
AcDbVisualStyle
  2
2dWireframe
 70
     4
177
     2
291
     0
 71
     0
176
     1
 72
     2
176
     1
 73
     0
176
     1
 90
        0
176
     1
 40
0.6
176
     1
 41
30.0
176
     1
 62
     5
 63
     7
421
 16777215
176
     1
 74
     1
176
     1
 91
        4
176
     1
 64
     7
176
     1
 65
   257
176
     1
 75
     1
176
     1
175
     1
176
     1
 42
1.0
176
     1
 92
        0
176
     1
 66
   257
176
     1
 43
1.0
176
     1
 76
     1
176
     1
 77
     6
176
     1
 78
     2
176
     1
 67
     7
176
     1
 79
     5
176
     1
170
     0
176
     1
171
     0
176
     1
290
     0
176
     1
 93
        1
176
     1
 44
0.0
176
     1
173
     0
176
     1
  0
VISUALSTYLE
  5
17A
102
{ACAD_REACTORS
330
172
102
}
102
{ACAD_XDICTIONARY
360
19F
102
}
330
172
100
AcDbVisualStyle
  2
Basic
 70
     7
177
     2
291
     1
 71
     1
176
     1
 72
     0
176
     1
 73
     1
176
     1
 90
        0
176
     1
 40
0.6
176
     1
 41
30.0
176
     1
 62
     5
 63
     7
421
 16777215
176
     1
 74
     0
176
     1
 91
        4
176
     1
 64
     7
176
     1
 65
   257
176
     1
 75
     1
176
     1
175
     1
176
     1
 42
1.0
176
     1
 92
        8
176
     1
 66
     7
176
     1
 43
1.0
176
     1
 76
     1
176
     1
 77
     6
176
     1
 78
     2
176
     1
 67
     7
176
     1
 79
     5
176
     1
170
     0
176
     1
171
     0
176
     1
290
     0
176
     1
 93
        1
176
     1
 44
0.0
176
     1
173
     0
176
     1
  0
VISUALSTYLE
  5
17E
102
{ACAD_REACTORS
330
172
102
}
102
{ACAD_XDICTIONARY
360
1A7
102
}
330
172
100
AcDbVisualStyle
  2
Brighten
 70
    12
177
     2
291
     1
 71
     2
176
     1
 72
     2
176
     1
 73
     0
176
     1
 90
        0
176
     1
 40
0.6
176
     1
 41
30.0
176
     1
 62
     5
 63
     7
421
 16777215
176
     1
 74
     1
176
     1
 91
        4
176
     1
 64
     7
176
     1
 65
   257
176
     1
 75
     1
176
     1
175
     1
176
     1
 42
1.0
176
     1
 92
        8
176
     1
 66
     7
176
     1
 43
1.0
176
     1
 76
     1
176
     1
 77
     6
176
     1
 78
     2
176
     1
 67
     7
176
     1
 79
     5
176
     1
170
     0
176
     1
171
     0
176
     1
290
     0
176
     1
 93
        1
176
     1
 44
50.0
176
     1
173
     0
176
     1
  0
VISUALSTYLE
  5
182
102
{ACAD_REACTORS
330
172
102
}
102
{ACAD_XDICTIONARY
360
1AF
102
}
330
172
100
AcDbVisualStyle
  2
ColorChange
 70
    16
177
     2
291
     1
 71
     2
176
     1
 72
     2
176
     1
 73
     3
176
     1
 90
        0
176
     1
 40
0.6
176
     1
 41
30.0
176
     1
 62
     5
 63
     8
421
  8421504
176
     1
 74
     1
176
     1
 91
        4
176
     1
 64
     7
176
     1
 65
   257
176
     1
 75
     1
176
     1
175
     1
176
     1
 42
1.0
176
     1
 92
        8
176
     1
 66
     8
424
  8421504
176
     1
 43
1.0
176
     1
 76
     1
176
     1
 77
     6
176
     1
 78
     2
176
     1
 67
     7
176
     1
 79
     5
176
     1
170
     0
176
     1
171
     0
176
     1
290
     0
176
     1
 93
        1
176
     1
 44
0.0
176
     1
173
     0
176
     1
  0
VISUALSTYLE
  5
17C
102
{ACAD_REACTORS
330
172
102
}
102
{ACAD_XDICTIONARY
360
1A3
102
}
330
172
100
AcDbVisualStyle
  2
Conceptual
 70
     9
177
     2
291
     0
 71
     3
176
     1
 72
     2
176
     1
 73
     0
176
     1
 90
        0
176
     1
 40
0.6
176
     1
 41
30.0
176
     1
 62
     5
 63
     7
421
 16777215
176
     1
 74
     2
176
     1
 91
        2
176
     1
 64
     7
176
     1
 65
   257
176
     1
 75
     1
176
     1
175
     1
176
     1
 42
179.0
176
     1
 92
        8
176
     1
 66
     7
176
     1
 43
1.0
176
     1
 76
     1
176
     1
 77
     6
176
     1
 78
     2
176
     1
 67
     7
176
     1
 79
     3
176
     1
170
     0
176
     1
171
     0
176
     1
290
     0
176
     1
 93
        1
176
     1
 44
0.0
176
     1
173
     0
176
     1
  0
VISUALSTYLE
  5
17D
102
{ACAD_REACTORS
330
172
102
}
102
{ACAD_XDICTIONARY
360
1A5
102
}
330
172
100
AcDbVisualStyle
  2
Dim
 70
    11
177
     2
291
     1
 71
     2
176
     1
 72
     2
176
     1
 73
     0
176
     1
 90
        0
176
     1
 40
0.6
176
     1
 41
30.0
176
     1
 62
     5
 63
     7
421
 16777215
176
     1
 74
     1
176
     1
 91
        4
176
     1
 64
     7
176
     1
 65
   257
176
     1
 75
     1
176
     1
175
     1
176
     1
 42
1.0
176
     1
 92
        8
176
     1
 66
     7
176
     1
 43
1.0
176
     1
 76
     1
176
     1
 77
     6
176
     1
 78
     2
176
     1
 67
     7
176
     1
 79
     5
176
     1
170
     0
176
     1
171
     0
176
     1
290
     0
176
     1
 93
        1
176
     1
 44
-50.0
176
     1
173
     0
176
     1
  0
VISUALSTYLE
  5
185
102
{ACAD_REACTORS
330
172
102
}
102
{ACAD_XDICTIONARY
360
1B5
102
}
330
172
100
AcDbVisualStyle
  2
EdgeColorOff
 70
    22
177
     2
291
     1
 71
     2
176
     0
 72
     2
176
     0
 73
     0
176
     0
 90
        0
176
     0
 40
0.6
176
     0
 41
30.0
176
     0
 62
     5
 63
     7
421
 16777215
176
     0
 74
     1
176
     0
 91
        4
176
     0
 64
     7
176
     0
 65
   257
176
     0
 75
     1
176
     0
175
     1
176
     0
 42
1.0
176
     0
 92
        8
176
     2
 66
     7
176
     0
 43
1.0
176
     0
 76
     1
176
     0
 77
     6
176
     0
 78
     2
176
     0
 67
     7
176
     0
 79
     5
176
     0
170
     0
176
     0
171
     0
176
     0
290
     0
176
     0
 93
        1
176
     0
 44
0.0
176
     0
173
     0
176
     0
  0
VISUALSTYLE
  5
181
102
{ACAD_REACTORS
330
172
102
}
102
{ACAD_XDICTIONARY
360
1AD
102
}
330
172
100
AcDbVisualStyle
  2
Facepattern
 70
    15
177
     2
291
     1
 71
     2
176
     1
 72
     2
176
     1
 73
     0
176
     1
 90
        0
176
     1
 40
0.6
176
     1
 41
30.0
176
     1
 62
     5
 63
     7
421
 16777215
176
     1
 74
     1
176
     1
 91
        4
176
     1
 64
     7
176
     1
 65
   257
176
     1
 75
     1
176
     1
175
     1
176
     1
 42
1.0
176
     1
 92
        8
176
     1
 66
     7
176
     1
 43
1.0
176
     1
 76
     1
176
     1
 77
     6
176
     1
 78
     2
176
     1
 67
     7
176
     1
 79
     5
176
     1
170
     0
176
     1
171
     0
176
     1
290
     0
176
     1
 93
        1
176
     1
 44
0.0
176
     1
173
     0
176
     1
  0
VISUALSTYLE
  5
173
102
{ACAD_REACTORS
330
172
102
}
102
{ACAD_XDICTIONARY
360
191
102
}
330
172
100
AcDbVisualStyle
  2
Flat
 70
     0
177
     2
291
     1
 71
     2
176
     1
 72
     1
176
     1
 73
     1
176
     1
 90
        2
176
     1
 40
0.6
176
     1
 41
30.0
176
     1
 62
     5
 63
     7
421
 16777215
176
     1
 74
     0
176
     1
 91
        0
176
     1
 64
     7
176
     1
 65
   257
176
     1
 75
     1
176
     1
175
     1
176
     1
 42
1.0
176
     1
 92
        8
176
     1
 66
     7
176
     1
 43
1.0
176
     1
 76
     1
176
     1
 77
     6
176
     1
 78
     2
176
     1
 67
     7
176
     1
 79
     5
176
     1
170
     0
176
     1
171
     0
176
     1
290
     0
176
     1
 93
       13
176
     1
 44
0.0
176
     1
173
     0
176
     1
  0
VISUALSTYLE
  5
174
102
{ACAD_REACTORS
330
172
102
}
102
{ACAD_XDICTIONARY
360
193
102
}
330
172
100
AcDbVisualStyle
  2
FlatWithEdges
 70
     1
177
     2
291
     1
 71
     2
176
     1
 72
     1
176
     1
 73
     1
176
     1
 90
        2
176
     1
 40
0.6
176
     1
 41
30.0
176
     1
 62
     5
 63
     7
421
 16777215
176
     1
 74
     1
176
     1
 91
        0
176
     1
 64
     7
176
     1
 65
   257
176
     1
 75
     1
176
     1
175
     1
176
     1
 42
1.0
176
     1
 92
        0
176
     1
 66
   257
176
     1
 43
1.0
176
     1
 76
     1
176
     1
 77
     6
176
     1
 78
     2
176
     1
 67
     7
176
     1
 79
     5
176
     1
170
     0
176
     1
171
     0
176
     1
290
     0
176
     1
 93
       13
176
     1
 44
0.0
176
     1
173
     0
176
     1
  0
VISUALSTYLE
  5
175
102
{ACAD_REACTORS
330
172
102
}
102
{ACAD_XDICTIONARY
360
195
102
}
330
172
100
AcDbVisualStyle
  2
Gouraud
 70
     2
177
     2
291
     1
 71
     2
176
     1
 72
     2
176
     1
 73
     1
176
     1
 90
        2
176
     1
 40
0.6
176
     1
 41
30.0
176
     1
 62
     5
 63
     7
421
 16777215
176
     1
 74
     0
176
     1
 91
        0
176
     1
 64
     7
176
     1
 65
   257
176
     1
 75
     1
176
     1
175
     1
176
     1
 42
1.0
176
     1
 92
        0
176
     1
 66
     7
176
     1
 43
1.0
176
     1
 76
     1
176
     1
 77
     6
176
     1
 78
     2
176
     1
 67
     7
176
     1
 79
     5
176
     1
170
     0
176
     1
171
     0
176
     1
290
     0
176
     1
 93
       13
176
     1
 44
0.0
176
     1
173
     0
176
     1
  0
VISUALSTYLE
  5
176
102
{ACAD_REACTORS
330
172
102
}
102
{ACAD_XDICTIONARY
360
197
102
}
330
172
100
AcDbVisualStyle
  2
GouraudWithEdges
 70
     3
177
     2
291
     1
 71
     2
176
     1
 72
     2
176
     1
 73
     1
176
     1
 90
        2
176
     1
 40
0.6
176
     1
 41
30.0
176
     1
 62
     5
 63
     7
421
 16777215
176
     1
 74
     1
176
     1
 91
        0
176
     1
 64
     7
176
     1
 65
   257
176
     1
 75
     1
176
     1
175
     1
176
     1
 42
1.0
176
     1
 92
        0
176
     1
 66
   257
176
     1
 43
1.0
176
     1
 76
     1
176
     1
 77
     6
176
     1
 78
     2
176
     1
 67
     7
176
     1
 79
     5
176
     1
170
     0
176
     1
171
     0
176
     1
290
     0
176
     1
 93
       13
176
     1
 44
0.0
176
     1
173
     0
176
     1
  0
VISUALSTYLE
  5
179
102
{ACAD_REACTORS
330
172
102
}
102
{ACAD_XDICTIONARY
360
19D
102
}
330
172
100
AcDbVisualStyle
  2
Hidden
 70
     6
177
     2
291
     0
 71
     1
176
     1
 72
     2
176
     1
 73
     2
176
     1
 90
        0
176
     1
 40
0.6
176
     1
 41
30.0
176
     1
 62
     5
 63
     7
421
 16777215
176
     1
 74
     2
176
     1
 91
        2
176
     1
 64
     7
176
     1
 65
   257
176
     1
 75
     2
176
     1
175
     1
176
     1
 42
40.0
176
     1
 92
        0
176
     1
 66
   257
176
     1
 43
1.0
176
     1
 76
     1
176
     1
 77
     6
176
     1
 78
     2
176
     1
 67
     7
176
     1
 79
     3
176
     1
170
     0
176
     1
171
     0
176
     1
290
     0
176
     1
 93
        1
176
     1
 44
0.0
176
     1
173
     0
176
     1
  0
VISUALSTYLE
  5
183
102
{ACAD_REACTORS
330
172
102
}
102
{ACAD_XDICTIONARY
360
1B1
102
}
330
172
100
AcDbVisualStyle
  2
JitterOff
 70
    20
177
     2
291
     1
 71
     2
176
     0
 72
     2
176
     0
 73
     0
176
     0
 90
        0
176
     0
 40
0.6
176
     0
 41
30.0
176
     0
 62
     5
 63
     7
421
 16777215
176
     0
 74
     1
176
     0
 91
        4
176
     0
 64
     7
176
     0
 65
   257
176
     0
 75
     1
176
     0
175
     1
176
     0
 42
1.0
176
     0
 92
       10
176
     2
 66
     7
176
     0
 43
1.0
176
     0
 76
     1
176
     0
 77
     6
176
     0
 78
     2
176
     0
 67
     7
176
     0
 79
     5
176
     0
170
     0
176
     0
171
     0
176
     0
290
     0
176
     0
 93
        1
176
     0
 44
0.0
176
     0
173
     0
176
     0
  0
VISUALSTYLE
  5
180
102
{ACAD_REACTORS
330
172
102
}
102
{ACAD_XDICTIONARY
360
1AB
102
}
330
172
100
AcDbVisualStyle
  2
Linepattern
 70
    14
177
     2
291
     1
 71
     2
176
     1
 72
     2
176
     1
 73
     0
176
     1
 90
        0
176
     1
 40
0.6
176
     1
 41
30.0
176
     1
 62
     5
 63
     7
421
 16777215
176
     1
 74
     1
176
     1
 91
        4
176
     1
 64
     7
176
     1
 65
   257
176
     1
 75
     7
176
     1
175
     7
176
     1
 42
1.0
176
     1
 92
        8
176
     1
 66
     7
176
     1
 43
1.0
176
     1
 76
     1
176
     1
 77
     6
176
     1
 78
     2
176
     1
 67
     7
176
     1
 79
     5
176
     1
170
     0
176
     1
171
     0
176
     1
290
     0
176
     1
 93
        1
176
     1
 44
0.0
176
     1
173
     0
176
     1
  0
VISUALSTYLE
  5
184
102
{ACAD_REACTORS
330
172
102
}
102
{ACAD_XDICTIONARY
360
1B3
102
}
330
172
100
AcDbVisualStyle
  2
OverhangOff
 70
    21
177
     2
291
     1
 71
     2
176
     0
 72
     2
176
     0
 73
     0
176
     0
 90
        0
176
     0
 40
0.6
176
     0
 41
30.0
176
     0
 62
     5
 63
     7
421
 16777215
176
     0
 74
     1
176
     0
 91
        4
176
     0
 64
     7
176
     0
 65
   257
176
     0
 75
     1
176
     0
175
     1
176
     0
 42
1.0
176
     0
 92
        9
176
     2
 66
     7
176
     0
 43
1.0
176
     0
 76
     1
176
     0
 77
     6
176
     0
 78
     2
176
     0
 67
     7
176
     0
 79
     5
176
     0
170
     0
176
     0
171
     0
176
     0
290
     0
176
     0
 93
        1
176
     0
 44
0.0
176
     0
173
     0
176
     0
  0
VISUALSTYLE
  5
17B
102
{ACAD_REACTORS
330
172
102
}
102
{ACAD_XDICTIONARY
360
1A1
102
}
330
172
100
AcDbVisualStyle
  2
Realistic
 70
     8
177
     2
291
     0
 71
     2
176
     1
 72
     3
176
     1
 73
     0
176
     1
 90
        2
176
     1
 40
0.6
176
     1
 41
30.0
176
     1
 62
     5
 63
     7
421
 16777215
176
     1
 74
     0
176
     1
 91
        0
176
     1
 64
     7
176
     1
 65
   257
176
     1
 75
     1
176
     1
175
     1
176
     1
 42
1.0
176
     1
 92
        8
176
     1
 66
   257
176
     1
 43
1.0
176
     1
 76
     1
176
     1
 77
     6
176
     1
 78
     2
176
     1
 67
     7
176
     1
 79
     3
176
     1
170
     0
176
     1
171
     0
176
     1
290
     0
176
     1
 93
       13
176
     1
 44
0.0
176
     1
173
     0
176
     1
  0
VISUALSTYLE
  5
18A
102
{ACAD_REACTORS
330
172
102
}
102
{ACAD_XDICTIONARY
360
1BF
102
}
330
172
100
AcDbVisualStyle
  2
Shaded
 70
    27
177
     2
291
     0
 71
     2
176
     1
 72
     2
176
     1
 73
     1
176
     1
 90
        2
176
     1
 40
0.6
176
     1
 41
30.0
176
     1
 62
     5
 63
     7
421
 16777215
176
     1
 74
     0
176
     1
 91
        4
176
     1
 64
     7
176
     1
 65
   257
176
     1
 75
     1
176
     1
175
     1
176
     1
 42
1.0
176
     1
 92
        8
176
     1
 66
   257
176
     1
 43
1.0
176
     1
 76
     1
176
     1
 77
     6
176
     1
 78
     2
176
     1
 67
     8
425
  7895160
176
     1
 79
     3
176
     1
170
     0
176
     1
171
     0
176
     1
290
     0
176
     1
 93
        5
176
     1
 44
0.0
176
     1
173
     0
176
     1
  0
VISUALSTYLE
  5
189
102
{ACAD_REACTORS
330
172
102
}
102
{ACAD_XDICTIONARY
360
1BD
102
}
330
172
100
AcDbVisualStyle
  2
Shaded with edges
 70
    26
177
     2
291
     0
 71
     2
176
     1
 72
     2
176
     1
 73
     1
176
     1
 90
        2
176
     1
 40
0.6
176
     1
 41
30.0
176
     1
 62
     5
 63
     7
421
 16777215
176
     1
 74
     1
176
     1
 91
       10
176
     1
 64
     7
176
     1
 65
   257
176
     1
 75
     2
176
     1
175
     1
176
     1
 42
1.0
176
     1
 92
        8
176
     1
 66
   257
176
     1
 43
1.0
176
     1
 76
     1
176
     1
 77
     6
176
     1
 78
     2
176
     1
 67
     7
176
     1
 79
     3
176
     1
170
     0
176
     1
171
     0
176
     1
290
     0
176
     1
 93
        5
176
     1
 44
0.0
176
     1
173
     0
176
     1
  0
VISUALSTYLE
  5
186
102
{ACAD_REACTORS
330
172
102
}
102
{ACAD_XDICTIONARY
360
1B7
102
}
330
172
100
AcDbVisualStyle
  2
Shades of Gray
 70
    23
177
     2
291
     0
 71
     2
176
     1
 72
     2
176
     1
 73
     3
176
     1
 90
        0
176
     1
 40
0.6
176
     1
 41
30.0
176
     1
 62
     5
 63
     7
421
 16777215
176
     1
 74
     2
176
     1
 91
        2
176
     1
 64
     7
176
     1
 65
     7
176
     1
 75
     1
176
     1
175
     1
176
     1
 42
40.0
176
     1
 92
        8
176
     1
 66
     7
176
     1
 43
1.0
176
     1
 76
     1
176
     1
 77
     6
176
     1
 78
     2
176
     1
 67
     7
176
     1
 79
     3
176
     1
170
     0
176
     1
171
     0
176
     1
290
     0
176
     1
 93
        1
176
     1
 44
0.0
176
     1
173
     0
176
     1
  0
VISUALSTYLE
  5
187
102
{ACAD_REACTORS
330
172
102
}
102
{ACAD_XDICTIONARY
360
1B9
102
}
330
172
100
AcDbVisualStyle
  2
Sketchy
 70
    24
177
     2
291
     0
 71
     1
176
     1
 72
     2
176
     1
 73
     2
176
     1
 90
        0
176
     1
 40
0.6
176
     1
 41
30.0
176
     1
 62
     5
 63
     7
421
 16777215
176
     1
 74
     2
176
     1
 91
        2
176
     1
 64
     7
176
     1
 65
     7
176
     1
 75
     1
176
     1
175
     1
176
     1
 42
40.0
176
     1
 92
       11
176
     1
 66
     7
176
     1
 43
1.0
176
     1
 76
     1
176
     1
 77
     6
176
     1
 78
     2
176
     1
 67
     7
176
     1
 79
     6
176
     1
170
     0
176
     1
171
     0
176
     1
290
     0
176
     1
 93
        1
176
     1
 44
0.0
176
     1
173
     0
176
     1
  0
VISUALSTYLE
  5
17F
102
{ACAD_REACTORS
330
172
102
}
102
{ACAD_XDICTIONARY
360
1A9
102
}
330
172
100
AcDbVisualStyle
  2
Thicken
 70
    13
177
     2
291
     1
 71
     2
176
     1
 72
     2
176
     1
 73
     0
176
     1
 90
        0
176
     1
 40
0.6
176
     1
 41
30.0
176
     1
 62
     5
 63
     7
421
 16777215
176
     1
 74
     1
176
     1
 91
        4
176
     1
 64
     7
176
     1
 65
   257
176
     1
 75
     1
176
     1
175
     1
176
     1
 42
1.0
176
     1
 92
       12
176
     1
 66
     7
176
     1
 43
1.0
176
     1
 76
     1
176
     1
 77
     6
176
     1
 78
     2
176
     1
 67
     7
176
     1
 79
     5
176
     1
170
     0
176
     1
171
     0
176
     1
290
     0
176
     1
 93
        1
176
     1
 44
0.0
176
     1
173
     0
176
     1
  0
VISUALSTYLE
  5
178
102
{ACAD_REACTORS
330
172
102
}
102
{ACAD_XDICTIONARY
360
19B
102
}
330
172
100
AcDbVisualStyle
  2
Wireframe
 70
     5
177
     2
291
     0
 71
     0
176
     1
 72
     2
176
     1
 73
     0
176
     1
 90
        0
176
     1
 40
0.6
176
     1
 41
30.0
176
     1
 62
     5
 63
     7
421
 16777215
176
     1
 74
     1
176
     1
 91
        4
176
     1
 64
     7
176
     1
 65
   257
176
     1
 75
     1
176
     1
175
     1
176
     1
 42
1.0
176
     1
 92
        0
176
     1
 66
   257
176
     1
 43
1.0
176
     1
 76
     1
176
     1
 77
     6
176
     1
 78
     2
176
     1
 67
     7
176
     1
 79
     3
176
     1
170
     0
176
     1
171
     0
176
     1
290
     0
176
     1
 93
        1
176
     1
 44
0.0
176
     1
173
     0
176
     1
  0
VISUALSTYLE
  5
188
102
{ACAD_REACTORS
330
172
102
}
102
{ACAD_XDICTIONARY
360
1BB
102
}
330
172
100
AcDbVisualStyle
  2
X-Ray
 70
    25
177
     2
291
     0
 71
     2
176
     1
 72
     2
176
     1
 73
     1
176
     1
 90
        1
176
     1
 40
0.5
176
     1
 41
30.0
176
     1
 62
     5
 63
     7
421
 16777215
176
     1
 74
     1
176
     1
 91
        0
176
     1
 64
     7
176
     1
 65
   257
176
     1
 75
     1
176
     1
175
     1
176
     1
 42
1.0
176
     1
 92
        8
176
     1
 66
     7
176
     1
 43
1.0
176
     1
 76
     1
176
     1
 77
     6
176
     1
 78
     2
176
     1
 67
     7
176
     1
 79
     3
176
     1
170
     0
176
     1
171
     0
176
     1
290
     0
176
     1
 93
       13
176
     1
 44
0.0
176
     1
173
     0
176
     1
  0
DICTIONARYVAR
  5
190
102
{ACAD_REACTORS
330
18F
102
}
330
18F
100
DictionaryVariables
280
     0
  1
1:1
  0
DICTIONARYVAR
  5
1C3
102
{ACAD_REACTORS
330
18F
102
}
330
18F
100
DictionaryVariables
280
     0
  1
0
  0
DICTIONARY
  5
199
330
177
100
AcDbDictionary
280
     1
281
     1
  3
ACAD_XREC_ROUNDTRIP
360
19A
  0
DICTIONARY
  5
19F
330
17A
100
AcDbDictionary
280
     1
281
     1
  3
ACAD_XREC_ROUNDTRIP
360
1A0
  0
DICTIONARY
  5
1A7
330
17E
100
AcDbDictionary
280
     1
281
     1
  3
ACAD_XREC_ROUNDTRIP
360
1A8
  0
DICTIONARY
  5
1AF
330
182
100
AcDbDictionary
280
     1
281
     1
  3
ACAD_XREC_ROUNDTRIP
360
1B0
  0
DICTIONARY
  5
1A3
330
17C
100
AcDbDictionary
280
     1
281
     1
  3
ACAD_XREC_ROUNDTRIP
360
1A4
  0
DICTIONARY
  5
1A5
330
17D
100
AcDbDictionary
280
     1
281
     1
  3
ACAD_XREC_ROUNDTRIP
360
1A6
  0
DICTIONARY
  5
1B5
330
185
100
AcDbDictionary
280
     1
281
     1
  3
ACAD_XREC_ROUNDTRIP
360
1B6
  0
DICTIONARY
  5
1AD
330
181
100
AcDbDictionary
280
     1
281
     1
  3
ACAD_XREC_ROUNDTRIP
360
1AE
  0
DICTIONARY
  5
191
330
173
100
AcDbDictionary
280
     1
281
     1
  3
ACAD_XREC_ROUNDTRIP
360
192
  0
DICTIONARY
  5
193
330
174
100
AcDbDictionary
280
     1
281
     1
  3
ACAD_XREC_ROUNDTRIP
360
194
  0
DICTIONARY
  5
195
330
175
100
AcDbDictionary
280
     1
281
     1
  3
ACAD_XREC_ROUNDTRIP
360
196
  0
DICTIONARY
  5
197
330
176
100
AcDbDictionary
280
     1
281
     1
  3
ACAD_XREC_ROUNDTRIP
360
198
  0
DICTIONARY
  5
19D
330
179
100
AcDbDictionary
280
     1
281
     1
  3
ACAD_XREC_ROUNDTRIP
360
19E
  0
DICTIONARY
  5
1B1
330
183
100
AcDbDictionary
280
     1
281
     1
  3
ACAD_XREC_ROUNDTRIP
360
1B2
  0
DICTIONARY
  5
1AB
330
180
100
AcDbDictionary
280
     1
281
     1
  3
ACAD_XREC_ROUNDTRIP
360
1AC
  0
DICTIONARY
  5
1B3
330
184
100
AcDbDictionary
280
     1
281
     1
  3
ACAD_XREC_ROUNDTRIP
360
1B4
  0
DICTIONARY
  5
1A1
330
17B
100
AcDbDictionary
280
     1
281
     1
  3
ACAD_XREC_ROUNDTRIP
360
1A2
  0
DICTIONARY
  5
1BF
330
18A
100
AcDbDictionary
280
     1
281
     1
  3
ACAD_XREC_ROUNDTRIP
360
1C0
  0
DICTIONARY
  5
1BD
330
189
100
AcDbDictionary
280
     1
281
     1
  3
ACAD_XREC_ROUNDTRIP
360
1BE
  0
DICTIONARY
  5
1B7
330
186
100
AcDbDictionary
280
     1
281
     1
  3
ACAD_XREC_ROUNDTRIP
360
1B8
  0
DICTIONARY
  5
1B9
330
187
100
AcDbDictionary
280
     1
281
     1
  3
ACAD_XREC_ROUNDTRIP
360
1BA
  0
DICTIONARY
  5
1A9
330
17F
100
AcDbDictionary
280
     1
281
     1
  3
ACAD_XREC_ROUNDTRIP
360
1AA
  0
DICTIONARY
  5
19B
330
178
100
AcDbDictionary
280
     1
281
     1
  3
ACAD_XREC_ROUNDTRIP
360
19C
  0
DICTIONARY
  5
1BB
330
188
100
AcDbDictionary
280
     1
281
     1
  3
ACAD_XREC_ROUNDTRIP
360
1BC
  0
XRECORD
  5
19A
102
{ACAD_REACTORS
330
199
102
}
330
199
100
AcDbXrecord
280
     1
102
RTVSPost2010Prop28
280
     1
102
RTVSPost2010PropOp28
 70
     1
102
RTVSPost2010Prop29
280
     1
102
RTVSPost2010PropOp29
 70
     1
102
RTVSPost2010Prop30
280
     0
102
RTVSPost2010PropOp30
 70
     1
102
RTVSPost2010Prop31
280
     0
102
RTVSPost2010PropOp31
 70
     1
102
RTVSPost2010Prop32
280
     0
102
RTVSPost2010PropOp32
 70
     1
102
RTVSPost2010Prop33
280
     0
102
RTVSPost2010PropOp33
 70
     1
102
RTVSPost2010Prop34
280
     0
102
RTVSPost2010PropOp34
 70
     1
102
RTVSPost2010Prop35
280
     0
102
RTVSPost2010PropOp35
 70
     1
102
RTVSPost2010Prop36
280
     0
102
RTVSPost2010PropOp36
 70
     1
102
RTVSPost2010Prop37
 90
       50
102
RTVSPost2010PropOp37
 70
     1
102
RTVSPost2010Prop38
140
0.0
102
RTVSPost2010PropOp38
 70
     1
102
RTVSPost2010Prop39
140
1.0
102
RTVSPost2010PropOp39
 70
     1
102
RTVSPost2010Prop40
 90
        0
102
RTVSPost2010PropOp40
 70
     1
102
RTVSPost2010Prop41ColorIndex
 90
       18
102
RTVSPost2010Prop41ColorRGB
 90
        0
102
RTVSPost2010PropOp41
 70
     1
102
RTVSPost2010Prop42
 90
       50
102
RTVSPost2010PropOp42
 70
     1
102
RTVSPost2010Prop43
 90
        3
102
RTVSPost2010PropOp43
 70
     1
102
RTVSPost2010Prop44ColorIndex
 90
        5
102
RTVSPost2010Prop44ColorRGB
 90
      255
102
RTVSPost2010PropOp44
 70
     1
102
RTVSPost2010Prop45
280
     0
102
RTVSPost2010PropOp45
 70
     1
102
RTVSPost2010Prop46
 90
       50
102
RTVSPost2010PropOp46
 70
     1
102
RTVSPost2010Prop47
 90
       50
102
RTVSPost2010PropOp47
 70
     1
102
RTVSPost2010Prop48
 90
       50
102
RTVSPost2010PropOp48
 70
     1
102
RTVSPost2010Prop49
280
     0
102
RTVSPost2010PropOp49
 70
     1
102
RTVSPost2010Prop50
 90
       50
102
RTVSPost2010PropOp50
 70
     1
102
RTVSPost2010Prop51ColorIndex
 90
      256
102
RTVSPost2010Prop51ColorRGB
 90
-16777216
102
RTVSPost2010PropOp51
 70
     0
102
RTVSPost2010Prop52
140
1.0
102
RTVSPost2010PropOp52
 70
     0
102
RTVSPost2010Prop53
 90
        2
102
RTVSPost2010PropOp53
 70
     1
102
RTVSPost2010Prop54
  1
strokes_ogs.tif
102
RTVSPost2010PropOp54
 70
     1
102
RTVSPost2010Prop55
280
     0
102
RTVSPost2010PropOp55
 70
     1
102
RTVSPost2010Prop56
140
1.0
102
RTVSPost2010PropOp56
 70
     1
102
RTVSPost2010Prop57
140
1.0
102
RTVSPost2010PropOp57
 70
     1
  0
XRECORD
  5
1A0
102
{ACAD_REACTORS
330
19F
102
}
330
19F
100
AcDbXrecord
280
     1
102
RTVSPost2010Prop28
280
     0
102
RTVSPost2010PropOp28
 70
     1
102
RTVSPost2010Prop29
280
     1
102
RTVSPost2010PropOp29
 70
     1
102
RTVSPost2010Prop30
280
     1
102
RTVSPost2010PropOp30
 70
     1
102
RTVSPost2010Prop31
280
     0
102
RTVSPost2010PropOp31
 70
     1
102
RTVSPost2010Prop32
280
     0
102
RTVSPost2010PropOp32
 70
     1
102
RTVSPost2010Prop33
280
     0
102
RTVSPost2010PropOp33
 70
     1
102
RTVSPost2010Prop34
280
     0
102
RTVSPost2010PropOp34
 70
     1
102
RTVSPost2010Prop35
280
     0
102
RTVSPost2010PropOp35
 70
     1
102
RTVSPost2010Prop36
280
     0
102
RTVSPost2010PropOp36
 70
     1
102
RTVSPost2010Prop37
 90
       50
102
RTVSPost2010PropOp37
 70
     1
102
RTVSPost2010Prop38
140
0.0
102
RTVSPost2010PropOp38
 70
     1
102
RTVSPost2010Prop39
140
1.0
102
RTVSPost2010PropOp39
 70
     1
102
RTVSPost2010Prop40
 90
        0
102
RTVSPost2010PropOp40
 70
     1
102
RTVSPost2010Prop41ColorIndex
 90
       18
102
RTVSPost2010Prop41ColorRGB
 90
        0
102
RTVSPost2010PropOp41
 70
     1
102
RTVSPost2010Prop42
 90
       50
102
RTVSPost2010PropOp42
 70
     1
102
RTVSPost2010Prop43
 90
        3
102
RTVSPost2010PropOp43
 70
     1
102
RTVSPost2010Prop44ColorIndex
 90
        5
102
RTVSPost2010Prop44ColorRGB
 90
      255
102
RTVSPost2010PropOp44
 70
     1
102
RTVSPost2010Prop45
280
     0
102
RTVSPost2010PropOp45
 70
     1
102
RTVSPost2010Prop46
 90
       50
102
RTVSPost2010PropOp46
 70
     1
102
RTVSPost2010Prop47
 90
       50
102
RTVSPost2010PropOp47
 70
     1
102
RTVSPost2010Prop48
 90
       50
102
RTVSPost2010PropOp48
 70
     1
102
RTVSPost2010Prop49
280
     0
102
RTVSPost2010PropOp49
 70
     1
102
RTVSPost2010Prop50
 90
       50
102
RTVSPost2010PropOp50
 70
     1
102
RTVSPost2010Prop51ColorIndex
 90
      256
102
RTVSPost2010Prop51ColorRGB
 90
-16777216
102
RTVSPost2010PropOp51
 70
     0
102
RTVSPost2010Prop52
140
1.0
102
RTVSPost2010PropOp52
 70
     0
102
RTVSPost2010Prop53
 90
        2
102
RTVSPost2010PropOp53
 70
     1
102
RTVSPost2010Prop54
  1
strokes_ogs.tif
102
RTVSPost2010PropOp54
 70
     1
102
RTVSPost2010Prop55
280
     0
102
RTVSPost2010PropOp55
 70
     1
102
RTVSPost2010Prop56
140
1.0
102
RTVSPost2010PropOp56
 70
     1
102
RTVSPost2010Prop57
140
1.0
102
RTVSPost2010PropOp57
 70
     1
  0
XRECORD
  5
1A8
102
{ACAD_REACTORS
330
1A7
102
}
330
1A7
100
AcDbXrecord
280
     1
102
RTVSPost2010Prop28
280
     0
102
RTVSPost2010PropOp28
 70
     1
102
RTVSPost2010Prop29
280
     1
102
RTVSPost2010PropOp29
 70
     1
102
RTVSPost2010Prop30
280
     1
102
RTVSPost2010PropOp30
 70
     1
102
RTVSPost2010Prop31
280
     0
102
RTVSPost2010PropOp31
 70
     1
102
RTVSPost2010Prop32
280
     0
102
RTVSPost2010PropOp32
 70
     1
102
RTVSPost2010Prop33
280
     0
102
RTVSPost2010PropOp33
 70
     1
102
RTVSPost2010Prop34
280
     0
102
RTVSPost2010PropOp34
 70
     1
102
RTVSPost2010Prop35
280
     0
102
RTVSPost2010PropOp35
 70
     1
102
RTVSPost2010Prop36
280
     0
102
RTVSPost2010PropOp36
 70
     1
102
RTVSPost2010Prop37
 90
       50
102
RTVSPost2010PropOp37
 70
     1
102
RTVSPost2010Prop38
140
0.0
102
RTVSPost2010PropOp38
 70
     1
102
RTVSPost2010Prop39
140
1.0
102
RTVSPost2010PropOp39
 70
     1
102
RTVSPost2010Prop40
 90
        0
102
RTVSPost2010PropOp40
 70
     1
102
RTVSPost2010Prop41ColorIndex
 90
       18
102
RTVSPost2010Prop41ColorRGB
 90
        0
102
RTVSPost2010PropOp41
 70
     1
102
RTVSPost2010Prop42
 90
       50
102
RTVSPost2010PropOp42
 70
     1
102
RTVSPost2010Prop43
 90
        3
102
RTVSPost2010PropOp43
 70
     1
102
RTVSPost2010Prop44ColorIndex
 90
        5
102
RTVSPost2010Prop44ColorRGB
 90
      255
102
RTVSPost2010PropOp44
 70
     1
102
RTVSPost2010Prop45
280
     0
102
RTVSPost2010PropOp45
 70
     1
102
RTVSPost2010Prop46
 90
       50
102
RTVSPost2010PropOp46
 70
     1
102
RTVSPost2010Prop47
 90
       50
102
RTVSPost2010PropOp47
 70
     1
102
RTVSPost2010Prop48
 90
       50
102
RTVSPost2010PropOp48
 70
     1
102
RTVSPost2010Prop49
280
     0
102
RTVSPost2010PropOp49
 70
     1
102
RTVSPost2010Prop50
 90
       50
102
RTVSPost2010PropOp50
 70
     1
102
RTVSPost2010Prop51ColorIndex
 90
      256
102
RTVSPost2010Prop51ColorRGB
 90
-16777216
102
RTVSPost2010PropOp51
 70
     0
102
RTVSPost2010Prop52
140
1.0
102
RTVSPost2010PropOp52
 70
     0
102
RTVSPost2010Prop53
 90
        2
102
RTVSPost2010PropOp53
 70
     1
102
RTVSPost2010Prop54
  1
strokes_ogs.tif
102
RTVSPost2010PropOp54
 70
     1
102
RTVSPost2010Prop55
280
     0
102
RTVSPost2010PropOp55
 70
     1
102
RTVSPost2010Prop56
140
1.0
102
RTVSPost2010PropOp56
 70
     1
102
RTVSPost2010Prop57
140
1.0
102
RTVSPost2010PropOp57
 70
     1
  0
XRECORD
  5
1B0
102
{ACAD_REACTORS
330
1AF
102
}
330
1AF
100
AcDbXrecord
280
     1
102
RTVSPost2010Prop28
280
     0
102
RTVSPost2010PropOp28
 70
     1
102
RTVSPost2010Prop29
280
     1
102
RTVSPost2010PropOp29
 70
     1
102
RTVSPost2010Prop30
280
     1
102
RTVSPost2010PropOp30
 70
     1
102
RTVSPost2010Prop31
280
     0
102
RTVSPost2010PropOp31
 70
     1
102
RTVSPost2010Prop32
280
     0
102
RTVSPost2010PropOp32
 70
     1
102
RTVSPost2010Prop33
280
     0
102
RTVSPost2010PropOp33
 70
     1
102
RTVSPost2010Prop34
280
     0
102
RTVSPost2010PropOp34
 70
     1
102
RTVSPost2010Prop35
280
     0
102
RTVSPost2010PropOp35
 70
     1
102
RTVSPost2010Prop36
280
     0
102
RTVSPost2010PropOp36
 70
     1
102
RTVSPost2010Prop37
 90
       50
102
RTVSPost2010PropOp37
 70
     1
102
RTVSPost2010Prop38
140
0.0
102
RTVSPost2010PropOp38
 70
     1
102
RTVSPost2010Prop39
140
1.0
102
RTVSPost2010PropOp39
 70
     1
102
RTVSPost2010Prop40
 90
        0
102
RTVSPost2010PropOp40
 70
     1
102
RTVSPost2010Prop41ColorIndex
 90
       18
102
RTVSPost2010Prop41ColorRGB
 90
        0
102
RTVSPost2010PropOp41
 70
     1
102
RTVSPost2010Prop42
 90
       50
102
RTVSPost2010PropOp42
 70
     1
102
RTVSPost2010Prop43
 90
        3
102
RTVSPost2010PropOp43
 70
     1
102
RTVSPost2010Prop44ColorIndex
 90
        5
102
RTVSPost2010Prop44ColorRGB
 90
      255
102
RTVSPost2010PropOp44
 70
     1
102
RTVSPost2010Prop45
280
     0
102
RTVSPost2010PropOp45
 70
     1
102
RTVSPost2010Prop46
 90
       50
102
RTVSPost2010PropOp46
 70
     1
102
RTVSPost2010Prop47
 90
       50
102
RTVSPost2010PropOp47
 70
     1
102
RTVSPost2010Prop48
 90
       50
102
RTVSPost2010PropOp48
 70
     1
102
RTVSPost2010Prop49
280
     0
102
RTVSPost2010PropOp49
 70
     1
102
RTVSPost2010Prop50
 90
       50
102
RTVSPost2010PropOp50
 70
     1
102
RTVSPost2010Prop51ColorIndex
 90
      256
102
RTVSPost2010Prop51ColorRGB
 90
-16777216
102
RTVSPost2010PropOp51
 70
     0
102
RTVSPost2010Prop52
140
1.0
102
RTVSPost2010PropOp52
 70
     0
102
RTVSPost2010Prop53
 90
        2
102
RTVSPost2010PropOp53
 70
     1
102
RTVSPost2010Prop54
  1
strokes_ogs.tif
102
RTVSPost2010PropOp54
 70
     1
102
RTVSPost2010Prop55
280
     0
102
RTVSPost2010PropOp55
 70
     1
102
RTVSPost2010Prop56
140
1.0
102
RTVSPost2010PropOp56
 70
     1
102
RTVSPost2010Prop57
140
1.0
102
RTVSPost2010PropOp57
 70
     1
  0
XRECORD
  5
1A4
102
{ACAD_REACTORS
330
1A3
102
}
330
1A3
100
AcDbXrecord
280
     1
102
RTVSPost2010Prop28
280
     0
102
RTVSPost2010PropOp28
 70
     1
102
RTVSPost2010Prop29
280
     1
102
RTVSPost2010PropOp29
 70
     1
102
RTVSPost2010Prop30
280
     1
102
RTVSPost2010PropOp30
 70
     1
102
RTVSPost2010Prop31
280
     0
102
RTVSPost2010PropOp31
 70
     1
102
RTVSPost2010Prop32
280
     0
102
RTVSPost2010PropOp32
 70
     1
102
RTVSPost2010Prop33
280
     0
102
RTVSPost2010PropOp33
 70
     1
102
RTVSPost2010Prop34
280
     0
102
RTVSPost2010PropOp34
 70
     1
102
RTVSPost2010Prop35
280
     0
102
RTVSPost2010PropOp35
 70
     1
102
RTVSPost2010Prop36
280
     0
102
RTVSPost2010PropOp36
 70
     1
102
RTVSPost2010Prop37
 90
       50
102
RTVSPost2010PropOp37
 70
     1
102
RTVSPost2010Prop38
140
0.0
102
RTVSPost2010PropOp38
 70
     1
102
RTVSPost2010Prop39
140
1.0
102
RTVSPost2010PropOp39
 70
     1
102
RTVSPost2010Prop40
 90
        0
102
RTVSPost2010PropOp40
 70
     1
102
RTVSPost2010Prop41ColorIndex
 90
       18
102
RTVSPost2010Prop41ColorRGB
 90
        0
102
RTVSPost2010PropOp41
 70
     1
102
RTVSPost2010Prop42
 90
       50
102
RTVSPost2010PropOp42
 70
     1
102
RTVSPost2010Prop43
 90
        3
102
RTVSPost2010PropOp43
 70
     1
102
RTVSPost2010Prop44ColorIndex
 90
        5
102
RTVSPost2010Prop44ColorRGB
 90
      255
102
RTVSPost2010PropOp44
 70
     1
102
RTVSPost2010Prop45
280
     0
102
RTVSPost2010PropOp45
 70
     1
102
RTVSPost2010Prop46
 90
       50
102
RTVSPost2010PropOp46
 70
     1
102
RTVSPost2010Prop47
 90
       50
102
RTVSPost2010PropOp47
 70
     1
102
RTVSPost2010Prop48
 90
       50
102
RTVSPost2010PropOp48
 70
     1
102
RTVSPost2010Prop49
280
     0
102
RTVSPost2010PropOp49
 70
     1
102
RTVSPost2010Prop50
 90
       50
102
RTVSPost2010PropOp50
 70
     1
102
RTVSPost2010Prop51ColorIndex
 90
      256
102
RTVSPost2010Prop51ColorRGB
 90
-16777216
102
RTVSPost2010PropOp51
 70
     0
102
RTVSPost2010Prop52
140
1.0
102
RTVSPost2010PropOp52
 70
     0
102
RTVSPost2010Prop53
 90
        2
102
RTVSPost2010PropOp53
 70
     1
102
RTVSPost2010Prop54
  1
strokes_ogs.tif
102
RTVSPost2010PropOp54
 70
     1
102
RTVSPost2010Prop55
280
     0
102
RTVSPost2010PropOp55
 70
     1
102
RTVSPost2010Prop56
140
1.0
102
RTVSPost2010PropOp56
 70
     1
102
RTVSPost2010Prop57
140
1.0
102
RTVSPost2010PropOp57
 70
     1
  0
XRECORD
  5
1A6
102
{ACAD_REACTORS
330
1A5
102
}
330
1A5
100
AcDbXrecord
280
     1
102
RTVSPost2010Prop28
280
     0
102
RTVSPost2010PropOp28
 70
     1
102
RTVSPost2010Prop29
280
     1
102
RTVSPost2010PropOp29
 70
     1
102
RTVSPost2010Prop30
280
     1
102
RTVSPost2010PropOp30
 70
     1
102
RTVSPost2010Prop31
280
     0
102
RTVSPost2010PropOp31
 70
     1
102
RTVSPost2010Prop32
280
     0
102
RTVSPost2010PropOp32
 70
     1
102
RTVSPost2010Prop33
280
     0
102
RTVSPost2010PropOp33
 70
     1
102
RTVSPost2010Prop34
280
     0
102
RTVSPost2010PropOp34
 70
     1
102
RTVSPost2010Prop35
280
     0
102
RTVSPost2010PropOp35
 70
     1
102
RTVSPost2010Prop36
280
     0
102
RTVSPost2010PropOp36
 70
     1
102
RTVSPost2010Prop37
 90
       50
102
RTVSPost2010PropOp37
 70
     1
102
RTVSPost2010Prop38
140
0.0
102
RTVSPost2010PropOp38
 70
     1
102
RTVSPost2010Prop39
140
1.0
102
RTVSPost2010PropOp39
 70
     1
102
RTVSPost2010Prop40
 90
        0
102
RTVSPost2010PropOp40
 70
     1
102
RTVSPost2010Prop41ColorIndex
 90
       18
102
RTVSPost2010Prop41ColorRGB
 90
        0
102
RTVSPost2010PropOp41
 70
     1
102
RTVSPost2010Prop42
 90
       50
102
RTVSPost2010PropOp42
 70
     1
102
RTVSPost2010Prop43
 90
        3
102
RTVSPost2010PropOp43
 70
     1
102
RTVSPost2010Prop44ColorIndex
 90
        5
102
RTVSPost2010Prop44ColorRGB
 90
      255
102
RTVSPost2010PropOp44
 70
     1
102
RTVSPost2010Prop45
280
     0
102
RTVSPost2010PropOp45
 70
     1
102
RTVSPost2010Prop46
 90
       50
102
RTVSPost2010PropOp46
 70
     1
102
RTVSPost2010Prop47
 90
       50
102
RTVSPost2010PropOp47
 70
     1
102
RTVSPost2010Prop48
 90
       50
102
RTVSPost2010PropOp48
 70
     1
102
RTVSPost2010Prop49
280
     0
102
RTVSPost2010PropOp49
 70
     1
102
RTVSPost2010Prop50
 90
       50
102
RTVSPost2010PropOp50
 70
     1
102
RTVSPost2010Prop51ColorIndex
 90
      256
102
RTVSPost2010Prop51ColorRGB
 90
-16777216
102
RTVSPost2010PropOp51
 70
     0
102
RTVSPost2010Prop52
140
1.0
102
RTVSPost2010PropOp52
 70
     0
102
RTVSPost2010Prop53
 90
        2
102
RTVSPost2010PropOp53
 70
     1
102
RTVSPost2010Prop54
  1
strokes_ogs.tif
102
RTVSPost2010PropOp54
 70
     1
102
RTVSPost2010Prop55
280
     0
102
RTVSPost2010PropOp55
 70
     1
102
RTVSPost2010Prop56
140
1.0
102
RTVSPost2010PropOp56
 70
     1
102
RTVSPost2010Prop57
140
1.0
102
RTVSPost2010PropOp57
 70
     1
  0
XRECORD
  5
1B6
102
{ACAD_REACTORS
330
1B5
102
}
330
1B5
100
AcDbXrecord
280
     1
102
RTVSPost2010Prop28
280
     0
102
RTVSPost2010PropOp28
 70
     0
102
RTVSPost2010Prop29
280
     1
102
RTVSPost2010PropOp29
 70
     0
102
RTVSPost2010Prop30
280
     1
102
RTVSPost2010PropOp30
 70
     0
102
RTVSPost2010Prop31
280
     0
102
RTVSPost2010PropOp31
 70
     0
102
RTVSPost2010Prop32
280
     0
102
RTVSPost2010PropOp32
 70
     0
102
RTVSPost2010Prop33
280
     0
102
RTVSPost2010PropOp33
 70
     0
102
RTVSPost2010Prop34
280
     0
102
RTVSPost2010PropOp34
 70
     0
102
RTVSPost2010Prop35
280
     0
102
RTVSPost2010PropOp35
 70
     0
102
RTVSPost2010Prop36
280
     0
102
RTVSPost2010PropOp36
 70
     0
102
RTVSPost2010Prop37
 90
       50
102
RTVSPost2010PropOp37
 70
     0
102
RTVSPost2010Prop38
140
0.0
102
RTVSPost2010PropOp38
 70
     0
102
RTVSPost2010Prop39
140
1.0
102
RTVSPost2010PropOp39
 70
     0
102
RTVSPost2010Prop40
 90
        0
102
RTVSPost2010PropOp40
 70
     0
102
RTVSPost2010Prop41ColorIndex
 90
       18
102
RTVSPost2010Prop41ColorRGB
 90
        0
102
RTVSPost2010PropOp41
 70
     0
102
RTVSPost2010Prop42
 90
       50
102
RTVSPost2010PropOp42
 70
     0
102
RTVSPost2010Prop43
 90
        3
102
RTVSPost2010PropOp43
 70
     0
102
RTVSPost2010Prop44ColorIndex
 90
        5
102
RTVSPost2010Prop44ColorRGB
 90
      255
102
RTVSPost2010PropOp44
 70
     0
102
RTVSPost2010Prop45
280
     0
102
RTVSPost2010PropOp45
 70
     0
102
RTVSPost2010Prop46
 90
       50
102
RTVSPost2010PropOp46
 70
     0
102
RTVSPost2010Prop47
 90
       50
102
RTVSPost2010PropOp47
 70
     0
102
RTVSPost2010Prop48
 90
       50
102
RTVSPost2010PropOp48
 70
     0
102
RTVSPost2010Prop49
280
     0
102
RTVSPost2010PropOp49
 70
     0
102
RTVSPost2010Prop50
 90
       50
102
RTVSPost2010PropOp50
 70
     0
102
RTVSPost2010Prop51ColorIndex
 90
      256
102
RTVSPost2010Prop51ColorRGB
 90
-16777216
102
RTVSPost2010PropOp51
 70
     0
102
RTVSPost2010Prop52
140
1.0
102
RTVSPost2010PropOp52
 70
     0
102
RTVSPost2010Prop53
 90
        2
102
RTVSPost2010PropOp53
 70
     0
102
RTVSPost2010Prop54
  1
strokes_ogs.tif
102
RTVSPost2010PropOp54
 70
     0
102
RTVSPost2010Prop55
280
     0
102
RTVSPost2010PropOp55
 70
     0
102
RTVSPost2010Prop56
140
1.0
102
RTVSPost2010PropOp56
 70
     0
102
RTVSPost2010Prop57
140
1.0
102
RTVSPost2010PropOp57
 70
     0
  0
XRECORD
  5
1AE
102
{ACAD_REACTORS
330
1AD
102
}
330
1AD
100
AcDbXrecord
280
     1
102
RTVSPost2010Prop28
280
     0
102
RTVSPost2010PropOp28
 70
     1
102
RTVSPost2010Prop29
280
     1
102
RTVSPost2010PropOp29
 70
     1
102
RTVSPost2010Prop30
280
     1
102
RTVSPost2010PropOp30
 70
     1
102
RTVSPost2010Prop31
280
     0
102
RTVSPost2010PropOp31
 70
     1
102
RTVSPost2010Prop32
280
     0
102
RTVSPost2010PropOp32
 70
     1
102
RTVSPost2010Prop33
280
     0
102
RTVSPost2010PropOp33
 70
     1
102
RTVSPost2010Prop34
280
     0
102
RTVSPost2010PropOp34
 70
     1
102
RTVSPost2010Prop35
280
     0
102
RTVSPost2010PropOp35
 70
     1
102
RTVSPost2010Prop36
280
     0
102
RTVSPost2010PropOp36
 70
     1
102
RTVSPost2010Prop37
 90
       50
102
RTVSPost2010PropOp37
 70
     1
102
RTVSPost2010Prop38
140
0.0
102
RTVSPost2010PropOp38
 70
     1
102
RTVSPost2010Prop39
140
1.0
102
RTVSPost2010PropOp39
 70
     1
102
RTVSPost2010Prop40
 90
        0
102
RTVSPost2010PropOp40
 70
     1
102
RTVSPost2010Prop41ColorIndex
 90
       18
102
RTVSPost2010Prop41ColorRGB
 90
        0
102
RTVSPost2010PropOp41
 70
     1
102
RTVSPost2010Prop42
 90
       50
102
RTVSPost2010PropOp42
 70
     1
102
RTVSPost2010Prop43
 90
        3
102
RTVSPost2010PropOp43
 70
     1
102
RTVSPost2010Prop44ColorIndex
 90
        5
102
RTVSPost2010Prop44ColorRGB
 90
      255
102
RTVSPost2010PropOp44
 70
     1
102
RTVSPost2010Prop45
280
     0
102
RTVSPost2010PropOp45
 70
     1
102
RTVSPost2010Prop46
 90
       50
102
RTVSPost2010PropOp46
 70
     1
102
RTVSPost2010Prop47
 90
       50
102
RTVSPost2010PropOp47
 70
     1
102
RTVSPost2010Prop48
 90
       50
102
RTVSPost2010PropOp48
 70
     1
102
RTVSPost2010Prop49
280
     0
102
RTVSPost2010PropOp49
 70
     1
102
RTVSPost2010Prop50
 90
       50
102
RTVSPost2010PropOp50
 70
     1
102
RTVSPost2010Prop51ColorIndex
 90
      256
102
RTVSPost2010Prop51ColorRGB
 90
-16777216
102
RTVSPost2010PropOp51
 70
     0
102
RTVSPost2010Prop52
140
1.0
102
RTVSPost2010PropOp52
 70
     0
102
RTVSPost2010Prop53
 90
        2
102
RTVSPost2010PropOp53
 70
     1
102
RTVSPost2010Prop54
  1
strokes_ogs.tif
102
RTVSPost2010PropOp54
 70
     1
102
RTVSPost2010Prop55
280
     0
102
RTVSPost2010PropOp55
 70
     1
102
RTVSPost2010Prop56
140
1.0
102
RTVSPost2010PropOp56
 70
     1
102
RTVSPost2010Prop57
140
1.0
102
RTVSPost2010PropOp57
 70
     1
  0
XRECORD
  5
192
102
{ACAD_REACTORS
330
191
102
}
330
191
100
AcDbXrecord
280
     1
102
RTVSPost2010Prop28
280
     0
102
RTVSPost2010PropOp28
 70
     1
102
RTVSPost2010Prop29
280
     1
102
RTVSPost2010PropOp29
 70
     1
102
RTVSPost2010Prop30
280
     1
102
RTVSPost2010PropOp30
 70
     1
102
RTVSPost2010Prop31
280
     0
102
RTVSPost2010PropOp31
 70
     1
102
RTVSPost2010Prop32
280
     0
102
RTVSPost2010PropOp32
 70
     1
102
RTVSPost2010Prop33
280
     0
102
RTVSPost2010PropOp33
 70
     1
102
RTVSPost2010Prop34
280
     0
102
RTVSPost2010PropOp34
 70
     1
102
RTVSPost2010Prop35
280
     0
102
RTVSPost2010PropOp35
 70
     1
102
RTVSPost2010Prop36
280
     0
102
RTVSPost2010PropOp36
 70
     1
102
RTVSPost2010Prop37
 90
       50
102
RTVSPost2010PropOp37
 70
     1
102
RTVSPost2010Prop38
140
0.0
102
RTVSPost2010PropOp38
 70
     1
102
RTVSPost2010Prop39
140
1.0
102
RTVSPost2010PropOp39
 70
     1
102
RTVSPost2010Prop40
 90
        0
102
RTVSPost2010PropOp40
 70
     1
102
RTVSPost2010Prop41ColorIndex
 90
       18
102
RTVSPost2010Prop41ColorRGB
 90
        0
102
RTVSPost2010PropOp41
 70
     1
102
RTVSPost2010Prop42
 90
       50
102
RTVSPost2010PropOp42
 70
     1
102
RTVSPost2010Prop43
 90
        3
102
RTVSPost2010PropOp43
 70
     1
102
RTVSPost2010Prop44ColorIndex
 90
        5
102
RTVSPost2010Prop44ColorRGB
 90
      255
102
RTVSPost2010PropOp44
 70
     1
102
RTVSPost2010Prop45
280
     0
102
RTVSPost2010PropOp45
 70
     1
102
RTVSPost2010Prop46
 90
       50
102
RTVSPost2010PropOp46
 70
     1
102
RTVSPost2010Prop47
 90
       50
102
RTVSPost2010PropOp47
 70
     1
102
RTVSPost2010Prop48
 90
       50
102
RTVSPost2010PropOp48
 70
     1
102
RTVSPost2010Prop49
280
     0
102
RTVSPost2010PropOp49
 70
     1
102
RTVSPost2010Prop50
 90
       50
102
RTVSPost2010PropOp50
 70
     1
102
RTVSPost2010Prop51ColorIndex
 90
      256
102
RTVSPost2010Prop51ColorRGB
 90
-16777216
102
RTVSPost2010PropOp51
 70
     0
102
RTVSPost2010Prop52
140
1.0
102
RTVSPost2010PropOp52
 70
     0
102
RTVSPost2010Prop53
 90
        2
102
RTVSPost2010PropOp53
 70
     1
102
RTVSPost2010Prop54
  1
strokes_ogs.tif
102
RTVSPost2010PropOp54
 70
     1
102
RTVSPost2010Prop55
280
     0
102
RTVSPost2010PropOp55
 70
     1
102
RTVSPost2010Prop56
140
1.0
102
RTVSPost2010PropOp56
 70
     1
102
RTVSPost2010Prop57
140
1.0
102
RTVSPost2010PropOp57
 70
     1
  0
XRECORD
  5
194
102
{ACAD_REACTORS
330
193
102
}
330
193
100
AcDbXrecord
280
     1
102
RTVSPost2010Prop28
280
     0
102
RTVSPost2010PropOp28
 70
     1
102
RTVSPost2010Prop29
280
     1
102
RTVSPost2010PropOp29
 70
     1
102
RTVSPost2010Prop30
280
     1
102
RTVSPost2010PropOp30
 70
     1
102
RTVSPost2010Prop31
280
     0
102
RTVSPost2010PropOp31
 70
     1
102
RTVSPost2010Prop32
280
     0
102
RTVSPost2010PropOp32
 70
     1
102
RTVSPost2010Prop33
280
     0
102
RTVSPost2010PropOp33
 70
     1
102
RTVSPost2010Prop34
280
     0
102
RTVSPost2010PropOp34
 70
     1
102
RTVSPost2010Prop35
280
     0
102
RTVSPost2010PropOp35
 70
     1
102
RTVSPost2010Prop36
280
     0
102
RTVSPost2010PropOp36
 70
     1
102
RTVSPost2010Prop37
 90
       50
102
RTVSPost2010PropOp37
 70
     1
102
RTVSPost2010Prop38
140
0.0
102
RTVSPost2010PropOp38
 70
     1
102
RTVSPost2010Prop39
140
1.0
102
RTVSPost2010PropOp39
 70
     1
102
RTVSPost2010Prop40
 90
        0
102
RTVSPost2010PropOp40
 70
     1
102
RTVSPost2010Prop41ColorIndex
 90
       18
102
RTVSPost2010Prop41ColorRGB
 90
        0
102
RTVSPost2010PropOp41
 70
     1
102
RTVSPost2010Prop42
 90
       50
102
RTVSPost2010PropOp42
 70
     1
102
RTVSPost2010Prop43
 90
        3
102
RTVSPost2010PropOp43
 70
     1
102
RTVSPost2010Prop44ColorIndex
 90
        5
102
RTVSPost2010Prop44ColorRGB
 90
      255
102
RTVSPost2010PropOp44
 70
     1
102
RTVSPost2010Prop45
280
     0
102
RTVSPost2010PropOp45
 70
     1
102
RTVSPost2010Prop46
 90
       50
102
RTVSPost2010PropOp46
 70
     1
102
RTVSPost2010Prop47
 90
       50
102
RTVSPost2010PropOp47
 70
     1
102
RTVSPost2010Prop48
 90
       50
102
RTVSPost2010PropOp48
 70
     1
102
RTVSPost2010Prop49
280
     0
102
RTVSPost2010PropOp49
 70
     1
102
RTVSPost2010Prop50
 90
       50
102
RTVSPost2010PropOp50
 70
     1
102
RTVSPost2010Prop51ColorIndex
 90
      256
102
RTVSPost2010Prop51ColorRGB
 90
-16777216
102
RTVSPost2010PropOp51
 70
     0
102
RTVSPost2010Prop52
140
1.0
102
RTVSPost2010PropOp52
 70
     0
102
RTVSPost2010Prop53
 90
        2
102
RTVSPost2010PropOp53
 70
     1
102
RTVSPost2010Prop54
  1
strokes_ogs.tif
102
RTVSPost2010PropOp54
 70
     1
102
RTVSPost2010Prop55
280
     0
102
RTVSPost2010PropOp55
 70
     1
102
RTVSPost2010Prop56
140
1.0
102
RTVSPost2010PropOp56
 70
     1
102
RTVSPost2010Prop57
140
1.0
102
RTVSPost2010PropOp57
 70
     1
  0
XRECORD
  5
196
102
{ACAD_REACTORS
330
195
102
}
330
195
100
AcDbXrecord
280
     1
102
RTVSPost2010Prop28
280
     0
102
RTVSPost2010PropOp28
 70
     1
102
RTVSPost2010Prop29
280
     1
102
RTVSPost2010PropOp29
 70
     1
102
RTVSPost2010Prop30
280
     1
102
RTVSPost2010PropOp30
 70
     1
102
RTVSPost2010Prop31
280
     0
102
RTVSPost2010PropOp31
 70
     1
102
RTVSPost2010Prop32
280
     0
102
RTVSPost2010PropOp32
 70
     1
102
RTVSPost2010Prop33
280
     0
102
RTVSPost2010PropOp33
 70
     1
102
RTVSPost2010Prop34
280
     0
102
RTVSPost2010PropOp34
 70
     1
102
RTVSPost2010Prop35
280
     0
102
RTVSPost2010PropOp35
 70
     1
102
RTVSPost2010Prop36
280
     0
102
RTVSPost2010PropOp36
 70
     1
102
RTVSPost2010Prop37
 90
       50
102
RTVSPost2010PropOp37
 70
     1
102
RTVSPost2010Prop38
140
0.0
102
RTVSPost2010PropOp38
 70
     1
102
RTVSPost2010Prop39
140
1.0
102
RTVSPost2010PropOp39
 70
     1
102
RTVSPost2010Prop40
 90
        0
102
RTVSPost2010PropOp40
 70
     1
102
RTVSPost2010Prop41ColorIndex
 90
       18
102
RTVSPost2010Prop41ColorRGB
 90
        0
102
RTVSPost2010PropOp41
 70
     1
102
RTVSPost2010Prop42
 90
       50
102
RTVSPost2010PropOp42
 70
     1
102
RTVSPost2010Prop43
 90
        3
102
RTVSPost2010PropOp43
 70
     1
102
RTVSPost2010Prop44ColorIndex
 90
        5
102
RTVSPost2010Prop44ColorRGB
 90
      255
102
RTVSPost2010PropOp44
 70
     1
102
RTVSPost2010Prop45
280
     0
102
RTVSPost2010PropOp45
 70
     1
102
RTVSPost2010Prop46
 90
       50
102
RTVSPost2010PropOp46
 70
     1
102
RTVSPost2010Prop47
 90
       50
102
RTVSPost2010PropOp47
 70
     1
102
RTVSPost2010Prop48
 90
       50
102
RTVSPost2010PropOp48
 70
     1
102
RTVSPost2010Prop49
280
     0
102
RTVSPost2010PropOp49
 70
     1
102
RTVSPost2010Prop50
 90
       50
102
RTVSPost2010PropOp50
 70
     1
102
RTVSPost2010Prop51ColorIndex
 90
      256
102
RTVSPost2010Prop51ColorRGB
 90
-16777216
102
RTVSPost2010PropOp51
 70
     0
102
RTVSPost2010Prop52
140
1.0
102
RTVSPost2010PropOp52
 70
     0
102
RTVSPost2010Prop53
 90
        2
102
RTVSPost2010PropOp53
 70
     1
102
RTVSPost2010Prop54
  1
strokes_ogs.tif
102
RTVSPost2010PropOp54
 70
     1
102
RTVSPost2010Prop55
280
     0
102
RTVSPost2010PropOp55
 70
     1
102
RTVSPost2010Prop56
140
1.0
102
RTVSPost2010PropOp56
 70
     1
102
RTVSPost2010Prop57
140
1.0
102
RTVSPost2010PropOp57
 70
     1
  0
XRECORD
  5
198
102
{ACAD_REACTORS
330
197
102
}
330
197
100
AcDbXrecord
280
     1
102
RTVSPost2010Prop28
280
     0
102
RTVSPost2010PropOp28
 70
     1
102
RTVSPost2010Prop29
280
     1
102
RTVSPost2010PropOp29
 70
     1
102
RTVSPost2010Prop30
280
     1
102
RTVSPost2010PropOp30
 70
     1
102
RTVSPost2010Prop31
280
     0
102
RTVSPost2010PropOp31
 70
     1
102
RTVSPost2010Prop32
280
     0
102
RTVSPost2010PropOp32
 70
     1
102
RTVSPost2010Prop33
280
     0
102
RTVSPost2010PropOp33
 70
     1
102
RTVSPost2010Prop34
280
     0
102
RTVSPost2010PropOp34
 70
     1
102
RTVSPost2010Prop35
280
     0
102
RTVSPost2010PropOp35
 70
     1
102
RTVSPost2010Prop36
280
     0
102
RTVSPost2010PropOp36
 70
     1
102
RTVSPost2010Prop37
 90
       50
102
RTVSPost2010PropOp37
 70
     1
102
RTVSPost2010Prop38
140
0.0
102
RTVSPost2010PropOp38
 70
     1
102
RTVSPost2010Prop39
140
1.0
102
RTVSPost2010PropOp39
 70
     1
102
RTVSPost2010Prop40
 90
        0
102
RTVSPost2010PropOp40
 70
     1
102
RTVSPost2010Prop41ColorIndex
 90
       18
102
RTVSPost2010Prop41ColorRGB
 90
        0
102
RTVSPost2010PropOp41
 70
     1
102
RTVSPost2010Prop42
 90
       50
102
RTVSPost2010PropOp42
 70
     1
102
RTVSPost2010Prop43
 90
        3
102
RTVSPost2010PropOp43
 70
     1
102
RTVSPost2010Prop44ColorIndex
 90
        5
102
RTVSPost2010Prop44ColorRGB
 90
      255
102
RTVSPost2010PropOp44
 70
     1
102
RTVSPost2010Prop45
280
     0
102
RTVSPost2010PropOp45
 70
     1
102
RTVSPost2010Prop46
 90
       50
102
RTVSPost2010PropOp46
 70
     1
102
RTVSPost2010Prop47
 90
       50
102
RTVSPost2010PropOp47
 70
     1
102
RTVSPost2010Prop48
 90
       50
102
RTVSPost2010PropOp48
 70
     1
102
RTVSPost2010Prop49
280
     0
102
RTVSPost2010PropOp49
 70
     1
102
RTVSPost2010Prop50
 90
       50
102
RTVSPost2010PropOp50
 70
     1
102
RTVSPost2010Prop51ColorIndex
 90
      256
102
RTVSPost2010Prop51ColorRGB
 90
-16777216
102
RTVSPost2010PropOp51
 70
     0
102
RTVSPost2010Prop52
140
1.0
102
RTVSPost2010PropOp52
 70
     0
102
RTVSPost2010Prop53
 90
        2
102
RTVSPost2010PropOp53
 70
     1
102
RTVSPost2010Prop54
  1
strokes_ogs.tif
102
RTVSPost2010PropOp54
 70
     1
102
RTVSPost2010Prop55
280
     0
102
RTVSPost2010PropOp55
 70
     1
102
RTVSPost2010Prop56
140
1.0
102
RTVSPost2010PropOp56
 70
     1
102
RTVSPost2010Prop57
140
1.0
102
RTVSPost2010PropOp57
 70
     1
  0
XRECORD
  5
19E
102
{ACAD_REACTORS
330
19D
102
}
330
19D
100
AcDbXrecord
280
     1
102
RTVSPost2010Prop28
280
     0
102
RTVSPost2010PropOp28
 70
     1
102
RTVSPost2010Prop29
280
     1
102
RTVSPost2010PropOp29
 70
     1
102
RTVSPost2010Prop30
280
     1
102
RTVSPost2010PropOp30
 70
     1
102
RTVSPost2010Prop31
280
     0
102
RTVSPost2010PropOp31
 70
     1
102
RTVSPost2010Prop32
280
     0
102
RTVSPost2010PropOp32
 70
     1
102
RTVSPost2010Prop33
280
     0
102
RTVSPost2010PropOp33
 70
     1
102
RTVSPost2010Prop34
280
     0
102
RTVSPost2010PropOp34
 70
     1
102
RTVSPost2010Prop35
280
     0
102
RTVSPost2010PropOp35
 70
     1
102
RTVSPost2010Prop36
280
     0
102
RTVSPost2010PropOp36
 70
     1
102
RTVSPost2010Prop37
 90
       50
102
RTVSPost2010PropOp37
 70
     1
102
RTVSPost2010Prop38
140
0.0
102
RTVSPost2010PropOp38
 70
     1
102
RTVSPost2010Prop39
140
1.0
102
RTVSPost2010PropOp39
 70
     1
102
RTVSPost2010Prop40
 90
        0
102
RTVSPost2010PropOp40
 70
     1
102
RTVSPost2010Prop41ColorIndex
 90
       18
102
RTVSPost2010Prop41ColorRGB
 90
        0
102
RTVSPost2010PropOp41
 70
     1
102
RTVSPost2010Prop42
 90
       50
102
RTVSPost2010PropOp42
 70
     1
102
RTVSPost2010Prop43
 90
        3
102
RTVSPost2010PropOp43
 70
     1
102
RTVSPost2010Prop44ColorIndex
 90
        5
102
RTVSPost2010Prop44ColorRGB
 90
      255
102
RTVSPost2010PropOp44
 70
     1
102
RTVSPost2010Prop45
280
     0
102
RTVSPost2010PropOp45
 70
     1
102
RTVSPost2010Prop46
 90
       50
102
RTVSPost2010PropOp46
 70
     1
102
RTVSPost2010Prop47
 90
       50
102
RTVSPost2010PropOp47
 70
     1
102
RTVSPost2010Prop48
 90
       50
102
RTVSPost2010PropOp48
 70
     1
102
RTVSPost2010Prop49
280
     0
102
RTVSPost2010PropOp49
 70
     1
102
RTVSPost2010Prop50
 90
       50
102
RTVSPost2010PropOp50
 70
     1
102
RTVSPost2010Prop51ColorIndex
 90
      256
102
RTVSPost2010Prop51ColorRGB
 90
-16777216
102
RTVSPost2010PropOp51
 70
     0
102
RTVSPost2010Prop52
140
1.0
102
RTVSPost2010PropOp52
 70
     0
102
RTVSPost2010Prop53
 90
        2
102
RTVSPost2010PropOp53
 70
     1
102
RTVSPost2010Prop54
  1
strokes_ogs.tif
102
RTVSPost2010PropOp54
 70
     1
102
RTVSPost2010Prop55
280
     0
102
RTVSPost2010PropOp55
 70
     1
102
RTVSPost2010Prop56
140
1.0
102
RTVSPost2010PropOp56
 70
     1
102
RTVSPost2010Prop57
140
1.0
102
RTVSPost2010PropOp57
 70
     1
  0
XRECORD
  5
1B2
102
{ACAD_REACTORS
330
1B1
102
}
330
1B1
100
AcDbXrecord
280
     1
102
RTVSPost2010Prop28
280
     0
102
RTVSPost2010PropOp28
 70
     0
102
RTVSPost2010Prop29
280
     1
102
RTVSPost2010PropOp29
 70
     0
102
RTVSPost2010Prop30
280
     1
102
RTVSPost2010PropOp30
 70
     0
102
RTVSPost2010Prop31
280
     0
102
RTVSPost2010PropOp31
 70
     0
102
RTVSPost2010Prop32
280
     0
102
RTVSPost2010PropOp32
 70
     0
102
RTVSPost2010Prop33
280
     0
102
RTVSPost2010PropOp33
 70
     0
102
RTVSPost2010Prop34
280
     0
102
RTVSPost2010PropOp34
 70
     0
102
RTVSPost2010Prop35
280
     0
102
RTVSPost2010PropOp35
 70
     0
102
RTVSPost2010Prop36
280
     0
102
RTVSPost2010PropOp36
 70
     0
102
RTVSPost2010Prop37
 90
       50
102
RTVSPost2010PropOp37
 70
     0
102
RTVSPost2010Prop38
140
0.0
102
RTVSPost2010PropOp38
 70
     0
102
RTVSPost2010Prop39
140
1.0
102
RTVSPost2010PropOp39
 70
     0
102
RTVSPost2010Prop40
 90
        0
102
RTVSPost2010PropOp40
 70
     0
102
RTVSPost2010Prop41ColorIndex
 90
       18
102
RTVSPost2010Prop41ColorRGB
 90
        0
102
RTVSPost2010PropOp41
 70
     0
102
RTVSPost2010Prop42
 90
       50
102
RTVSPost2010PropOp42
 70
     0
102
RTVSPost2010Prop43
 90
        3
102
RTVSPost2010PropOp43
 70
     0
102
RTVSPost2010Prop44ColorIndex
 90
        5
102
RTVSPost2010Prop44ColorRGB
 90
      255
102
RTVSPost2010PropOp44
 70
     0
102
RTVSPost2010Prop45
280
     0
102
RTVSPost2010PropOp45
 70
     0
102
RTVSPost2010Prop46
 90
       50
102
RTVSPost2010PropOp46
 70
     0
102
RTVSPost2010Prop47
 90
       50
102
RTVSPost2010PropOp47
 70
     0
102
RTVSPost2010Prop48
 90
       50
102
RTVSPost2010PropOp48
 70
     0
102
RTVSPost2010Prop49
280
     0
102
RTVSPost2010PropOp49
 70
     0
102
RTVSPost2010Prop50
 90
       50
102
RTVSPost2010PropOp50
 70
     0
102
RTVSPost2010Prop51ColorIndex
 90
      256
102
RTVSPost2010Prop51ColorRGB
 90
-16777216
102
RTVSPost2010PropOp51
 70
     0
102
RTVSPost2010Prop52
140
1.0
102
RTVSPost2010PropOp52
 70
     0
102
RTVSPost2010Prop53
 90
        2
102
RTVSPost2010PropOp53
 70
     0
102
RTVSPost2010Prop54
  1
strokes_ogs.tif
102
RTVSPost2010PropOp54
 70
     0
102
RTVSPost2010Prop55
280
     0
102
RTVSPost2010PropOp55
 70
     0
102
RTVSPost2010Prop56
140
1.0
102
RTVSPost2010PropOp56
 70
     0
102
RTVSPost2010Prop57
140
1.0
102
RTVSPost2010PropOp57
 70
     0
  0
XRECORD
  5
1AC
102
{ACAD_REACTORS
330
1AB
102
}
330
1AB
100
AcDbXrecord
280
     1
102
RTVSPost2010Prop28
280
     0
102
RTVSPost2010PropOp28
 70
     1
102
RTVSPost2010Prop29
280
     1
102
RTVSPost2010PropOp29
 70
     1
102
RTVSPost2010Prop30
280
     1
102
RTVSPost2010PropOp30
 70
     1
102
RTVSPost2010Prop31
280
     0
102
RTVSPost2010PropOp31
 70
     1
102
RTVSPost2010Prop32
280
     0
102
RTVSPost2010PropOp32
 70
     1
102
RTVSPost2010Prop33
280
     0
102
RTVSPost2010PropOp33
 70
     1
102
RTVSPost2010Prop34
280
     0
102
RTVSPost2010PropOp34
 70
     1
102
RTVSPost2010Prop35
280
     0
102
RTVSPost2010PropOp35
 70
     1
102
RTVSPost2010Prop36
280
     0
102
RTVSPost2010PropOp36
 70
     1
102
RTVSPost2010Prop37
 90
       50
102
RTVSPost2010PropOp37
 70
     1
102
RTVSPost2010Prop38
140
0.0
102
RTVSPost2010PropOp38
 70
     1
102
RTVSPost2010Prop39
140
1.0
102
RTVSPost2010PropOp39
 70
     1
102
RTVSPost2010Prop40
 90
        0
102
RTVSPost2010PropOp40
 70
     1
102
RTVSPost2010Prop41ColorIndex
 90
       18
102
RTVSPost2010Prop41ColorRGB
 90
        0
102
RTVSPost2010PropOp41
 70
     1
102
RTVSPost2010Prop42
 90
       50
102
RTVSPost2010PropOp42
 70
     1
102
RTVSPost2010Prop43
 90
        3
102
RTVSPost2010PropOp43
 70
     1
102
RTVSPost2010Prop44ColorIndex
 90
        5
102
RTVSPost2010Prop44ColorRGB
 90
      255
102
RTVSPost2010PropOp44
 70
     1
102
RTVSPost2010Prop45
280
     0
102
RTVSPost2010PropOp45
 70
     1
102
RTVSPost2010Prop46
 90
       50
102
RTVSPost2010PropOp46
 70
     1
102
RTVSPost2010Prop47
 90
       50
102
RTVSPost2010PropOp47
 70
     1
102
RTVSPost2010Prop48
 90
       50
102
RTVSPost2010PropOp48
 70
     1
102
RTVSPost2010Prop49
280
     0
102
RTVSPost2010PropOp49
 70
     1
102
RTVSPost2010Prop50
 90
       50
102
RTVSPost2010PropOp50
 70
     1
102
RTVSPost2010Prop51ColorIndex
 90
      256
102
RTVSPost2010Prop51ColorRGB
 90
-16777216
102
RTVSPost2010PropOp51
 70
     0
102
RTVSPost2010Prop52
140
1.0
102
RTVSPost2010PropOp52
 70
     0
102
RTVSPost2010Prop53
 90
        2
102
RTVSPost2010PropOp53
 70
     1
102
RTVSPost2010Prop54
  1
strokes_ogs.tif
102
RTVSPost2010PropOp54
 70
     1
102
RTVSPost2010Prop55
280
     0
102
RTVSPost2010PropOp55
 70
     1
102
RTVSPost2010Prop56
140
1.0
102
RTVSPost2010PropOp56
 70
     1
102
RTVSPost2010Prop57
140
1.0
102
RTVSPost2010PropOp57
 70
     1
  0
XRECORD
  5
1B4
102
{ACAD_REACTORS
330
1B3
102
}
330
1B3
100
AcDbXrecord
280
     1
102
RTVSPost2010Prop28
280
     0
102
RTVSPost2010PropOp28
 70
     0
102
RTVSPost2010Prop29
280
     1
102
RTVSPost2010PropOp29
 70
     0
102
RTVSPost2010Prop30
280
     1
102
RTVSPost2010PropOp30
 70
     0
102
RTVSPost2010Prop31
280
     0
102
RTVSPost2010PropOp31
 70
     0
102
RTVSPost2010Prop32
280
     0
102
RTVSPost2010PropOp32
 70
     0
102
RTVSPost2010Prop33
280
     0
102
RTVSPost2010PropOp33
 70
     0
102
RTVSPost2010Prop34
280
     0
102
RTVSPost2010PropOp34
 70
     0
102
RTVSPost2010Prop35
280
     0
102
RTVSPost2010PropOp35
 70
     0
102
RTVSPost2010Prop36
280
     0
102
RTVSPost2010PropOp36
 70
     0
102
RTVSPost2010Prop37
 90
       50
102
RTVSPost2010PropOp37
 70
     0
102
RTVSPost2010Prop38
140
0.0
102
RTVSPost2010PropOp38
 70
     0
102
RTVSPost2010Prop39
140
1.0
102
RTVSPost2010PropOp39
 70
     0
102
RTVSPost2010Prop40
 90
        0
102
RTVSPost2010PropOp40
 70
     0
102
RTVSPost2010Prop41ColorIndex
 90
       18
102
RTVSPost2010Prop41ColorRGB
 90
        0
102
RTVSPost2010PropOp41
 70
     0
102
RTVSPost2010Prop42
 90
       50
102
RTVSPost2010PropOp42
 70
     0
102
RTVSPost2010Prop43
 90
        3
102
RTVSPost2010PropOp43
 70
     0
102
RTVSPost2010Prop44ColorIndex
 90
        5
102
RTVSPost2010Prop44ColorRGB
 90
      255
102
RTVSPost2010PropOp44
 70
     0
102
RTVSPost2010Prop45
280
     0
102
RTVSPost2010PropOp45
 70
     0
102
RTVSPost2010Prop46
 90
       50
102
RTVSPost2010PropOp46
 70
     0
102
RTVSPost2010Prop47
 90
       50
102
RTVSPost2010PropOp47
 70
     0
102
RTVSPost2010Prop48
 90
       50
102
RTVSPost2010PropOp48
 70
     0
102
RTVSPost2010Prop49
280
     0
102
RTVSPost2010PropOp49
 70
     0
102
RTVSPost2010Prop50
 90
       50
102
RTVSPost2010PropOp50
 70
     0
102
RTVSPost2010Prop51ColorIndex
 90
      256
102
RTVSPost2010Prop51ColorRGB
 90
-16777216
102
RTVSPost2010PropOp51
 70
     0
102
RTVSPost2010Prop52
140
1.0
102
RTVSPost2010PropOp52
 70
     0
102
RTVSPost2010Prop53
 90
        2
102
RTVSPost2010PropOp53
 70
     0
102
RTVSPost2010Prop54
  1
strokes_ogs.tif
102
RTVSPost2010PropOp54
 70
     0
102
RTVSPost2010Prop55
280
     0
102
RTVSPost2010PropOp55
 70
     0
102
RTVSPost2010Prop56
140
1.0
102
RTVSPost2010PropOp56
 70
     0
102
RTVSPost2010Prop57
140
1.0
102
RTVSPost2010PropOp57
 70
     0
  0
XRECORD
  5
1A2
102
{ACAD_REACTORS
330
1A1
102
}
330
1A1
100
AcDbXrecord
280
     1
102
RTVSPost2010Prop28
280
     0
102
RTVSPost2010PropOp28
 70
     1
102
RTVSPost2010Prop29
280
     1
102
RTVSPost2010PropOp29
 70
     1
102
RTVSPost2010Prop30
280
     1
102
RTVSPost2010PropOp30
 70
     1
102
RTVSPost2010Prop31
280
     0
102
RTVSPost2010PropOp31
 70
     1
102
RTVSPost2010Prop32
280
     0
102
RTVSPost2010PropOp32
 70
     1
102
RTVSPost2010Prop33
280
     0
102
RTVSPost2010PropOp33
 70
     1
102
RTVSPost2010Prop34
280
     0
102
RTVSPost2010PropOp34
 70
     1
102
RTVSPost2010Prop35
280
     0
102
RTVSPost2010PropOp35
 70
     1
102
RTVSPost2010Prop36
280
     0
102
RTVSPost2010PropOp36
 70
     1
102
RTVSPost2010Prop37
 90
       50
102
RTVSPost2010PropOp37
 70
     1
102
RTVSPost2010Prop38
140
0.0
102
RTVSPost2010PropOp38
 70
     1
102
RTVSPost2010Prop39
140
1.0
102
RTVSPost2010PropOp39
 70
     1
102
RTVSPost2010Prop40
 90
        0
102
RTVSPost2010PropOp40
 70
     1
102
RTVSPost2010Prop41ColorIndex
 90
       18
102
RTVSPost2010Prop41ColorRGB
 90
        0
102
RTVSPost2010PropOp41
 70
     1
102
RTVSPost2010Prop42
 90
       50
102
RTVSPost2010PropOp42
 70
     1
102
RTVSPost2010Prop43
 90
        3
102
RTVSPost2010PropOp43
 70
     1
102
RTVSPost2010Prop44ColorIndex
 90
        5
102
RTVSPost2010Prop44ColorRGB
 90
      255
102
RTVSPost2010PropOp44
 70
     1
102
RTVSPost2010Prop45
280
     0
102
RTVSPost2010PropOp45
 70
     1
102
RTVSPost2010Prop46
 90
       50
102
RTVSPost2010PropOp46
 70
     1
102
RTVSPost2010Prop47
 90
       50
102
RTVSPost2010PropOp47
 70
     1
102
RTVSPost2010Prop48
 90
       50
102
RTVSPost2010PropOp48
 70
     1
102
RTVSPost2010Prop49
280
     0
102
RTVSPost2010PropOp49
 70
     1
102
RTVSPost2010Prop50
 90
       50
102
RTVSPost2010PropOp50
 70
     1
102
RTVSPost2010Prop51ColorIndex
 90
      256
102
RTVSPost2010Prop51ColorRGB
 90
-16777216
102
RTVSPost2010PropOp51
 70
     0
102
RTVSPost2010Prop52
140
1.0
102
RTVSPost2010PropOp52
 70
     0
102
RTVSPost2010Prop53
 90
        2
102
RTVSPost2010PropOp53
 70
     1
102
RTVSPost2010Prop54
  1
strokes_ogs.tif
102
RTVSPost2010PropOp54
 70
     1
102
RTVSPost2010Prop55
280
     0
102
RTVSPost2010PropOp55
 70
     1
102
RTVSPost2010Prop56
140
1.0
102
RTVSPost2010PropOp56
 70
     1
102
RTVSPost2010Prop57
140
1.0
102
RTVSPost2010PropOp57
 70
     1
  0
XRECORD
  5
1C0
102
{ACAD_REACTORS
330
1BF
102
}
330
1BF
100
AcDbXrecord
280
     1
102
RTVSPost2010Prop28
280
     0
102
RTVSPost2010PropOp28
 70
     1
102
RTVSPost2010Prop29
280
     1
102
RTVSPost2010PropOp29
 70
     1
102
RTVSPost2010Prop30
280
     1
102
RTVSPost2010PropOp30
 70
     1
102
RTVSPost2010Prop31
280
     0
102
RTVSPost2010PropOp31
 70
     1
102
RTVSPost2010Prop32
280
     0
102
RTVSPost2010PropOp32
 70
     1
102
RTVSPost2010Prop33
280
     0
102
RTVSPost2010PropOp33
 70
     1
102
RTVSPost2010Prop34
280
     0
102
RTVSPost2010PropOp34
 70
     1
102
RTVSPost2010Prop35
280
     0
102
RTVSPost2010PropOp35
 70
     1
102
RTVSPost2010Prop36
280
     0
102
RTVSPost2010PropOp36
 70
     1
102
RTVSPost2010Prop37
 90
       50
102
RTVSPost2010PropOp37
 70
     1
102
RTVSPost2010Prop38
140
0.0
102
RTVSPost2010PropOp38
 70
     1
102
RTVSPost2010Prop39
140
1.0
102
RTVSPost2010PropOp39
 70
     1
102
RTVSPost2010Prop40
 90
        0
102
RTVSPost2010PropOp40
 70
     1
102
RTVSPost2010Prop41ColorIndex
 90
       18
102
RTVSPost2010Prop41ColorRGB
 90
        0
102
RTVSPost2010PropOp41
 70
     1
102
RTVSPost2010Prop42
 90
       50
102
RTVSPost2010PropOp42
 70
     1
102
RTVSPost2010Prop43
 90
        3
102
RTVSPost2010PropOp43
 70
     1
102
RTVSPost2010Prop44ColorIndex
 90
        5
102
RTVSPost2010Prop44ColorRGB
 90
      255
102
RTVSPost2010PropOp44
 70
     1
102
RTVSPost2010Prop45
280
     0
102
RTVSPost2010PropOp45
 70
     1
102
RTVSPost2010Prop46
 90
       50
102
RTVSPost2010PropOp46
 70
     1
102
RTVSPost2010Prop47
 90
       50
102
RTVSPost2010PropOp47
 70
     1
102
RTVSPost2010Prop48
 90
       50
102
RTVSPost2010PropOp48
 70
     1
102
RTVSPost2010Prop49
280
     0
102
RTVSPost2010PropOp49
 70
     1
102
RTVSPost2010Prop50
 90
       50
102
RTVSPost2010PropOp50
 70
     1
102
RTVSPost2010Prop51ColorIndex
 90
      256
102
RTVSPost2010Prop51ColorRGB
 90
-16777216
102
RTVSPost2010PropOp51
 70
     0
102
RTVSPost2010Prop52
140
1.0
102
RTVSPost2010PropOp52
 70
     0
102
RTVSPost2010Prop53
 90
        2
102
RTVSPost2010PropOp53
 70
     1
102
RTVSPost2010Prop54
  1
strokes_ogs.tif
102
RTVSPost2010PropOp54
 70
     1
102
RTVSPost2010Prop55
280
     0
102
RTVSPost2010PropOp55
 70
     1
102
RTVSPost2010Prop56
140
1.0
102
RTVSPost2010PropOp56
 70
     1
102
RTVSPost2010Prop57
140
1.0
102
RTVSPost2010PropOp57
 70
     1
  0
XRECORD
  5
1BE
102
{ACAD_REACTORS
330
1BD
102
}
330
1BD
100
AcDbXrecord
280
     1
102
RTVSPost2010Prop28
280
     0
102
RTVSPost2010PropOp28
 70
     1
102
RTVSPost2010Prop29
280
     1
102
RTVSPost2010PropOp29
 70
     1
102
RTVSPost2010Prop30
280
     1
102
RTVSPost2010PropOp30
 70
     1
102
RTVSPost2010Prop31
280
     0
102
RTVSPost2010PropOp31
 70
     1
102
RTVSPost2010Prop32
280
     0
102
RTVSPost2010PropOp32
 70
     1
102
RTVSPost2010Prop33
280
     0
102
RTVSPost2010PropOp33
 70
     1
102
RTVSPost2010Prop34
280
     0
102
RTVSPost2010PropOp34
 70
     1
102
RTVSPost2010Prop35
280
     0
102
RTVSPost2010PropOp35
 70
     1
102
RTVSPost2010Prop36
280
     0
102
RTVSPost2010PropOp36
 70
     1
102
RTVSPost2010Prop37
 90
       50
102
RTVSPost2010PropOp37
 70
     1
102
RTVSPost2010Prop38
140
0.0
102
RTVSPost2010PropOp38
 70
     1
102
RTVSPost2010Prop39
140
1.0
102
RTVSPost2010PropOp39
 70
     1
102
RTVSPost2010Prop40
 90
        0
102
RTVSPost2010PropOp40
 70
     1
102
RTVSPost2010Prop41ColorIndex
 90
       18
102
RTVSPost2010Prop41ColorRGB
 90
        0
102
RTVSPost2010PropOp41
 70
     1
102
RTVSPost2010Prop42
 90
       50
102
RTVSPost2010PropOp42
 70
     1
102
RTVSPost2010Prop43
 90
        3
102
RTVSPost2010PropOp43
 70
     1
102
RTVSPost2010Prop44ColorIndex
 90
        5
102
RTVSPost2010Prop44ColorRGB
 90
      255
102
RTVSPost2010PropOp44
 70
     1
102
RTVSPost2010Prop45
280
     0
102
RTVSPost2010PropOp45
 70
     1
102
RTVSPost2010Prop46
 90
       50
102
RTVSPost2010PropOp46
 70
     1
102
RTVSPost2010Prop47
 90
       50
102
RTVSPost2010PropOp47
 70
     1
102
RTVSPost2010Prop48
 90
       50
102
RTVSPost2010PropOp48
 70
     1
102
RTVSPost2010Prop49
280
     0
102
RTVSPost2010PropOp49
 70
     1
102
RTVSPost2010Prop50
 90
       50
102
RTVSPost2010PropOp50
 70
     1
102
RTVSPost2010Prop51ColorIndex
 90
      256
102
RTVSPost2010Prop51ColorRGB
 90
-16777216
102
RTVSPost2010PropOp51
 70
     0
102
RTVSPost2010Prop52
140
1.0
102
RTVSPost2010PropOp52
 70
     0
102
RTVSPost2010Prop53
 90
        2
102
RTVSPost2010PropOp53
 70
     1
102
RTVSPost2010Prop54
  1
strokes_ogs.tif
102
RTVSPost2010PropOp54
 70
     1
102
RTVSPost2010Prop55
280
     0
102
RTVSPost2010PropOp55
 70
     1
102
RTVSPost2010Prop56
140
1.0
102
RTVSPost2010PropOp56
 70
     1
102
RTVSPost2010Prop57
140
1.0
102
RTVSPost2010PropOp57
 70
     1
  0
XRECORD
  5
1B8
102
{ACAD_REACTORS
330
1B7
102
}
330
1B7
100
AcDbXrecord
280
     1
102
RTVSPost2010Prop28
280
     0
102
RTVSPost2010PropOp28
 70
     1
102
RTVSPost2010Prop29
280
     1
102
RTVSPost2010PropOp29
 70
     1
102
RTVSPost2010Prop30
280
     1
102
RTVSPost2010PropOp30
 70
     1
102
RTVSPost2010Prop31
280
     0
102
RTVSPost2010PropOp31
 70
     1
102
RTVSPost2010Prop32
280
     0
102
RTVSPost2010PropOp32
 70
     1
102
RTVSPost2010Prop33
280
     0
102
RTVSPost2010PropOp33
 70
     1
102
RTVSPost2010Prop34
280
     0
102
RTVSPost2010PropOp34
 70
     1
102
RTVSPost2010Prop35
280
     0
102
RTVSPost2010PropOp35
 70
     1
102
RTVSPost2010Prop36
280
     0
102
RTVSPost2010PropOp36
 70
     1
102
RTVSPost2010Prop37
 90
       50
102
RTVSPost2010PropOp37
 70
     1
102
RTVSPost2010Prop38
140
0.0
102
RTVSPost2010PropOp38
 70
     1
102
RTVSPost2010Prop39
140
1.0
102
RTVSPost2010PropOp39
 70
     1
102
RTVSPost2010Prop40
 90
        0
102
RTVSPost2010PropOp40
 70
     1
102
RTVSPost2010Prop41ColorIndex
 90
       18
102
RTVSPost2010Prop41ColorRGB
 90
        0
102
RTVSPost2010PropOp41
 70
     1
102
RTVSPost2010Prop42
 90
       50
102
RTVSPost2010PropOp42
 70
     1
102
RTVSPost2010Prop43
 90
        3
102
RTVSPost2010PropOp43
 70
     1
102
RTVSPost2010Prop44ColorIndex
 90
        5
102
RTVSPost2010Prop44ColorRGB
 90
      255
102
RTVSPost2010PropOp44
 70
     1
102
RTVSPost2010Prop45
280
     0
102
RTVSPost2010PropOp45
 70
     1
102
RTVSPost2010Prop46
 90
       50
102
RTVSPost2010PropOp46
 70
     1
102
RTVSPost2010Prop47
 90
       50
102
RTVSPost2010PropOp47
 70
     1
102
RTVSPost2010Prop48
 90
       50
102
RTVSPost2010PropOp48
 70
     1
102
RTVSPost2010Prop49
280
     0
102
RTVSPost2010PropOp49
 70
     1
102
RTVSPost2010Prop50
 90
       50
102
RTVSPost2010PropOp50
 70
     1
102
RTVSPost2010Prop51ColorIndex
 90
      256
102
RTVSPost2010Prop51ColorRGB
 90
-16777216
102
RTVSPost2010PropOp51
 70
     0
102
RTVSPost2010Prop52
140
1.0
102
RTVSPost2010PropOp52
 70
     0
102
RTVSPost2010Prop53
 90
        2
102
RTVSPost2010PropOp53
 70
     1
102
RTVSPost2010Prop54
  1
strokes_ogs.tif
102
RTVSPost2010PropOp54
 70
     1
102
RTVSPost2010Prop55
280
     0
102
RTVSPost2010PropOp55
 70
     1
102
RTVSPost2010Prop56
140
1.0
102
RTVSPost2010PropOp56
 70
     1
102
RTVSPost2010Prop57
140
1.0
102
RTVSPost2010PropOp57
 70
     1
  0
XRECORD
  5
1BA
102
{ACAD_REACTORS
330
1B9
102
}
330
1B9
100
AcDbXrecord
280
     1
102
RTVSPost2010Prop28
280
     0
102
RTVSPost2010PropOp28
 70
     1
102
RTVSPost2010Prop29
280
     1
102
RTVSPost2010PropOp29
 70
     1
102
RTVSPost2010Prop30
280
     1
102
RTVSPost2010PropOp30
 70
     1
102
RTVSPost2010Prop31
280
     0
102
RTVSPost2010PropOp31
 70
     1
102
RTVSPost2010Prop32
280
     0
102
RTVSPost2010PropOp32
 70
     1
102
RTVSPost2010Prop33
280
     0
102
RTVSPost2010PropOp33
 70
     1
102
RTVSPost2010Prop34
280
     0
102
RTVSPost2010PropOp34
 70
     1
102
RTVSPost2010Prop35
280
     0
102
RTVSPost2010PropOp35
 70
     1
102
RTVSPost2010Prop36
280
     0
102
RTVSPost2010PropOp36
 70
     1
102
RTVSPost2010Prop37
 90
       50
102
RTVSPost2010PropOp37
 70
     1
102
RTVSPost2010Prop38
140
0.0
102
RTVSPost2010PropOp38
 70
     1
102
RTVSPost2010Prop39
140
1.0
102
RTVSPost2010PropOp39
 70
     1
102
RTVSPost2010Prop40
 90
        0
102
RTVSPost2010PropOp40
 70
     1
102
RTVSPost2010Prop41ColorIndex
 90
       18
102
RTVSPost2010Prop41ColorRGB
 90
        0
102
RTVSPost2010PropOp41
 70
     1
102
RTVSPost2010Prop42
 90
       50
102
RTVSPost2010PropOp42
 70
     1
102
RTVSPost2010Prop43
 90
        3
102
RTVSPost2010PropOp43
 70
     1
102
RTVSPost2010Prop44ColorIndex
 90
        5
102
RTVSPost2010Prop44ColorRGB
 90
      255
102
RTVSPost2010PropOp44
 70
     1
102
RTVSPost2010Prop45
280
     0
102
RTVSPost2010PropOp45
 70
     1
102
RTVSPost2010Prop46
 90
       50
102
RTVSPost2010PropOp46
 70
     1
102
RTVSPost2010Prop47
 90
       50
102
RTVSPost2010PropOp47
 70
     1
102
RTVSPost2010Prop48
 90
       50
102
RTVSPost2010PropOp48
 70
     1
102
RTVSPost2010Prop49
280
     0
102
RTVSPost2010PropOp49
 70
     1
102
RTVSPost2010Prop50
 90
       50
102
RTVSPost2010PropOp50
 70
     1
102
RTVSPost2010Prop51ColorIndex
 90
      256
102
RTVSPost2010Prop51ColorRGB
 90
-16777216
102
RTVSPost2010PropOp51
 70
     0
102
RTVSPost2010Prop52
140
1.0
102
RTVSPost2010PropOp52
 70
     0
102
RTVSPost2010Prop53
 90
        2
102
RTVSPost2010PropOp53
 70
     1
102
RTVSPost2010Prop54
  1
strokes_ogs.tif
102
RTVSPost2010PropOp54
 70
     1
102
RTVSPost2010Prop55
280
     0
102
RTVSPost2010PropOp55
 70
     1
102
RTVSPost2010Prop56
140
1.0
102
RTVSPost2010PropOp56
 70
     1
102
RTVSPost2010Prop57
140
1.0
102
RTVSPost2010PropOp57
 70
     1
  0
XRECORD
  5
1AA
102
{ACAD_REACTORS
330
1A9
102
}
330
1A9
100
AcDbXrecord
280
     1
102
RTVSPost2010Prop28
280
     0
102
RTVSPost2010PropOp28
 70
     1
102
RTVSPost2010Prop29
280
     1
102
RTVSPost2010PropOp29
 70
     1
102
RTVSPost2010Prop30
280
     1
102
RTVSPost2010PropOp30
 70
     1
102
RTVSPost2010Prop31
280
     0
102
RTVSPost2010PropOp31
 70
     1
102
RTVSPost2010Prop32
280
     0
102
RTVSPost2010PropOp32
 70
     1
102
RTVSPost2010Prop33
280
     0
102
RTVSPost2010PropOp33
 70
     1
102
RTVSPost2010Prop34
280
     0
102
RTVSPost2010PropOp34
 70
     1
102
RTVSPost2010Prop35
280
     0
102
RTVSPost2010PropOp35
 70
     1
102
RTVSPost2010Prop36
280
     0
102
RTVSPost2010PropOp36
 70
     1
102
RTVSPost2010Prop37
 90
       50
102
RTVSPost2010PropOp37
 70
     1
102
RTVSPost2010Prop38
140
0.0
102
RTVSPost2010PropOp38
 70
     1
102
RTVSPost2010Prop39
140
1.0
102
RTVSPost2010PropOp39
 70
     1
102
RTVSPost2010Prop40
 90
        0
102
RTVSPost2010PropOp40
 70
     1
102
RTVSPost2010Prop41ColorIndex
 90
       18
102
RTVSPost2010Prop41ColorRGB
 90
        0
102
RTVSPost2010PropOp41
 70
     1
102
RTVSPost2010Prop42
 90
       50
102
RTVSPost2010PropOp42
 70
     1
102
RTVSPost2010Prop43
 90
        3
102
RTVSPost2010PropOp43
 70
     1
102
RTVSPost2010Prop44ColorIndex
 90
        5
102
RTVSPost2010Prop44ColorRGB
 90
      255
102
RTVSPost2010PropOp44
 70
     1
102
RTVSPost2010Prop45
280
     0
102
RTVSPost2010PropOp45
 70
     1
102
RTVSPost2010Prop46
 90
       50
102
RTVSPost2010PropOp46
 70
     1
102
RTVSPost2010Prop47
 90
       50
102
RTVSPost2010PropOp47
 70
     1
102
RTVSPost2010Prop48
 90
       50
102
RTVSPost2010PropOp48
 70
     1
102
RTVSPost2010Prop49
280
     0
102
RTVSPost2010PropOp49
 70
     1
102
RTVSPost2010Prop50
 90
       50
102
RTVSPost2010PropOp50
 70
     1
102
RTVSPost2010Prop51ColorIndex
 90
      256
102
RTVSPost2010Prop51ColorRGB
 90
-16777216
102
RTVSPost2010PropOp51
 70
     0
102
RTVSPost2010Prop52
140
1.0
102
RTVSPost2010PropOp52
 70
     0
102
RTVSPost2010Prop53
 90
        2
102
RTVSPost2010PropOp53
 70
     1
102
RTVSPost2010Prop54
  1
strokes_ogs.tif
102
RTVSPost2010PropOp54
 70
     1
102
RTVSPost2010Prop55
280
     0
102
RTVSPost2010PropOp55
 70
     1
102
RTVSPost2010Prop56
140
1.0
102
RTVSPost2010PropOp56
 70
     1
102
RTVSPost2010Prop57
140
1.0
102
RTVSPost2010PropOp57
 70
     1
  0
XRECORD
  5
19C
102
{ACAD_REACTORS
330
19B
102
}
330
19B
100
AcDbXrecord
280
     1
102
RTVSPost2010Prop28
280
     0
102
RTVSPost2010PropOp28
 70
     1
102
RTVSPost2010Prop29
280
     1
102
RTVSPost2010PropOp29
 70
     1
102
RTVSPost2010Prop30
280
     1
102
RTVSPost2010PropOp30
 70
     1
102
RTVSPost2010Prop31
280
     0
102
RTVSPost2010PropOp31
 70
     1
102
RTVSPost2010Prop32
280
     0
102
RTVSPost2010PropOp32
 70
     1
102
RTVSPost2010Prop33
280
     0
102
RTVSPost2010PropOp33
 70
     1
102
RTVSPost2010Prop34
280
     0
102
RTVSPost2010PropOp34
 70
     1
102
RTVSPost2010Prop35
280
     0
102
RTVSPost2010PropOp35
 70
     1
102
RTVSPost2010Prop36
280
     0
102
RTVSPost2010PropOp36
 70
     1
102
RTVSPost2010Prop37
 90
       50
102
RTVSPost2010PropOp37
 70
     1
102
RTVSPost2010Prop38
140
0.0
102
RTVSPost2010PropOp38
 70
     1
102
RTVSPost2010Prop39
140
1.0
102
RTVSPost2010PropOp39
 70
     1
102
RTVSPost2010Prop40
 90
        0
102
RTVSPost2010PropOp40
 70
     1
102
RTVSPost2010Prop41ColorIndex
 90
       18
102
RTVSPost2010Prop41ColorRGB
 90
        0
102
RTVSPost2010PropOp41
 70
     1
102
RTVSPost2010Prop42
 90
       50
102
RTVSPost2010PropOp42
 70
     1
102
RTVSPost2010Prop43
 90
        3
102
RTVSPost2010PropOp43
 70
     1
102
RTVSPost2010Prop44ColorIndex
 90
        5
102
RTVSPost2010Prop44ColorRGB
 90
      255
102
RTVSPost2010PropOp44
 70
     1
102
RTVSPost2010Prop45
280
     0
102
RTVSPost2010PropOp45
 70
     1
102
RTVSPost2010Prop46
 90
       50
102
RTVSPost2010PropOp46
 70
     1
102
RTVSPost2010Prop47
 90
       50
102
RTVSPost2010PropOp47
 70
     1
102
RTVSPost2010Prop48
 90
       50
102
RTVSPost2010PropOp48
 70
     1
102
RTVSPost2010Prop49
280
     0
102
RTVSPost2010PropOp49
 70
     1
102
RTVSPost2010Prop50
 90
       50
102
RTVSPost2010PropOp50
 70
     1
102
RTVSPost2010Prop51ColorIndex
 90
      256
102
RTVSPost2010Prop51ColorRGB
 90
-16777216
102
RTVSPost2010PropOp51
 70
     0
102
RTVSPost2010Prop52
140
1.0
102
RTVSPost2010PropOp52
 70
     0
102
RTVSPost2010Prop53
 90
        2
102
RTVSPost2010PropOp53
 70
     1
102
RTVSPost2010Prop54
  1
strokes_ogs.tif
102
RTVSPost2010PropOp54
 70
     1
102
RTVSPost2010Prop55
280
     0
102
RTVSPost2010PropOp55
 70
     1
102
RTVSPost2010Prop56
140
1.0
102
RTVSPost2010PropOp56
 70
     1
102
RTVSPost2010Prop57
140
1.0
102
RTVSPost2010PropOp57
 70
     1
  0
XRECORD
  5
1BC
102
{ACAD_REACTORS
330
1BB
102
}
330
1BB
100
AcDbXrecord
280
     1
102
RTVSPost2010Prop28
280
     0
102
RTVSPost2010PropOp28
 70
     1
102
RTVSPost2010Prop29
280
     1
102
RTVSPost2010PropOp29
 70
     1
102
RTVSPost2010Prop30
280
     1
102
RTVSPost2010PropOp30
 70
     1
102
RTVSPost2010Prop31
280
     0
102
RTVSPost2010PropOp31
 70
     1
102
RTVSPost2010Prop32
280
     0
102
RTVSPost2010PropOp32
 70
     1
102
RTVSPost2010Prop33
280
     0
102
RTVSPost2010PropOp33
 70
     1
102
RTVSPost2010Prop34
280
     0
102
RTVSPost2010PropOp34
 70
     1
102
RTVSPost2010Prop35
280
     0
102
RTVSPost2010PropOp35
 70
     1
102
RTVSPost2010Prop36
280
     0
102
RTVSPost2010PropOp36
 70
     1
102
RTVSPost2010Prop37
 90
       50
102
RTVSPost2010PropOp37
 70
     1
102
RTVSPost2010Prop38
140
0.0
102
RTVSPost2010PropOp38
 70
     1
102
RTVSPost2010Prop39
140
1.0
102
RTVSPost2010PropOp39
 70
     1
102
RTVSPost2010Prop40
 90
        0
102
RTVSPost2010PropOp40
 70
     1
102
RTVSPost2010Prop41ColorIndex
 90
       18
102
RTVSPost2010Prop41ColorRGB
 90
        0
102
RTVSPost2010PropOp41
 70
     1
102
RTVSPost2010Prop42
 90
       50
102
RTVSPost2010PropOp42
 70
     1
102
RTVSPost2010Prop43
 90
        3
102
RTVSPost2010PropOp43
 70
     1
102
RTVSPost2010Prop44ColorIndex
 90
        5
102
RTVSPost2010Prop44ColorRGB
 90
      255
102
RTVSPost2010PropOp44
 70
     1
102
RTVSPost2010Prop45
280
     0
102
RTVSPost2010PropOp45
 70
     1
102
RTVSPost2010Prop46
 90
       50
102
RTVSPost2010PropOp46
 70
     1
102
RTVSPost2010Prop47
 90
       50
102
RTVSPost2010PropOp47
 70
     1
102
RTVSPost2010Prop48
 90
       50
102
RTVSPost2010PropOp48
 70
     1
102
RTVSPost2010Prop49
280
     0
102
RTVSPost2010PropOp49
 70
     1
102
RTVSPost2010Prop50
 90
       50
102
RTVSPost2010PropOp50
 70
     1
102
RTVSPost2010Prop51ColorIndex
 90
      256
102
RTVSPost2010Prop51ColorRGB
 90
-16777216
102
RTVSPost2010PropOp51
 70
     0
102
RTVSPost2010Prop52
140
1.0
102
RTVSPost2010PropOp52
 70
     0
102
RTVSPost2010Prop53
 90
        2
102
RTVSPost2010PropOp53
 70
     1
102
RTVSPost2010Prop54
  1
strokes_ogs.tif
102
RTVSPost2010PropOp54
 70
     1
102
RTVSPost2010Prop55
280
     0
102
RTVSPost2010PropOp55
 70
     1
102
RTVSPost2010Prop56
140
1.0
102
RTVSPost2010PropOp56
 70
     1
102
RTVSPost2010Prop57
140
1.0
102
RTVSPost2010PropOp57
 70
     1
  0
ENDSEC
  0
EOF
