0
SECTION
2
HEADER
9
$ACADVER
1
AC1014
9
$HANDSEED
5
FFFF
0
ENDSEC
0
SECTION
2
TABLES
0
TABLE
2
VPORT
5
8
100
AcDbSymbolTable
0
ENDTAB
0
TABLE
2
LTYPE
5
5
100
AcDbSymbolTable
0
LTYPE
5
14
100
AcDbSymbolTableRecord
100
AcDbLinetypeTableRecord
2
BYBLOCK
70
0
0
LTYPE
5
15
100
AcDbSymbolTableRecord
100
AcDbLinetypeTableRecord
2
BYLAYER
70
0
0
ENDTAB
0
TABLE
2
LAYER
5
2
100
AcDbSymbolTable
70
2
0
LAYER
5
50
100
AcDbSymbolTableRecord
100
AcDbLayerTableRecord
2
0
70
0
6
CONTINUOUS
0
ENDTAB
0
TABLE
2
STYLE
5
3
100
AcDbSymbolTable
70
1
0
STYLE
5
11
100
AcDbSymbolTableRecord
100
AcDbTextStyleTableRecord
2
STANDARD
70
0
0
ENDTAB
0
TABLE
2
VIEW
5
6
100
AcDbSymbolTable
70
0
0
ENDTAB
0
TABLE
2
UCS
5
7
100
AcDbSymbolTable
70
0
0
ENDTAB
0
TABLE
2
APPID
5
9
100
AcDbSymbolTable
70
2
0
APPID
5
12
100
AcDbSymbolTableRecord
100
AcDbRegAppTableRecord
2
ACAD
70
0
0
ENDTAB
0
TABLE
2
DIMSTYLE
5
A
100
AcDbSymbolTable
70
1
0
ENDTAB
0
TABLE
2
BLOCK_RECORD
5
1
100
AcDbSymbolTable
70
1
0
BLOCK_RECORD
5
1F
100
AcDbSymbolTableRecord
100
AcDbBlockTableRecord
2
*MODEL_SPACE
0
BLOCK_RECORD
5
1B
100
AcDbSymbolTableRecord
100
AcDbBlockTableRecord
2
*PAPER_SPACE
0
ENDTAB
0
ENDSEC
0
SECTION
2
BLOCKS
0
BLOCK
5
20
100
AcDbEntity
100
AcDbBlockBegin
2
*MODEL_SPACE
0
ENDBLK
5
21
100
AcDbEntity
100
AcDbBlockEnd
0
BLOCK
5
1C
100
AcDbEntity
100
AcDbBlockBegin
2
*PAPER_SPACE
0
ENDBLK
5
1D
100
AcDbEntity
100
AcDbBlockEnd
0
ENDSEC
0
SECTION
2
ENTITIES
0
LWPOLYLINE
5
100
100
AcDbEntity
8
0
100
AcDbPolyline
90
4
70
1
43
0.0
10
-249.99999999999994
20
-319.99999999999915
10
-249.99999999997613
20
310.00000000000142
10
-219.9999999999761
20
310.00000000000028
10
-219.99999999999989
20
-320.00000000000028
0
LWPOLYLINE
5
101
100
AcDbEntity
8
0
100
AcDbPolyline
90
20
70
1
43
0.0
10
-169.99999999998764
20
325.00000000000034
10
-169.99999999998764
20
-324.99999999999966
10
-139.99999999998764
20
-324.99999999999966
10
-139.99999999998761
20
-315.00000000000006
10
-109.99999999998761
20
-314.99999999999983
10
-109.99999999998761
20
-324.99999999999966
10
-79.999999999987608
20
-324.99999999999966
10
-79.999999999987651
20
-314.99999999999983
10
-49.999999999987665
20
-314.99999999999966
10
-49.999999999987644
20
-324.99999999999966
10
-19.99999999998764
20
-324.99999999999966
10
-19.99999999998764
20
325.00000000000034
10
-49.999999999987644
20
325.00000000000034
10
-49.999999999987665
20
315.0000000000004
10
-79.999999999987651
20
315.00000000000051
10
-79.999999999987608
20
325.00000000000034
10
-109.99999999998761
20
325.00000000000034
10
-109.99999999998761
20
315.00000000000051
10
-139.99999999998758
20
315.00000000000074
10
-139.99999999998764
20
325.00000000000034
0
LWPOLYLINE
5
102
100
AcDbEntity
8
0
100
AcDbPolyline
90
4
70
1
43
0.0
10
-39.999999999987644
20
-238.333333333333
10
-39.999999999987644
20
-281.66666666666634
10
-29.99999999998764
20
-281.66666666666634
10
-29.99999999998764
20
-238.333333333333
0
LWPOLYLINE
5
103
100
AcDbEntity
8
0
100
AcDbPolyline
90
4
70
1
43
0.0
10
-39.999999999987644
20
-194.99999999999957
10
-39.999999999987644
20
-151.66666666666626
10
-29.99999999998764
20
-151.66666666666623
10
-29.99999999998764
20
-194.99999999999957
0
LWPOLYLINE
5
104
100
AcDbEntity
8
0
100
AcDbPolyline
90
4
70
1
43
0.0
10
-39.999999999987644
20
-108.33333333333293
10
-39.999999999987644
20
-64.999999999999602
10
-29.99999999998764
20
-64.999999999999588
10
-29.99999999998764
20
-108.33333333333293
0
LWPOLYLINE
5
105
100
AcDbEntity
8
0
100
AcDbPolyline
90
4
70
1
43
0.0
10
-39.999999999987644
20
-21.666666666666288
10
-39.999999999987644
20
21.666666666667034
10
-29.99999999998764
20
21.666666666667034
10
-29.99999999998764
20
-21.666666666666288
0
LWPOLYLINE
5
106
100
AcDbEntity
8
0
100
AcDbPolyline
90
4
70
1
43
0.0
10
-39.999999999987644
20
65.000000000000398
10
-39.999999999987644
20
108.33333333333371
10
-29.99999999998764
20
108.33333333333371
10
-29.99999999998764
20
65.000000000000398
0
LWPOLYLINE
5
107
100
AcDbEntity
8
0
100
AcDbPolyline
90
4
70
1
43
0.0
10
-39.999999999987644
20
151.66666666666706
10
-39.999999999987644
20
195.00000000000034
10
-29.99999999998764
20
195.00000000000034
10
-29.99999999998764
20
151.66666666666706
0
LWPOLYLINE
5
108
100
AcDbEntity
8
0
100
AcDbPolyline
90
4
70
1
43
0.0
10
-29.99999999998764
20
281.66666666666703
10
-29.99999999998764
20
238.33333333333371
10
-39.999999999987644
20
238.33333333333371
10
-39.999999999987637
20
281.66666666666703
0
LWPOLYLINE
5
109
100
AcDbEntity
8
0
100
AcDbPolyline
90
4
70
1
43
0.0
10
-209.99999999998479
20
310.00000000000006
10
-179.99999999998479
20
309.99999999999977
10
-179.99999999999125
20
-320.00000000000023
10
-209.99999999999125
20
-319.99999999999994
0
LWPOLYLINE
5
110
100
AcDbEntity
8
0
100
AcDbPolyline
90
20
70
1
43
0.0
10
1.2358170042858556e-011
20
325.00000000000034
10
1.2359002710127243e-011
20
-324.99999999999966
10
30.000000000012356
20
-324.99999999999966
10
30.000000000012399
20
-315.00000000000006
10
60.000000000012399
20
-314.99999999999983
10
60.000000000012392
20
-324.99999999999966
10
90.000000000012392
20
-324.99999999999966
10
90.000000000012349
20
-314.99999999999983
10
120.00000000001235
20
-314.99999999999966
10
120.00000000001236
20
-324.99999999999966
10
150.00000000001236
20
-324.99999999999966
10
150.00000000001236
20
325.00000000000034
10
120.00000000001236
20
325.00000000000034
10
120.00000000001235
20
315.0000000000004
10
90.000000000012349
20
315.00000000000051
10
90.000000000012392
20
325.00000000000034
10
60.000000000012392
20
325.00000000000034
10
60.000000000012399
20
315.00000000000051
10
30.000000000012395
20
315.00000000000074
10
30.000000000012363
20
325.00000000000034
0
LWPOLYLINE
5
111
100
AcDbEntity
8
0
100
AcDbPolyline
90
4
70
1
43
0.0
10
130.00000000001236
20
-238.333333333333
10
130.00000000001236
20
-281.66666666666634
10
140.00000000001236
20
-281.66666666666634
10
140.00000000001236
20
-238.333333333333
0
LWPOLYLINE
5
112
100
AcDbEntity
8
0
100
AcDbPolyline
90
4
70
1
43
0.0
10
130.00000000001236
20
-194.99999999999957
10
130.00000000001236
20
-151.66666666666626
10
140.00000000001236
20
-151.66666666666623
10
140.00000000001236
20
-194.99999999999957
0
LWPOLYLINE
5
113
100
AcDbEntity
8
0
100
AcDbPolyline
90
4
70
1
43
0.0
10
130.00000000001236
20
-108.33333333333293
10
130.00000000001236
20
-64.999999999999602
10
140.00000000001236
20
-64.999999999999588
10
140.00000000001236
20
-108.33333333333293
0
LWPOLYLINE
5
114
100
AcDbEntity
8
0
100
AcDbPolyline
90
4
70
1
43
0.0
10
130.00000000001236
20
-21.666666666666288
10
130.00000000001236
20
21.666666666667034
10
140.00000000001236
20
21.666666666667034
10
140.00000000001236
20
-21.666666666666288
0
LWPOLYLINE
5
115
100
AcDbEntity
8
0
100
AcDbPolyline
90
4
70
1
43
0.0
10
130.00000000001236
20
65.000000000000398
10
130.00000000001236
20
108.33333333333371
10
140.00000000001236
20
108.33333333333371
10
140.00000000001236
20
65.000000000000398
0
LWPOLYLINE
5
116
100
AcDbEntity
8
0
100
AcDbPolyline
90
4
70
1
43
0.0
10
130.00000000001236
20
151.66666666666706
10
130.00000000001236
20
195.00000000000034
10
140.00000000001236
20
195.00000000000034
10
140.00000000001236
20
151.66666666666706
0
LWPOLYLINE
5
117
100
AcDbEntity
8
0
100
AcDbPolyline
90
4
70
1
43
0.0
10
140.00000000001236
20
281.66666666666703
10
140.00000000001236
20
238.33333333333371
10
130.00000000001236
20
238.33333333333371
10
130.00000000001236
20
281.66666666666703
0
ENDSEC
0
SECTION
2
OBJECTS
0
DICTIONARY
5
C
100
AcDbDictionary
3
ACAD_GROUP
350
D
3
ACAD_MLINESTYLE
350
17
0
DICTIONARY
5
D
100
AcDbDictionary
0
DICTIONARY
5
1A
330
C
100
AcDbDictionary
0
DICTIONARY
5
17
100
AcDbDictionary
0
ENDSEC
0
EOF
