  0
SECTION
  2
HEADER
  9
$ACADVER
  1
AC1021
  9
$ACADMAINTVER
 70
    25
  9
$DWGCODEPAGE
  3
ANSI_1252
  9
$INSBASE
 10
0.0
 20
0.0
 30
0.0
  9
$EXTMIN
 10
415.1513
 20
-3660.1156
 30
0.0
  9
$EXTMAX
 10
2929.9591
 20
-1024.8623
 30
0.0
  9
$LIMMIN
 10
0.0
 20
0.0
  9
$LIMMAX
 10
12.0
 20
9.0
  9
$ORTHOMODE
 70
     0
  9
$REGENMODE
 70
     1
  9
$FILLMODE
 70
     1
  9
$QTEXTMODE
 70
     0
  9
$MIRRTEXT
 70
     1
  9
$LTSCALE
 40
1.0
  9
$ATTMODE
 70
     1
  9
$TEXTSIZE
 40
0.2
  9
$TRACEWID
 40
0.05
  9
$TEXTSTYLE
  7
Standard
  9
$CLAYER
  8
0
  9
$CELTYPE
  6
ByLayer
  9
$CECOLOR
 62
   256
  9
$CELTSCALE
 40
1.0
  9
$DISPSILH
 70
     0
  9
$DIMSCALE
 40
1.0
  9
$DIMASZ
 40
0.18
  9
$DIMEXO
 40
0.0625
  9
$DIMDLI
 40
0.38
  9
$DIMRND
 40
0.0
  9
$DIMDLE
 40
0.0
  9
$DIMEXE
 40
0.18
  9
$DIMTP
 40
0.0
  9
$DIMTM
 40
0.0
  9
$DIMTXT
 40
0.18
  9
$DIMCEN
 40
0.09
  9
$DIMTSZ
 40
0.0
  9
$DIMTOL
 70
     0
  9
$DIMLIM
 70
     0
  9
$DIMTIH
 70
     1
  9
$DIMTOH
 70
     1
  9
$DIMSE1
 70
     0
  9
$DIMSE2
 70
     0
  9
$DIMTAD
 70
     0
  9
$DIMZIN
 70
     0
  9
$DIMBLK
  1

  9
$DIMASO
 70
     1
  9
$DIMSHO
 70
     1
  9
$DIMPOST
  1

  9
$DIMAPOST
  1

  9
$DIMALT
 70
     0
  9
$DIMALTD
 70
     2
  9
$DIMALTF
 40
25.4
  9
$DIMLFAC
 40
1.0
  9
$DIMTOFL
 70
     0
  9
$DIMTVP
 40
0.0
  9
$DIMTIX
 70
     0
  9
$DIMSOXD
 70
     0
  9
$DIMSAH
 70
     0
  9
$DIMBLK1
  1

  9
$DIMBLK2
  1

  9
$DIMSTYLE
  2
Standard
  9
$DIMCLRD
 70
     0
  9
$DIMCLRE
 70
     0
  9
$DIMCLRT
 70
     0
  9
$DIMTFAC
 40
1.0
  9
$DIMGAP
 40
0.09
  9
$DIMJUST
 70
     0
  9
$DIMSD1
 70
     0
  9
$DIMSD2
 70
     0
  9
$DIMTOLJ
 70
     1
  9
$DIMTZIN
 70
     0
  9
$DIMALTZ
 70
     0
  9
$DIMALTTZ
 70
     0
  9
$DIMUPT
 70
     0
  9
$DIMDEC
 70
     4
  9
$DIMTDEC
 70
     4
  9
$DIMALTU
 70
     2
  9
$DIMALTTD
 70
     2
  9
$DIMTXSTY
  7
Standard
  9
$DIMAUNIT
 70
     0
  9
$DIMADEC
 70
     0
  9
$DIMALTRND
 40
0.0
  9
$DIMAZIN
 70
     0
  9
$DIMDSEP
 70
    46
  9
$DIMATFIT
 70
     3
  9
$DIMFRAC
 70
     0
  9
$DIMLDRBLK
  1

  9
$DIMLUNIT
 70
     2
  9
$DIMLWD
 70
    -2
  9
$DIMLWE
 70
    -2
  9
$DIMTMOVE
 70
     0
  9
$DIMFXL
 40
1.0
  9
$DIMFXLON
 70
     0
  9
$DIMJOGANG
 40
0.7853981633974483
  9
$DIMTFILL
 70
     0
  9
$DIMTFILLCLR
 70
     0
  9
$DIMARCSYM
 70
     0
  9
$DIMLTYPE
  6

  9
$DIMLTEX1
  6

  9
$DIMLTEX2
  6

  9
$LUNITS
 70
     2
  9
$LUPREC
 70
     4
  9
$SKETCHINC
 40
0.1
  9
$FILLETRAD
 40
0.5
  9
$AUNITS
 70
     0
  9
$AUPREC
 70
     0
  9
$MENU
  1
.
  9
$ELEVATION
 40
0.0
  9
$PELEVATION
 40
0.0
  9
$THICKNESS
 40
0.0
  9
$LIMCHECK
 70
     0
  9
$CHAMFERA
 40
0.0
  9
$CHAMFERB
 40
0.0
  9
$CHAMFERC
 40
0.0
  9
$CHAMFERD
 40
0.0
  9
$SKPOLY
 70
     0
  9
$TDCREATE
 40
2457888.735313102
  9
$TDUCREATE
 40
2457888.943646435
  9
$TDUPDATE
 40
2457888.735313322
  9
$TDUUPDATE
 40
2457888.943646655
  9
$TDINDWG
 40
0.0000000116
  9
$TDUSRTIMER
 40
0.0000000116
  9
$USRTIMER
 70
     1
  9
$ANGBASE
 50
0.0
  9
$ANGDIR
 70
     0
  9
$PDMODE
 70
     0
  9
$PDSIZE
 40
0.0
  9
$PLINEWID
 40
0.0
  9
$SPLFRAME
 70
     0
  9
$SPLINETYPE
 70
     6
  9
$SPLINESEGS
 70
     8
  9
$HANDSEED
  5
C1
  9
$SURFTAB1
 70
     6
  9
$SURFTAB2
 70
     6
  9
$SURFTYPE
 70
     6
  9
$SURFU
 70
     6
  9
$SURFV
 70
     6
  9
$UCSBASE
  2

  9
$UCSNAME
  2

  9
$UCSORG
 10
0.0
 20
0.0
 30
0.0
  9
$UCSXDIR
 10
1.0
 20
0.0
 30
0.0
  9
$UCSYDIR
 10
0.0
 20
1.0
 30
0.0
  9
$UCSORTHOREF
  2

  9
$UCSORTHOVIEW
 70
     0
  9
$UCSORGTOP
 10
0.0
 20
0.0
 30
0.0
  9
$UCSORGBOTTOM
 10
0.0
 20
0.0
 30
0.0
  9
$UCSORGLEFT
 10
0.0
 20
0.0
 30
0.0
  9
$UCSORGRIGHT
 10
0.0
 20
0.0
 30
0.0
  9
$UCSORGFRONT
 10
0.0
 20
0.0
 30
0.0
  9
$UCSORGBACK
 10
0.0
 20
0.0
 30
0.0
  9
$PUCSBASE
  2

  9
$PUCSNAME
  2

  9
$PUCSORG
 10
0.0
 20
0.0
 30
0.0
  9
$PUCSXDIR
 10
1.0
 20
0.0
 30
0.0
  9
$PUCSYDIR
 10
0.0
 20
1.0
 30
0.0
  9
$PUCSORTHOREF
  2

  9
$PUCSORTHOVIEW
 70
     0
  9
$PUCSORGTOP
 10
0.0
 20
0.0
 30
0.0
  9
$PUCSORGBOTTOM
 10
0.0
 20
0.0
 30
0.0
  9
$PUCSORGLEFT
 10
0.0
 20
0.0
 30
0.0
  9
$PUCSORGRIGHT
 10
0.0
 20
0.0
 30
0.0
  9
$PUCSORGFRONT
 10
0.0
 20
0.0
 30
0.0
  9
$PUCSORGBACK
 10
0.0
 20
0.0
 30
0.0
  9
$USERI1
 70
     0
  9
$USERI2
 70
     0
  9
$USERI3
 70
     0
  9
$USERI4
 70
     0
  9
$USERI5
 70
     0
  9
$USERR1
 40
0.0
  9
$USERR2
 40
0.0
  9
$USERR3
 40
0.0
  9
$USERR4
 40
0.0
  9
$USERR5
 40
0.0
  9
$WORLDVIEW
 70
     1
  9
$SHADEDGE
 70
     3
  9
$SHADEDIF
 70
    70
  9
$TILEMODE
 70
     1
  9
$MAXACTVP
 70
    64
  9
$PINSBASE
 10
0.0
 20
0.0
 30
0.0
  9
$PLIMCHECK
 70
     0
  9
$PEXTMIN
 10
1.000000000000000E+20
 20
1.000000000000000E+20
 30
1.000000000000000E+20
  9
$PEXTMAX
 10
-1.000000000000000E+20
 20
-1.000000000000000E+20
 30
-1.000000000000000E+20
  9
$PLIMMIN
 10
0.0
 20
0.0
  9
$PLIMMAX
 10
12.0
 20
9.0
  9
$UNITMODE
 70
     0
  9
$VISRETAIN
 70
     1
  9
$PLINEGEN
 70
     0
  9
$PSLTSCALE
 70
     1
  9
$TREEDEPTH
 70
  3020
  9
$CMLSTYLE
  2
Standard
  9
$CMLJUST
 70
     0
  9
$CMLSCALE
 40
1.0
  9
$PROXYGRAPHICS
 70
     1
  9
$MEASUREMENT
 70
     0
  9
$CELWEIGHT
370
    -1
  9
$ENDCAPS
280
     0
  9
$JOINSTYLE
280
     0
  9
$LWDISPLAY
290
     0
  9
$INSUNITS
 70
     4
  9
$HYPERLINKBASE
  1

  9
$STYLESHEET
  1

  9
$XEDIT
290
     1
  9
$CEPSNTYPE
380
     0
  9
$PSTYLEMODE
290
     1
  9
$FINGERPRINTGUID
  2
{A99CA25B-E6F9-495B-B220-AB679248EB5D}
  9
$VERSIONGUID
  2
{FAEB1C32-E019-11D5-929B-00C0DF256EC4}
  9
$EXTNAMES
290
     1
  9
$PSVPSCALE
 40
0.0
  9
$OLESTARTUP
290
     0
  9
$SORTENTS
280
   127
  9
$INDEXCTL
280
     0
  9
$HIDETEXT
280
     1
  9
$XCLIPFRAME
290
     0
  9
$HALOGAP
280
     0
  9
$OBSCOLOR
 70
   257
  9
$OBSLTYPE
280
     0
  9
$INTERSECTIONDISPLAY
280
     0
  9
$INTERSECTIONCOLOR
 70
   257
  9
$DIMASSOC
280
     2
  9
$PROJECTNAME
  1

  9
$CAMERADISPLAY
290
     0
  9
$LENSLENGTH
 40
50.0
  9
$CAMERAHEIGHT
 40
0.0
  9
$STEPSPERSEC
 40
2.0
  9
$STEPSIZE
 40
6.0
  9
$3DDWFPREC
 40
2.0
  9
$PSOLWIDTH
 40
0.25
  9
$PSOLHEIGHT
 40
4.0
  9
$LOFTANG1
 40
1.570796326794897
  9
$LOFTANG2
 40
1.570796326794897
  9
$LOFTMAG1
 40
0.0
  9
$LOFTMAG2
 40
0.0
  9
$LOFTPARAM
 70
     7
  9
$LOFTNORMALS
280
     1
  9
$LATITUDE
 40
37.795
  9
$LONGITUDE
 40
-122.394
  9
$NORTHDIRECTION
 40
0.0
  9
$TIMEZONE
 70
 -8000
  9
$LIGHTGLYPHDISPLAY
280
     1
  9
$TILEMODELIGHTSYNCH
280
     1
  9
$CMATERIAL
347
44
  9
$SOLIDHIST
280
     0
  9
$SHOWHIST
280
     1
  9
$DWFFRAME
280
     2
  9
$DGNFRAME
280
     2
  9
$REALWORLDSCALE
290
     1
  9
$INTERFERECOLOR
 62
   256
  9
$CSHADOW
280
     0
  9
$SHADOWPLANELOCATION
 40
0.0
  0
ENDSEC
  0
SECTION
  2
CLASSES
  0
CLASS
  1
ACDBDICTIONARYWDFLT
  2
AcDbDictionaryWithDefault
  3
ObjectDBX Classes
 90
        0
 91
        4
280
     0
281
     0
  0
CLASS
  1
VISUALSTYLE
  2
AcDbVisualStyle
  3
ObjectDBX Classes
 90
     4095
 91
        4
280
     0
281
     0
  0
CLASS
  1
MATERIAL
  2
AcDbMaterial
  3
ObjectDBX Classes
 90
     1153
 91
        4
280
     0
281
     0
  0
CLASS
  1
SCALE
  2
AcDbScale
  3
ObjectDBX Classes
 90
     1153
 91
        4
280
     0
281
     0
  0
CLASS
  1
TABLESTYLE
  2
AcDbTableStyle
  3
ObjectDBX Classes
 90
     4095
 91
        4
280
     0
281
     0
  0
CLASS
  1
MLEADERSTYLE
  2
AcDbMLeaderStyle
  3
ACDB_MLEADERSTYLE_CLASS
 90
     4095
 91
        4
280
     0
281
     0
  0
CLASS
  1
SUN
  2
AcDbSun
  3
SCENEOE
 90
     1153
 91
        4
280
     0
281
     0
  0
CLASS
  1
DICTIONARYVAR
  2
AcDbDictionaryVar
  3
ObjectDBX Classes
 90
        0
 91
        4
280
     0
281
     0
  0
CLASS
  1
CELLSTYLEMAP
  2
AcDbCellStyleMap
  3
ObjectDBX Classes
 90
     1152
 91
        4
280
     0
281
     0
  0
ENDSEC
  0
SECTION
  2
TABLES
  0
TABLE
  2
VPORT
  5
8
330
0
100
AcDbSymbolTable
 70
     1
  0
VPORT
  5
29
330
8
100
AcDbSymbolTableRecord
100
AcDbViewportTableRecord
  2
*Active
 70
     0
 10
0.0
 20
0.0
 11
1.0
 21
1.0
 12
10.42990654205607
 22
4.5
 13
0.0
 23
0.0
 14
0.5
 24
0.5
 15
0.5
 25
0.5
 16
0.0
 26
0.0
 36
1.0
 17
0.0
 27
0.0
 37
0.0
 40
9.0
 41
1.972972972850329
 42
50.0
 43
0.0
 44
0.0
 50
0.0
 51
0.0
 71
     0
 72
   100
 73
     1
 74
     3
 75
     0
 76
     0
 77
     0
 78
     0
281
     0
 65
     1
110
0.0
120
0.0
130
0.0
111
1.0
121
0.0
131
0.0
112
0.0
122
1.0
132
0.0
 79
     0
146
0.0
348
2F
 60
     3
 61
     5
292
     1
282
     1
141
0.0
142
0.0
 63
   250
361
6D
  0
ENDTAB
  0
TABLE
  2
LTYPE
  5
5
330
0
100
AcDbSymbolTable
 70
     1
  0
LTYPE
  5
14
330
5
100
AcDbSymbolTableRecord
100
AcDbLinetypeTableRecord
  2
ByBlock
 70
     0
  3

 72
    65
 73
     0
 40
0.0
  0
LTYPE
  5
15
330
5
100
AcDbSymbolTableRecord
100
AcDbLinetypeTableRecord
  2
ByLayer
 70
     0
  3

 72
    65
 73
     0
 40
0.0
  0
LTYPE
  5
16
330
5
100
AcDbSymbolTableRecord
100
AcDbLinetypeTableRecord
  2
Continuous
 70
     0
  3
Solid line
 72
    65
 73
     0
 40
0.0
  0
ENDTAB
  0
TABLE
  2
LAYER
  5
2
330
0
100
AcDbSymbolTable
 70
     2
  0
LAYER
  5
10
330
2
100
AcDbSymbolTableRecord
100
AcDbLayerTableRecord
  2
0
 70
     0
 62
     7
  6
Continuous
370
    -3
390
F
347
46
  0
LAYER
  5
6F
330
2
100
AcDbSymbolTableRecord
100
AcDbLayerTableRecord
  2
Capa 1
 70
     0
 62
     7
  6
Continuous
370
    -3
390
F
347
46
  0
ENDTAB
  0
TABLE
  2
STYLE
  5
3
330
0
100
AcDbSymbolTable
 70
     1
  0
STYLE
  5
11
330
3
100
AcDbSymbolTableRecord
100
AcDbTextStyleTableRecord
  2
Standard
 70
     0
 40
0.0
 41
1.0
 50
0.0
 71
     0
 42
0.2
  3
txt
  4

  0
ENDTAB
  0
TABLE
  2
VIEW
  5
6
330
0
100
AcDbSymbolTable
 70
     0
  0
ENDTAB
  0
TABLE
  2
UCS
  5
7
330
0
100
AcDbSymbolTable
 70
     0
  0
ENDTAB
  0
TABLE
  2
APPID
  5
9
330
0
100
AcDbSymbolTable
 70
     3
  0
APPID
  5
12
330
9
100
AcDbSymbolTableRecord
100
AcDbRegAppTableRecord
  2
ACAD
 70
     0
  0
APPID
  5
6E
330
9
100
AcDbSymbolTableRecord
100
AcDbRegAppTableRecord
  2
ODA
 70
     0
  0
APPID
  5
B9
330
9
100
AcDbSymbolTableRecord
100
AcDbRegAppTableRecord
  2
ACAD_MLEADERVER
 70
     0
  0
ENDTAB
  0
TABLE
  2
DIMSTYLE
  5
A
330
0
100
AcDbSymbolTable
 70
     1
100
AcDbDimStyleTable
  0
DIMSTYLE
105
27
330
A
100
AcDbSymbolTableRecord
100
AcDbDimStyleTableRecord
  2
Standard
 70
     0
178
     0
340
11
  0
ENDTAB
  0
TABLE
  2
BLOCK_RECORD
  5
1
330
0
100
AcDbSymbolTable
 70
     1
  0
BLOCK_RECORD
  5
1F
330
1
100
AcDbSymbolTableRecord
100
AcDbBlockTableRecord
  2
*Model_Space
340
22
 70
     0
280
     1
281
     0
  0
BLOCK_RECORD
  5
1B
330
1
100
AcDbSymbolTableRecord
100
AcDbBlockTableRecord
  2
*Paper_Space
340
1E
 70
     0
280
     1
281
     0
  0
BLOCK_RECORD
  5
23
330
1
100
AcDbSymbolTableRecord
100
AcDbBlockTableRecord
  2
*Paper_Space0
340
26
 70
     0
280
     1
281
     0
  0
ENDTAB
  0
ENDSEC
  0
SECTION
  2
BLOCKS
  0
BLOCK
  5
20
330
1F
100
AcDbEntity
  8
0
100
AcDbBlockBegin
  2
*Model_Space
 70
     0
 10
0.0
 20
0.0
 30
0.0
  3
*Model_Space
  1

  0
ENDBLK
  5
21
330
1F
100
AcDbEntity
  8
0
100
AcDbBlockEnd
  0
BLOCK
  5
1C
330
1B
100
AcDbEntity
 67
     1
  8
0
100
AcDbBlockBegin
  2
*Paper_Space
 70
     0
 10
0.0
 20
0.0
 30
0.0
  3
*Paper_Space
  1

  0
ENDBLK
  5
1D
330
1B
100
AcDbEntity
 67
     1
  8
0
100
AcDbBlockEnd
  0
BLOCK
  5
24
330
23
100
AcDbEntity
  8
0
100
AcDbBlockBegin
  2
*Paper_Space0
 70
     0
 10
0.0
 20
0.0
 30
0.0
  3
*Paper_Space0
  1

  0
ENDBLK
  5
25
330
23
100
AcDbEntity
  8
0
100
AcDbBlockEnd
  0
ENDSEC
  0
SECTION
  2
ENTITIES
  0
SPLINE
  5
70
330
1F
100
AcDbEntity
  8
Capa 1
370
    20
100
AcDbSpline
210
0.0
220
0.0
230
1.0
 70
    11
 71
     3
 72
    84
 73
    80
 74
     0
 42
0.000000001
 43
0.0000000001
 40
0.0
 40
0.0
 40
0.0
 40
0.0
 40
0.0476190476190476
 40
0.0476190476190476
 40
0.0476190476190476
 40
0.0476190476190476
 40
0.0952380952380952
 40
0.0952380952380952
 40
0.0952380952380952
 40
0.0952380952380952
 40
0.1428571428571428
 40
0.1428571428571428
 40
0.1428571428571428
 40
0.1428571428571428
 40
0.1904761904761905
 40
0.1904761904761905
 40
0.1904761904761905
 40
0.1904761904761905
 40
0.2380952380952381
 40
0.2380952380952381
 40
0.2380952380952381
 40
0.2380952380952381
 40
0.2857142857142857
 40
0.2857142857142857
 40
0.2857142857142857
 40
0.2857142857142857
 40
0.3333333333333333
 40
0.3333333333333333
 40
0.3333333333333333
 40
0.3333333333333333
 40
0.3809523809523809
 40
0.3809523809523809
 40
0.3809523809523809
 40
0.3809523809523809
 40
0.4285714285714285
 40
0.4285714285714285
 40
0.4285714285714285
 40
0.4285714285714285
 40
0.4761904761904762
 40
0.4761904761904762
 40
0.4761904761904762
 40
0.4761904761904762
 40
0.5238095238095238
 40
0.5238095238095238
 40
0.5238095238095238
 40
0.5238095238095238
 40
0.5714285714285714
 40
0.5714285714285714
 40
0.5714285714285714
 40
0.5714285714285714
 40
0.6190476190476191
 40
0.6190476190476191
 40
0.6190476190476191
 40
0.6190476190476191
 40
0.6666666666666666
 40
0.6666666666666666
 40
0.6666666666666666
 40
0.6666666666666666
 40
0.7142857142857143
 40
0.7142857142857143
 40
0.7142857142857143
 40
0.7142857142857143
 40
0.7619047619047619
 40
0.7619047619047619
 40
0.7619047619047619
 40
0.7619047619047619
 40
0.8095238095238095
 40
0.8095238095238095
 40
0.8095238095238095
 40
0.8095238095238095
 40
0.8571428571428571
 40
0.8571428571428571
 40
0.8571428571428571
 40
0.8571428571428571
 40
0.9047619047619048
 40
0.9047619047619048
 40
0.9047619047619048
 40
0.9047619047619048
 40
1.0
 40
1.0
 40
1.0
 40
1.0
 10
2289.1614
 20
-1721.5354
 30
0.0
 10
2289.1614
 20
-1721.5354
 30
0.0
 10
2289.1588
 20
-1868.5353
 30
0.0
 10
2289.1588
 20
-1868.5353
 30
0.0
 10
2289.1588
 20
-1868.5353
 30
0.0
 10
2289.1588
 20
-1868.5353
 30
0.0
 10
2325.0851
 20
-1868.5353
 30
0.0
 10
2325.0851
 20
-1868.5353
 30
0.0
 10
2325.0851
 20
-1868.5353
 30
0.0
 10
2325.0851
 20
-1868.5353
 30
0.0
 10
2325.0851
 20
-1862.5353
 30
0.0
 10
2325.0851
 20
-1862.5353
 30
0.0
 10
2325.0851
 20
-1862.5353
 30
0.0
 10
2325.0851
 20
-1862.5353
 30
0.0
 10
2498.6151
 20
-1862.5353
 30
0.0
 10
2498.6151
 20
-1862.5353
 30
0.0
 10
2498.6151
 20
-1862.5353
 30
0.0
 10
2498.6151
 20
-1862.5353
 30
0.0
 10
2498.6151
 20
-1868.5353
 30
0.0
 10
2498.6151
 20
-1868.5353
 30
0.0
 10
2498.6151
 20
-1868.5353
 30
0.0
 10
2498.6151
 20
-1868.5353
 30
0.0
 10
2534.5388
 20
-1868.5353
 30
0.0
 10
2534.5388
 20
-1868.5353
 30
0.0
 10
2534.5388
 20
-1868.5353
 30
0.0
 10
2534.5388
 20
-1868.5353
 30
0.0
 10
2534.5388
 20
-1721.5354
 30
0.0
 10
2534.5388
 20
-1721.5354
 30
0.0
 10
2534.5388
 20
-1721.5354
 30
0.0
 10
2534.5388
 20
-1721.5354
 30
0.0
 10
2498.6151
 20
-1721.5354
 30
0.0
 10
2498.6151
 20
-1721.5354
 30
0.0
 10
2498.6151
 20
-1721.5354
 30
0.0
 10
2498.6151
 20
-1721.5354
 30
0.0
 10
2498.6151
 20
-1715.5354
 30
0.0
 10
2498.6151
 20
-1715.5354
 30
0.0
 10
2498.6151
 20
-1715.5354
 30
0.0
 10
2498.6151
 20
-1715.5354
 30
0.0
 10
2534.5388
 20
-1715.5354
 30
0.0
 10
2534.5388
 20
-1715.5354
 30
0.0
 10
2534.5388
 20
-1715.5354
 30
0.0
 10
2534.5388
 20
-1715.5354
 30
0.0
 10
2534.5388
 20
-1568.5355
 30
0.0
 10
2534.5388
 20
-1568.5355
 30
0.0
 10
2534.5388
 20
-1568.5355
 30
0.0
 10
2534.5388
 20
-1568.5355
 30
0.0
 10
2498.6125
 20
-1568.5355
 30
0.0
 10
2498.6125
 20
-1568.5355
 30
0.0
 10
2498.6125
 20
-1568.5355
 30
0.0
 10
2498.6125
 20
-1568.5355
 30
0.0
 10
2498.6125
 20
-1574.5355
 30
0.0
 10
2498.6125
 20
-1574.5355
 30
0.0
 10
2498.6125
 20
-1574.5355
 30
0.0
 10
2498.6125
 20
-1574.5355
 30
0.0
 10
2325.0825
 20
-1574.5355
 30
0.0
 10
2325.0825
 20
-1574.5355
 30
0.0
 10
2325.0825
 20
-1574.5355
 30
0.0
 10
2325.0825
 20
-1574.5355
 30
0.0
 10
2325.0825
 20
-1568.5355
 30
0.0
 10
2325.0825
 20
-1568.5355
 30
0.0
 10
2325.0825
 20
-1568.5355
 30
0.0
 10
2325.0825
 20
-1568.5355
 30
0.0
 10
2289.1588
 20
-1568.5355
 30
0.0
 10
2289.1588
 20
-1568.5355
 30
0.0
 10
2289.1588
 20
-1568.5355
 30
0.0
 10
2289.1588
 20
-1568.5355
 30
0.0
 10
2289.1614
 20
-1715.5354
 30
0.0
 10
2289.1614
 20
-1715.5354
 30
0.0
 10
2289.1614
 20
-1715.5354
 30
0.0
 10
2289.1614
 20
-1715.5354
 30
0.0
 10
2325.0851
 20
-1715.5354
 30
0.0
 10
2325.0851
 20
-1715.5354
 30
0.0
 10
2325.0851
 20
-1715.5354
 30
0.0
 10
2325.0851
 20
-1715.5354
 30
0.0
 10
2325.0851
 20
-1721.5354
 30
0.0
 10
2325.0851
 20
-1721.5354
 30
0.0
 10
2325.0851
 20
-1721.5354
 30
0.0
 10
2325.0851
 20
-1721.5354
 30
0.0
 10
2289.1614
 20
-1721.5354
 30
0.0
 10
2289.1614
 20
-1721.5354
 30
0.0
  0
SPLINE
  5
71
330
1F
100
AcDbEntity
  8
Capa 1
 62
   230
370
     9
100
AcDbSpline
210
0.0
220
0.0
230
1.0
 70
    11
 71
     3
 72
   212
 73
   208
 74
     0
 42
0.000000001
 43
0.0000000001
 40
0.0
 40
0.0
 40
0.0
 40
0.0
 40
0.0188679245283019
 40
0.0188679245283019
 40
0.0188679245283019
 40
0.0188679245283019
 40
0.0377358490566038
 40
0.0377358490566038
 40
0.0377358490566038
 40
0.0377358490566038
 40
0.0566037735849057
 40
0.0566037735849057
 40
0.0566037735849057
 40
0.0566037735849057
 40
0.0754716981132075
 40
0.0754716981132075
 40
0.0754716981132075
 40
0.0754716981132075
 40
0.0943396226415094
 40
0.0943396226415094
 40
0.0943396226415094
 40
0.0943396226415094
 40
0.1132075471698113
 40
0.1132075471698113
 40
0.1132075471698113
 40
0.1132075471698113
 40
0.1320754716981132
 40
0.1320754716981132
 40
0.1320754716981132
 40
0.1320754716981132
 40
0.1509433962264151
 40
0.1509433962264151
 40
0.1509433962264151
 40
0.1509433962264151
 40
0.169811320754717
 40
0.169811320754717
 40
0.169811320754717
 40
0.169811320754717
 40
0.1886792452830189
 40
0.1886792452830189
 40
0.1886792452830189
 40
0.1886792452830189
 40
0.2075471698113208
 40
0.2075471698113208
 40
0.2075471698113208
 40
0.2075471698113208
 40
0.2264150943396226
 40
0.2264150943396226
 40
0.2264150943396226
 40
0.2264150943396226
 40
0.2452830188679245
 40
0.2452830188679245
 40
0.2452830188679245
 40
0.2452830188679245
 40
0.2641509433962264
 40
0.2641509433962264
 40
0.2641509433962264
 40
0.2641509433962264
 40
0.2830188679245283
 40
0.2830188679245283
 40
0.2830188679245283
 40
0.2830188679245283
 40
0.3018867924528302
 40
0.3018867924528302
 40
0.3018867924528302
 40
0.3018867924528302
 40
0.3207547169811321
 40
0.3207547169811321
 40
0.3207547169811321
 40
0.3207547169811321
 40
0.3396226415094339
 40
0.3396226415094339
 40
0.3396226415094339
 40
0.3396226415094339
 40
0.3584905660377358
 40
0.3584905660377358
 40
0.3584905660377358
 40
0.3584905660377358
 40
0.3773584905660378
 40
0.3773584905660378
 40
0.3773584905660378
 40
0.3773584905660378
 40
0.3962264150943396
 40
0.3962264150943396
 40
0.3962264150943396
 40
0.3962264150943396
 40
0.4150943396226415
 40
0.4150943396226415
 40
0.4150943396226415
 40
0.4150943396226415
 40
0.4339622641509434
 40
0.4339622641509434
 40
0.4339622641509434
 40
0.4339622641509434
 40
0.4528301886792453
 40
0.4528301886792453
 40
0.4528301886792453
 40
0.4528301886792453
 40
0.4716981132075472
 40
0.4716981132075472
 40
0.4716981132075472
 40
0.4716981132075472
 40
0.4905660377358491
 40
0.4905660377358491
 40
0.4905660377358491
 40
0.4905660377358491
 40
0.5094339622641509
 40
0.5094339622641509
 40
0.5094339622641509
 40
0.5094339622641509
 40
0.5283018867924528
 40
0.5283018867924528
 40
0.5283018867924528
 40
0.5283018867924528
 40
0.5471698113207547
 40
0.5471698113207547
 40
0.5471698113207547
 40
0.5471698113207547
 40
0.5660377358490566
 40
0.5660377358490566
 40
0.5660377358490566
 40
0.5660377358490566
 40
0.5849056603773585
 40
0.5849056603773585
 40
0.5849056603773585
 40
0.5849056603773585
 40
0.6037735849056604
 40
0.6037735849056604
 40
0.6037735849056604
 40
0.6037735849056604
 40
0.6226415094339622
 40
0.6226415094339622
 40
0.6226415094339622
 40
0.6226415094339622
 40
0.6415094339622641
 40
0.6415094339622641
 40
0.6415094339622641
 40
0.6415094339622641
 40
0.660377358490566
 40
0.660377358490566
 40
0.660377358490566
 40
0.660377358490566
 40
0.6792452830188679
 40
0.6792452830188679
 40
0.6792452830188679
 40
0.6792452830188679
 40
0.6981132075471698
 40
0.6981132075471698
 40
0.6981132075471698
 40
0.6981132075471698
 40
0.7169811320754716
 40
0.7169811320754716
 40
0.7169811320754716
 40
0.7169811320754716
 40
0.7358490566037735
 40
0.7358490566037735
 40
0.7358490566037735
 40
0.7358490566037735
 40
0.7547169811320755
 40
0.7547169811320755
 40
0.7547169811320755
 40
0.7547169811320755
 40
0.7735849056603774
 40
0.7735849056603774
 40
0.7735849056603774
 40
0.7735849056603774
 40
0.7924528301886793
 40
0.7924528301886793
 40
0.7924528301886793
 40
0.7924528301886793
 40
0.8113207547169812
 40
0.8113207547169812
 40
0.8113207547169812
 40
0.8113207547169812
 40
0.8301886792452831
 40
0.8301886792452831
 40
0.8301886792452831
 40
0.8301886792452831
 40
0.8490566037735849
 40
0.8490566037735849
 40
0.8490566037735849
 40
0.8490566037735849
 40
0.8679245283018868
 40
0.8679245283018868
 40
0.8679245283018868
 40
0.8679245283018868
 40
0.8867924528301887
 40
0.8867924528301887
 40
0.8867924528301887
 40
0.8867924528301887
 40
0.9056603773584906
 40
0.9056603773584906
 40
0.9056603773584906
 40
0.9056603773584906
 40
0.9245283018867925
 40
0.9245283018867925
 40
0.9245283018867925
 40
0.9245283018867925
 40
0.9433962264150944
 40
0.9433962264150944
 40
0.9433962264150944
 40
0.9433962264150944
 40
0.9622641509433962
 40
0.9622641509433962
 40
0.9622641509433962
 40
0.9622641509433962
 40
1.0
 40
1.0
 40
1.0
 40
1.0
 10
979.1451
 20
-2702.1167
 30
0.0
 10
979.1451
 20
-2702.1167
 30
0.0
 10
973.6535
 20
-2703.644
 30
0.0
 10
973.6535
 20
-2703.644
 30
0.0
 10
973.6535
 20
-2703.644
 30
0.0
 10
973.6535
 20
-2703.644
 30
0.0
 10
953.7145
 20
-2631.9495
 30
0.0
 10
953.7145
 20
-2631.9495
 30
0.0
 10
953.7145
 20
-2631.9495
 30
0.0
 10
953.7145
 20
-2631.9495
 30
0.0
 10
920.7681
 20
-2631.9495
 30
0.0
 10
920.7681
 20
-2631.9495
 30
0.0
 10
920.7681
 20
-2631.9495
 30
0.0
 10
920.7681
 20
-2631.9495
 30
0.0
 10
920.7681
 20
-2626.253
 30
0.0
 10
920.7681
 20
-2626.253
 30
0.0
 10
920.7681
 20
-2626.253
 30
0.0
 10
920.7681
 20
-2626.253
 30
0.0
 10
740.7017
 20
-2626.253
 30
0.0
 10
740.7017
 20
-2626.253
 30
0.0
 10
740.7017
 20
-2626.253
 30
0.0
 10
740.7017
 20
-2626.253
 30
0.0
 10
740.7017
 20
-2631.9495
 30
0.0
 10
740.7017
 20
-2631.9495
 30
0.0
 10
740.7017
 20
-2631.9495
 30
0.0
 10
740.7017
 20
-2631.9495
 30
0.0
 10
707.6828
 20
-2631.9495
 30
0.0
 10
707.6828
 20
-2631.9495
 30
0.0
 10
707.6828
 20
-2631.9495
 30
0.0
 10
707.6828
 20
-2631.9495
 30
0.0
 10
686.4469
 20
-2703.7282
 30
0.0
 10
686.4469
 20
-2703.7282
 30
0.0
 10
686.4469
 20
-2703.7282
 30
0.0
 10
686.4469
 20
-2703.7282
 30
0.0
 10
680.9811
 20
-2702.1111
 30
0.0
 10
680.9811
 20
-2702.1111
 30
0.0
 10
680.9811
 20
-2702.1111
 30
0.0
 10
680.9811
 20
-2702.1111
 30
0.0
 10
572.5658
 20
-3068.562
 30
0.0
 10
572.5658
 20
-3068.562
 30
0.0
 10
572.5658
 20
-3068.562
 30
0.0
 10
572.5658
 20
-3068.562
 30
0.0
 10
578.0317
 20
-3070.1791
 30
0.0
 10
578.0317
 20
-3070.1791
 30
0.0
 10
578.0317
 20
-3070.1791
 30
0.0
 10
578.0317
 20
-3070.1791
 30
0.0
 10
555.5878
 20
-3146.0407
 30
0.0
 10
555.5878
 20
-3146.0407
 30
0.0
 10
555.5878
 20
-3146.0407
 30
0.0
 10
555.5878
 20
-3146.0407
 30
0.0
 10
550.122
 20
-3144.4236
 30
0.0
 10
550.122
 20
-3144.4236
 30
0.0
 10
550.122
 20
-3144.4236
 30
0.0
 10
550.122
 20
-3144.4236
 30
0.0
 10
430.0156
 20
-3550.3913
 30
0.0
 10
430.0156
 20
-3550.3913
 30
0.0
 10
430.0156
 20
-3550.3913
 30
0.0
 10
430.0156
 20
-3550.3913
 30
0.0
 10
435.4814
 20
-3552.0084
 30
0.0
 10
435.4814
 20
-3552.0084
 30
0.0
 10
435.4814
 20
-3552.0084
 30
0.0
 10
435.4814
 20
-3552.0084
 30
0.0
 10
415.2023
 20
-3620.553
 30
0.0
 10
415.2023
 20
-3620.553
 30
0.0
 10
415.2023
 20
-3620.553
 30
0.0
 10
415.2023
 20
-3620.553
 30
0.0
 10
424.1828
 20
-3620.553
 30
0.0
 10
424.1828
 20
-3620.553
 30
0.0
 10
424.1828
 20
-3620.553
 30
0.0
 10
424.1828
 20
-3620.553
 30
0.0
 10
424.1828
 20
-3626.253
 30
0.0
 10
424.1828
 20
-3626.253
 30
0.0
 10
424.1828
 20
-3626.253
 30
0.0
 10
424.1828
 20
-3626.253
 30
0.0
 10
504.4072
 20
-3626.253
 30
0.0
 10
504.4072
 20
-3626.253
 30
0.0
 10
504.4072
 20
-3626.253
 30
0.0
 10
504.4072
 20
-3626.253
 30
0.0
 10
504.4072
 20
-3620.553
 30
0.0
 10
504.4072
 20
-3620.553
 30
0.0
 10
504.4072
 20
-3620.553
 30
0.0
 10
504.4072
 20
-3620.553
 30
0.0
 10
516.7459
 20
-3620.553
 30
0.0
 10
516.7459
 20
-3620.553
 30
0.0
 10
516.7459
 20
-3620.553
 30
0.0
 10
516.7459
 20
-3620.553
 30
0.0
 10
524.8728
 20
-3592.8258
 30
0.0
 10
524.8728
 20
-3592.8258
 30
0.0
 10
524.8728
 20
-3592.8258
 30
0.0
 10
524.8728
 20
-3592.8258
 30
0.0
 10
530.3427
 20
-3594.429
 30
0.0
 10
530.3427
 20
-3594.429
 30
0.0
 10
530.3427
 20
-3594.429
 30
0.0
 10
530.3427
 20
-3594.429
 30
0.0
 10
575.4046
 20
-3440.6886
 30
0.0
 10
575.4046
 20
-3440.6886
 30
0.0
 10
575.4046
 20
-3440.6886
 30
0.0
 10
575.4046
 20
-3440.6886
 30
0.0
 10
569.9347
 20
-3439.0854
 30
0.0
 10
569.9347
 20
-3439.0854
 30
0.0
 10
569.9347
 20
-3439.0854
 30
0.0
 10
569.9347
 20
-3439.0854
 30
0.0
 10
579.2633
 20
-3407.2585
 30
0.0
 10
579.2633
 20
-3407.2585
 30
0.0
 10
579.2633
 20
-3407.2585
 30
0.0
 10
579.2633
 20
-3407.2585
 30
0.0
 10
584.7332
 20
-3408.8617
 30
0.0
 10
584.7332
 20
-3408.8617
 30
0.0
 10
584.7332
 20
-3408.8617
 30
0.0
 10
584.7332
 20
-3408.8617
 30
0.0
 10
584.7332
 20
-3403.1617
 30
0.0
 10
584.7332
 20
-3403.1617
 30
0.0
 10
584.7332
 20
-3403.1617
 30
0.0
 10
584.7332
 20
-3403.1617
 30
0.0
 10
628.7781
 20
-3403.1617
 30
0.0
 10
628.7781
 20
-3403.1617
 30
0.0
 10
628.7781
 20
-3403.1617
 30
0.0
 10
628.7781
 20
-3403.1617
 30
0.0
 10
628.7781
 20
-3408.8617
 30
0.0
 10
628.7781
 20
-3408.8617
 30
0.0
 10
628.7781
 20
-3408.8617
 30
0.0
 10
628.7781
 20
-3408.8617
 30
0.0
 10
841.5379
 20
-3408.8617
 30
0.0
 10
841.5379
 20
-3408.8617
 30
0.0
 10
841.5379
 20
-3408.8617
 30
0.0
 10
841.5379
 20
-3408.8617
 30
0.0
 10
841.5379
 20
-3403.1617
 30
0.0
 10
841.5379
 20
-3403.1617
 30
0.0
 10
841.5379
 20
-3403.1617
 30
0.0
 10
841.5379
 20
-3403.1617
 30
0.0
 10
885.5828
 20
-3403.1617
 30
0.0
 10
885.5828
 20
-3403.1617
 30
0.0
 10
885.5828
 20
-3403.1617
 30
0.0
 10
885.5828
 20
-3403.1617
 30
0.0
 10
885.5836
 20
-3408.8648
 30
0.0
 10
885.5836
 20
-3408.8648
 30
0.0
 10
885.5836
 20
-3408.8648
 30
0.0
 10
885.5836
 20
-3408.8648
 30
0.0
 10
891.0832
 20
-3407.3666
 30
0.0
 10
891.0832
 20
-3407.3666
 30
0.0
 10
891.0832
 20
-3407.3666
 30
0.0
 10
891.0832
 20
-3407.3666
 30
0.0
 10
899.7531
 20
-3439.1926
 30
0.0
 10
899.7531
 20
-3439.1926
 30
0.0
 10
899.7531
 20
-3439.1926
 30
0.0
 10
899.7531
 20
-3439.1926
 30
0.0
 10
894.2535
 20
-3440.6908
 30
0.0
 10
894.2535
 20
-3440.6908
 30
0.0
 10
894.2535
 20
-3440.6908
 30
0.0
 10
894.2535
 20
-3440.6908
 30
0.0
 10
936.1333
 20
-3594.427
 30
0.0
 10
936.1333
 20
-3594.427
 30
0.0
 10
936.1333
 20
-3594.427
 30
0.0
 10
936.1333
 20
-3594.427
 30
0.0
 10
941.6329
 20
-3592.9288
 30
0.0
 10
941.6329
 20
-3592.9288
 30
0.0
 10
941.6329
 20
-3592.9288
 30
0.0
 10
941.6329
 20
-3592.9288
 30
0.0
 10
949.1581
 20
-3620.553
 30
0.0
 10
949.1581
 20
-3620.553
 30
0.0
 10
949.1581
 20
-3620.553
 30
0.0
 10
949.1581
 20
-3620.553
 30
0.0
 10
987.4572
 20
-3620.553
 30
0.0
 10
987.4572
 20
-3620.553
 30
0.0
 10
987.4572
 20
-3620.553
 30
0.0
 10
987.4572
 20
-3620.553
 30
0.0
 10
987.4572
 20
-3626.253
 30
0.0
 10
987.4572
 20
-3626.253
 30
0.0
 10
987.4572
 20
-3626.253
 30
0.0
 10
987.4572
 20
-3626.253
 30
0.0
 10
1193.4989
 20
-3626.253
 30
0.0
 10
1193.4989
 20
-3626.253
 30
0.0
 10
1193.4989
 20
-3626.253
 30
0.0
 10
1193.4989
 20
-3626.253
 30
0.0
 10
1193.4989
 20
-3620.553
 30
0.0
 10
1193.4989
 20
-3620.553
 30
0.0
 10
1193.4989
 20
-3620.553
 30
0.0
 10
1193.4989
 20
-3620.553
 30
0.0
 10
1228.6559
 20
-3620.553
 30
0.0
 10
1228.6559
 20
-3620.553
 30
0.0
 10
1228.6559
 20
-3620.553
 30
0.0
 10
1228.6559
 20
-3620.553
 30
0.0
 10
1209.5681
 20
-3551.9191
 30
0.0
 10
1209.5681
 20
-3551.9191
 30
0.0
 10
1209.5681
 20
-3551.9191
 30
0.0
 10
1209.5681
 20
-3551.9191
 30
0.0
 10
1215.0597
 20
-3550.3918
 30
0.0
 10
1215.0597
 20
-3550.3918
 30
0.0
 10
1215.0597
 20
-3550.3918
 30
0.0
 10
1215.0597
 20
-3550.3918
 30
0.0
 10
1102.1563
 20
-3144.4266
 30
0.0
 10
1102.1563
 20
-3144.4266
 30
0.0
 10
1102.1563
 20
-3144.4266
 30
0.0
 10
1102.1563
 20
-3144.4266
 30
0.0
 10
1096.6647
 20
-3145.9538
 30
0.0
 10
1096.6647
 20
-3145.9538
 30
0.0
 10
1096.6647
 20
-3145.9538
 30
0.0
 10
1096.6647
 20
-3145.9538
 30
0.0
 10
1075.5669
 20
-3070.0927
 30
0.0
 10
1075.5669
 20
-3070.0927
 30
0.0
 10
1075.5669
 20
-3070.0927
 30
0.0
 10
1075.5669
 20
-3070.0927
 30
0.0
 10
1081.0585
 20
-3068.5654
 30
0.0
 10
1081.0585
 20
-3068.5654
 30
0.0
 10
1081.0585
 20
-3068.5654
 30
0.0
 10
1081.0585
 20
-3068.5654
 30
0.0
 10
979.1451
 20
-2702.1167
 30
0.0
 10
979.1451
 20
-2702.1167
 30
0.0
  0
SPLINE
  5
72
330
1F
100
AcDbEntity
  8
Capa 1
 62
   230
370
     9
100
AcDbSpline
210
0.0
220
0.0
230
1.0
 70
    11
 71
     3
 72
    92
 73
    88
 74
     0
 42
0.000000001
 43
0.0000000001
 40
0.0
 40
0.0
 40
0.0
 40
0.0
 40
0.0434782608695652
 40
0.0434782608695652
 40
0.0434782608695652
 40
0.0434782608695652
 40
0.0869565217391304
 40
0.0869565217391304
 40
0.0869565217391304
 40
0.0869565217391304
 40
0.1304347826086956
 40
0.1304347826086956
 40
0.1304347826086956
 40
0.1304347826086956
 40
0.1739130434782609
 40
0.1739130434782609
 40
0.1739130434782609
 40
0.1739130434782609
 40
0.2173913043478261
 40
0.2173913043478261
 40
0.2173913043478261
 40
0.2173913043478261
 40
0.2608695652173913
 40
0.2608695652173913
 40
0.2608695652173913
 40
0.2608695652173913
 40
0.3043478260869565
 40
0.3043478260869565
 40
0.3043478260869565
 40
0.3043478260869565
 40
0.3478260869565217
 40
0.3478260869565217
 40
0.3478260869565217
 40
0.3478260869565217
 40
0.391304347826087
 40
0.391304347826087
 40
0.391304347826087
 40
0.391304347826087
 40
0.4347826086956522
 40
0.4347826086956522
 40
0.4347826086956522
 40
0.4347826086956522
 40
0.4782608695652174
 40
0.4782608695652174
 40
0.4782608695652174
 40
0.4782608695652174
 40
0.5217391304347826
 40
0.5217391304347826
 40
0.5217391304347826
 40
0.5217391304347826
 40
0.5652173913043478
 40
0.5652173913043478
 40
0.5652173913043478
 40
0.5652173913043478
 40
0.6086956521739131
 40
0.6086956521739131
 40
0.6086956521739131
 40
0.6086956521739131
 40
0.6521739130434783
 40
0.6521739130434783
 40
0.6521739130434783
 40
0.6521739130434783
 40
0.6956521739130435
 40
0.6956521739130435
 40
0.6956521739130435
 40
0.6956521739130435
 40
0.7391304347826086
 40
0.7391304347826086
 40
0.7391304347826086
 40
0.7391304347826086
 40
0.782608695652174
 40
0.782608695652174
 40
0.782608695652174
 40
0.782608695652174
 40
0.8260869565217391
 40
0.8260869565217391
 40
0.8260869565217391
 40
0.8260869565217391
 40
0.8695652173913043
 40
0.8695652173913043
 40
0.8695652173913043
 40
0.8695652173913043
 40
0.9130434782608695
 40
0.9130434782608695
 40
0.9130434782608695
 40
0.9130434782608695
 40
1.0
 40
1.0
 40
1.0
 40
1.0
 10
858.596
 20
-3308.4105
 30
0.0
 10
858.596
 20
-3308.4105
 30
0.0
 10
864.1031
 20
-3306.9403
 30
0.0
 10
864.1031
 20
-3306.9403
 30
0.0
 10
864.1031
 20
-3306.9403
 30
0.0
 10
864.1031
 20
-3306.9403
 30
0.0
 10
846.8364
 20
-3242.2633
 30
0.0
 10
846.8364
 20
-3242.2633
 30
0.0
 10
846.8364
 20
-3242.2633
 30
0.0
 10
846.8364
 20
-3242.2633
 30
0.0
 10
841.3292
 20
-3243.7335
 30
0.0
 10
841.3292
 20
-3243.7335
 30
0.0
 10
841.3292
 20
-3243.7335
 30
0.0
 10
841.3292
 20
-3243.7335
 30
0.0
 10
757.9219
 20
-2931.3098
 30
0.0
 10
757.9219
 20
-2931.3098
 30
0.0
 10
757.9219
 20
-2931.3098
 30
0.0
 10
757.9219
 20
-2931.3098
 30
0.0
 10
763.4291
 20
-2929.8396
 30
0.0
 10
763.4291
 20
-2929.8396
 30
0.0
 10
763.4291
 20
-2929.8396
 30
0.0
 10
763.4291
 20
-2929.8396
 30
0.0
 10
746.1623
 20
-2865.1626
 30
0.0
 10
746.1623
 20
-2865.1626
 30
0.0
 10
746.1623
 20
-2865.1626
 30
0.0
 10
746.1623
 20
-2865.1626
 30
0.0
 10
740.6552
 20
-2866.6328
 30
0.0
 10
740.6552
 20
-2866.6328
 30
0.0
 10
740.6552
 20
-2866.6328
 30
0.0
 10
740.6552
 20
-2866.6328
 30
0.0
 10
735.1785
 20
-2865.053
 30
0.0
 10
735.1785
 20
-2865.053
 30
0.0
 10
735.1785
 20
-2865.053
 30
0.0
 10
735.1785
 20
-2865.053
 30
0.0
 10
716.5217
 20
-2929.7299
 30
0.0
 10
716.5217
 20
-2929.7299
 30
0.0
 10
716.5217
 20
-2929.7299
 30
0.0
 10
716.5217
 20
-2929.7299
 30
0.0
 10
721.9984
 20
-2931.3098
 30
0.0
 10
721.9984
 20
-2931.3098
 30
0.0
 10
721.9984
 20
-2931.3098
 30
0.0
 10
721.9984
 20
-2931.3098
 30
0.0
 10
631.8763
 20
-3243.7329
 30
0.0
 10
631.8763
 20
-3243.7329
 30
0.0
 10
631.8763
 20
-3243.7329
 30
0.0
 10
631.8763
 20
-3243.7329
 30
0.0
 10
626.3996
 20
-3242.1531
 30
0.0
 10
626.3996
 20
-3242.1531
 30
0.0
 10
626.3996
 20
-3242.1531
 30
0.0
 10
626.3996
 20
-3242.1531
 30
0.0
 10
607.7428
 20
-3306.8301
 30
0.0
 10
607.7428
 20
-3306.8301
 30
0.0
 10
607.7428
 20
-3306.8301
 30
0.0
 10
607.7428
 20
-3306.8301
 30
0.0
 10
613.2195
 20
-3308.4099
 30
0.0
 10
613.2195
 20
-3308.4099
 30
0.0
 10
613.2195
 20
-3308.4099
 30
0.0
 10
613.2195
 20
-3308.4099
 30
0.0
 10
613.2189
 20
-3308.4118
 30
0.0
 10
613.2189
 20
-3308.4118
 30
0.0
 10
613.2189
 20
-3308.4118
 30
0.0
 10
613.2189
 20
-3308.4118
 30
0.0
 10
613.2189
 20
-3314.1118
 30
0.0
 10
613.2189
 20
-3314.1118
 30
0.0
 10
613.2189
 20
-3314.1118
 30
0.0
 10
613.2189
 20
-3314.1118
 30
0.0
 10
649.1426
 20
-3314.1118
 30
0.0
 10
649.1426
 20
-3314.1118
 30
0.0
 10
649.1426
 20
-3314.1118
 30
0.0
 10
649.1426
 20
-3314.1118
 30
0.0
 10
649.1426
 20
-3308.4118
 30
0.0
 10
649.1426
 20
-3308.4118
 30
0.0
 10
649.1426
 20
-3308.4118
 30
0.0
 10
649.1426
 20
-3308.4118
 30
0.0
 10
822.6726
 20
-3308.4118
 30
0.0
 10
822.6726
 20
-3308.4118
 30
0.0
 10
822.6726
 20
-3308.4118
 30
0.0
 10
822.6726
 20
-3308.4118
 30
0.0
 10
822.6726
 20
-3314.1118
 30
0.0
 10
822.6726
 20
-3314.1118
 30
0.0
 10
822.6726
 20
-3314.1118
 30
0.0
 10
822.6726
 20
-3314.1118
 30
0.0
 10
858.5963
 20
-3314.1118
 30
0.0
 10
858.5963
 20
-3314.1118
 30
0.0
 10
858.5963
 20
-3314.1118
 30
0.0
 10
858.5963
 20
-3314.1118
 30
0.0
 10
858.596
 20
-3308.4105
 30
0.0
 10
858.596
 20
-3308.4105
 30
0.0
  0
SPLINE
  5
73
330
1F
100
AcDbEntity
  8
Capa 1
 62
   230
370
     9
100
AcDbSpline
210
0.0
220
0.0
230
1.0
 70
    11
 71
     3
 72
   196
 73
   192
 74
     0
 42
0.000000001
 43
0.0000000001
 40
0.0
 40
0.0
 40
0.0
 40
0.0
 40
0.0204081632653061
 40
0.0204081632653061
 40
0.0204081632653061
 40
0.0204081632653061
 40
0.0408163265306122
 40
0.0408163265306122
 40
0.0408163265306122
 40
0.0408163265306122
 40
0.0612244897959184
 40
0.0612244897959184
 40
0.0612244897959184
 40
0.0612244897959184
 40
0.0816326530612245
 40
0.0816326530612245
 40
0.0816326530612245
 40
0.0816326530612245
 40
0.1020408163265306
 40
0.1020408163265306
 40
0.1020408163265306
 40
0.1020408163265306
 40
0.1224489795918367
 40
0.1224489795918367
 40
0.1224489795918367
 40
0.1224489795918367
 40
0.1428571428571428
 40
0.1428571428571428
 40
0.1428571428571428
 40
0.1428571428571428
 40
0.163265306122449
 40
0.163265306122449
 40
0.163265306122449
 40
0.163265306122449
 40
0.1836734693877551
 40
0.1836734693877551
 40
0.1836734693877551
 40
0.1836734693877551
 40
0.2040816326530612
 40
0.2040816326530612
 40
0.2040816326530612
 40
0.2040816326530612
 40
0.2244897959183673
 40
0.2244897959183673
 40
0.2244897959183673
 40
0.2244897959183673
 40
0.2448979591836735
 40
0.2448979591836735
 40
0.2448979591836735
 40
0.2448979591836735
 40
0.2653061224489796
 40
0.2653061224489796
 40
0.2653061224489796
 40
0.2653061224489796
 40
0.2857142857142857
 40
0.2857142857142857
 40
0.2857142857142857
 40
0.2857142857142857
 40
0.3061224489795918
 40
0.3061224489795918
 40
0.3061224489795918
 40
0.3061224489795918
 40
0.3265306122448979
 40
0.3265306122448979
 40
0.3265306122448979
 40
0.3265306122448979
 40
0.3469387755102041
 40
0.3469387755102041
 40
0.3469387755102041
 40
0.3469387755102041
 40
0.3673469387755102
 40
0.3673469387755102
 40
0.3673469387755102
 40
0.3673469387755102
 40
0.3877551020408163
 40
0.3877551020408163
 40
0.3877551020408163
 40
0.3877551020408163
 40
0.4081632653061225
 40
0.4081632653061225
 40
0.4081632653061225
 40
0.4081632653061225
 40
0.4285714285714285
 40
0.4285714285714285
 40
0.4285714285714285
 40
0.4285714285714285
 40
0.4489795918367347
 40
0.4489795918367347
 40
0.4489795918367347
 40
0.4489795918367347
 40
0.4693877551020408
 40
0.4693877551020408
 40
0.4693877551020408
 40
0.4693877551020408
 40
0.4897959183673469
 40
0.4897959183673469
 40
0.4897959183673469
 40
0.4897959183673469
 40
0.5102040816326531
 40
0.5102040816326531
 40
0.5102040816326531
 40
0.5102040816326531
 40
0.5306122448979592
 40
0.5306122448979592
 40
0.5306122448979592
 40
0.5306122448979592
 40
0.5510204081632653
 40
0.5510204081632653
 40
0.5510204081632653
 40
0.5510204081632653
 40
0.5714285714285714
 40
0.5714285714285714
 40
0.5714285714285714
 40
0.5714285714285714
 40
0.5918367346938775
 40
0.5918367346938775
 40
0.5918367346938775
 40
0.5918367346938775
 40
0.6122448979591837
 40
0.6122448979591837
 40
0.6122448979591837
 40
0.6122448979591837
 40
0.6326530612244898
 40
0.6326530612244898
 40
0.6326530612244898
 40
0.6326530612244898
 40
0.6530612244897959
 40
0.6530612244897959
 40
0.6530612244897959
 40
0.6530612244897959
 40
0.673469387755102
 40
0.673469387755102
 40
0.673469387755102
 40
0.673469387755102
 40
0.6938775510204082
 40
0.6938775510204082
 40
0.6938775510204082
 40
0.6938775510204082
 40
0.7142857142857143
 40
0.7142857142857143
 40
0.7142857142857143
 40
0.7142857142857143
 40
0.7346938775510204
 40
0.7346938775510204
 40
0.7346938775510204
 40
0.7346938775510204
 40
0.7551020408163265
 40
0.7551020408163265
 40
0.7551020408163265
 40
0.7551020408163265
 40
0.7755102040816326
 40
0.7755102040816326
 40
0.7755102040816326
 40
0.7755102040816326
 40
0.7959183673469388
 40
0.7959183673469388
 40
0.7959183673469388
 40
0.7959183673469388
 40
0.8163265306122449
 40
0.8163265306122449
 40
0.8163265306122449
 40
0.8163265306122449
 40
0.8367346938775511
 40
0.8367346938775511
 40
0.8367346938775511
 40
0.8367346938775511
 40
0.8571428571428571
 40
0.8571428571428571
 40
0.8571428571428571
 40
0.8571428571428571
 40
0.8775510204081632
 40
0.8775510204081632
 40
0.8775510204081632
 40
0.8775510204081632
 40
0.8979591836734694
 40
0.8979591836734694
 40
0.8979591836734694
 40
0.8979591836734694
 40
0.9183673469387755
 40
0.9183673469387755
 40
0.9183673469387755
 40
0.9183673469387755
 40
0.9387755102040817
 40
0.9387755102040817
 40
0.9387755102040817
 40
0.9387755102040817
 40
0.9591836734693877
 40
0.9591836734693877
 40
0.9591836734693877
 40
0.9591836734693877
 40
1.0
 40
1.0
 40
1.0
 40
1.0
 10
1953.8181
 20
-1982.0265
 30
0.0
 10
1953.8181
 20
-1982.0265
 30
0.0
 10
1932.7203
 20
-1906.1653
 30
0.0
 10
1932.7203
 20
-1906.1653
 30
0.0
 10
1932.7203
 20
-1906.1653
 30
0.0
 10
1932.7203
 20
-1906.1653
 30
0.0
 10
1927.2287
 20
-1907.6926
 30
0.0
 10
1927.2287
 20
-1907.6926
 30
0.0
 10
1927.2287
 20
-1907.6926
 30
0.0
 10
1927.2287
 20
-1907.6926
 30
0.0
 10
1825.3153
 20
-1541.2439
 30
0.0
 10
1825.3153
 20
-1541.2439
 30
0.0
 10
1825.3153
 20
-1541.2439
 30
0.0
 10
1825.3153
 20
-1541.2439
 30
0.0
 10
1830.8069
 20
-1539.7166
 30
0.0
 10
1830.8069
 20
-1539.7166
 30
0.0
 10
1830.8069
 20
-1539.7166
 30
0.0
 10
1830.8069
 20
-1539.7166
 30
0.0
 10
1809.7084
 20
-1463.8529
 30
0.0
 10
1809.7084
 20
-1463.8529
 30
0.0
 10
1809.7084
 20
-1463.8529
 30
0.0
 10
1809.7084
 20
-1463.8529
 30
0.0
 10
1772.4299
 20
-1463.8529
 30
0.0
 10
1772.4299
 20
-1463.8529
 30
0.0
 10
1772.4299
 20
-1463.8529
 30
0.0
 10
1772.4299
 20
-1463.8529
 30
0.0
 10
1772.4299
 20
-1469.5494
 30
0.0
 10
1772.4299
 20
-1469.5494
 30
0.0
 10
1772.4299
 20
-1469.5494
 30
0.0
 10
1772.4299
 20
-1469.5494
 30
0.0
 10
1592.3635
 20
-1469.5494
 30
0.0
 10
1592.3635
 20
-1469.5494
 30
0.0
 10
1592.3635
 20
-1469.5494
 30
0.0
 10
1592.3635
 20
-1469.5494
 30
0.0
 10
1592.3635
 20
-1463.8529
 30
0.0
 10
1592.3635
 20
-1463.8529
 30
0.0
 10
1592.3635
 20
-1463.8529
 30
0.0
 10
1592.3635
 20
-1463.8529
 30
0.0
 10
1555.0857
 20
-1463.8529
 30
0.0
 10
1555.0857
 20
-1463.8529
 30
0.0
 10
1555.0857
 20
-1463.8529
 30
0.0
 10
1555.0857
 20
-1463.8529
 30
0.0
 10
1532.6429
 20
-1539.711
 30
0.0
 10
1532.6429
 20
-1539.711
 30
0.0
 10
1532.6429
 20
-1539.711
 30
0.0
 10
1532.6429
 20
-1539.711
 30
0.0
 10
1538.1087
 20
-1541.3281
 30
0.0
 10
1538.1087
 20
-1541.3281
 30
0.0
 10
1538.1087
 20
-1541.3281
 30
0.0
 10
1538.1087
 20
-1541.3281
 30
0.0
 10
1429.6935
 20
-1907.779
 30
0.0
 10
1429.6935
 20
-1907.779
 30
0.0
 10
1429.6935
 20
-1907.779
 30
0.0
 10
1429.6935
 20
-1907.779
 30
0.0
 10
1424.2276
 20
-1906.1619
 30
0.0
 10
1424.2276
 20
-1906.1619
 30
0.0
 10
1424.2276
 20
-1906.1619
 30
0.0
 10
1424.2276
 20
-1906.1619
 30
0.0
 10
1401.7838
 20
-1982.0235
 30
0.0
 10
1401.7838
 20
-1982.0235
 30
0.0
 10
1401.7838
 20
-1982.0235
 30
0.0
 10
1401.7838
 20
-1982.0235
 30
0.0
 10
1407.2496
 20
-1983.6406
 30
0.0
 10
1407.2496
 20
-1983.6406
 30
0.0
 10
1407.2496
 20
-1983.6406
 30
0.0
 10
1407.2496
 20
-1983.6406
 30
0.0
 10
1287.1432
 20
-2389.6083
 30
0.0
 10
1287.1432
 20
-2389.6083
 30
0.0
 10
1287.1432
 20
-2389.6083
 30
0.0
 10
1287.1432
 20
-2389.6083
 30
0.0
 10
1281.6774
 20
-2387.9912
 30
0.0
 10
1281.6774
 20
-2387.9912
 30
0.0
 10
1281.6774
 20
-2387.9912
 30
0.0
 10
1281.6774
 20
-2387.9912
 30
0.0
 10
1259.2336
 20
-2463.8529
 30
0.0
 10
1259.2336
 20
-2463.8529
 30
0.0
 10
1259.2336
 20
-2463.8529
 30
0.0
 10
1259.2336
 20
-2463.8529
 30
0.0
 10
1275.8446
 20
-2463.8529
 30
0.0
 10
1275.8446
 20
-2463.8529
 30
0.0
 10
1275.8446
 20
-2463.8529
 30
0.0
 10
1275.8446
 20
-2463.8529
 30
0.0
 10
1275.8446
 20
-2458.1529
 30
0.0
 10
1275.8446
 20
-2458.1529
 30
0.0
 10
1275.8446
 20
-2458.1529
 30
0.0
 10
1275.8446
 20
-2458.1529
 30
0.0
 10
1356.069
 20
-2458.1529
 30
0.0
 10
1356.069
 20
-2458.1529
 30
0.0
 10
1356.069
 20
-2458.1529
 30
0.0
 10
1356.069
 20
-2458.1529
 30
0.0
 10
1356.069
 20
-2463.8529
 30
0.0
 10
1356.069
 20
-2463.8529
 30
0.0
 10
1356.069
 20
-2463.8529
 30
0.0
 10
1356.069
 20
-2463.8529
 30
0.0
 10
1372.6768
 20
-2463.8529
 30
0.0
 10
1372.6768
 20
-2463.8529
 30
0.0
 10
1372.6768
 20
-2463.8529
 30
0.0
 10
1372.6768
 20
-2463.8529
 30
0.0
 10
1382.0045
 20
-2432.0289
 30
0.0
 10
1382.0045
 20
-2432.0289
 30
0.0
 10
1382.0045
 20
-2432.0289
 30
0.0
 10
1382.0045
 20
-2432.0289
 30
0.0
 10
1376.5346
 20
-2430.4257
 30
0.0
 10
1376.5346
 20
-2430.4257
 30
0.0
 10
1376.5346
 20
-2430.4257
 30
0.0
 10
1376.5346
 20
-2430.4257
 30
0.0
 10
1421.5965
 20
-2276.6853
 30
0.0
 10
1421.5965
 20
-2276.6853
 30
0.0
 10
1421.5965
 20
-2276.6853
 30
0.0
 10
1421.5965
 20
-2276.6853
 30
0.0
 10
1427.0664
 20
-2278.2885
 30
0.0
 10
1427.0664
 20
-2278.2885
 30
0.0
 10
1427.0664
 20
-2278.2885
 30
0.0
 10
1427.0664
 20
-2278.2885
 30
0.0
 10
1436.395
 20
-2246.4616
 30
0.0
 10
1436.395
 20
-2246.4616
 30
0.0
 10
1436.395
 20
-2246.4616
 30
0.0
 10
1436.395
 20
-2246.4616
 30
0.0
 10
1480.4399
 20
-2246.4616
 30
0.0
 10
1480.4399
 20
-2246.4616
 30
0.0
 10
1480.4399
 20
-2246.4616
 30
0.0
 10
1480.4399
 20
-2246.4616
 30
0.0
 10
1480.4399
 20
-2240.7616
 30
0.0
 10
1480.4399
 20
-2240.7616
 30
0.0
 10
1480.4399
 20
-2240.7616
 30
0.0
 10
1480.4399
 20
-2240.7616
 30
0.0
 10
1693.1997
 20
-2240.7616
 30
0.0
 10
1693.1997
 20
-2240.7616
 30
0.0
 10
1693.1997
 20
-2240.7616
 30
0.0
 10
1693.1997
 20
-2240.7616
 30
0.0
 10
1693.1997
 20
-2246.4616
 30
0.0
 10
1693.1997
 20
-2246.4616
 30
0.0
 10
1693.1997
 20
-2246.4616
 30
0.0
 10
1693.1997
 20
-2246.4616
 30
0.0
 10
1737.2446
 20
-2246.4616
 30
0.0
 10
1737.2446
 20
-2246.4616
 30
0.0
 10
1737.2446
 20
-2246.4616
 30
0.0
 10
1737.2446
 20
-2246.4616
 30
0.0
 10
1745.9153
 20
-2278.2907
 30
0.0
 10
1745.9153
 20
-2278.2907
 30
0.0
 10
1745.9153
 20
-2278.2907
 30
0.0
 10
1745.9153
 20
-2278.2907
 30
0.0
 10
1751.4149
 20
-2276.7925
 30
0.0
 10
1751.4149
 20
-2276.7925
 30
0.0
 10
1751.4149
 20
-2276.7925
 30
0.0
 10
1751.4149
 20
-2276.7925
 30
0.0
 10
1793.2947
 20
-2430.5287
 30
0.0
 10
1793.2947
 20
-2430.5287
 30
0.0
 10
1793.2947
 20
-2430.5287
 30
0.0
 10
1793.2947
 20
-2430.5287
 30
0.0
 10
1787.7951
 20
-2432.0269
 30
0.0
 10
1787.7951
 20
-2432.0269
 30
0.0
 10
1787.7951
 20
-2432.0269
 30
0.0
 10
1787.7951
 20
-2432.0269
 30
0.0
 10
1796.4649
 20
-2463.8529
 30
0.0
 10
1796.4649
 20
-2463.8529
 30
0.0
 10
1796.4649
 20
-2463.8529
 30
0.0
 10
1796.4649
 20
-2463.8529
 30
0.0
 10
1839.1191
 20
-2463.8529
 30
0.0
 10
1839.1191
 20
-2463.8529
 30
0.0
 10
1839.1191
 20
-2463.8529
 30
0.0
 10
1839.1191
 20
-2463.8529
 30
0.0
 10
1839.1191
 20
-2458.1529
 30
0.0
 10
1839.1191
 20
-2458.1529
 30
0.0
 10
1839.1191
 20
-2458.1529
 30
0.0
 10
1839.1191
 20
-2458.1529
 30
0.0
 10
2045.1607
 20
-2458.1529
 30
0.0
 10
2045.1607
 20
-2458.1529
 30
0.0
 10
2045.1607
 20
-2458.1529
 30
0.0
 10
2045.1607
 20
-2458.1529
 30
0.0
 10
2045.1607
 20
-2463.8529
 30
0.0
 10
2045.1607
 20
-2463.8529
 30
0.0
 10
2045.1607
 20
-2463.8529
 30
0.0
 10
2045.1607
 20
-2463.8529
 30
0.0
 10
2087.8193
 20
-2463.8529
 30
0.0
 10
2087.8193
 20
-2463.8529
 30
0.0
 10
2087.8193
 20
-2463.8529
 30
0.0
 10
2087.8193
 20
-2463.8529
 30
0.0
 10
2066.7215
 20
-2387.9917
 30
0.0
 10
2066.7215
 20
-2387.9917
 30
0.0
 10
2066.7215
 20
-2387.9917
 30
0.0
 10
2066.7215
 20
-2387.9917
 30
0.0
 10
2061.2299
 20
-2389.519
 30
0.0
 10
2061.2299
 20
-2389.519
 30
0.0
 10
2061.2299
 20
-2389.519
 30
0.0
 10
2061.2299
 20
-2389.519
 30
0.0
 10
1948.3265
 20
-1983.5537
 30
0.0
 10
1948.3265
 20
-1983.5537
 30
0.0
 10
1948.3265
 20
-1983.5537
 30
0.0
 10
1948.3265
 20
-1983.5537
 30
0.0
 10
1953.8181
 20
-1982.0265
 30
0.0
 10
1953.8181
 20
-1982.0265
 30
0.0
  0
SPLINE
  5
74
330
1F
100
AcDbEntity
  8
Capa 1
 62
   230
370
     9
100
AcDbSpline
210
0.0
220
0.0
230
1.0
 70
    11
 71
     3
 72
    64
 73
    60
 74
     0
 42
0.000000001
 43
0.0000000001
 40
0.0
 40
0.0
 40
0.0
 40
0.0
 40
0.0625
 40
0.0625
 40
0.0625
 40
0.0625
 40
0.125
 40
0.125
 40
0.125
 40
0.125
 40
0.1875
 40
0.1875
 40
0.1875
 40
0.1875
 40
0.25
 40
0.25
 40
0.25
 40
0.25
 40
0.3125
 40
0.3125
 40
0.3125
 40
0.3125
 40
0.375
 40
0.375
 40
0.375
 40
0.375
 40
0.4375
 40
0.4375
 40
0.4375
 40
0.4375
 40
0.5
 40
0.5
 40
0.5
 40
0.5
 40
0.5625
 40
0.5625
 40
0.5625
 40
0.5625
 40
0.625
 40
0.625
 40
0.625
 40
0.625
 40
0.6875
 40
0.6875
 40
0.6875
 40
0.6875
 40
0.75
 40
0.75
 40
0.75
 40
0.75
 40
0.8125
 40
0.8125
 40
0.8125
 40
0.8125
 40
0.875
 40
0.875
 40
0.875
 40
0.875
 40
1.0
 40
1.0
 40
1.0
 40
1.0
 10
1464.8807
 20
-2146.0117
 30
0.0
 10
1464.8807
 20
-2146.0117
 30
0.0
 10
1500.8044
 20
-2146.0117
 30
0.0
 10
1500.8044
 20
-2146.0117
 30
0.0
 10
1500.8044
 20
-2146.0117
 30
0.0
 10
1500.8044
 20
-2146.0117
 30
0.0
 10
1500.8044
 20
-2151.7117
 30
0.0
 10
1500.8044
 20
-2151.7117
 30
0.0
 10
1500.8044
 20
-2151.7117
 30
0.0
 10
1500.8044
 20
-2151.7117
 30
0.0
 10
1674.3344
 20
-2151.7117
 30
0.0
 10
1674.3344
 20
-2151.7117
 30
0.0
 10
1674.3344
 20
-2151.7117
 30
0.0
 10
1674.3344
 20
-2151.7117
 30
0.0
 10
1674.3344
 20
-2146.0117
 30
0.0
 10
1674.3344
 20
-2146.0117
 30
0.0
 10
1674.3344
 20
-2146.0117
 30
0.0
 10
1674.3344
 20
-2146.0117
 30
0.0
 10
1710.2581
 20
-2146.0117
 30
0.0
 10
1710.2581
 20
-2146.0117
 30
0.0
 10
1710.2581
 20
-2146.0117
 30
0.0
 10
1710.2581
 20
-2146.0117
 30
0.0
 10
1692.991
 20
-2081.3334
 30
0.0
 10
1692.991
 20
-2081.3334
 30
0.0
 10
1692.991
 20
-2081.3334
 30
0.0
 10
1692.991
 20
-2081.3334
 30
0.0
 10
1698.4982
 20
-2079.8632
 30
0.0
 10
1698.4982
 20
-2079.8632
 30
0.0
 10
1698.4982
 20
-2079.8632
 30
0.0
 10
1698.4982
 20
-2079.8632
 30
0.0
 10
1615.0909
 20
-1767.4395
 30
0.0
 10
1615.0909
 20
-1767.4395
 30
0.0
 10
1615.0909
 20
-1767.4395
 30
0.0
 10
1615.0909
 20
-1767.4395
 30
0.0
 10
1609.5837
 20
-1768.9097
 30
0.0
 10
1609.5837
 20
-1768.9097
 30
0.0
 10
1609.5837
 20
-1768.9097
 30
0.0
 10
1609.5837
 20
-1768.9097
 30
0.0
 10
1592.317
 20
-1704.2327
 30
0.0
 10
1592.317
 20
-1704.2327
 30
0.0
 10
1592.317
 20
-1704.2327
 30
0.0
 10
1592.317
 20
-1704.2327
 30
0.0
 10
1573.6602
 20
-1768.9096
 30
0.0
 10
1573.6602
 20
-1768.9096
 30
0.0
 10
1573.6602
 20
-1768.9096
 30
0.0
 10
1573.6602
 20
-1768.9096
 30
0.0
 10
1568.1835
 20
-1767.3298
 30
0.0
 10
1568.1835
 20
-1767.3298
 30
0.0
 10
1568.1835
 20
-1767.3298
 30
0.0
 10
1568.1835
 20
-1767.3298
 30
0.0
 10
1478.0614
 20
-2079.753
 30
0.0
 10
1478.0614
 20
-2079.753
 30
0.0
 10
1478.0614
 20
-2079.753
 30
0.0
 10
1478.0614
 20
-2079.753
 30
0.0
 10
1483.5381
 20
-2081.3328
 30
0.0
 10
1483.5381
 20
-2081.3328
 30
0.0
 10
1483.5381
 20
-2081.3328
 30
0.0
 10
1483.5381
 20
-2081.3328
 30
0.0
 10
1464.8807
 20
-2146.0117
 30
0.0
 10
1464.8807
 20
-2146.0117
 30
0.0
  0
SPLINE
  5
75
330
1F
100
AcDbEntity
  8
Capa 1
370
    20
100
AcDbSpline
210
0.0
220
0.0
230
1.0
 70
    11
 71
     3
 72
    84
 73
    80
 74
     0
 42
0.000000001
 43
0.0000000001
 40
0.0
 40
0.0
 40
0.0
 40
0.0
 40
0.0476190476190476
 40
0.0476190476190476
 40
0.0476190476190476
 40
0.0476190476190476
 40
0.0952380952380952
 40
0.0952380952380952
 40
0.0952380952380952
 40
0.0952380952380952
 40
0.1428571428571428
 40
0.1428571428571428
 40
0.1428571428571428
 40
0.1428571428571428
 40
0.1904761904761905
 40
0.1904761904761905
 40
0.1904761904761905
 40
0.1904761904761905
 40
0.2380952380952381
 40
0.2380952380952381
 40
0.2380952380952381
 40
0.2380952380952381
 40
0.2857142857142857
 40
0.2857142857142857
 40
0.2857142857142857
 40
0.2857142857142857
 40
0.3333333333333333
 40
0.3333333333333333
 40
0.3333333333333333
 40
0.3333333333333333
 40
0.3809523809523809
 40
0.3809523809523809
 40
0.3809523809523809
 40
0.3809523809523809
 40
0.4285714285714285
 40
0.4285714285714285
 40
0.4285714285714285
 40
0.4285714285714285
 40
0.4761904761904762
 40
0.4761904761904762
 40
0.4761904761904762
 40
0.4761904761904762
 40
0.5238095238095238
 40
0.5238095238095238
 40
0.5238095238095238
 40
0.5238095238095238
 40
0.5714285714285714
 40
0.5714285714285714
 40
0.5714285714285714
 40
0.5714285714285714
 40
0.6190476190476191
 40
0.6190476190476191
 40
0.6190476190476191
 40
0.6190476190476191
 40
0.6666666666666666
 40
0.6666666666666666
 40
0.6666666666666666
 40
0.6666666666666666
 40
0.7142857142857143
 40
0.7142857142857143
 40
0.7142857142857143
 40
0.7142857142857143
 40
0.7619047619047619
 40
0.7619047619047619
 40
0.7619047619047619
 40
0.7619047619047619
 40
0.8095238095238095
 40
0.8095238095238095
 40
0.8095238095238095
 40
0.8095238095238095
 40
0.8571428571428571
 40
0.8571428571428571
 40
0.8571428571428571
 40
0.8571428571428571
 40
0.9047619047619048
 40
0.9047619047619048
 40
0.9047619047619048
 40
0.9047619047619048
 40
1.0
 40
1.0
 40
1.0
 40
1.0
 10
2598.4203
 20
-1482.2123
 30
0.0
 10
2598.4203
 20
-1482.2123
 30
0.0
 10
2745.5702
 20
-1482.2123
 30
0.0
 10
2745.5702
 20
-1482.2123
 30
0.0
 10
2745.5702
 20
-1482.2123
 30
0.0
 10
2745.5702
 20
-1482.2123
 30
0.0
 10
2745.5702
 20
-1415.2701
 30
0.0
 10
2745.5702
 20
-1415.2701
 30
0.0
 10
2745.5702
 20
-1415.2701
 30
0.0
 10
2745.5702
 20
-1415.2701
 30
0.0
 10
2751.2702
 20
-1415.2701
 30
0.0
 10
2751.2702
 20
-1415.2701
 30
0.0
 10
2751.2702
 20
-1415.2701
 30
0.0
 10
2751.2702
 20
-1415.2701
 30
0.0
 10
2751.2702
 20
-1482.2123
 30
0.0
 10
2751.2702
 20
-1482.2123
 30
0.0
 10
2751.2702
 20
-1482.2123
 30
0.0
 10
2751.2702
 20
-1482.2123
 30
0.0
 10
2898.4201
 20
-1482.2123
 30
0.0
 10
2898.4201
 20
-1482.2123
 30
0.0
 10
2898.4201
 20
-1482.2123
 30
0.0
 10
2898.4201
 20
-1482.2123
 30
0.0
 10
2898.4201
 20
-1415.2701
 30
0.0
 10
2898.4201
 20
-1415.2701
 30
0.0
 10
2898.4201
 20
-1415.2701
 30
0.0
 10
2898.4201
 20
-1415.2701
 30
0.0
 10
2892.7201
 20
-1415.2701
 30
0.0
 10
2892.7201
 20
-1415.2701
 30
0.0
 10
2892.7201
 20
-1415.2701
 30
0.0
 10
2892.7201
 20
-1415.2701
 30
0.0
 10
2892.7201
 20
-1091.9045
 30
0.0
 10
2892.7201
 20
-1091.9045
 30
0.0
 10
2892.7201
 20
-1091.9045
 30
0.0
 10
2892.7201
 20
-1091.9045
 30
0.0
 10
2898.4201
 20
-1091.9045
 30
0.0
 10
2898.4201
 20
-1091.9045
 30
0.0
 10
2898.4201
 20
-1091.9045
 30
0.0
 10
2898.4201
 20
-1091.9045
 30
0.0
 10
2898.4201
 20
-1024.9623
 30
0.0
 10
2898.4201
 20
-1024.9623
 30
0.0
 10
2898.4201
 20
-1024.9623
 30
0.0
 10
2898.4201
 20
-1024.9623
 30
0.0
 10
2751.2702
 20
-1024.9623
 30
0.0
 10
2751.2702
 20
-1024.9623
 30
0.0
 10
2751.2702
 20
-1024.9623
 30
0.0
 10
2751.2702
 20
-1024.9623
 30
0.0
 10
2751.2702
 20
-1091.9045
 30
0.0
 10
2751.2702
 20
-1091.9045
 30
0.0
 10
2751.2702
 20
-1091.9045
 30
0.0
 10
2751.2702
 20
-1091.9045
 30
0.0
 10
2745.5702
 20
-1091.9045
 30
0.0
 10
2745.5702
 20
-1091.9045
 30
0.0
 10
2745.5702
 20
-1091.9045
 30
0.0
 10
2745.5702
 20
-1091.9045
 30
0.0
 10
2745.5702
 20
-1024.9623
 30
0.0
 10
2745.5702
 20
-1024.9623
 30
0.0
 10
2745.5702
 20
-1024.9623
 30
0.0
 10
2745.5702
 20
-1024.9623
 30
0.0
 10
2598.4203
 20
-1024.9623
 30
0.0
 10
2598.4203
 20
-1024.9623
 30
0.0
 10
2598.4203
 20
-1024.9623
 30
0.0
 10
2598.4203
 20
-1024.9623
 30
0.0
 10
2598.4203
 20
-1091.9045
 30
0.0
 10
2598.4203
 20
-1091.9045
 30
0.0
 10
2598.4203
 20
-1091.9045
 30
0.0
 10
2598.4203
 20
-1091.9045
 30
0.0
 10
2604.1203
 20
-1091.9045
 30
0.0
 10
2604.1203
 20
-1091.9045
 30
0.0
 10
2604.1203
 20
-1091.9045
 30
0.0
 10
2604.1203
 20
-1091.9045
 30
0.0
 10
2604.1203
 20
-1415.2701
 30
0.0
 10
2604.1203
 20
-1415.2701
 30
0.0
 10
2604.1203
 20
-1415.2701
 30
0.0
 10
2604.1203
 20
-1415.2701
 30
0.0
 10
2598.4203
 20
-1415.2701
 30
0.0
 10
2598.4203
 20
-1415.2701
 30
0.0
 10
2598.4203
 20
-1415.2701
 30
0.0
 10
2598.4203
 20
-1415.2701
 30
0.0
 10
2598.4203
 20
-1482.2123
 30
0.0
 10
2598.4203
 20
-1482.2123
 30
0.0
  0
SPLINE
  5
76
330
1F
100
AcDbEntity
  8
Capa 1
370
    20
100
AcDbSpline
210
0.0
220
0.0
230
1.0
 70
    11
 71
     3
 72
    84
 73
    80
 74
     0
 42
0.000000001
 43
0.0000000001
 40
0.0
 40
0.0
 40
0.0
 40
0.0
 40
0.0476190476190476
 40
0.0476190476190476
 40
0.0476190476190476
 40
0.0476190476190476
 40
0.0952380952380952
 40
0.0952380952380952
 40
0.0952380952380952
 40
0.0952380952380952
 40
0.1428571428571428
 40
0.1428571428571428
 40
0.1428571428571428
 40
0.1428571428571428
 40
0.1904761904761905
 40
0.1904761904761905
 40
0.1904761904761905
 40
0.1904761904761905
 40
0.2380952380952381
 40
0.2380952380952381
 40
0.2380952380952381
 40
0.2380952380952381
 40
0.2857142857142857
 40
0.2857142857142857
 40
0.2857142857142857
 40
0.2857142857142857
 40
0.3333333333333333
 40
0.3333333333333333
 40
0.3333333333333333
 40
0.3333333333333333
 40
0.3809523809523809
 40
0.3809523809523809
 40
0.3809523809523809
 40
0.3809523809523809
 40
0.4285714285714285
 40
0.4285714285714285
 40
0.4285714285714285
 40
0.4285714285714285
 40
0.4761904761904762
 40
0.4761904761904762
 40
0.4761904761904762
 40
0.4761904761904762
 40
0.5238095238095238
 40
0.5238095238095238
 40
0.5238095238095238
 40
0.5238095238095238
 40
0.5714285714285714
 40
0.5714285714285714
 40
0.5714285714285714
 40
0.5714285714285714
 40
0.6190476190476191
 40
0.6190476190476191
 40
0.6190476190476191
 40
0.6190476190476191
 40
0.6666666666666666
 40
0.6666666666666666
 40
0.6666666666666666
 40
0.6666666666666666
 40
0.7142857142857143
 40
0.7142857142857143
 40
0.7142857142857143
 40
0.7142857142857143
 40
0.7619047619047619
 40
0.7619047619047619
 40
0.7619047619047619
 40
0.7619047619047619
 40
0.8095238095238095
 40
0.8095238095238095
 40
0.8095238095238095
 40
0.8095238095238095
 40
0.8571428571428571
 40
0.8571428571428571
 40
0.8571428571428571
 40
0.8571428571428571
 40
0.9047619047619048
 40
0.9047619047619048
 40
0.9047619047619048
 40
0.9047619047619048
 40
1.0
 40
1.0
 40
1.0
 40
1.0
 10
2238.1698
 20
-1027.9895
 30
0.0
 10
2238.1698
 20
-1027.9895
 30
0.0
 10
2385.3197
 20
-1027.9895
 30
0.0
 10
2385.3197
 20
-1027.9895
 30
0.0
 10
2385.3197
 20
-1027.9895
 30
0.0
 10
2385.3197
 20
-1027.9895
 30
0.0
 10
2385.3197
 20
-1095.3036
 30
0.0
 10
2385.3197
 20
-1095.3036
 30
0.0
 10
2385.3197
 20
-1095.3036
 30
0.0
 10
2385.3197
 20
-1095.3036
 30
0.0
 10
2391.0197
 20
-1095.3036
 30
0.0
 10
2391.0197
 20
-1095.3036
 30
0.0
 10
2391.0197
 20
-1095.3036
 30
0.0
 10
2391.0197
 20
-1095.3036
 30
0.0
 10
2391.0197
 20
-1027.9895
 30
0.0
 10
2391.0197
 20
-1027.9895
 30
0.0
 10
2391.0197
 20
-1027.9895
 30
0.0
 10
2391.0197
 20
-1027.9895
 30
0.0
 10
2538.1696
 20
-1027.9895
 30
0.0
 10
2538.1696
 20
-1027.9895
 30
0.0
 10
2538.1696
 20
-1027.9895
 30
0.0
 10
2538.1696
 20
-1027.9895
 30
0.0
 10
2538.1696
 20
-1095.3036
 30
0.0
 10
2538.1696
 20
-1095.3036
 30
0.0
 10
2538.1696
 20
-1095.3036
 30
0.0
 10
2538.1696
 20
-1095.3036
 30
0.0
 10
2532.4696
 20
-1095.3036
 30
0.0
 10
2532.4696
 20
-1095.3036
 30
0.0
 10
2532.4696
 20
-1095.3036
 30
0.0
 10
2532.4696
 20
-1095.3036
 30
0.0
 10
2532.4696
 20
-1420.4655
 30
0.0
 10
2532.4696
 20
-1420.4655
 30
0.0
 10
2532.4696
 20
-1420.4655
 30
0.0
 10
2532.4696
 20
-1420.4655
 30
0.0
 10
2538.1696
 20
-1420.4655
 30
0.0
 10
2538.1696
 20
-1420.4655
 30
0.0
 10
2538.1696
 20
-1420.4655
 30
0.0
 10
2538.1696
 20
-1420.4655
 30
0.0
 10
2538.1696
 20
-1487.7795
 30
0.0
 10
2538.1696
 20
-1487.7795
 30
0.0
 10
2538.1696
 20
-1487.7795
 30
0.0
 10
2538.1696
 20
-1487.7795
 30
0.0
 10
2391.0197
 20
-1487.7795
 30
0.0
 10
2391.0197
 20
-1487.7795
 30
0.0
 10
2391.0197
 20
-1487.7795
 30
0.0
 10
2391.0197
 20
-1487.7795
 30
0.0
 10
2391.0197
 20
-1420.4655
 30
0.0
 10
2391.0197
 20
-1420.4655
 30
0.0
 10
2391.0197
 20
-1420.4655
 30
0.0
 10
2391.0197
 20
-1420.4655
 30
0.0
 10
2385.3197
 20
-1420.4655
 30
0.0
 10
2385.3197
 20
-1420.4655
 30
0.0
 10
2385.3197
 20
-1420.4655
 30
0.0
 10
2385.3197
 20
-1420.4655
 30
0.0
 10
2385.3197
 20
-1487.7795
 30
0.0
 10
2385.3197
 20
-1487.7795
 30
0.0
 10
2385.3197
 20
-1487.7795
 30
0.0
 10
2385.3197
 20
-1487.7795
 30
0.0
 10
2238.1698
 20
-1487.7795
 30
0.0
 10
2238.1698
 20
-1487.7795
 30
0.0
 10
2238.1698
 20
-1487.7795
 30
0.0
 10
2238.1698
 20
-1487.7795
 30
0.0
 10
2238.1698
 20
-1420.4655
 30
0.0
 10
2238.1698
 20
-1420.4655
 30
0.0
 10
2238.1698
 20
-1420.4655
 30
0.0
 10
2238.1698
 20
-1420.4655
 30
0.0
 10
2243.8698
 20
-1420.4655
 30
0.0
 10
2243.8698
 20
-1420.4655
 30
0.0
 10
2243.8698
 20
-1420.4655
 30
0.0
 10
2243.8698
 20
-1420.4655
 30
0.0
 10
2243.8698
 20
-1095.3036
 30
0.0
 10
2243.8698
 20
-1095.3036
 30
0.0
 10
2243.8698
 20
-1095.3036
 30
0.0
 10
2243.8698
 20
-1095.3036
 30
0.0
 10
2238.1698
 20
-1095.3036
 30
0.0
 10
2238.1698
 20
-1095.3036
 30
0.0
 10
2238.1698
 20
-1095.3036
 30
0.0
 10
2238.1698
 20
-1095.3036
 30
0.0
 10
2238.1698
 20
-1027.9895
 30
0.0
 10
2238.1698
 20
-1027.9895
 30
0.0
  0
SPLINE
  5
77
330
1F
100
AcDbEntity
  8
Capa 1
370
    20
100
AcDbSpline
210
0.0
220
0.0
230
1.0
 70
    11
 71
     3
 72
    68
 73
    64
 74
     0
 42
0.000000001
 43
0.0000000001
 40
0.0
 40
0.0
 40
0.0
 40
0.0
 40
0.0588235294117647
 40
0.0588235294117647
 40
0.0588235294117647
 40
0.0588235294117647
 40
0.1176470588235294
 40
0.1176470588235294
 40
0.1176470588235294
 40
0.1176470588235294
 40
0.1764705882352941
 40
0.1764705882352941
 40
0.1764705882352941
 40
0.1764705882352941
 40
0.2352941176470588
 40
0.2352941176470588
 40
0.2352941176470588
 40
0.2352941176470588
 40
0.2941176470588235
 40
0.2941176470588235
 40
0.2941176470588235
 40
0.2941176470588235
 40
0.3529411764705883
 40
0.3529411764705883
 40
0.3529411764705883
 40
0.3529411764705883
 40
0.4117647058823529
 40
0.4117647058823529
 40
0.4117647058823529
 40
0.4117647058823529
 40
0.4705882352941176
 40
0.4705882352941176
 40
0.4705882352941176
 40
0.4705882352941176
 40
0.5294117647058824
 40
0.5294117647058824
 40
0.5294117647058824
 40
0.5294117647058824
 40
0.5882352941176471
 40
0.5882352941176471
 40
0.5882352941176471
 40
0.5882352941176471
 40
0.6470588235294118
 40
0.6470588235294118
 40
0.6470588235294118
 40
0.6470588235294118
 40
0.7058823529411765
 40
0.7058823529411765
 40
0.7058823529411765
 40
0.7058823529411765
 40
0.7647058823529411
 40
0.7647058823529411
 40
0.7647058823529411
 40
0.7647058823529411
 40
0.8235294117647058
 40
0.8235294117647058
 40
0.8235294117647058
 40
0.8235294117647058
 40
0.8823529411764706
 40
0.8823529411764706
 40
0.8823529411764706
 40
0.8823529411764706
 40
1.0
 40
1.0
 40
1.0
 40
1.0
 10
2601.7076
 20
-1848.1508
 30
0.0
 10
2601.7076
 20
-1848.1508
 30
0.0
 10
2601.7076
 20
-1548.151
 30
0.0
 10
2601.7076
 20
-1548.151
 30
0.0
 10
2601.7076
 20
-1548.151
 30
0.0
 10
2601.7076
 20
-1548.151
 30
0.0
 10
2645.7525
 20
-1548.151
 30
0.0
 10
2645.7525
 20
-1548.151
 30
0.0
 10
2645.7525
 20
-1548.151
 30
0.0
 10
2645.7525
 20
-1548.151
 30
0.0
 10
2645.7525
 20
-1553.851
 30
0.0
 10
2645.7525
 20
-1553.851
 30
0.0
 10
2645.7525
 20
-1553.851
 30
0.0
 10
2645.7525
 20
-1553.851
 30
0.0
 10
2858.5123
 20
-1553.851
 30
0.0
 10
2858.5123
 20
-1553.851
 30
0.0
 10
2858.5123
 20
-1553.851
 30
0.0
 10
2858.5123
 20
-1553.851
 30
0.0
 10
2858.5123
 20
-1548.151
 30
0.0
 10
2858.5123
 20
-1548.151
 30
0.0
 10
2858.5123
 20
-1548.151
 30
0.0
 10
2858.5123
 20
-1548.151
 30
0.0
 10
2902.5576
 20
-1548.151
 30
0.0
 10
2902.5576
 20
-1548.151
 30
0.0
 10
2902.5576
 20
-1548.151
 30
0.0
 10
2902.5576
 20
-1548.151
 30
0.0
 10
2902.5576
 20
-1695.3009
 30
0.0
 10
2902.5576
 20
-1695.3009
 30
0.0
 10
2902.5576
 20
-1695.3009
 30
0.0
 10
2902.5576
 20
-1695.3009
 30
0.0
 10
2858.5127
 20
-1695.3009
 30
0.0
 10
2858.5127
 20
-1695.3009
 30
0.0
 10
2858.5127
 20
-1695.3009
 30
0.0
 10
2858.5127
 20
-1695.3009
 30
0.0
 10
2858.5127
 20
-1701.0009
 30
0.0
 10
2858.5127
 20
-1701.0009
 30
0.0
 10
2858.5127
 20
-1701.0009
 30
0.0
 10
2858.5127
 20
-1701.0009
 30
0.0
 10
2902.5576
 20
-1701.0009
 30
0.0
 10
2902.5576
 20
-1701.0009
 30
0.0
 10
2902.5576
 20
-1701.0009
 30
0.0
 10
2902.5576
 20
-1701.0009
 30
0.0
 10
2902.5576
 20
-1848.1508
 30
0.0
 10
2902.5576
 20
-1848.1508
 30
0.0
 10
2902.5576
 20
-1848.1508
 30
0.0
 10
2902.5576
 20
-1848.1508
 30
0.0
 10
2858.5123
 20
-1848.1508
 30
0.0
 10
2858.5123
 20
-1848.1508
 30
0.0
 10
2858.5123
 20
-1848.1508
 30
0.0
 10
2858.5123
 20
-1848.1508
 30
0.0
 10
2858.5123
 20
-1842.4508
 30
0.0
 10
2858.5123
 20
-1842.4508
 30
0.0
 10
2858.5123
 20
-1842.4508
 30
0.0
 10
2858.5123
 20
-1842.4508
 30
0.0
 10
2645.7525
 20
-1842.4508
 30
0.0
 10
2645.7525
 20
-1842.4508
 30
0.0
 10
2645.7525
 20
-1842.4508
 30
0.0
 10
2645.7525
 20
-1842.4508
 30
0.0
 10
2645.7525
 20
-1848.1508
 30
0.0
 10
2645.7525
 20
-1848.1508
 30
0.0
 10
2645.7525
 20
-1848.1508
 30
0.0
 10
2645.7525
 20
-1848.1508
 30
0.0
 10
2601.7076
 20
-1848.1508
 30
0.0
 10
2601.7076
 20
-1848.1508
 30
0.0
  0
SPLINE
  5
78
330
1F
100
AcDbEntity
  8
Capa 1
370
    20
100
AcDbSpline
210
0.0
220
0.0
230
1.0
 70
    11
 71
     3
 72
    20
 73
    16
 74
     0
 42
0.000000001
 43
0.0000000001
 40
0.0
 40
0.0
 40
0.0
 40
0.0
 40
0.2
 40
0.2
 40
0.2
 40
0.2
 40
0.4
 40
0.4
 40
0.4
 40
0.4
 40
0.6
 40
0.6
 40
0.6
 40
0.6
 40
1.0
 40
1.0
 40
1.0
 40
1.0
 10
2601.708
 20
-1701.0009
 30
0.0
 10
2601.708
 20
-1701.0009
 30
0.0
 10
2601.708
 20
-1695.3009
 30
0.0
 10
2601.708
 20
-1695.3009
 30
0.0
 10
2601.708
 20
-1695.3009
 30
0.0
 10
2601.708
 20
-1695.3009
 30
0.0
 10
2645.7529
 20
-1695.3009
 30
0.0
 10
2645.7529
 20
-1695.3009
 30
0.0
 10
2645.7529
 20
-1695.3009
 30
0.0
 10
2645.7529
 20
-1695.3009
 30
0.0
 10
2645.7529
 20
-1701.0009
 30
0.0
 10
2645.7529
 20
-1701.0009
 30
0.0
 10
2645.7529
 20
-1701.0009
 30
0.0
 10
2645.7529
 20
-1701.0009
 30
0.0
 10
2601.708
 20
-1701.0009
 30
0.0
 10
2601.708
 20
-1701.0009
 30
0.0
  0
SPLINE
  5
79
330
1F
100
AcDbEntity
  8
Capa 1
370
    20
100
AcDbSpline
210
0.0
220
0.0
230
1.0
 70
    11
 71
     3
 72
   100
 73
    96
 74
     0
 42
0.000000001
 43
0.0000000001
 40
0.0
 40
0.0
 40
0.0
 40
0.0
 40
0.04
 40
0.04
 40
0.04
 40
0.04
 40
0.08
 40
0.08
 40
0.08
 40
0.08
 40
0.12
 40
0.12
 40
0.12
 40
0.12
 40
0.16
 40
0.16
 40
0.16
 40
0.16
 40
0.2
 40
0.2
 40
0.2
 40
0.2
 40
0.24
 40
0.24
 40
0.24
 40
0.24
 40
0.28
 40
0.28
 40
0.28
 40
0.28
 40
0.32
 40
0.32
 40
0.32
 40
0.32
 40
0.36
 40
0.36
 40
0.36
 40
0.36
 40
0.4
 40
0.4
 40
0.4
 40
0.4
 40
0.44
 40
0.44
 40
0.44
 40
0.44
 40
0.48
 40
0.48
 40
0.48
 40
0.48
 40
0.52
 40
0.52
 40
0.52
 40
0.52
 40
0.56
 40
0.56
 40
0.56
 40
0.56
 40
0.6
 40
0.6
 40
0.6
 40
0.6
 40
0.64
 40
0.64
 40
0.64
 40
0.64
 40
0.68
 40
0.68
 40
0.68
 40
0.68
 40
0.72
 40
0.72
 40
0.72
 40
0.72
 40
0.76
 40
0.76
 40
0.76
 40
0.76
 40
0.8
 40
0.8
 40
0.8
 40
0.8
 40
0.84
 40
0.84
 40
0.84
 40
0.84
 40
0.88
 40
0.88
 40
0.88
 40
0.88
 40
0.92
 40
0.92
 40
0.92
 40
0.92
 40
1.0
 40
1.0
 40
1.0
 40
1.0
 10
2259.6393
 20
-3089.7266
 30
0.0
 10
2259.6393
 20
-3089.7266
 30
0.0
 10
2406.7892
 20
-3089.7266
 30
0.0
 10
2406.7892
 20
-3089.7266
 30
0.0
 10
2406.7892
 20
-3089.7266
 30
0.0
 10
2406.7892
 20
-3089.7266
 30
0.0
 10
2406.7892
 20
-3122.8925
 30
0.0
 10
2406.7892
 20
-3122.8925
 30
0.0
 10
2406.7892
 20
-3122.8925
 30
0.0
 10
2406.7892
 20
-3122.8925
 30
0.0
 10
2412.4892
 20
-3122.8925
 30
0.0
 10
2412.4892
 20
-3122.8925
 30
0.0
 10
2412.4892
 20
-3122.8925
 30
0.0
 10
2412.4892
 20
-3122.8925
 30
0.0
 10
2412.4892
 20
-3089.7266
 30
0.0
 10
2412.4892
 20
-3089.7266
 30
0.0
 10
2412.4892
 20
-3089.7266
 30
0.0
 10
2412.4892
 20
-3089.7266
 30
0.0
 10
2559.6391
 20
-3089.7266
 30
0.0
 10
2559.6391
 20
-3089.7266
 30
0.0
 10
2559.6391
 20
-3089.7266
 30
0.0
 10
2559.6391
 20
-3089.7266
 30
0.0
 10
2559.6391
 20
-3122.8925
 30
0.0
 10
2559.6391
 20
-3122.8925
 30
0.0
 10
2559.6391
 20
-3122.8925
 30
0.0
 10
2559.6391
 20
-3122.8925
 30
0.0
 10
2553.9391
 20
-3122.8925
 30
0.0
 10
2553.9391
 20
-3122.8925
 30
0.0
 10
2553.9391
 20
-3122.8925
 30
0.0
 10
2553.9391
 20
-3122.8925
 30
0.0
 10
2553.9391
 20
-3283.1007
 30
0.0
 10
2553.9391
 20
-3283.1007
 30
0.0
 10
2553.9391
 20
-3283.1007
 30
0.0
 10
2553.9391
 20
-3283.1007
 30
0.0
 10
2559.6391
 20
-3283.1007
 30
0.0
 10
2559.6391
 20
-3283.1007
 30
0.0
 10
2559.6391
 20
-3283.1007
 30
0.0
 10
2559.6391
 20
-3283.1007
 30
0.0
 10
2559.6391
 20
-3316.2666
 30
0.0
 10
2559.6391
 20
-3316.2666
 30
0.0
 10
2559.6391
 20
-3316.2666
 30
0.0
 10
2559.6391
 20
-3316.2666
 30
0.0
 10
2515.7186
 20
-3316.2666
 30
0.0
 10
2515.7186
 20
-3316.2666
 30
0.0
 10
2515.7186
 20
-3316.2666
 30
0.0
 10
2515.7186
 20
-3316.2666
 30
0.0
 10
2515.7186
 20
-3310.5666
 30
0.0
 10
2515.7186
 20
-3310.5666
 30
0.0
 10
2515.7186
 20
-3310.5666
 30
0.0
 10
2515.7186
 20
-3310.5666
 30
0.0
 10
2412.4892
 20
-3310.5666
 30
0.0
 10
2412.4892
 20
-3310.5666
 30
0.0
 10
2412.4892
 20
-3310.5666
 30
0.0
 10
2412.4892
 20
-3310.5666
 30
0.0
 10
2412.4892
 20
-3283.1007
 30
0.0
 10
2412.4892
 20
-3283.1007
 30
0.0
 10
2412.4892
 20
-3283.1007
 30
0.0
 10
2412.4892
 20
-3283.1007
 30
0.0
 10
2406.7892
 20
-3283.1007
 30
0.0
 10
2406.7892
 20
-3283.1007
 30
0.0
 10
2406.7892
 20
-3283.1007
 30
0.0
 10
2406.7892
 20
-3283.1007
 30
0.0
 10
2406.7892
 20
-3310.5666
 30
0.0
 10
2406.7892
 20
-3310.5666
 30
0.0
 10
2406.7892
 20
-3310.5666
 30
0.0
 10
2406.7892
 20
-3310.5666
 30
0.0
 10
2303.5597
 20
-3310.5666
 30
0.0
 10
2303.5597
 20
-3310.5666
 30
0.0
 10
2303.5597
 20
-3310.5666
 30
0.0
 10
2303.5597
 20
-3310.5666
 30
0.0
 10
2303.5597
 20
-3316.2666
 30
0.0
 10
2303.5597
 20
-3316.2666
 30
0.0
 10
2303.5597
 20
-3316.2666
 30
0.0
 10
2303.5597
 20
-3316.2666
 30
0.0
 10
2259.6393
 20
-3316.2666
 30
0.0
 10
2259.6393
 20
-3316.2666
 30
0.0
 10
2259.6393
 20
-3316.2666
 30
0.0
 10
2259.6393
 20
-3316.2666
 30
0.0
 10
2259.6393
 20
-3283.1007
 30
0.0
 10
2259.6393
 20
-3283.1007
 30
0.0
 10
2259.6393
 20
-3283.1007
 30
0.0
 10
2259.6393
 20
-3283.1007
 30
0.0
 10
2265.3393
 20
-3283.1007
 30
0.0
 10
2265.3393
 20
-3283.1007
 30
0.0
 10
2265.3393
 20
-3283.1007
 30
0.0
 10
2265.3393
 20
-3283.1007
 30
0.0
 10
2265.3393
 20
-3122.8925
 30
0.0
 10
2265.3393
 20
-3122.8925
 30
0.0
 10
2265.3393
 20
-3122.8925
 30
0.0
 10
2265.3393
 20
-3122.8925
 30
0.0
 10
2259.6393
 20
-3122.8925
 30
0.0
 10
2259.6393
 20
-3122.8925
 30
0.0
 10
2259.6393
 20
-3122.8925
 30
0.0
 10
2259.6393
 20
-3122.8925
 30
0.0
 10
2259.6393
 20
-3089.7266
 30
0.0
 10
2259.6393
 20
-3089.7266
 30
0.0
  0
SPLINE
  5
7A
330
1F
100
AcDbEntity
  8
Capa 1
370
    20
100
AcDbSpline
210
0.0
220
0.0
230
1.0
 70
    11
 71
     3
 72
   100
 73
    96
 74
     0
 42
0.000000001
 43
0.0000000001
 40
0.0
 40
0.0
 40
0.0
 40
0.0
 40
0.04
 40
0.04
 40
0.04
 40
0.04
 40
0.08
 40
0.08
 40
0.08
 40
0.08
 40
0.12
 40
0.12
 40
0.12
 40
0.12
 40
0.16
 40
0.16
 40
0.16
 40
0.16
 40
0.2
 40
0.2
 40
0.2
 40
0.2
 40
0.24
 40
0.24
 40
0.24
 40
0.24
 40
0.28
 40
0.28
 40
0.28
 40
0.28
 40
0.32
 40
0.32
 40
0.32
 40
0.32
 40
0.36
 40
0.36
 40
0.36
 40
0.36
 40
0.4
 40
0.4
 40
0.4
 40
0.4
 40
0.44
 40
0.44
 40
0.44
 40
0.44
 40
0.48
 40
0.48
 40
0.48
 40
0.48
 40
0.52
 40
0.52
 40
0.52
 40
0.52
 40
0.56
 40
0.56
 40
0.56
 40
0.56
 40
0.6
 40
0.6
 40
0.6
 40
0.6
 40
0.64
 40
0.64
 40
0.64
 40
0.64
 40
0.68
 40
0.68
 40
0.68
 40
0.68
 40
0.72
 40
0.72
 40
0.72
 40
0.72
 40
0.76
 40
0.76
 40
0.76
 40
0.76
 40
0.8
 40
0.8
 40
0.8
 40
0.8
 40
0.84
 40
0.84
 40
0.84
 40
0.84
 40
0.88
 40
0.88
 40
0.88
 40
0.88
 40
0.92
 40
0.92
 40
0.92
 40
0.92
 40
1.0
 40
1.0
 40
1.0
 40
1.0
 10
2629.8593
 20
-3086.9549
 30
0.0
 10
2629.8593
 20
-3086.9549
 30
0.0
 10
2777.0092
 20
-3086.9549
 30
0.0
 10
2777.0092
 20
-3086.9549
 30
0.0
 10
2777.0092
 20
-3086.9549
 30
0.0
 10
2777.0092
 20
-3086.9549
 30
0.0
 10
2777.0092
 20
-3119.9407
 30
0.0
 10
2777.0092
 20
-3119.9407
 30
0.0
 10
2777.0092
 20
-3119.9407
 30
0.0
 10
2777.0092
 20
-3119.9407
 30
0.0
 10
2782.7092
 20
-3119.9407
 30
0.0
 10
2782.7092
 20
-3119.9407
 30
0.0
 10
2782.7092
 20
-3119.9407
 30
0.0
 10
2782.7092
 20
-3119.9407
 30
0.0
 10
2782.7092
 20
-3086.9549
 30
0.0
 10
2782.7092
 20
-3086.9549
 30
0.0
 10
2782.7092
 20
-3086.9549
 30
0.0
 10
2782.7092
 20
-3086.9549
 30
0.0
 10
2929.8591
 20
-3086.9549
 30
0.0
 10
2929.8591
 20
-3086.9549
 30
0.0
 10
2929.8591
 20
-3086.9549
 30
0.0
 10
2929.8591
 20
-3086.9549
 30
0.0
 10
2929.8591
 20
-3119.9407
 30
0.0
 10
2929.8591
 20
-3119.9407
 30
0.0
 10
2929.8591
 20
-3119.9407
 30
0.0
 10
2929.8591
 20
-3119.9407
 30
0.0
 10
2924.1591
 20
-3119.9407
 30
0.0
 10
2924.1591
 20
-3119.9407
 30
0.0
 10
2924.1591
 20
-3119.9407
 30
0.0
 10
2924.1591
 20
-3119.9407
 30
0.0
 10
2924.1591
 20
-3279.2791
 30
0.0
 10
2924.1591
 20
-3279.2791
 30
0.0
 10
2924.1591
 20
-3279.2791
 30
0.0
 10
2924.1591
 20
-3279.2791
 30
0.0
 10
2929.8591
 20
-3279.2791
 30
0.0
 10
2929.8591
 20
-3279.2791
 30
0.0
 10
2929.8591
 20
-3279.2791
 30
0.0
 10
2929.8591
 20
-3279.2791
 30
0.0
 10
2929.8591
 20
-3312.2649
 30
0.0
 10
2929.8591
 20
-3312.2649
 30
0.0
 10
2929.8591
 20
-3312.2649
 30
0.0
 10
2929.8591
 20
-3312.2649
 30
0.0
 10
2885.9386
 20
-3312.2649
 30
0.0
 10
2885.9386
 20
-3312.2649
 30
0.0
 10
2885.9386
 20
-3312.2649
 30
0.0
 10
2885.9386
 20
-3312.2649
 30
0.0
 10
2885.9386
 20
-3306.5649
 30
0.0
 10
2885.9386
 20
-3306.5649
 30
0.0
 10
2885.9386
 20
-3306.5649
 30
0.0
 10
2885.9386
 20
-3306.5649
 30
0.0
 10
2782.7092
 20
-3306.5649
 30
0.0
 10
2782.7092
 20
-3306.5649
 30
0.0
 10
2782.7092
 20
-3306.5649
 30
0.0
 10
2782.7092
 20
-3306.5649
 30
0.0
 10
2782.7092
 20
-3279.2791
 30
0.0
 10
2782.7092
 20
-3279.2791
 30
0.0
 10
2782.7092
 20
-3279.2791
 30
0.0
 10
2782.7092
 20
-3279.2791
 30
0.0
 10
2777.0092
 20
-3279.2791
 30
0.0
 10
2777.0092
 20
-3279.2791
 30
0.0
 10
2777.0092
 20
-3279.2791
 30
0.0
 10
2777.0092
 20
-3279.2791
 30
0.0
 10
2777.0092
 20
-3306.5649
 30
0.0
 10
2777.0092
 20
-3306.5649
 30
0.0
 10
2777.0092
 20
-3306.5649
 30
0.0
 10
2777.0092
 20
-3306.5649
 30
0.0
 10
2673.7797
 20
-3306.5649
 30
0.0
 10
2673.7797
 20
-3306.5649
 30
0.0
 10
2673.7797
 20
-3306.5649
 30
0.0
 10
2673.7797
 20
-3306.5649
 30
0.0
 10
2673.7797
 20
-3312.2649
 30
0.0
 10
2673.7797
 20
-3312.2649
 30
0.0
 10
2673.7797
 20
-3312.2649
 30
0.0
 10
2673.7797
 20
-3312.2649
 30
0.0
 10
2629.8593
 20
-3312.2649
 30
0.0
 10
2629.8593
 20
-3312.2649
 30
0.0
 10
2629.8593
 20
-3312.2649
 30
0.0
 10
2629.8593
 20
-3312.2649
 30
0.0
 10
2629.8593
 20
-3279.2791
 30
0.0
 10
2629.8593
 20
-3279.2791
 30
0.0
 10
2629.8593
 20
-3279.2791
 30
0.0
 10
2629.8593
 20
-3279.2791
 30
0.0
 10
2635.5593
 20
-3279.2791
 30
0.0
 10
2635.5593
 20
-3279.2791
 30
0.0
 10
2635.5593
 20
-3279.2791
 30
0.0
 10
2635.5593
 20
-3279.2791
 30
0.0
 10
2635.5593
 20
-3119.9407
 30
0.0
 10
2635.5593
 20
-3119.9407
 30
0.0
 10
2635.5593
 20
-3119.9407
 30
0.0
 10
2635.5593
 20
-3119.9407
 30
0.0
 10
2629.8593
 20
-3119.9407
 30
0.0
 10
2629.8593
 20
-3119.9407
 30
0.0
 10
2629.8593
 20
-3119.9407
 30
0.0
 10
2629.8593
 20
-3119.9407
 30
0.0
 10
2629.8593
 20
-3086.9549
 30
0.0
 10
2629.8593
 20
-3086.9549
 30
0.0
  0
SPLINE
  5
7B
330
1F
100
AcDbEntity
  8
Capa 1
370
    20
100
AcDbSpline
210
0.0
220
0.0
230
1.0
 70
    11
 71
     3
 72
   148
 73
   144
 74
     0
 42
0.000000001
 43
0.0000000001
 40
0.0
 40
0.0
 40
0.0
 40
0.0
 40
0.027027027027027
 40
0.027027027027027
 40
0.027027027027027
 40
0.027027027027027
 40
0.0540540540540541
 40
0.0540540540540541
 40
0.0540540540540541
 40
0.0540540540540541
 40
0.0810810810810811
 40
0.0810810810810811
 40
0.0810810810810811
 40
0.0810810810810811
 40
0.1081081081081081
 40
0.1081081081081081
 40
0.1081081081081081
 40
0.1081081081081081
 40
0.1351351351351351
 40
0.1351351351351351
 40
0.1351351351351351
 40
0.1351351351351351
 40
0.1621621621621622
 40
0.1621621621621622
 40
0.1621621621621622
 40
0.1621621621621622
 40
0.1891891891891892
 40
0.1891891891891892
 40
0.1891891891891892
 40
0.1891891891891892
 40
0.2162162162162162
 40
0.2162162162162162
 40
0.2162162162162162
 40
0.2162162162162162
 40
0.2432432432432433
 40
0.2432432432432433
 40
0.2432432432432433
 40
0.2432432432432433
 40
0.2702702702702703
 40
0.2702702702702703
 40
0.2702702702702703
 40
0.2702702702702703
 40
0.2972972972972973
 40
0.2972972972972973
 40
0.2972972972972973
 40
0.2972972972972973
 40
0.3243243243243243
 40
0.3243243243243243
 40
0.3243243243243243
 40
0.3243243243243243
 40
0.3513513513513514
 40
0.3513513513513514
 40
0.3513513513513514
 40
0.3513513513513514
 40
0.3783783783783784
 40
0.3783783783783784
 40
0.3783783783783784
 40
0.3783783783783784
 40
0.4054054054054054
 40
0.4054054054054054
 40
0.4054054054054054
 40
0.4054054054054054
 40
0.4324324324324325
 40
0.4324324324324325
 40
0.4324324324324325
 40
0.4324324324324325
 40
0.4594594594594595
 40
0.4594594594594595
 40
0.4594594594594595
 40
0.4594594594594595
 40
0.4864864864864865
 40
0.4864864864864865
 40
0.4864864864864865
 40
0.4864864864864865
 40
0.5135135135135135
 40
0.5135135135135135
 40
0.5135135135135135
 40
0.5135135135135135
 40
0.5405405405405406
 40
0.5405405405405406
 40
0.5405405405405406
 40
0.5405405405405406
 40
0.5675675675675675
 40
0.5675675675675675
 40
0.5675675675675675
 40
0.5675675675675675
 40
0.5945945945945946
 40
0.5945945945945946
 40
0.5945945945945946
 40
0.5945945945945946
 40
0.6216216216216216
 40
0.6216216216216216
 40
0.6216216216216216
 40
0.6216216216216216
 40
0.6486486486486487
 40
0.6486486486486487
 40
0.6486486486486487
 40
0.6486486486486487
 40
0.6756756756756757
 40
0.6756756756756757
 40
0.6756756756756757
 40
0.6756756756756757
 40
0.7027027027027027
 40
0.7027027027027027
 40
0.7027027027027027
 40
0.7027027027027027
 40
0.7297297297297297
 40
0.7297297297297297
 40
0.7297297297297297
 40
0.7297297297297297
 40
0.7567567567567568
 40
0.7567567567567568
 40
0.7567567567567568
 40
0.7567567567567568
 40
0.7837837837837838
 40
0.7837837837837838
 40
0.7837837837837838
 40
0.7837837837837838
 40
0.8108108108108109
 40
0.8108108108108109
 40
0.8108108108108109
 40
0.8108108108108109
 40
0.8378378378378378
 40
0.8378378378378378
 40
0.8378378378378378
 40
0.8378378378378378
 40
0.8648648648648649
 40
0.8648648648648649
 40
0.8648648648648649
 40
0.8648648648648649
 40
0.8918918918918919
 40
0.8918918918918919
 40
0.8918918918918919
 40
0.8918918918918919
 40
0.918918918918919
 40
0.918918918918919
 40
0.918918918918919
 40
0.918918918918919
 40
0.9459459459459459
 40
0.9459459459459459
 40
0.9459459459459459
 40
0.9459459459459459
 40
1.0
 40
1.0
 40
1.0
 40
1.0
 10
2593.959
 20
-1911.6279
 30
0.0
 10
2593.959
 20
-1911.6279
 30
0.0
 10
2637.8795
 20
-1911.6279
 30
0.0
 10
2637.8795
 20
-1911.6279
 30
0.0
 10
2637.8795
 20
-1911.6279
 30
0.0
 10
2637.8795
 20
-1911.6279
 30
0.0
 10
2637.8795
 20
-1917.3279
 30
0.0
 10
2637.8795
 20
-1917.3279
 30
0.0
 10
2637.8795
 20
-1917.3279
 30
0.0
 10
2637.8795
 20
-1917.3279
 30
0.0
 10
2741.1089
 20
-1917.3279
 30
0.0
 10
2741.1089
 20
-1917.3279
 30
0.0
 10
2741.1089
 20
-1917.3279
 30
0.0
 10
2741.1089
 20
-1917.3279
 30
0.0
 10
2741.1089
 20
-1990.3682
 30
0.0
 10
2741.1089
 20
-1990.3682
 30
0.0
 10
2741.1089
 20
-1990.3682
 30
0.0
 10
2741.1089
 20
-1990.3682
 30
0.0
 10
2746.8089
 20
-1990.3682
 30
0.0
 10
2746.8089
 20
-1990.3682
 30
0.0
 10
2746.8089
 20
-1990.3682
 30
0.0
 10
2746.8089
 20
-1990.3682
 30
0.0
 10
2746.8089
 20
-1917.3279
 30
0.0
 10
2746.8089
 20
-1917.3279
 30
0.0
 10
2746.8089
 20
-1917.3279
 30
0.0
 10
2746.8089
 20
-1917.3279
 30
0.0
 10
2850.0384
 20
-1917.3279
 30
0.0
 10
2850.0384
 20
-1917.3279
 30
0.0
 10
2850.0384
 20
-1917.3279
 30
0.0
 10
2850.0384
 20
-1917.3279
 30
0.0
 10
2850.0384
 20
-1911.6279
 30
0.0
 10
2850.0384
 20
-1911.6279
 30
0.0
 10
2850.0384
 20
-1911.6279
 30
0.0
 10
2850.0384
 20
-1911.6279
 30
0.0
 10
2893.9588
 20
-1911.6279
 30
0.0
 10
2893.9588
 20
-1911.6279
 30
0.0
 10
2893.9588
 20
-1911.6279
 30
0.0
 10
2893.9588
 20
-1911.6279
 30
0.0
 10
2893.9588
 20
-1990.3682
 30
0.0
 10
2893.9588
 20
-1990.3682
 30
0.0
 10
2893.9588
 20
-1990.3682
 30
0.0
 10
2893.9588
 20
-1990.3682
 30
0.0
 10
2888.2589
 20
-1990.3682
 30
0.0
 10
2888.2589
 20
-1990.3682
 30
0.0
 10
2888.2589
 20
-1990.3682
 30
0.0
 10
2888.2589
 20
-1990.3682
 30
0.0
 10
2888.2589
 20
-2370.7246
 30
0.0
 10
2888.2589
 20
-2370.7246
 30
0.0
 10
2888.2589
 20
-2370.7246
 30
0.0
 10
2888.2589
 20
-2370.7246
 30
0.0
 10
2893.9588
 20
-2370.7246
 30
0.0
 10
2893.9588
 20
-2370.7246
 30
0.0
 10
2893.9588
 20
-2370.7246
 30
0.0
 10
2893.9588
 20
-2370.7246
 30
0.0
 10
2893.9588
 20
-2449.4649
 30
0.0
 10
2893.9588
 20
-2449.4649
 30
0.0
 10
2893.9588
 20
-2449.4649
 30
0.0
 10
2893.9588
 20
-2449.4649
 30
0.0
 10
2888.2589
 20
-2449.4649
 30
0.0
 10
2888.2589
 20
-2449.4649
 30
0.0
 10
2888.2589
 20
-2449.4649
 30
0.0
 10
2888.2589
 20
-2449.4649
 30
0.0
 10
2888.2589
 20
-2870.8376
 30
0.0
 10
2888.2589
 20
-2870.8376
 30
0.0
 10
2888.2589
 20
-2870.8376
 30
0.0
 10
2888.2589
 20
-2870.8376
 30
0.0
 10
2893.9588
 20
-2870.8376
 30
0.0
 10
2893.9588
 20
-2870.8376
 30
0.0
 10
2893.9588
 20
-2870.8376
 30
0.0
 10
2893.9588
 20
-2870.8376
 30
0.0
 10
2893.9588
 20
-2947.993
 30
0.0
 10
2893.9588
 20
-2947.993
 30
0.0
 10
2893.9588
 20
-2947.993
 30
0.0
 10
2893.9588
 20
-2947.993
 30
0.0
 10
2850.0384
 20
-2947.993
 30
0.0
 10
2850.0384
 20
-2947.993
 30
0.0
 10
2850.0384
 20
-2947.993
 30
0.0
 10
2850.0384
 20
-2947.993
 30
0.0
 10
2850.0384
 20
-2942.293
 30
0.0
 10
2850.0384
 20
-2942.293
 30
0.0
 10
2850.0384
 20
-2942.293
 30
0.0
 10
2850.0384
 20
-2942.293
 30
0.0
 10
2746.8089
 20
-2942.293
 30
0.0
 10
2746.8089
 20
-2942.293
 30
0.0
 10
2746.8089
 20
-2942.293
 30
0.0
 10
2746.8089
 20
-2942.293
 30
0.0
 10
2746.8089
 20
-2870.8376
 30
0.0
 10
2746.8089
 20
-2870.8376
 30
0.0
 10
2746.8089
 20
-2870.8376
 30
0.0
 10
2746.8089
 20
-2870.8376
 30
0.0
 10
2741.1089
 20
-2870.8376
 30
0.0
 10
2741.1089
 20
-2870.8376
 30
0.0
 10
2741.1089
 20
-2870.8376
 30
0.0
 10
2741.1089
 20
-2870.8376
 30
0.0
 10
2741.1089
 20
-2942.293
 30
0.0
 10
2741.1089
 20
-2942.293
 30
0.0
 10
2741.1089
 20
-2942.293
 30
0.0
 10
2741.1089
 20
-2942.293
 30
0.0
 10
2637.8795
 20
-2942.293
 30
0.0
 10
2637.8795
 20
-2942.293
 30
0.0
 10
2637.8795
 20
-2942.293
 30
0.0
 10
2637.8795
 20
-2942.293
 30
0.0
 10
2637.8795
 20
-2947.993
 30
0.0
 10
2637.8795
 20
-2947.993
 30
0.0
 10
2637.8795
 20
-2947.993
 30
0.0
 10
2637.8795
 20
-2947.993
 30
0.0
 10
2593.959
 20
-2947.993
 30
0.0
 10
2593.959
 20
-2947.993
 30
0.0
 10
2593.959
 20
-2947.993
 30
0.0
 10
2593.959
 20
-2947.993
 30
0.0
 10
2593.959
 20
-2870.8376
 30
0.0
 10
2593.959
 20
-2870.8376
 30
0.0
 10
2593.959
 20
-2870.8376
 30
0.0
 10
2593.959
 20
-2870.8376
 30
0.0
 10
2599.659
 20
-2870.8376
 30
0.0
 10
2599.659
 20
-2870.8376
 30
0.0
 10
2599.659
 20
-2870.8376
 30
0.0
 10
2599.659
 20
-2870.8376
 30
0.0
 10
2599.659
 20
-2449.4649
 30
0.0
 10
2599.659
 20
-2449.4649
 30
0.0
 10
2599.659
 20
-2449.4649
 30
0.0
 10
2599.659
 20
-2449.4649
 30
0.0
 10
2593.959
 20
-2449.4649
 30
0.0
 10
2593.959
 20
-2449.4649
 30
0.0
 10
2593.959
 20
-2449.4649
 30
0.0
 10
2593.959
 20
-2449.4649
 30
0.0
 10
2593.959
 20
-2370.7246
 30
0.0
 10
2593.959
 20
-2370.7246
 30
0.0
 10
2593.959
 20
-2370.7246
 30
0.0
 10
2593.959
 20
-2370.7246
 30
0.0
 10
2599.659
 20
-2370.7246
 30
0.0
 10
2599.659
 20
-2370.7246
 30
0.0
 10
2599.659
 20
-2370.7246
 30
0.0
 10
2599.659
 20
-2370.7246
 30
0.0
 10
2599.659
 20
-1990.3682
 30
0.0
 10
2599.659
 20
-1990.3682
 30
0.0
 10
2599.659
 20
-1990.3682
 30
0.0
 10
2599.659
 20
-1990.3682
 30
0.0
 10
2593.959
 20
-1990.3682
 30
0.0
 10
2593.959
 20
-1990.3682
 30
0.0
 10
2593.959
 20
-1990.3682
 30
0.0
 10
2593.959
 20
-1990.3682
 30
0.0
 10
2593.959
 20
-1911.6279
 30
0.0
 10
2593.959
 20
-1911.6279
 30
0.0
  0
SPLINE
  5
7C
330
1F
100
AcDbEntity
  8
Capa 1
370
    20
100
AcDbSpline
210
0.0
220
0.0
230
1.0
 70
    11
 71
     3
 72
    20
 73
    16
 74
     0
 42
0.000000001
 43
0.0000000001
 40
0.0
 40
0.0
 40
0.0
 40
0.0
 40
0.2
 40
0.2
 40
0.2
 40
0.2
 40
0.4
 40
0.4
 40
0.4
 40
0.4
 40
0.6
 40
0.6
 40
0.6
 40
0.6
 40
1.0
 40
1.0
 40
1.0
 40
1.0
 10
2741.1089
 20
-2370.7246
 30
0.0
 10
2741.1089
 20
-2370.7246
 30
0.0
 10
2746.8089
 20
-2370.7246
 30
0.0
 10
2746.8089
 20
-2370.7246
 30
0.0
 10
2746.8089
 20
-2370.7246
 30
0.0
 10
2746.8089
 20
-2370.7246
 30
0.0
 10
2746.8089
 20
-2449.4649
 30
0.0
 10
2746.8089
 20
-2449.4649
 30
0.0
 10
2746.8089
 20
-2449.4649
 30
0.0
 10
2746.8089
 20
-2449.4649
 30
0.0
 10
2741.1089
 20
-2449.4649
 30
0.0
 10
2741.1089
 20
-2449.4649
 30
0.0
 10
2741.1089
 20
-2449.4649
 30
0.0
 10
2741.1089
 20
-2449.4649
 30
0.0
 10
2741.1089
 20
-2370.7246
 30
0.0
 10
2741.1089
 20
-2370.7246
 30
0.0
  0
SPLINE
  5
7D
330
1F
100
AcDbEntity
  8
Capa 1
370
    20
100
AcDbSpline
210
0.0
220
0.0
230
1.0
 70
    11
 71
     3
 72
   148
 73
   144
 74
     0
 42
0.000000001
 43
0.0000000001
 40
0.0
 40
0.0
 40
0.0
 40
0.0
 40
0.027027027027027
 40
0.027027027027027
 40
0.027027027027027
 40
0.027027027027027
 40
0.0540540540540541
 40
0.0540540540540541
 40
0.0540540540540541
 40
0.0540540540540541
 40
0.0810810810810811
 40
0.0810810810810811
 40
0.0810810810810811
 40
0.0810810810810811
 40
0.1081081081081081
 40
0.1081081081081081
 40
0.1081081081081081
 40
0.1081081081081081
 40
0.1351351351351351
 40
0.1351351351351351
 40
0.1351351351351351
 40
0.1351351351351351
 40
0.1621621621621622
 40
0.1621621621621622
 40
0.1621621621621622
 40
0.1621621621621622
 40
0.1891891891891892
 40
0.1891891891891892
 40
0.1891891891891892
 40
0.1891891891891892
 40
0.2162162162162162
 40
0.2162162162162162
 40
0.2162162162162162
 40
0.2162162162162162
 40
0.2432432432432433
 40
0.2432432432432433
 40
0.2432432432432433
 40
0.2432432432432433
 40
0.2702702702702703
 40
0.2702702702702703
 40
0.2702702702702703
 40
0.2702702702702703
 40
0.2972972972972973
 40
0.2972972972972973
 40
0.2972972972972973
 40
0.2972972972972973
 40
0.3243243243243243
 40
0.3243243243243243
 40
0.3243243243243243
 40
0.3243243243243243
 40
0.3513513513513514
 40
0.3513513513513514
 40
0.3513513513513514
 40
0.3513513513513514
 40
0.3783783783783784
 40
0.3783783783783784
 40
0.3783783783783784
 40
0.3783783783783784
 40
0.4054054054054054
 40
0.4054054054054054
 40
0.4054054054054054
 40
0.4054054054054054
 40
0.4324324324324325
 40
0.4324324324324325
 40
0.4324324324324325
 40
0.4324324324324325
 40
0.4594594594594595
 40
0.4594594594594595
 40
0.4594594594594595
 40
0.4594594594594595
 40
0.4864864864864865
 40
0.4864864864864865
 40
0.4864864864864865
 40
0.4864864864864865
 40
0.5135135135135135
 40
0.5135135135135135
 40
0.5135135135135135
 40
0.5135135135135135
 40
0.5405405405405406
 40
0.5405405405405406
 40
0.5405405405405406
 40
0.5405405405405406
 40
0.5675675675675675
 40
0.5675675675675675
 40
0.5675675675675675
 40
0.5675675675675675
 40
0.5945945945945946
 40
0.5945945945945946
 40
0.5945945945945946
 40
0.5945945945945946
 40
0.6216216216216216
 40
0.6216216216216216
 40
0.6216216216216216
 40
0.6216216216216216
 40
0.6486486486486487
 40
0.6486486486486487
 40
0.6486486486486487
 40
0.6486486486486487
 40
0.6756756756756757
 40
0.6756756756756757
 40
0.6756756756756757
 40
0.6756756756756757
 40
0.7027027027027027
 40
0.7027027027027027
 40
0.7027027027027027
 40
0.7027027027027027
 40
0.7297297297297297
 40
0.7297297297297297
 40
0.7297297297297297
 40
0.7297297297297297
 40
0.7567567567567568
 40
0.7567567567567568
 40
0.7567567567567568
 40
0.7567567567567568
 40
0.7837837837837838
 40
0.7837837837837838
 40
0.7837837837837838
 40
0.7837837837837838
 40
0.8108108108108109
 40
0.8108108108108109
 40
0.8108108108108109
 40
0.8108108108108109
 40
0.8378378378378378
 40
0.8378378378378378
 40
0.8378378378378378
 40
0.8378378378378378
 40
0.8648648648648649
 40
0.8648648648648649
 40
0.8648648648648649
 40
0.8648648648648649
 40
0.8918918918918919
 40
0.8918918918918919
 40
0.8918918918918919
 40
0.8918918918918919
 40
0.918918918918919
 40
0.918918918918919
 40
0.918918918918919
 40
0.918918918918919
 40
0.9459459459459459
 40
0.9459459459459459
 40
0.9459459459459459
 40
0.9459459459459459
 40
1.0
 40
1.0
 40
1.0
 40
1.0
 10
2248.4619
 20
-1908.9279
 30
0.0
 10
2248.4619
 20
-1908.9279
 30
0.0
 10
2292.3824
 20
-1908.9279
 30
0.0
 10
2292.3824
 20
-1908.9279
 30
0.0
 10
2292.3824
 20
-1908.9279
 30
0.0
 10
2292.3824
 20
-1908.9279
 30
0.0
 10
2292.3824
 20
-1914.6279
 30
0.0
 10
2292.3824
 20
-1914.6279
 30
0.0
 10
2292.3824
 20
-1914.6279
 30
0.0
 10
2292.3824
 20
-1914.6279
 30
0.0
 10
2395.6118
 20
-1914.6279
 30
0.0
 10
2395.6118
 20
-1914.6279
 30
0.0
 10
2395.6118
 20
-1914.6279
 30
0.0
 10
2395.6118
 20
-1914.6279
 30
0.0
 10
2395.6118
 20
-1988.0399
 30
0.0
 10
2395.6118
 20
-1988.0399
 30
0.0
 10
2395.6118
 20
-1988.0399
 30
0.0
 10
2395.6118
 20
-1988.0399
 30
0.0
 10
2401.3118
 20
-1988.0399
 30
0.0
 10
2401.3118
 20
-1988.0399
 30
0.0
 10
2401.3118
 20
-1988.0399
 30
0.0
 10
2401.3118
 20
-1988.0399
 30
0.0
 10
2401.3118
 20
-1914.6279
 30
0.0
 10
2401.3118
 20
-1914.6279
 30
0.0
 10
2401.3118
 20
-1914.6279
 30
0.0
 10
2401.3118
 20
-1914.6279
 30
0.0
 10
2504.5413
 20
-1914.6279
 30
0.0
 10
2504.5413
 20
-1914.6279
 30
0.0
 10
2504.5413
 20
-1914.6279
 30
0.0
 10
2504.5413
 20
-1914.6279
 30
0.0
 10
2504.5413
 20
-1908.9279
 30
0.0
 10
2504.5413
 20
-1908.9279
 30
0.0
 10
2504.5413
 20
-1908.9279
 30
0.0
 10
2504.5413
 20
-1908.9279
 30
0.0
 10
2548.4618
 20
-1908.9279
 30
0.0
 10
2548.4618
 20
-1908.9279
 30
0.0
 10
2548.4618
 20
-1908.9279
 30
0.0
 10
2548.4618
 20
-1908.9279
 30
0.0
 10
2548.4618
 20
-1988.0399
 30
0.0
 10
2548.4618
 20
-1988.0399
 30
0.0
 10
2548.4618
 20
-1988.0399
 30
0.0
 10
2548.4618
 20
-1988.0399
 30
0.0
 10
2542.7618
 20
-1988.0399
 30
0.0
 10
2542.7618
 20
-1988.0399
 30
0.0
 10
2542.7618
 20
-1988.0399
 30
0.0
 10
2542.7618
 20
-1988.0399
 30
0.0
 10
2542.7618
 20
-2370.1919
 30
0.0
 10
2542.7618
 20
-2370.1919
 30
0.0
 10
2542.7618
 20
-2370.1919
 30
0.0
 10
2542.7618
 20
-2370.1919
 30
0.0
 10
2548.4618
 20
-2370.1919
 30
0.0
 10
2548.4618
 20
-2370.1919
 30
0.0
 10
2548.4618
 20
-2370.1919
 30
0.0
 10
2548.4618
 20
-2370.1919
 30
0.0
 10
2548.4618
 20
-2449.3039
 30
0.0
 10
2548.4618
 20
-2449.3039
 30
0.0
 10
2548.4618
 20
-2449.3039
 30
0.0
 10
2548.4618
 20
-2449.3039
 30
0.0
 10
2542.7618
 20
-2449.3039
 30
0.0
 10
2542.7618
 20
-2449.3039
 30
0.0
 10
2542.7618
 20
-2449.3039
 30
0.0
 10
2542.7618
 20
-2449.3039
 30
0.0
 10
2542.7618
 20
-2872.6658
 30
0.0
 10
2542.7618
 20
-2872.6658
 30
0.0
 10
2542.7618
 20
-2872.6658
 30
0.0
 10
2542.7618
 20
-2872.6658
 30
0.0
 10
2548.4618
 20
-2872.6658
 30
0.0
 10
2548.4618
 20
-2872.6658
 30
0.0
 10
2548.4618
 20
-2872.6658
 30
0.0
 10
2548.4618
 20
-2872.6658
 30
0.0
 10
2548.4618
 20
-2951.7779
 30
0.0
 10
2548.4618
 20
-2951.7779
 30
0.0
 10
2548.4618
 20
-2951.7779
 30
0.0
 10
2548.4618
 20
-2951.7779
 30
0.0
 10
2504.5413
 20
-2951.7779
 30
0.0
 10
2504.5413
 20
-2951.7779
 30
0.0
 10
2504.5413
 20
-2951.7779
 30
0.0
 10
2504.5413
 20
-2951.7779
 30
0.0
 10
2504.5413
 20
-2946.0779
 30
0.0
 10
2504.5413
 20
-2946.0779
 30
0.0
 10
2504.5413
 20
-2946.0779
 30
0.0
 10
2504.5413
 20
-2946.0779
 30
0.0
 10
2401.3118
 20
-2946.0779
 30
0.0
 10
2401.3118
 20
-2946.0779
 30
0.0
 10
2401.3118
 20
-2946.0779
 30
0.0
 10
2401.3118
 20
-2946.0779
 30
0.0
 10
2401.3118
 20
-2872.6658
 30
0.0
 10
2401.3118
 20
-2872.6658
 30
0.0
 10
2401.3118
 20
-2872.6658
 30
0.0
 10
2401.3118
 20
-2872.6658
 30
0.0
 10
2395.6118
 20
-2872.6658
 30
0.0
 10
2395.6118
 20
-2872.6658
 30
0.0
 10
2395.6118
 20
-2872.6658
 30
0.0
 10
2395.6118
 20
-2872.6658
 30
0.0
 10
2395.6118
 20
-2946.0779
 30
0.0
 10
2395.6118
 20
-2946.0779
 30
0.0
 10
2395.6118
 20
-2946.0779
 30
0.0
 10
2395.6118
 20
-2946.0779
 30
0.0
 10
2292.3824
 20
-2946.0779
 30
0.0
 10
2292.3824
 20
-2946.0779
 30
0.0
 10
2292.3824
 20
-2946.0779
 30
0.0
 10
2292.3824
 20
-2946.0779
 30
0.0
 10
2292.3824
 20
-2951.7779
 30
0.0
 10
2292.3824
 20
-2951.7779
 30
0.0
 10
2292.3824
 20
-2951.7779
 30
0.0
 10
2292.3824
 20
-2951.7779
 30
0.0
 10
2248.4619
 20
-2951.7779
 30
0.0
 10
2248.4619
 20
-2951.7779
 30
0.0
 10
2248.4619
 20
-2951.7779
 30
0.0
 10
2248.4619
 20
-2951.7779
 30
0.0
 10
2248.4619
 20
-2872.6658
 30
0.0
 10
2248.4619
 20
-2872.6658
 30
0.0
 10
2248.4619
 20
-2872.6658
 30
0.0
 10
2248.4619
 20
-2872.6658
 30
0.0
 10
2254.1619
 20
-2872.6658
 30
0.0
 10
2254.1619
 20
-2872.6658
 30
0.0
 10
2254.1619
 20
-2872.6658
 30
0.0
 10
2254.1619
 20
-2872.6658
 30
0.0
 10
2254.1619
 20
-2449.3039
 30
0.0
 10
2254.1619
 20
-2449.3039
 30
0.0
 10
2254.1619
 20
-2449.3039
 30
0.0
 10
2254.1619
 20
-2449.3039
 30
0.0
 10
2248.4619
 20
-2449.3039
 30
0.0
 10
2248.4619
 20
-2449.3039
 30
0.0
 10
2248.4619
 20
-2449.3039
 30
0.0
 10
2248.4619
 20
-2449.3039
 30
0.0
 10
2248.4619
 20
-2370.1919
 30
0.0
 10
2248.4619
 20
-2370.1919
 30
0.0
 10
2248.4619
 20
-2370.1919
 30
0.0
 10
2248.4619
 20
-2370.1919
 30
0.0
 10
2254.1619
 20
-2370.1919
 30
0.0
 10
2254.1619
 20
-2370.1919
 30
0.0
 10
2254.1619
 20
-2370.1919
 30
0.0
 10
2254.1619
 20
-2370.1919
 30
0.0
 10
2254.1619
 20
-1988.0399
 30
0.0
 10
2254.1619
 20
-1988.0399
 30
0.0
 10
2254.1619
 20
-1988.0399
 30
0.0
 10
2254.1619
 20
-1988.0399
 30
0.0
 10
2248.4619
 20
-1988.0399
 30
0.0
 10
2248.4619
 20
-1988.0399
 30
0.0
 10
2248.4619
 20
-1988.0399
 30
0.0
 10
2248.4619
 20
-1988.0399
 30
0.0
 10
2248.4619
 20
-1908.9279
 30
0.0
 10
2248.4619
 20
-1908.9279
 30
0.0
  0
SPLINE
  5
7E
330
1F
100
AcDbEntity
  8
Capa 1
370
    20
100
AcDbSpline
210
0.0
220
0.0
230
1.0
 70
    11
 71
     3
 72
    20
 73
    16
 74
     0
 42
0.000000001
 43
0.0000000001
 40
0.0
 40
0.0
 40
0.0
 40
0.0
 40
0.2
 40
0.2
 40
0.2
 40
0.2
 40
0.4
 40
0.4
 40
0.4
 40
0.4
 40
0.6
 40
0.6
 40
0.6
 40
0.6
 40
1.0
 40
1.0
 40
1.0
 40
1.0
 10
2395.6118
 20
-2370.1919
 30
0.0
 10
2395.6118
 20
-2370.1919
 30
0.0
 10
2401.3118
 20
-2370.1919
 30
0.0
 10
2401.3118
 20
-2370.1919
 30
0.0
 10
2401.3118
 20
-2370.1919
 30
0.0
 10
2401.3118
 20
-2370.1919
 30
0.0
 10
2401.3118
 20
-2449.3039
 30
0.0
 10
2401.3118
 20
-2449.3039
 30
0.0
 10
2401.3118
 20
-2449.3039
 30
0.0
 10
2401.3118
 20
-2449.3039
 30
0.0
 10
2395.6118
 20
-2449.3039
 30
0.0
 10
2395.6118
 20
-2449.3039
 30
0.0
 10
2395.6118
 20
-2449.3039
 30
0.0
 10
2395.6118
 20
-2449.3039
 30
0.0
 10
2395.6118
 20
-2370.1919
 30
0.0
 10
2395.6118
 20
-2370.1919
 30
0.0
  0
SPLINE
  5
7F
330
1F
100
AcDbEntity
  8
Capa 1
 62
   230
370
     9
100
AcDbSpline
210
0.0
220
0.0
230
1.0
 70
    11
 71
     3
 72
   212
 73
   208
 74
     0
 42
0.000000001
 43
0.0000000001
 40
0.0
 40
0.0
 40
0.0
 40
0.0
 40
0.0188679245283019
 40
0.0188679245283019
 40
0.0188679245283019
 40
0.0188679245283019
 40
0.0377358490566038
 40
0.0377358490566038
 40
0.0377358490566038
 40
0.0377358490566038
 40
0.0566037735849057
 40
0.0566037735849057
 40
0.0566037735849057
 40
0.0566037735849057
 40
0.0754716981132075
 40
0.0754716981132075
 40
0.0754716981132075
 40
0.0754716981132075
 40
0.0943396226415094
 40
0.0943396226415094
 40
0.0943396226415094
 40
0.0943396226415094
 40
0.1132075471698113
 40
0.1132075471698113
 40
0.1132075471698113
 40
0.1132075471698113
 40
0.1320754716981132
 40
0.1320754716981132
 40
0.1320754716981132
 40
0.1320754716981132
 40
0.1509433962264151
 40
0.1509433962264151
 40
0.1509433962264151
 40
0.1509433962264151
 40
0.169811320754717
 40
0.169811320754717
 40
0.169811320754717
 40
0.169811320754717
 40
0.1886792452830189
 40
0.1886792452830189
 40
0.1886792452830189
 40
0.1886792452830189
 40
0.2075471698113208
 40
0.2075471698113208
 40
0.2075471698113208
 40
0.2075471698113208
 40
0.2264150943396226
 40
0.2264150943396226
 40
0.2264150943396226
 40
0.2264150943396226
 40
0.2452830188679245
 40
0.2452830188679245
 40
0.2452830188679245
 40
0.2452830188679245
 40
0.2641509433962264
 40
0.2641509433962264
 40
0.2641509433962264
 40
0.2641509433962264
 40
0.2830188679245283
 40
0.2830188679245283
 40
0.2830188679245283
 40
0.2830188679245283
 40
0.3018867924528302
 40
0.3018867924528302
 40
0.3018867924528302
 40
0.3018867924528302
 40
0.3207547169811321
 40
0.3207547169811321
 40
0.3207547169811321
 40
0.3207547169811321
 40
0.3396226415094339
 40
0.3396226415094339
 40
0.3396226415094339
 40
0.3396226415094339
 40
0.3584905660377358
 40
0.3584905660377358
 40
0.3584905660377358
 40
0.3584905660377358
 40
0.3773584905660378
 40
0.3773584905660378
 40
0.3773584905660378
 40
0.3773584905660378
 40
0.3962264150943396
 40
0.3962264150943396
 40
0.3962264150943396
 40
0.3962264150943396
 40
0.4150943396226415
 40
0.4150943396226415
 40
0.4150943396226415
 40
0.4150943396226415
 40
0.4339622641509434
 40
0.4339622641509434
 40
0.4339622641509434
 40
0.4339622641509434
 40
0.4528301886792453
 40
0.4528301886792453
 40
0.4528301886792453
 40
0.4528301886792453
 40
0.4716981132075472
 40
0.4716981132075472
 40
0.4716981132075472
 40
0.4716981132075472
 40
0.4905660377358491
 40
0.4905660377358491
 40
0.4905660377358491
 40
0.4905660377358491
 40
0.5094339622641509
 40
0.5094339622641509
 40
0.5094339622641509
 40
0.5094339622641509
 40
0.5283018867924528
 40
0.5283018867924528
 40
0.5283018867924528
 40
0.5283018867924528
 40
0.5471698113207547
 40
0.5471698113207547
 40
0.5471698113207547
 40
0.5471698113207547
 40
0.5660377358490566
 40
0.5660377358490566
 40
0.5660377358490566
 40
0.5660377358490566
 40
0.5849056603773585
 40
0.5849056603773585
 40
0.5849056603773585
 40
0.5849056603773585
 40
0.6037735849056604
 40
0.6037735849056604
 40
0.6037735849056604
 40
0.6037735849056604
 40
0.6226415094339622
 40
0.6226415094339622
 40
0.6226415094339622
 40
0.6226415094339622
 40
0.6415094339622641
 40
0.6415094339622641
 40
0.6415094339622641
 40
0.6415094339622641
 40
0.660377358490566
 40
0.660377358490566
 40
0.660377358490566
 40
0.660377358490566
 40
0.6792452830188679
 40
0.6792452830188679
 40
0.6792452830188679
 40
0.6792452830188679
 40
0.6981132075471698
 40
0.6981132075471698
 40
0.6981132075471698
 40
0.6981132075471698
 40
0.7169811320754716
 40
0.7169811320754716
 40
0.7169811320754716
 40
0.7169811320754716
 40
0.7358490566037735
 40
0.7358490566037735
 40
0.7358490566037735
 40
0.7358490566037735
 40
0.7547169811320755
 40
0.7547169811320755
 40
0.7547169811320755
 40
0.7547169811320755
 40
0.7735849056603774
 40
0.7735849056603774
 40
0.7735849056603774
 40
0.7735849056603774
 40
0.7924528301886793
 40
0.7924528301886793
 40
0.7924528301886793
 40
0.7924528301886793
 40
0.8113207547169812
 40
0.8113207547169812
 40
0.8113207547169812
 40
0.8113207547169812
 40
0.8301886792452831
 40
0.8301886792452831
 40
0.8301886792452831
 40
0.8301886792452831
 40
0.8490566037735849
 40
0.8490566037735849
 40
0.8490566037735849
 40
0.8490566037735849
 40
0.8679245283018868
 40
0.8679245283018868
 40
0.8679245283018868
 40
0.8679245283018868
 40
0.8867924528301887
 40
0.8867924528301887
 40
0.8867924528301887
 40
0.8867924528301887
 40
0.9056603773584906
 40
0.9056603773584906
 40
0.9056603773584906
 40
0.9056603773584906
 40
0.9245283018867925
 40
0.9245283018867925
 40
0.9245283018867925
 40
0.9245283018867925
 40
0.9433962264150944
 40
0.9433962264150944
 40
0.9433962264150944
 40
0.9433962264150944
 40
0.9622641509433962
 40
0.9622641509433962
 40
0.9622641509433962
 40
0.9622641509433962
 40
1.0
 40
1.0
 40
1.0
 40
1.0
 10
1829.1985
 20
-2705.5034
 30
0.0
 10
1829.1985
 20
-2705.5034
 30
0.0
 10
1823.7069
 20
-2707.0307
 30
0.0
 10
1823.7069
 20
-2707.0307
 30
0.0
 10
1823.7069
 20
-2707.0307
 30
0.0
 10
1823.7069
 20
-2707.0307
 30
0.0
 10
1803.7679
 20
-2635.3362
 30
0.0
 10
1803.7679
 20
-2635.3362
 30
0.0
 10
1803.7679
 20
-2635.3362
 30
0.0
 10
1803.7679
 20
-2635.3362
 30
0.0
 10
1770.8215
 20
-2635.3362
 30
0.0
 10
1770.8215
 20
-2635.3362
 30
0.0
 10
1770.8215
 20
-2635.3362
 30
0.0
 10
1770.8215
 20
-2635.3362
 30
0.0
 10
1770.8215
 20
-2629.6397
 30
0.0
 10
1770.8215
 20
-2629.6397
 30
0.0
 10
1770.8215
 20
-2629.6397
 30
0.0
 10
1770.8215
 20
-2629.6397
 30
0.0
 10
1590.7551
 20
-2629.6397
 30
0.0
 10
1590.7551
 20
-2629.6397
 30
0.0
 10
1590.7551
 20
-2629.6397
 30
0.0
 10
1590.7551
 20
-2629.6397
 30
0.0
 10
1590.7551
 20
-2635.3362
 30
0.0
 10
1590.7551
 20
-2635.3362
 30
0.0
 10
1590.7551
 20
-2635.3362
 30
0.0
 10
1590.7551
 20
-2635.3362
 30
0.0
 10
1557.7362
 20
-2635.3362
 30
0.0
 10
1557.7362
 20
-2635.3362
 30
0.0
 10
1557.7362
 20
-2635.3362
 30
0.0
 10
1557.7362
 20
-2635.3362
 30
0.0
 10
1536.5003
 20
-2707.1149
 30
0.0
 10
1536.5003
 20
-2707.1149
 30
0.0
 10
1536.5003
 20
-2707.1149
 30
0.0
 10
1536.5003
 20
-2707.1149
 30
0.0
 10
1531.0345
 20
-2705.4978
 30
0.0
 10
1531.0345
 20
-2705.4978
 30
0.0
 10
1531.0345
 20
-2705.4978
 30
0.0
 10
1531.0345
 20
-2705.4978
 30
0.0
 10
1422.6192
 20
-3071.9487
 30
0.0
 10
1422.6192
 20
-3071.9487
 30
0.0
 10
1422.6192
 20
-3071.9487
 30
0.0
 10
1422.6192
 20
-3071.9487
 30
0.0
 10
1428.0851
 20
-3073.5658
 30
0.0
 10
1428.0851
 20
-3073.5658
 30
0.0
 10
1428.0851
 20
-3073.5658
 30
0.0
 10
1428.0851
 20
-3073.5658
 30
0.0
 10
1405.6412
 20
-3149.4274
 30
0.0
 10
1405.6412
 20
-3149.4274
 30
0.0
 10
1405.6412
 20
-3149.4274
 30
0.0
 10
1405.6412
 20
-3149.4274
 30
0.0
 10
1400.1754
 20
-3147.8103
 30
0.0
 10
1400.1754
 20
-3147.8103
 30
0.0
 10
1400.1754
 20
-3147.8103
 30
0.0
 10
1400.1754
 20
-3147.8103
 30
0.0
 10
1280.069
 20
-3553.778
 30
0.0
 10
1280.069
 20
-3553.778
 30
0.0
 10
1280.069
 20
-3553.778
 30
0.0
 10
1280.069
 20
-3553.778
 30
0.0
 10
1285.5348
 20
-3555.3951
 30
0.0
 10
1285.5348
 20
-3555.3951
 30
0.0
 10
1285.5348
 20
-3555.3951
 30
0.0
 10
1285.5348
 20
-3555.3951
 30
0.0
 10
1265.2557
 20
-3623.9397
 30
0.0
 10
1265.2557
 20
-3623.9397
 30
0.0
 10
1265.2557
 20
-3623.9397
 30
0.0
 10
1265.2557
 20
-3623.9397
 30
0.0
 10
1274.2362
 20
-3623.9397
 30
0.0
 10
1274.2362
 20
-3623.9397
 30
0.0
 10
1274.2362
 20
-3623.9397
 30
0.0
 10
1274.2362
 20
-3623.9397
 30
0.0
 10
1274.2362
 20
-3629.6397
 30
0.0
 10
1274.2362
 20
-3629.6397
 30
0.0
 10
1274.2362
 20
-3629.6397
 30
0.0
 10
1274.2362
 20
-3629.6397
 30
0.0
 10
1354.4606
 20
-3629.6397
 30
0.0
 10
1354.4606
 20
-3629.6397
 30
0.0
 10
1354.4606
 20
-3629.6397
 30
0.0
 10
1354.4606
 20
-3629.6397
 30
0.0
 10
1354.4606
 20
-3623.9397
 30
0.0
 10
1354.4606
 20
-3623.9397
 30
0.0
 10
1354.4606
 20
-3623.9397
 30
0.0
 10
1354.4606
 20
-3623.9397
 30
0.0
 10
1366.7993
 20
-3623.9397
 30
0.0
 10
1366.7993
 20
-3623.9397
 30
0.0
 10
1366.7993
 20
-3623.9397
 30
0.0
 10
1366.7993
 20
-3623.9397
 30
0.0
 10
1374.9262
 20
-3596.2125
 30
0.0
 10
1374.9262
 20
-3596.2125
 30
0.0
 10
1374.9262
 20
-3596.2125
 30
0.0
 10
1374.9262
 20
-3596.2125
 30
0.0
 10
1380.3961
 20
-3597.8157
 30
0.0
 10
1380.3961
 20
-3597.8157
 30
0.0
 10
1380.3961
 20
-3597.8157
 30
0.0
 10
1380.3961
 20
-3597.8157
 30
0.0
 10
1425.458
 20
-3444.0753
 30
0.0
 10
1425.458
 20
-3444.0753
 30
0.0
 10
1425.458
 20
-3444.0753
 30
0.0
 10
1425.458
 20
-3444.0753
 30
0.0
 10
1419.9881
 20
-3442.4721
 30
0.0
 10
1419.9881
 20
-3442.4721
 30
0.0
 10
1419.9881
 20
-3442.4721
 30
0.0
 10
1419.9881
 20
-3442.4721
 30
0.0
 10
1429.3167
 20
-3410.6452
 30
0.0
 10
1429.3167
 20
-3410.6452
 30
0.0
 10
1429.3167
 20
-3410.6452
 30
0.0
 10
1429.3167
 20
-3410.6452
 30
0.0
 10
1434.7866
 20
-3412.2484
 30
0.0
 10
1434.7866
 20
-3412.2484
 30
0.0
 10
1434.7866
 20
-3412.2484
 30
0.0
 10
1434.7866
 20
-3412.2484
 30
0.0
 10
1434.7866
 20
-3406.5484
 30
0.0
 10
1434.7866
 20
-3406.5484
 30
0.0
 10
1434.7866
 20
-3406.5484
 30
0.0
 10
1434.7866
 20
-3406.5484
 30
0.0
 10
1478.8315
 20
-3406.5484
 30
0.0
 10
1478.8315
 20
-3406.5484
 30
0.0
 10
1478.8315
 20
-3406.5484
 30
0.0
 10
1478.8315
 20
-3406.5484
 30
0.0
 10
1478.8315
 20
-3412.2484
 30
0.0
 10
1478.8315
 20
-3412.2484
 30
0.0
 10
1478.8315
 20
-3412.2484
 30
0.0
 10
1478.8315
 20
-3412.2484
 30
0.0
 10
1691.5913
 20
-3412.2484
 30
0.0
 10
1691.5913
 20
-3412.2484
 30
0.0
 10
1691.5913
 20
-3412.2484
 30
0.0
 10
1691.5913
 20
-3412.2484
 30
0.0
 10
1691.5913
 20
-3406.5484
 30
0.0
 10
1691.5913
 20
-3406.5484
 30
0.0
 10
1691.5913
 20
-3406.5484
 30
0.0
 10
1691.5913
 20
-3406.5484
 30
0.0
 10
1735.6362
 20
-3406.5484
 30
0.0
 10
1735.6362
 20
-3406.5484
 30
0.0
 10
1735.6362
 20
-3406.5484
 30
0.0
 10
1735.6362
 20
-3406.5484
 30
0.0
 10
1735.637
 20
-3412.2515
 30
0.0
 10
1735.637
 20
-3412.2515
 30
0.0
 10
1735.637
 20
-3412.2515
 30
0.0
 10
1735.637
 20
-3412.2515
 30
0.0
 10
1741.1366
 20
-3410.7533
 30
0.0
 10
1741.1366
 20
-3410.7533
 30
0.0
 10
1741.1366
 20
-3410.7533
 30
0.0
 10
1741.1366
 20
-3410.7533
 30
0.0
 10
1749.8065
 20
-3442.5793
 30
0.0
 10
1749.8065
 20
-3442.5793
 30
0.0
 10
1749.8065
 20
-3442.5793
 30
0.0
 10
1749.8065
 20
-3442.5793
 30
0.0
 10
1744.3069
 20
-3444.0775
 30
0.0
 10
1744.3069
 20
-3444.0775
 30
0.0
 10
1744.3069
 20
-3444.0775
 30
0.0
 10
1744.3069
 20
-3444.0775
 30
0.0
 10
1786.1867
 20
-3597.8137
 30
0.0
 10
1786.1867
 20
-3597.8137
 30
0.0
 10
1786.1867
 20
-3597.8137
 30
0.0
 10
1786.1867
 20
-3597.8137
 30
0.0
 10
1791.6863
 20
-3596.3155
 30
0.0
 10
1791.6863
 20
-3596.3155
 30
0.0
 10
1791.6863
 20
-3596.3155
 30
0.0
 10
1791.6863
 20
-3596.3155
 30
0.0
 10
1799.2115
 20
-3623.9397
 30
0.0
 10
1799.2115
 20
-3623.9397
 30
0.0
 10
1799.2115
 20
-3623.9397
 30
0.0
 10
1799.2115
 20
-3623.9397
 30
0.0
 10
1837.5106
 20
-3623.9397
 30
0.0
 10
1837.5106
 20
-3623.9397
 30
0.0
 10
1837.5106
 20
-3623.9397
 30
0.0
 10
1837.5106
 20
-3623.9397
 30
0.0
 10
1837.5106
 20
-3629.6397
 30
0.0
 10
1837.5106
 20
-3629.6397
 30
0.0
 10
1837.5106
 20
-3629.6397
 30
0.0
 10
1837.5106
 20
-3629.6397
 30
0.0
 10
2043.5523
 20
-3629.6397
 30
0.0
 10
2043.5523
 20
-3629.6397
 30
0.0
 10
2043.5523
 20
-3629.6397
 30
0.0
 10
2043.5523
 20
-3629.6397
 30
0.0
 10
2043.5523
 20
-3623.9397
 30
0.0
 10
2043.5523
 20
-3623.9397
 30
0.0
 10
2043.5523
 20
-3623.9397
 30
0.0
 10
2043.5523
 20
-3623.9397
 30
0.0
 10
2078.7093
 20
-3623.9397
 30
0.0
 10
2078.7093
 20
-3623.9397
 30
0.0
 10
2078.7093
 20
-3623.9397
 30
0.0
 10
2078.7093
 20
-3623.9397
 30
0.0
 10
2059.6215
 20
-3555.3058
 30
0.0
 10
2059.6215
 20
-3555.3058
 30
0.0
 10
2059.6215
 20
-3555.3058
 30
0.0
 10
2059.6215
 20
-3555.3058
 30
0.0
 10
2065.1131
 20
-3553.7785
 30
0.0
 10
2065.1131
 20
-3553.7785
 30
0.0
 10
2065.1131
 20
-3553.7785
 30
0.0
 10
2065.1131
 20
-3553.7785
 30
0.0
 10
1952.2097
 20
-3147.8133
 30
0.0
 10
1952.2097
 20
-3147.8133
 30
0.0
 10
1952.2097
 20
-3147.8133
 30
0.0
 10
1952.2097
 20
-3147.8133
 30
0.0
 10
1946.7181
 20
-3149.3405
 30
0.0
 10
1946.7181
 20
-3149.3405
 30
0.0
 10
1946.7181
 20
-3149.3405
 30
0.0
 10
1946.7181
 20
-3149.3405
 30
0.0
 10
1925.6203
 20
-3073.4794
 30
0.0
 10
1925.6203
 20
-3073.4794
 30
0.0
 10
1925.6203
 20
-3073.4794
 30
0.0
 10
1925.6203
 20
-3073.4794
 30
0.0
 10
1931.1119
 20
-3071.9521
 30
0.0
 10
1931.1119
 20
-3071.9521
 30
0.0
 10
1931.1119
 20
-3071.9521
 30
0.0
 10
1931.1119
 20
-3071.9521
 30
0.0
 10
1829.1985
 20
-2705.5034
 30
0.0
 10
1829.1985
 20
-2705.5034
 30
0.0
  0
SPLINE
  5
80
330
1F
100
AcDbEntity
  8
Capa 1
 62
   230
370
     9
100
AcDbSpline
210
0.0
220
0.0
230
1.0
 70
    11
 71
     3
 72
    92
 73
    88
 74
     0
 42
0.000000001
 43
0.0000000001
 40
0.0
 40
0.0
 40
0.0
 40
0.0
 40
0.0434782608695652
 40
0.0434782608695652
 40
0.0434782608695652
 40
0.0434782608695652
 40
0.0869565217391304
 40
0.0869565217391304
 40
0.0869565217391304
 40
0.0869565217391304
 40
0.1304347826086956
 40
0.1304347826086956
 40
0.1304347826086956
 40
0.1304347826086956
 40
0.1739130434782609
 40
0.1739130434782609
 40
0.1739130434782609
 40
0.1739130434782609
 40
0.2173913043478261
 40
0.2173913043478261
 40
0.2173913043478261
 40
0.2173913043478261
 40
0.2608695652173913
 40
0.2608695652173913
 40
0.2608695652173913
 40
0.2608695652173913
 40
0.3043478260869565
 40
0.3043478260869565
 40
0.3043478260869565
 40
0.3043478260869565
 40
0.3478260869565217
 40
0.3478260869565217
 40
0.3478260869565217
 40
0.3478260869565217
 40
0.391304347826087
 40
0.391304347826087
 40
0.391304347826087
 40
0.391304347826087
 40
0.4347826086956522
 40
0.4347826086956522
 40
0.4347826086956522
 40
0.4347826086956522
 40
0.4782608695652174
 40
0.4782608695652174
 40
0.4782608695652174
 40
0.4782608695652174
 40
0.5217391304347826
 40
0.5217391304347826
 40
0.5217391304347826
 40
0.5217391304347826
 40
0.5652173913043478
 40
0.5652173913043478
 40
0.5652173913043478
 40
0.5652173913043478
 40
0.6086956521739131
 40
0.6086956521739131
 40
0.6086956521739131
 40
0.6086956521739131
 40
0.6521739130434783
 40
0.6521739130434783
 40
0.6521739130434783
 40
0.6521739130434783
 40
0.6956521739130435
 40
0.6956521739130435
 40
0.6956521739130435
 40
0.6956521739130435
 40
0.7391304347826086
 40
0.7391304347826086
 40
0.7391304347826086
 40
0.7391304347826086
 40
0.782608695652174
 40
0.782608695652174
 40
0.782608695652174
 40
0.782608695652174
 40
0.8260869565217391
 40
0.8260869565217391
 40
0.8260869565217391
 40
0.8260869565217391
 40
0.8695652173913043
 40
0.8695652173913043
 40
0.8695652173913043
 40
0.8695652173913043
 40
0.9130434782608695
 40
0.9130434782608695
 40
0.9130434782608695
 40
0.9130434782608695
 40
1.0
 40
1.0
 40
1.0
 40
1.0
 10
1708.6494
 20
-3311.7972
 30
0.0
 10
1708.6494
 20
-3311.7972
 30
0.0
 10
1714.1565
 20
-3310.327
 30
0.0
 10
1714.1565
 20
-3310.327
 30
0.0
 10
1714.1565
 20
-3310.327
 30
0.0
 10
1714.1565
 20
-3310.327
 30
0.0
 10
1696.8898
 20
-3245.65
 30
0.0
 10
1696.8898
 20
-3245.65
 30
0.0
 10
1696.8898
 20
-3245.65
 30
0.0
 10
1696.8898
 20
-3245.65
 30
0.0
 10
1691.3826
 20
-3247.1202
 30
0.0
 10
1691.3826
 20
-3247.1202
 30
0.0
 10
1691.3826
 20
-3247.1202
 30
0.0
 10
1691.3826
 20
-3247.1202
 30
0.0
 10
1607.9753
 20
-2934.6965
 30
0.0
 10
1607.9753
 20
-2934.6965
 30
0.0
 10
1607.9753
 20
-2934.6965
 30
0.0
 10
1607.9753
 20
-2934.6965
 30
0.0
 10
1613.4825
 20
-2933.2263
 30
0.0
 10
1613.4825
 20
-2933.2263
 30
0.0
 10
1613.4825
 20
-2933.2263
 30
0.0
 10
1613.4825
 20
-2933.2263
 30
0.0
 10
1596.2157
 20
-2868.5493
 30
0.0
 10
1596.2157
 20
-2868.5493
 30
0.0
 10
1596.2157
 20
-2868.5493
 30
0.0
 10
1596.2157
 20
-2868.5493
 30
0.0
 10
1590.7086
 20
-2870.0195
 30
0.0
 10
1590.7086
 20
-2870.0195
 30
0.0
 10
1590.7086
 20
-2870.0195
 30
0.0
 10
1590.7086
 20
-2870.0195
 30
0.0
 10
1585.2319
 20
-2868.4397
 30
0.0
 10
1585.2319
 20
-2868.4397
 30
0.0
 10
1585.2319
 20
-2868.4397
 30
0.0
 10
1585.2319
 20
-2868.4397
 30
0.0
 10
1566.5751
 20
-2933.1166
 30
0.0
 10
1566.5751
 20
-2933.1166
 30
0.0
 10
1566.5751
 20
-2933.1166
 30
0.0
 10
1566.5751
 20
-2933.1166
 30
0.0
 10
1572.0518
 20
-2934.6965
 30
0.0
 10
1572.0518
 20
-2934.6965
 30
0.0
 10
1572.0518
 20
-2934.6965
 30
0.0
 10
1572.0518
 20
-2934.6965
 30
0.0
 10
1481.9297
 20
-3247.1196
 30
0.0
 10
1481.9297
 20
-3247.1196
 30
0.0
 10
1481.9297
 20
-3247.1196
 30
0.0
 10
1481.9297
 20
-3247.1196
 30
0.0
 10
1476.453
 20
-3245.5398
 30
0.0
 10
1476.453
 20
-3245.5398
 30
0.0
 10
1476.453
 20
-3245.5398
 30
0.0
 10
1476.453
 20
-3245.5398
 30
0.0
 10
1457.7962
 20
-3310.2168
 30
0.0
 10
1457.7962
 20
-3310.2168
 30
0.0
 10
1457.7962
 20
-3310.2168
 30
0.0
 10
1457.7962
 20
-3310.2168
 30
0.0
 10
1463.2729
 20
-3311.7966
 30
0.0
 10
1463.2729
 20
-3311.7966
 30
0.0
 10
1463.2729
 20
-3311.7966
 30
0.0
 10
1463.2729
 20
-3311.7966
 30
0.0
 10
1463.2723
 20
-3311.7985
 30
0.0
 10
1463.2723
 20
-3311.7985
 30
0.0
 10
1463.2723
 20
-3311.7985
 30
0.0
 10
1463.2723
 20
-3311.7985
 30
0.0
 10
1463.2723
 20
-3317.4985
 30
0.0
 10
1463.2723
 20
-3317.4985
 30
0.0
 10
1463.2723
 20
-3317.4985
 30
0.0
 10
1463.2723
 20
-3317.4985
 30
0.0
 10
1499.196
 20
-3317.4985
 30
0.0
 10
1499.196
 20
-3317.4985
 30
0.0
 10
1499.196
 20
-3317.4985
 30
0.0
 10
1499.196
 20
-3317.4985
 30
0.0
 10
1499.196
 20
-3311.7985
 30
0.0
 10
1499.196
 20
-3311.7985
 30
0.0
 10
1499.196
 20
-3311.7985
 30
0.0
 10
1499.196
 20
-3311.7985
 30
0.0
 10
1672.726
 20
-3311.7985
 30
0.0
 10
1672.726
 20
-3311.7985
 30
0.0
 10
1672.726
 20
-3311.7985
 30
0.0
 10
1672.726
 20
-3311.7985
 30
0.0
 10
1672.726
 20
-3317.4985
 30
0.0
 10
1672.726
 20
-3317.4985
 30
0.0
 10
1672.726
 20
-3317.4985
 30
0.0
 10
1672.726
 20
-3317.4985
 30
0.0
 10
1708.6497
 20
-3317.4985
 30
0.0
 10
1708.6497
 20
-3317.4985
 30
0.0
 10
1708.6497
 20
-3317.4985
 30
0.0
 10
1708.6497
 20
-3317.4985
 30
0.0
 10
1708.6494
 20
-3311.7972
 30
0.0
 10
1708.6494
 20
-3311.7972
 30
0.0
  0
SPLINE
  5
81
330
1F
100
AcDbEntity
  8
Capa 1
370
    20
100
AcDbSpline
210
0.0
220
0.0
230
1.0
 70
    11
 71
     3
 72
   116
 73
   112
 74
     0
 42
0.000000001
 43
0.0000000001
 40
0.0
 40
0.0
 40
0.0
 40
0.0
 40
0.0344827586206897
 40
0.0344827586206897
 40
0.0344827586206897
 40
0.0344827586206897
 40
0.0689655172413793
 40
0.0689655172413793
 40
0.0689655172413793
 40
0.0689655172413793
 40
0.103448275862069
 40
0.103448275862069
 40
0.103448275862069
 40
0.103448275862069
 40
0.1379310344827586
 40
0.1379310344827586
 40
0.1379310344827586
 40
0.1379310344827586
 40
0.1724137931034483
 40
0.1724137931034483
 40
0.1724137931034483
 40
0.1724137931034483
 40
0.2068965517241379
 40
0.2068965517241379
 40
0.2068965517241379
 40
0.2068965517241379
 40
0.2413793103448276
 40
0.2413793103448276
 40
0.2413793103448276
 40
0.2413793103448276
 40
0.2758620689655172
 40
0.2758620689655172
 40
0.2758620689655172
 40
0.2758620689655172
 40
0.3103448275862069
 40
0.3103448275862069
 40
0.3103448275862069
 40
0.3103448275862069
 40
0.3448275862068966
 40
0.3448275862068966
 40
0.3448275862068966
 40
0.3448275862068966
 40
0.3793103448275862
 40
0.3793103448275862
 40
0.3793103448275862
 40
0.3793103448275862
 40
0.4137931034482759
 40
0.4137931034482759
 40
0.4137931034482759
 40
0.4137931034482759
 40
0.4482758620689655
 40
0.4482758620689655
 40
0.4482758620689655
 40
0.4482758620689655
 40
0.4827586206896552
 40
0.4827586206896552
 40
0.4827586206896552
 40
0.4827586206896552
 40
0.5172413793103449
 40
0.5172413793103449
 40
0.5172413793103449
 40
0.5172413793103449
 40
0.5517241379310345
 40
0.5517241379310345
 40
0.5517241379310345
 40
0.5517241379310345
 40
0.5862068965517241
 40
0.5862068965517241
 40
0.5862068965517241
 40
0.5862068965517241
 40
0.6206896551724138
 40
0.6206896551724138
 40
0.6206896551724138
 40
0.6206896551724138
 40
0.6551724137931034
 40
0.6551724137931034
 40
0.6551724137931034
 40
0.6551724137931034
 40
0.6896551724137931
 40
0.6896551724137931
 40
0.6896551724137931
 40
0.6896551724137931
 40
0.7241379310344828
 40
0.7241379310344828
 40
0.7241379310344828
 40
0.7241379310344828
 40
0.7586206896551724
 40
0.7586206896551724
 40
0.7586206896551724
 40
0.7586206896551724
 40
0.7931034482758621
 40
0.7931034482758621
 40
0.7931034482758621
 40
0.7931034482758621
 40
0.8275862068965517
 40
0.8275862068965517
 40
0.8275862068965517
 40
0.8275862068965517
 40
0.8620689655172413
 40
0.8620689655172413
 40
0.8620689655172413
 40
0.8620689655172413
 40
0.896551724137931
 40
0.896551724137931
 40
0.896551724137931
 40
0.896551724137931
 40
0.9310344827586207
 40
0.9310344827586207
 40
0.9310344827586207
 40
0.9310344827586207
 40
1.0
 40
1.0
 40
1.0
 40
1.0
 10
2458.8904
 20
-3602.6889
 30
0.0
 10
2458.8904
 20
-3602.6889
 30
0.0
 10
2458.8904
 20
-3499.4594
 30
0.0
 10
2458.8904
 20
-3499.4594
 30
0.0
 10
2458.8904
 20
-3499.4594
 30
0.0
 10
2458.8904
 20
-3499.4594
 30
0.0
 10
2473.9372
 20
-3499.4594
 30
0.0
 10
2473.9372
 20
-3499.4594
 30
0.0
 10
2473.9372
 20
-3499.4594
 30
0.0
 10
2473.9372
 20
-3499.4594
 30
0.0
 10
2473.9372
 20
-3493.7594
 30
0.0
 10
2473.9372
 20
-3493.7594
 30
0.0
 10
2473.9372
 20
-3493.7594
 30
0.0
 10
2473.9372
 20
-3493.7594
 30
0.0
 10
2458.8904
 20
-3493.7594
 30
0.0
 10
2458.8904
 20
-3493.7594
 30
0.0
 10
2458.8904
 20
-3493.7594
 30
0.0
 10
2458.8904
 20
-3493.7594
 30
0.0
 10
2458.8904
 20
-3390.53
 30
0.0
 10
2458.8904
 20
-3390.53
 30
0.0
 10
2458.8904
 20
-3390.53
 30
0.0
 10
2458.8904
 20
-3390.53
 30
0.0
 10
2464.512
 20
-3390.53
 30
0.0
 10
2464.512
 20
-3390.53
 30
0.0
 10
2464.512
 20
-3390.53
 30
0.0
 10
2464.512
 20
-3390.53
 30
0.0
 10
2464.512
 20
-3346.6095
 30
0.0
 10
2464.512
 20
-3346.6095
 30
0.0
 10
2464.512
 20
-3346.6095
 30
0.0
 10
2464.512
 20
-3346.6095
 30
0.0
 10
2473.9372
 20
-3346.6095
 30
0.0
 10
2473.9372
 20
-3346.6095
 30
0.0
 10
2473.9372
 20
-3346.6095
 30
0.0
 10
2473.9372
 20
-3346.6095
 30
0.0
 10
2473.9372
 20
-3352.3095
 30
0.0
 10
2473.9372
 20
-3352.3095
 30
0.0
 10
2473.9372
 20
-3352.3095
 30
0.0
 10
2473.9372
 20
-3352.3095
 30
0.0
 10
2554.1616
 20
-3352.3095
 30
0.0
 10
2554.1616
 20
-3352.3095
 30
0.0
 10
2554.1616
 20
-3352.3095
 30
0.0
 10
2554.1616
 20
-3352.3095
 30
0.0
 10
2554.1616
 20
-3346.6095
 30
0.0
 10
2554.1616
 20
-3346.6095
 30
0.0
 10
2554.1616
 20
-3346.6095
 30
0.0
 10
2554.1616
 20
-3346.6095
 30
0.0
 10
2565.1478
 20
-3346.6095
 30
0.0
 10
2565.1478
 20
-3346.6095
 30
0.0
 10
2565.1478
 20
-3346.6095
 30
0.0
 10
2565.1478
 20
-3346.6095
 30
0.0
 10
2565.1478
 20
-3390.53
 30
0.0
 10
2565.1478
 20
-3390.53
 30
0.0
 10
2565.1478
 20
-3390.53
 30
0.0
 10
2565.1478
 20
-3390.53
 30
0.0
 10
2570.7694
 20
-3390.53
 30
0.0
 10
2570.7694
 20
-3390.53
 30
0.0
 10
2570.7694
 20
-3390.53
 30
0.0
 10
2570.7694
 20
-3390.53
 30
0.0
 10
2570.7694
 20
-3493.7594
 30
0.0
 10
2570.7694
 20
-3493.7594
 30
0.0
 10
2570.7694
 20
-3493.7594
 30
0.0
 10
2570.7694
 20
-3493.7594
 30
0.0
 10
2554.1616
 20
-3493.7594
 30
0.0
 10
2554.1616
 20
-3493.7594
 30
0.0
 10
2554.1616
 20
-3493.7594
 30
0.0
 10
2554.1616
 20
-3493.7594
 30
0.0
 10
2554.1616
 20
-3499.4594
 30
0.0
 10
2554.1616
 20
-3499.4594
 30
0.0
 10
2554.1616
 20
-3499.4594
 30
0.0
 10
2554.1616
 20
-3499.4594
 30
0.0
 10
2570.7694
 20
-3499.4594
 30
0.0
 10
2570.7694
 20
-3499.4594
 30
0.0
 10
2570.7694
 20
-3499.4594
 30
0.0
 10
2570.7694
 20
-3499.4594
 30
0.0
 10
2570.7694
 20
-3602.6889
 30
0.0
 10
2570.7694
 20
-3602.6889
 30
0.0
 10
2570.7694
 20
-3602.6889
 30
0.0
 10
2570.7694
 20
-3602.6889
 30
0.0
 10
2565.1478
 20
-3602.6889
 30
0.0
 10
2565.1478
 20
-3602.6889
 30
0.0
 10
2565.1478
 20
-3602.6889
 30
0.0
 10
2565.1478
 20
-3602.6889
 30
0.0
 10
2565.1478
 20
-3646.6093
 30
0.0
 10
2565.1478
 20
-3646.6093
 30
0.0
 10
2565.1478
 20
-3646.6093
 30
0.0
 10
2565.1478
 20
-3646.6093
 30
0.0
 10
2554.1616
 20
-3646.6093
 30
0.0
 10
2554.1616
 20
-3646.6093
 30
0.0
 10
2554.1616
 20
-3646.6093
 30
0.0
 10
2554.1616
 20
-3646.6093
 30
0.0
 10
2554.1616
 20
-3640.9093
 30
0.0
 10
2554.1616
 20
-3640.9093
 30
0.0
 10
2554.1616
 20
-3640.9093
 30
0.0
 10
2554.1616
 20
-3640.9093
 30
0.0
 10
2473.9372
 20
-3640.9093
 30
0.0
 10
2473.9372
 20
-3640.9093
 30
0.0
 10
2473.9372
 20
-3640.9093
 30
0.0
 10
2473.9372
 20
-3640.9093
 30
0.0
 10
2473.9372
 20
-3646.6093
 30
0.0
 10
2473.9372
 20
-3646.6093
 30
0.0
 10
2473.9372
 20
-3646.6093
 30
0.0
 10
2473.9372
 20
-3646.6093
 30
0.0
 10
2464.512
 20
-3646.6093
 30
0.0
 10
2464.512
 20
-3646.6093
 30
0.0
 10
2464.512
 20
-3646.6093
 30
0.0
 10
2464.512
 20
-3646.6093
 30
0.0
 10
2464.512
 20
-3602.6889
 30
0.0
 10
2464.512
 20
-3602.6889
 30
0.0
 10
2464.512
 20
-3602.6889
 30
0.0
 10
2464.512
 20
-3602.6889
 30
0.0
 10
2458.8904
 20
-3602.6889
 30
0.0
 10
2458.8904
 20
-3602.6889
 30
0.0
  0
SPLINE
  5
82
330
1F
100
AcDbEntity
  8
Capa 1
370
    20
100
AcDbSpline
210
0.0
220
0.0
230
1.0
 70
    11
 71
     3
 72
   116
 73
   112
 74
     0
 42
0.000000001
 43
0.0000000001
 40
0.0
 40
0.0
 40
0.0
 40
0.0
 40
0.0344827586206897
 40
0.0344827586206897
 40
0.0344827586206897
 40
0.0344827586206897
 40
0.0689655172413793
 40
0.0689655172413793
 40
0.0689655172413793
 40
0.0689655172413793
 40
0.103448275862069
 40
0.103448275862069
 40
0.103448275862069
 40
0.103448275862069
 40
0.1379310344827586
 40
0.1379310344827586
 40
0.1379310344827586
 40
0.1379310344827586
 40
0.1724137931034483
 40
0.1724137931034483
 40
0.1724137931034483
 40
0.1724137931034483
 40
0.2068965517241379
 40
0.2068965517241379
 40
0.2068965517241379
 40
0.2068965517241379
 40
0.2413793103448276
 40
0.2413793103448276
 40
0.2413793103448276
 40
0.2413793103448276
 40
0.2758620689655172
 40
0.2758620689655172
 40
0.2758620689655172
 40
0.2758620689655172
 40
0.3103448275862069
 40
0.3103448275862069
 40
0.3103448275862069
 40
0.3103448275862069
 40
0.3448275862068966
 40
0.3448275862068966
 40
0.3448275862068966
 40
0.3448275862068966
 40
0.3793103448275862
 40
0.3793103448275862
 40
0.3793103448275862
 40
0.3793103448275862
 40
0.4137931034482759
 40
0.4137931034482759
 40
0.4137931034482759
 40
0.4137931034482759
 40
0.4482758620689655
 40
0.4482758620689655
 40
0.4482758620689655
 40
0.4482758620689655
 40
0.4827586206896552
 40
0.4827586206896552
 40
0.4827586206896552
 40
0.4827586206896552
 40
0.5172413793103449
 40
0.5172413793103449
 40
0.5172413793103449
 40
0.5172413793103449
 40
0.5517241379310345
 40
0.5517241379310345
 40
0.5517241379310345
 40
0.5517241379310345
 40
0.5862068965517241
 40
0.5862068965517241
 40
0.5862068965517241
 40
0.5862068965517241
 40
0.6206896551724138
 40
0.6206896551724138
 40
0.6206896551724138
 40
0.6206896551724138
 40
0.6551724137931034
 40
0.6551724137931034
 40
0.6551724137931034
 40
0.6551724137931034
 40
0.6896551724137931
 40
0.6896551724137931
 40
0.6896551724137931
 40
0.6896551724137931
 40
0.7241379310344828
 40
0.7241379310344828
 40
0.7241379310344828
 40
0.7241379310344828
 40
0.7586206896551724
 40
0.7586206896551724
 40
0.7586206896551724
 40
0.7586206896551724
 40
0.7931034482758621
 40
0.7931034482758621
 40
0.7931034482758621
 40
0.7931034482758621
 40
0.8275862068965517
 40
0.8275862068965517
 40
0.8275862068965517
 40
0.8275862068965517
 40
0.8620689655172413
 40
0.8620689655172413
 40
0.8620689655172413
 40
0.8620689655172413
 40
0.896551724137931
 40
0.896551724137931
 40
0.896551724137931
 40
0.896551724137931
 40
0.9310344827586207
 40
0.9310344827586207
 40
0.9310344827586207
 40
0.9310344827586207
 40
1.0
 40
1.0
 40
1.0
 40
1.0
 10
2633.7387
 20
-3616.0952
 30
0.0
 10
2633.7387
 20
-3616.0952
 30
0.0
 10
2633.7387
 20
-3512.8657
 30
0.0
 10
2633.7387
 20
-3512.8657
 30
0.0
 10
2633.7387
 20
-3512.8657
 30
0.0
 10
2633.7387
 20
-3512.8657
 30
0.0
 10
2676.3928
 20
-3512.8657
 30
0.0
 10
2676.3928
 20
-3512.8657
 30
0.0
 10
2676.3928
 20
-3512.8657
 30
0.0
 10
2676.3928
 20
-3512.8657
 30
0.0
 10
2676.3928
 20
-3507.1657
 30
0.0
 10
2676.3928
 20
-3507.1657
 30
0.0
 10
2676.3928
 20
-3507.1657
 30
0.0
 10
2676.3928
 20
-3507.1657
 30
0.0
 10
2633.7387
 20
-3507.1657
 30
0.0
 10
2633.7387
 20
-3507.1657
 30
0.0
 10
2633.7387
 20
-3507.1657
 30
0.0
 10
2633.7387
 20
-3507.1657
 30
0.0
 10
2633.7387
 20
-3403.9363
 30
0.0
 10
2633.7387
 20
-3403.9363
 30
0.0
 10
2633.7387
 20
-3403.9363
 30
0.0
 10
2633.7387
 20
-3403.9363
 30
0.0
 10
2639.4387
 20
-3403.9363
 30
0.0
 10
2639.4387
 20
-3403.9363
 30
0.0
 10
2639.4387
 20
-3403.9363
 30
0.0
 10
2639.4387
 20
-3403.9363
 30
0.0
 10
2639.4387
 20
-3360.0158
 30
0.0
 10
2639.4387
 20
-3360.0158
 30
0.0
 10
2639.4387
 20
-3360.0158
 30
0.0
 10
2639.4387
 20
-3360.0158
 30
0.0
 10
2676.3929
 20
-3360.0158
 30
0.0
 10
2676.3929
 20
-3360.0158
 30
0.0
 10
2676.3929
 20
-3360.0158
 30
0.0
 10
2676.3929
 20
-3360.0158
 30
0.0
 10
2676.3929
 20
-3365.7158
 30
0.0
 10
2676.3929
 20
-3365.7158
 30
0.0
 10
2676.3929
 20
-3365.7158
 30
0.0
 10
2676.3929
 20
-3365.7158
 30
0.0
 10
2882.4345
 20
-3365.7158
 30
0.0
 10
2882.4345
 20
-3365.7158
 30
0.0
 10
2882.4345
 20
-3365.7158
 30
0.0
 10
2882.4345
 20
-3365.7158
 30
0.0
 10
2882.4345
 20
-3360.0158
 30
0.0
 10
2882.4345
 20
-3360.0158
 30
0.0
 10
2882.4345
 20
-3360.0158
 30
0.0
 10
2882.4345
 20
-3360.0158
 30
0.0
 10
2919.3887
 20
-3360.0158
 30
0.0
 10
2919.3887
 20
-3360.0158
 30
0.0
 10
2919.3887
 20
-3360.0158
 30
0.0
 10
2919.3887
 20
-3360.0158
 30
0.0
 10
2919.3887
 20
-3403.9363
 30
0.0
 10
2919.3887
 20
-3403.9363
 30
0.0
 10
2919.3887
 20
-3403.9363
 30
0.0
 10
2919.3887
 20
-3403.9363
 30
0.0
 10
2925.0887
 20
-3403.9363
 30
0.0
 10
2925.0887
 20
-3403.9363
 30
0.0
 10
2925.0887
 20
-3403.9363
 30
0.0
 10
2925.0887
 20
-3403.9363
 30
0.0
 10
2925.0887
 20
-3507.1657
 30
0.0
 10
2925.0887
 20
-3507.1657
 30
0.0
 10
2925.0887
 20
-3507.1657
 30
0.0
 10
2925.0887
 20
-3507.1657
 30
0.0
 10
2882.4345
 20
-3507.1657
 30
0.0
 10
2882.4345
 20
-3507.1657
 30
0.0
 10
2882.4345
 20
-3507.1657
 30
0.0
 10
2882.4345
 20
-3507.1657
 30
0.0
 10
2882.4345
 20
-3512.8657
 30
0.0
 10
2882.4345
 20
-3512.8657
 30
0.0
 10
2882.4345
 20
-3512.8657
 30
0.0
 10
2882.4345
 20
-3512.8657
 30
0.0
 10
2925.0887
 20
-3512.8657
 30
0.0
 10
2925.0887
 20
-3512.8657
 30
0.0
 10
2925.0887
 20
-3512.8657
 30
0.0
 10
2925.0887
 20
-3512.8657
 30
0.0
 10
2925.0887
 20
-3616.0952
 30
0.0
 10
2925.0887
 20
-3616.0952
 30
0.0
 10
2925.0887
 20
-3616.0952
 30
0.0
 10
2925.0887
 20
-3616.0952
 30
0.0
 10
2919.3887
 20
-3616.0952
 30
0.0
 10
2919.3887
 20
-3616.0952
 30
0.0
 10
2919.3887
 20
-3616.0952
 30
0.0
 10
2919.3887
 20
-3616.0952
 30
0.0
 10
2919.3887
 20
-3660.0156
 30
0.0
 10
2919.3887
 20
-3660.0156
 30
0.0
 10
2919.3887
 20
-3660.0156
 30
0.0
 10
2919.3887
 20
-3660.0156
 30
0.0
 10
2882.4345
 20
-3660.0156
 30
0.0
 10
2882.4345
 20
-3660.0156
 30
0.0
 10
2882.4345
 20
-3660.0156
 30
0.0
 10
2882.4345
 20
-3660.0156
 30
0.0
 10
2882.4345
 20
-3654.3156
 30
0.0
 10
2882.4345
 20
-3654.3156
 30
0.0
 10
2882.4345
 20
-3654.3156
 30
0.0
 10
2882.4345
 20
-3654.3156
 30
0.0
 10
2676.3929
 20
-3654.3156
 30
0.0
 10
2676.3929
 20
-3654.3156
 30
0.0
 10
2676.3929
 20
-3654.3156
 30
0.0
 10
2676.3929
 20
-3654.3156
 30
0.0
 10
2676.3929
 20
-3660.0156
 30
0.0
 10
2676.3929
 20
-3660.0156
 30
0.0
 10
2676.3929
 20
-3660.0156
 30
0.0
 10
2676.3929
 20
-3660.0156
 30
0.0
 10
2639.4387
 20
-3660.0156
 30
0.0
 10
2639.4387
 20
-3660.0156
 30
0.0
 10
2639.4387
 20
-3660.0156
 30
0.0
 10
2639.4387
 20
-3660.0156
 30
0.0
 10
2639.4387
 20
-3616.0952
 30
0.0
 10
2639.4387
 20
-3616.0952
 30
0.0
 10
2639.4387
 20
-3616.0952
 30
0.0
 10
2639.4387
 20
-3616.0952
 30
0.0
 10
2633.7387
 20
-3616.0952
 30
0.0
 10
2633.7387
 20
-3616.0952
 30
0.0
  0
SPLINE
  5
83
330
1F
100
AcDbEntity
  8
Capa 1
370
    20
100
AcDbSpline
210
0.0
220
0.0
230
1.0
 70
    11
 71
     3
 72
   116
 73
   112
 74
     0
 42
0.000000001
 43
0.0000000001
 40
0.0
 40
0.0
 40
0.0
 40
0.0
 40
0.0344827586206897
 40
0.0344827586206897
 40
0.0344827586206897
 40
0.0344827586206897
 40
0.0689655172413793
 40
0.0689655172413793
 40
0.0689655172413793
 40
0.0689655172413793
 40
0.103448275862069
 40
0.103448275862069
 40
0.103448275862069
 40
0.103448275862069
 40
0.1379310344827586
 40
0.1379310344827586
 40
0.1379310344827586
 40
0.1379310344827586
 40
0.1724137931034483
 40
0.1724137931034483
 40
0.1724137931034483
 40
0.1724137931034483
 40
0.2068965517241379
 40
0.2068965517241379
 40
0.2068965517241379
 40
0.2068965517241379
 40
0.2413793103448276
 40
0.2413793103448276
 40
0.2413793103448276
 40
0.2413793103448276
 40
0.2758620689655172
 40
0.2758620689655172
 40
0.2758620689655172
 40
0.2758620689655172
 40
0.3103448275862069
 40
0.3103448275862069
 40
0.3103448275862069
 40
0.3103448275862069
 40
0.3448275862068966
 40
0.3448275862068966
 40
0.3448275862068966
 40
0.3448275862068966
 40
0.3793103448275862
 40
0.3793103448275862
 40
0.3793103448275862
 40
0.3793103448275862
 40
0.4137931034482759
 40
0.4137931034482759
 40
0.4137931034482759
 40
0.4137931034482759
 40
0.4482758620689655
 40
0.4482758620689655
 40
0.4482758620689655
 40
0.4482758620689655
 40
0.4827586206896552
 40
0.4827586206896552
 40
0.4827586206896552
 40
0.4827586206896552
 40
0.5172413793103449
 40
0.5172413793103449
 40
0.5172413793103449
 40
0.5172413793103449
 40
0.5517241379310345
 40
0.5517241379310345
 40
0.5517241379310345
 40
0.5517241379310345
 40
0.5862068965517241
 40
0.5862068965517241
 40
0.5862068965517241
 40
0.5862068965517241
 40
0.6206896551724138
 40
0.6206896551724138
 40
0.6206896551724138
 40
0.6206896551724138
 40
0.6551724137931034
 40
0.6551724137931034
 40
0.6551724137931034
 40
0.6551724137931034
 40
0.6896551724137931
 40
0.6896551724137931
 40
0.6896551724137931
 40
0.6896551724137931
 40
0.7241379310344828
 40
0.7241379310344828
 40
0.7241379310344828
 40
0.7241379310344828
 40
0.7586206896551724
 40
0.7586206896551724
 40
0.7586206896551724
 40
0.7586206896551724
 40
0.7931034482758621
 40
0.7931034482758621
 40
0.7931034482758621
 40
0.7931034482758621
 40
0.8275862068965517
 40
0.8275862068965517
 40
0.8275862068965517
 40
0.8275862068965517
 40
0.8620689655172413
 40
0.8620689655172413
 40
0.8620689655172413
 40
0.8620689655172413
 40
0.896551724137931
 40
0.896551724137931
 40
0.896551724137931
 40
0.896551724137931
 40
0.9310344827586207
 40
0.9310344827586207
 40
0.9310344827586207
 40
0.9310344827586207
 40
1.0
 40
1.0
 40
1.0
 40
1.0
 10
2154.6863
 20
-3611.1535
 30
0.0
 10
2154.6863
 20
-3611.1535
 30
0.0
 10
2154.6863
 20
-3507.924
 30
0.0
 10
2154.6863
 20
-3507.924
 30
0.0
 10
2154.6863
 20
-3507.924
 30
0.0
 10
2154.6863
 20
-3507.924
 30
0.0
 10
2191.9631
 20
-3507.924
 30
0.0
 10
2191.9631
 20
-3507.924
 30
0.0
 10
2191.9631
 20
-3507.924
 30
0.0
 10
2191.9631
 20
-3507.924
 30
0.0
 10
2191.9631
 20
-3502.224
 30
0.0
 10
2191.9631
 20
-3502.224
 30
0.0
 10
2191.9631
 20
-3502.224
 30
0.0
 10
2191.9631
 20
-3502.224
 30
0.0
 10
2154.6863
 20
-3502.224
 30
0.0
 10
2154.6863
 20
-3502.224
 30
0.0
 10
2154.6863
 20
-3502.224
 30
0.0
 10
2154.6863
 20
-3502.224
 30
0.0
 10
2154.6863
 20
-3398.9946
 30
0.0
 10
2154.6863
 20
-3398.9946
 30
0.0
 10
2154.6863
 20
-3398.9946
 30
0.0
 10
2154.6863
 20
-3398.9946
 30
0.0
 10
2160.3863
 20
-3398.9946
 30
0.0
 10
2160.3863
 20
-3398.9946
 30
0.0
 10
2160.3863
 20
-3398.9946
 30
0.0
 10
2160.3863
 20
-3398.9946
 30
0.0
 10
2160.3863
 20
-3355.0741
 30
0.0
 10
2160.3863
 20
-3355.0741
 30
0.0
 10
2160.3863
 20
-3355.0741
 30
0.0
 10
2160.3863
 20
-3355.0741
 30
0.0
 10
2191.9631
 20
-3355.0741
 30
0.0
 10
2191.9631
 20
-3355.0741
 30
0.0
 10
2191.9631
 20
-3355.0741
 30
0.0
 10
2191.9631
 20
-3355.0741
 30
0.0
 10
2191.9631
 20
-3360.7741
 30
0.0
 10
2191.9631
 20
-3360.7741
 30
0.0
 10
2191.9631
 20
-3360.7741
 30
0.0
 10
2191.9631
 20
-3360.7741
 30
0.0
 10
2372.0295
 20
-3360.7741
 30
0.0
 10
2372.0295
 20
-3360.7741
 30
0.0
 10
2372.0295
 20
-3360.7741
 30
0.0
 10
2372.0295
 20
-3360.7741
 30
0.0
 10
2372.0295
 20
-3355.0741
 30
0.0
 10
2372.0295
 20
-3355.0741
 30
0.0
 10
2372.0295
 20
-3355.0741
 30
0.0
 10
2372.0295
 20
-3355.0741
 30
0.0
 10
2403.6063
 20
-3355.0741
 30
0.0
 10
2403.6063
 20
-3355.0741
 30
0.0
 10
2403.6063
 20
-3355.0741
 30
0.0
 10
2403.6063
 20
-3355.0741
 30
0.0
 10
2403.6063
 20
-3398.9946
 30
0.0
 10
2403.6063
 20
-3398.9946
 30
0.0
 10
2403.6063
 20
-3398.9946
 30
0.0
 10
2403.6063
 20
-3398.9946
 30
0.0
 10
2409.3063
 20
-3398.9946
 30
0.0
 10
2409.3063
 20
-3398.9946
 30
0.0
 10
2409.3063
 20
-3398.9946
 30
0.0
 10
2409.3063
 20
-3398.9946
 30
0.0
 10
2409.3063
 20
-3502.224
 30
0.0
 10
2409.3063
 20
-3502.224
 30
0.0
 10
2409.3063
 20
-3502.224
 30
0.0
 10
2409.3063
 20
-3502.224
 30
0.0
 10
2372.0295
 20
-3502.224
 30
0.0
 10
2372.0295
 20
-3502.224
 30
0.0
 10
2372.0295
 20
-3502.224
 30
0.0
 10
2372.0295
 20
-3502.224
 30
0.0
 10
2372.0295
 20
-3507.924
 30
0.0
 10
2372.0295
 20
-3507.924
 30
0.0
 10
2372.0295
 20
-3507.924
 30
0.0
 10
2372.0295
 20
-3507.924
 30
0.0
 10
2409.3063
 20
-3507.924
 30
0.0
 10
2409.3063
 20
-3507.924
 30
0.0
 10
2409.3063
 20
-3507.924
 30
0.0
 10
2409.3063
 20
-3507.924
 30
0.0
 10
2409.3063
 20
-3611.1535
 30
0.0
 10
2409.3063
 20
-3611.1535
 30
0.0
 10
2409.3063
 20
-3611.1535
 30
0.0
 10
2409.3063
 20
-3611.1535
 30
0.0
 10
2403.6063
 20
-3611.1535
 30
0.0
 10
2403.6063
 20
-3611.1535
 30
0.0
 10
2403.6063
 20
-3611.1535
 30
0.0
 10
2403.6063
 20
-3611.1535
 30
0.0
 10
2403.6063
 20
-3655.0739
 30
0.0
 10
2403.6063
 20
-3655.0739
 30
0.0
 10
2403.6063
 20
-3655.0739
 30
0.0
 10
2403.6063
 20
-3655.0739
 30
0.0
 10
2372.0295
 20
-3655.0739
 30
0.0
 10
2372.0295
 20
-3655.0739
 30
0.0
 10
2372.0295
 20
-3655.0739
 30
0.0
 10
2372.0295
 20
-3655.0739
 30
0.0
 10
2372.0295
 20
-3649.374
 30
0.0
 10
2372.0295
 20
-3649.374
 30
0.0
 10
2372.0295
 20
-3649.374
 30
0.0
 10
2372.0295
 20
-3649.374
 30
0.0
 10
2191.9631
 20
-3649.374
 30
0.0
 10
2191.9631
 20
-3649.374
 30
0.0
 10
2191.9631
 20
-3649.374
 30
0.0
 10
2191.9631
 20
-3649.374
 30
0.0
 10
2191.9631
 20
-3655.0739
 30
0.0
 10
2191.9631
 20
-3655.0739
 30
0.0
 10
2191.9631
 20
-3655.0739
 30
0.0
 10
2191.9631
 20
-3655.0739
 30
0.0
 10
2160.3863
 20
-3655.0739
 30
0.0
 10
2160.3863
 20
-3655.0739
 30
0.0
 10
2160.3863
 20
-3655.0739
 30
0.0
 10
2160.3863
 20
-3655.0739
 30
0.0
 10
2160.3863
 20
-3611.1535
 30
0.0
 10
2160.3863
 20
-3611.1535
 30
0.0
 10
2160.3863
 20
-3611.1535
 30
0.0
 10
2160.3863
 20
-3611.1535
 30
0.0
 10
2154.6863
 20
-3611.1535
 30
0.0
 10
2154.6863
 20
-3611.1535
 30
0.0
  0
ENDSEC
  0
SECTION
  2
OBJECTS
  0
DICTIONARY
  5
C
330
0
100
AcDbDictionary
281
     1
  3
ACAD_DETAILVIEWSTYLE
350
BF
  3
ACAD_GROUP
350
D
  3
ACAD_LAYOUT
350
1A
  3
ACAD_MATERIAL
350
43
  3
ACAD_MLEADERSTYLE
350
6B
  3
ACAD_MLINESTYLE
350
17
  3
ACAD_PLOTSETTINGS
350
19
  3
ACAD_PLOTSTYLENAME
350
E
  3
ACAD_SCALELIST
350
47
  3
ACAD_SECTIONVIEWSTYLE
350
C0
  3
ACAD_TABLESTYLE
350
69
  3
ACAD_VISUALSTYLE
350
2A
  3
ACDB_RECOMPOSE_DATA
350
BC
  3
AcDbVariableDictionary
350
84
  0
SUN
  5
6D
330
29
100
AcDbSun
 90
        1
290
     0
 63
     7
421
 16777215
 40
1.0
291
     1
 91
  2455826
 92
 54000000
292
     0
 70
     2
 71
   256
280
     1
  0
DICTIONARY
  5
BF
102
{ACAD_REACTORS
330
C
102
}
330
C
100
AcDbDictionary
281
     1
  0
DICTIONARY
  5
D
102
{ACAD_REACTORS
330
C
102
}
330
C
100
AcDbDictionary
281
     1
  0
DICTIONARY
  5
1A
102
{ACAD_REACTORS
330
C
102
}
330
C
100
AcDbDictionary
281
     1
  3
Layout1
350
1E
  3
Layout2
350
26
  3
Model
350
22
  0
DICTIONARY
  5
43
102
{ACAD_REACTORS
330
C
102
}
330
C
100
AcDbDictionary
281
     1
  3
ByBlock
350
45
  3
ByLayer
350
44
  3
Global
350
46
  0
DICTIONARY
  5
6B
102
{ACAD_REACTORS
330
C
102
}
330
C
100
AcDbDictionary
281
     1
  3
Standard
350
6C
  0
DICTIONARY
  5
17
102
{ACAD_REACTORS
330
C
102
}
330
C
100
AcDbDictionary
281
     1
  3
Standard
350
18
  0
DICTIONARY
  5
19
102
{ACAD_REACTORS
330
C
102
}
330
C
100
AcDbDictionary
281
     1
  0
ACDBDICTIONARYWDFLT
  5
E
102
{ACAD_REACTORS
330
C
102
}
330
C
100
AcDbDictionary
281
     1
  3
Normal
350
F
100
AcDbDictionaryWithDefault
340
F
  0
DICTIONARY
  5
47
102
{ACAD_REACTORS
330
C
102
}
330
C
100
AcDbDictionary
281
     1
  3
A0
350
48
  3
A1
350
49
  3
A2
350
4A
  3
A3
350
4B
  3
A4
350
4C
  3
A5
350
4D
  3
A6
350
4E
  3
A7
350
4F
  3
A8
350
50
  3
A9
350
51
  3
B0
350
52
  3
B1
350
53
  3
B2
350
54
  3
B3
350
55
  3
B4
350
56
  3
B5
350
57
  3
B6
350
58
  3
B7
350
59
  3
B8
350
5A
  3
B9
350
5B
  3
C0
350
5C
  3
C1
350
5D
  3
C2
350
5E
  3
C3
350
5F
  3
C4
350
60
  3
C5
350
61
  3
C6
350
62
  3
C7
350
63
  3
C8
350
64
  3
C9
350
65
  3
D0
350
66
  3
D1
350
67
  3
D2
350
68
  0
DICTIONARY
  5
C0
102
{ACAD_REACTORS
330
C
102
}
330
C
100
AcDbDictionary
281
     1
  0
DICTIONARY
  5
69
102
{ACAD_REACTORS
330
C
102
}
330
C
100
AcDbDictionary
281
     1
  3
Standard
350
6A
  0
DICTIONARY
  5
2A
102
{ACAD_REACTORS
330
C
102
}
330
C
100
AcDbDictionary
281
     1
  3
2dWireframe
350
2F
  3
Basic
350
32
  3
Brighten
350
36
  3
ColorChange
350
3A
  3
Conceptual
350
34
  3
Dim
350
35
  3
EdgeColorOff
350
3D
  3
Facepattern
350
39
  3
Flat
350
2B
  3
FlatWithEdges
350
2C
  3
Gouraud
350
2D
  3
GouraudWithEdges
350
2E
  3
Hidden
350
31
  3
JitterOff
350
3B
  3
Linepattern
350
38
  3
OverhangOff
350
3C
  3
Realistic
350
33
  3
Shaded
350
42
  3
Shaded with edges
350
41
  3
Shades of Gray
350
3E
  3
Sketchy
350
3F
  3
Thicken
350
37
  3
Wireframe
350
30
  3
X-Ray
350
40
  0
XRECORD
  5
BC
102
{ACAD_REACTORS
330
C
102
}
330
C
100
AcDbXrecord
280
     1
 90
        1
330
6A
  0
DICTIONARY
  5
84
102
{ACAD_REACTORS
330
C
102
}
330
C
100
AcDbDictionary
281
     1
  3
CANNOSCALE
350
85
  3
CMLEADERSTYLE
350
BE
  3
CTABLESTYLE
350
BD
  3
XCLIPFRAME
350
86
  0
LAYOUT
  5
1E
102
{ACAD_REACTORS
330
1A
102
}
330
1A
100
AcDbPlotSettings
  1

  2
none_device
  4

  6

 40
0.0
 41
0.0
 42
0.0
 43
0.0
 44
0.0
 45
0.0
 46
0.0
 47
0.0
 48
0.0
 49
0.0
140
0.0
141
0.0
142
1.0
143
1.0
 70
   688
 72
     0
 73
     0
 74
     5
  7

 75
    16
 76
     0
 77
     2
 78
   300
147
1.0
148
0.0
149
0.0
100
AcDbLayout
  1
Layout1
 70
     1
 71
     1
 10
0.0
 20
0.0
 11
12.0
 21
9.0
 12
0.0
 22
0.0
 32
0.0
 14
1.000000000000000E+20
 24
1.000000000000000E+20
 34
1.000000000000000E+20
 15
-1.000000000000000E+20
 25
-1.000000000000000E+20
 35
-1.000000000000000E+20
146
0.0
 13
0.0
 23
0.0
 33
0.0
 16
1.0
 26
0.0
 36
0.0
 17
0.0
 27
1.0
 37
0.0
 76
     0
330
1B
  0
LAYOUT
  5
26
102
{ACAD_REACTORS
330
1A
102
}
330
1A
100
AcDbPlotSettings
  1

  2
none_device
  4

  6

 40
0.0
 41
0.0
 42
0.0
 43
0.0
 44
0.0
 45
0.0
 46
0.0
 47
0.0
 48
0.0
 49
0.0
140
0.0
141
0.0
142
1.0
143
1.0
 70
   688
 72
     0
 73
     0
 74
     5
  7

 75
    16
 76
     0
 77
     2
 78
   300
147
1.0
148
0.0
149
0.0
100
AcDbLayout
  1
Layout2
 70
     1
 71
     2
 10
0.0
 20
0.0
 11
0.0
 21
0.0
 12
0.0
 22
0.0
 32
0.0
 14
0.0
 24
0.0
 34
0.0
 15
0.0
 25
0.0
 35
0.0
146
0.0
 13
0.0
 23
0.0
 33
0.0
 16
1.0
 26
0.0
 36
0.0
 17
0.0
 27
1.0
 37
0.0
 76
     0
330
23
  0
LAYOUT
  5
22
102
{ACAD_REACTORS
330
1A
102
}
330
1A
100
AcDbPlotSettings
  1

  2
none_device
  4
Letter_(8.50_x_11.00_Inches)
  6

 40
6.35
 41
6.35
 42
6.35000508
 43
6.35000508
 44
215.9
 45
279.4
 46
0.0
 47
0.0
 48
0.0
 49
0.0
140
0.0
141
0.0
142
1.0
143
1.0
 70
  1712
 72
     0
 73
     0
 74
     0
  7

 75
     0
 76
     0
 77
     2
 78
   300
147
1.0
148
0.0
149
0.0
100
AcDbLayout
  1
Model
 70
     1
 71
     0
 10
0.0
 20
0.0
 11
12.0
 21
9.0
 12
0.0
 22
0.0
 32
0.0
 14
415.1513
 24
-3660.1156
 34
0.0
 15
2929.9591
 25
-1024.8623
 35
0.0
146
0.0
 13
0.0
 23
0.0
 33
0.0
 16
1.0
 26
0.0
 36
0.0
 17
0.0
 27
1.0
 37
0.0
 76
     0
330
1F
331
29
  0
MATERIAL
  5
45
102
{ACAD_REACTORS
330
43
102
}
330
43
100
AcDbMaterial
  1
ByBlock
 72
     1
 94
      127
  0
MATERIAL
  5
44
102
{ACAD_REACTORS
330
43
102
}
330
43
100
AcDbMaterial
  1
ByLayer
 72
     1
 94
      127
  0
MATERIAL
  5
46
102
{ACAD_REACTORS
330
43
102
}
330
43
100
AcDbMaterial
  1
Global
 72
     1
 94
      127
  0
MLEADERSTYLE
  5
6C
102
{ACAD_REACTORS
330
6B
102
}
102
{ACAD_XDICTIONARY
360
BA
102
}
330
6B
100
AcDbMLeaderStyle
170
     2
171
     1
172
     0
 90
        2
 40
0.0
 41
0.0
173
     1
 91
-1056964608
340
14
 92
       -2
290
     1
 42
0.09
291
     1
 43
0.36
  3
Standard
341
0
 44
0.18
300

342
11
174
     1
178
     6
175
     1
176
     0
 93
-1056964608
 45
0.18
292
     0
297
     0
 46
0.18
343
0
 94
-1056964608
 47
1.0
 49
1.0
140
1.0
293
     1
141
0.0
294
     1
177
     0
142
1.0
295
     0
296
     0
143
0.125
1001
ACAD_MLEADERVER
1070
     2
  0
MLINESTYLE
  5
18
102
{ACAD_REACTORS
330
17
102
}
330
17
100
AcDbMlineStyle
  2
Standard
 70
     0
  3

 62
   256
 51
90.0
 52
90.0
 71
     2
 49
0.5
 62
   256
  6
BYLAYER
 49
-0.5
 62
   256
  6
BYLAYER
  0
ACDBPLACEHOLDER
  5
F
102
{ACAD_REACTORS
330
E
102
}
330
E
  0
SCALE
  5
48
102
{ACAD_REACTORS
330
47
102
}
330
47
100
AcDbScale
 70
     0
300
1:1
140
1.0
141
1.0
290
     1
  0
SCALE
  5
49
102
{ACAD_REACTORS
330
47
102
}
330
47
100
AcDbScale
 70
     0
300
1:2
140
1.0
141
2.0
290
     0
  0
SCALE
  5
4A
102
{ACAD_REACTORS
330
47
102
}
330
47
100
AcDbScale
 70
     0
300
1:4
140
1.0
141
4.0
290
     0
  0
SCALE
  5
4B
102
{ACAD_REACTORS
330
47
102
}
330
47
100
AcDbScale
 70
     0
300
1:5
140
1.0
141
5.0
290
     0
  0
SCALE
  5
4C
102
{ACAD_REACTORS
330
47
102
}
330
47
100
AcDbScale
 70
     0
300
1:8
140
1.0
141
8.0
290
     0
  0
SCALE
  5
4D
102
{ACAD_REACTORS
330
47
102
}
330
47
100
AcDbScale
 70
     0
300
1:10
140
1.0
141
10.0
290
     0
  0
SCALE
  5
4E
102
{ACAD_REACTORS
330
47
102
}
330
47
100
AcDbScale
 70
     0
300
1:16
140
1.0
141
16.0
290
     0
  0
SCALE
  5
4F
102
{ACAD_REACTORS
330
47
102
}
330
47
100
AcDbScale
 70
     0
300
1:20
140
1.0
141
20.0
290
     0
  0
SCALE
  5
50
102
{ACAD_REACTORS
330
47
102
}
330
47
100
AcDbScale
 70
     0
300
1:30
140
1.0
141
30.0
290
     0
  0
SCALE
  5
51
102
{ACAD_REACTORS
330
47
102
}
330
47
100
AcDbScale
 70
     0
300
1:40
140
1.0
141
40.0
290
     0
  0
SCALE
  5
52
102
{ACAD_REACTORS
330
47
102
}
330
47
100
AcDbScale
 70
     0
300
1:50
140
1.0
141
50.0
290
     0
  0
SCALE
  5
53
102
{ACAD_REACTORS
330
47
102
}
330
47
100
AcDbScale
 70
     0
300
1:100
140
1.0
141
100.0
290
     0
  0
SCALE
  5
54
102
{ACAD_REACTORS
330
47
102
}
330
47
100
AcDbScale
 70
     0
300
2:1
140
2.0
141
1.0
290
     0
  0
SCALE
  5
55
102
{ACAD_REACTORS
330
47
102
}
330
47
100
AcDbScale
 70
     0
300
4:1
140
4.0
141
1.0
290
     0
  0
SCALE
  5
56
102
{ACAD_REACTORS
330
47
102
}
330
47
100
AcDbScale
 70
     0
300
8:1
140
8.0
141
1.0
290
     0
  0
SCALE
  5
57
102
{ACAD_REACTORS
330
47
102
}
330
47
100
AcDbScale
 70
     0
300
10:1
140
10.0
141
1.0
290
     0
  0
SCALE
  5
58
102
{ACAD_REACTORS
330
47
102
}
330
47
100
AcDbScale
 70
     0
300
100:1
140
100.0
141
1.0
290
     0
  0
SCALE
  5
59
102
{ACAD_REACTORS
330
47
102
}
330
47
100
AcDbScale
 70
     0
300
1/128" = 1'-0"
140
0.0078125
141
12.0
290
     0
  0
SCALE
  5
5A
102
{ACAD_REACTORS
330
47
102
}
330
47
100
AcDbScale
 70
     0
300
1/64" = 1'-0"
140
0.015625
141
12.0
290
     0
  0
SCALE
  5
5B
102
{ACAD_REACTORS
330
47
102
}
330
47
100
AcDbScale
 70
     0
300
1/32" = 1'-0"
140
0.03125
141
12.0
290
     0
  0
SCALE
  5
5C
102
{ACAD_REACTORS
330
47
102
}
330
47
100
AcDbScale
 70
     0
300
1/16" = 1'-0"
140
0.0625
141
12.0
290
     0
  0
SCALE
  5
5D
102
{ACAD_REACTORS
330
47
102
}
330
47
100
AcDbScale
 70
     0
300
3/32" = 1'-0"
140
0.09375
141
12.0
290
     0
  0
SCALE
  5
5E
102
{ACAD_REACTORS
330
47
102
}
330
47
100
AcDbScale
 70
     0
300
1/8" = 1'-0"
140
0.125
141
12.0
290
     0
  0
SCALE
  5
5F
102
{ACAD_REACTORS
330
47
102
}
330
47
100
AcDbScale
 70
     0
300
3/16" = 1'-0"
140
0.1875
141
12.0
290
     0
  0
SCALE
  5
60
102
{ACAD_REACTORS
330
47
102
}
330
47
100
AcDbScale
 70
     0
300
1/4" = 1'-0"
140
0.25
141
12.0
290
     0
  0
SCALE
  5
61
102
{ACAD_REACTORS
330
47
102
}
330
47
100
AcDbScale
 70
     0
300
3/8" = 1'-0"
140
0.375
141
12.0
290
     0
  0
SCALE
  5
62
102
{ACAD_REACTORS
330
47
102
}
330
47
100
AcDbScale
 70
     0
300
1/2" = 1'-0"
140
0.5
141
12.0
290
     0
  0
SCALE
  5
63
102
{ACAD_REACTORS
330
47
102
}
330
47
100
AcDbScale
 70
     0
300
3/4" = 1'-0"
140
0.75
141
12.0
290
     0
  0
SCALE
  5
64
102
{ACAD_REACTORS
330
47
102
}
330
47
100
AcDbScale
 70
     0
300
1" = 1'-0"
140
1.0
141
12.0
290
     0
  0
SCALE
  5
65
102
{ACAD_REACTORS
330
47
102
}
330
47
100
AcDbScale
 70
     0
300
1-1/2" = 1'-0"
140
1.5
141
12.0
290
     0
  0
SCALE
  5
66
102
{ACAD_REACTORS
330
47
102
}
330
47
100
AcDbScale
 70
     0
300
3" = 1'-0"
140
3.0
141
12.0
290
     0
  0
SCALE
  5
67
102
{ACAD_REACTORS
330
47
102
}
330
47
100
AcDbScale
 70
     0
300
6" = 1'-0"
140
6.0
141
12.0
290
     0
  0
SCALE
  5
68
102
{ACAD_REACTORS
330
47
102
}
330
47
100
AcDbScale
 70
     0
300
1'-0" = 1'-0"
140
12.0
141
12.0
290
     0
  0
TABLESTYLE
  5
6A
102
{ACAD_REACTORS
330
69
102
}
102
{ACAD_XDICTIONARY
360
B7
102
}
330
69
100
AcDbTableStyle
  3
Standard
 70
     0
 71
     0
 40
0.06
 41
0.06
280
     0
281
     0
  7
Standard
140
0.18
170
     2
 62
     0
 63
   257
283
     0
 90
        4
 91
        0
  1

274
    -2
284
     1
 64
     0
275
    -2
285
     1
 65
     0
276
    -2
286
     1
 66
     0
277
    -2
287
     1
 67
     0
278
    -2
288
     1
 68
     0
279
    -2
289
     1
 69
     0
  7
Standard
140
0.25
170
     5
 62
     0
 63
   257
283
     0
 90
        4
 91
        0
  1

274
    -2
284
     1
 64
     0
275
    -2
285
     1
 65
     0
276
    -2
286
     1
 66
     0
277
    -2
287
     1
 67
     0
278
    -2
288
     1
 68
     0
279
    -2
289
     1
 69
     0
  7
Standard
140
0.18
170
     5
 62
     0
 63
   257
283
     0
 90
        4
 91
        0
  1

274
    -2
284
     1
 64
     0
275
    -2
285
     1
 65
     0
276
    -2
286
     1
 66
     0
277
    -2
287
     1
 67
     0
278
    -2
288
     1
 68
     0
279
    -2
289
     1
 69
     0
  0
VISUALSTYLE
  5
2F
102
{ACAD_REACTORS
330
2A
102
}
102
{ACAD_XDICTIONARY
360
8F
102
}
330
2A
100
AcDbVisualStyle
  2
2dWireframe
 70
     4
 71
     0
 72
     2
 73
     0
 90
        0
 40
0.6
 41
30.0
 62
     5
 63
     7
421
 16777215
 74
     1
 91
        4
 64
     7
 65
   257
 75
     1
175
     1
 42
1.0
 92
        0
 66
   257
 43
1.0
 76
     1
 77
     6
 78
     2
 67
     7
 79
     5
170
     0
171
     0
290
     0
174
     0
 93
        1
 44
0.0
173
     0
291
     0
 45
0.0
  0
VISUALSTYLE
  5
32
102
{ACAD_REACTORS
330
2A
102
}
102
{ACAD_XDICTIONARY
360
95
102
}
330
2A
100
AcDbVisualStyle
  2
Basic
 70
     7
 71
     1
 72
     0
 73
     1
 90
        0
 40
0.6
 41
30.0
 62
     5
 63
     7
421
 16777215
 74
     0
 91
        4
 64
     7
 65
   257
 75
     1
175
     1
 42
1.0
 92
        8
 66
     7
 43
1.0
 76
     1
 77
     6
 78
     2
 67
     7
 79
     5
170
     0
171
     0
290
     0
174
     0
 93
        1
 44
0.0
173
     0
291
     1
 45
0.0
  0
VISUALSTYLE
  5
36
102
{ACAD_REACTORS
330
2A
102
}
102
{ACAD_XDICTIONARY
360
9D
102
}
330
2A
100
AcDbVisualStyle
  2
Brighten
 70
    12
 71
     2
 72
     2
 73
     0
 90
        0
 40
0.6
 41
30.0
 62
     5
 63
     7
421
 16777215
 74
     1
 91
        4
 64
     7
 65
   257
 75
     1
175
     1
 42
1.0
 92
        8
 66
     7
 43
1.0
 76
     1
 77
     6
 78
     2
 67
     7
 79
     5
170
     0
171
     0
290
     0
174
     0
 93
        1
 44
50.0
173
     0
291
     1
 45
0.0
  0
VISUALSTYLE
  5
3A
102
{ACAD_REACTORS
330
2A
102
}
102
{ACAD_XDICTIONARY
360
A5
102
}
330
2A
100
AcDbVisualStyle
  2
ColorChange
 70
    16
 71
     2
 72
     2
 73
     3
 90
        0
 40
0.6
 41
30.0
 62
     5
 63
     8
421
  8421504
 74
     1
 91
        4
 64
     7
 65
   257
 75
     1
175
     1
 42
1.0
 92
        8
 66
     8
424
  8421504
 43
1.0
 76
     1
 77
     6
 78
     2
 67
     7
 79
     5
170
     0
171
     0
290
     0
174
     0
 93
        1
 44
0.0
173
     0
291
     1
 45
0.0
  0
VISUALSTYLE
  5
34
102
{ACAD_REACTORS
330
2A
102
}
102
{ACAD_XDICTIONARY
360
99
102
}
330
2A
100
AcDbVisualStyle
  2
Conceptual
 70
     9
 71
     3
 72
     2
 73
     0
 90
        0
 40
0.6
 41
30.0
 62
     5
 63
     7
421
 16777215
 74
     2
 91
        2
 64
     7
 65
   257
 75
     1
175
     1
 42
179.0
 92
        8
 66
     7
 43
1.0
 76
     1
 77
     6
 78
     2
 67
     7
 79
     3
170
     0
171
     0
290
     0
174
     0
 93
        1
 44
0.0
173
     0
291
     0
 45
0.0
  0
VISUALSTYLE
  5
35
102
{ACAD_REACTORS
330
2A
102
}
102
{ACAD_XDICTIONARY
360
9B
102
}
330
2A
100
AcDbVisualStyle
  2
Dim
 70
    11
 71
     2
 72
     2
 73
     0
 90
        0
 40
0.6
 41
30.0
 62
     5
 63
     7
421
 16777215
 74
     1
 91
        4
 64
     7
 65
   257
 75
     1
175
     1
 42
1.0
 92
        8
 66
     7
 43
1.0
 76
     1
 77
     6
 78
     2
 67
     7
 79
     5
170
     0
171
     0
290
     0
174
     0
 93
        1
 44
-50.0
173
     0
291
     1
 45
0.0
  0
VISUALSTYLE
  5
3D
102
{ACAD_REACTORS
330
2A
102
}
102
{ACAD_XDICTIONARY
360
AB
102
}
330
2A
100
AcDbVisualStyle
  2
EdgeColorOff
 70
    22
 71
     2
 72
     2
 73
     0
 90
        0
 40
0.6
 41
30.0
 62
     5
 63
     7
421
 16777215
 74
     1
 91
        4
 64
     7
 65
   257
 75
     1
175
     1
 42
1.0
 92
        8
 66
     7
 43
1.0
 76
     1
 77
     6
 78
     2
 67
     7
 79
     5
170
     0
171
     0
290
     0
174
     0
 93
        1
 44
0.0
173
     0
291
     1
 45
0.0
  0
VISUALSTYLE
  5
39
102
{ACAD_REACTORS
330
2A
102
}
102
{ACAD_XDICTIONARY
360
A3
102
}
330
2A
100
AcDbVisualStyle
  2
Facepattern
 70
    15
 71
     2
 72
     2
 73
     0
 90
        0
 40
0.6
 41
30.0
 62
     5
 63
     7
421
 16777215
 74
     1
 91
        4
 64
     7
 65
   257
 75
     1
175
     1
 42
1.0
 92
        8
 66
     7
 43
1.0
 76
     1
 77
     6
 78
     2
 67
     7
 79
     5
170
     0
171
     0
290
     0
174
     0
 93
        1
 44
0.0
173
     0
291
     1
 45
0.0
  0
VISUALSTYLE
  5
2B
102
{ACAD_REACTORS
330
2A
102
}
102
{ACAD_XDICTIONARY
360
87
102
}
330
2A
100
AcDbVisualStyle
  2
Flat
 70
     0
 71
     2
 72
     1
 73
     1
 90
        2
 40
0.6
 41
30.0
 62
     5
 63
     7
421
 16777215
 74
     0
 91
        0
 64
     7
 65
   257
 75
     1
175
     1
 42
1.0
 92
        8
 66
     7
 43
1.0
 76
     1
 77
     6
 78
     2
 67
     7
 79
     5
170
     0
171
     0
290
     0
174
     0
 93
       13
 44
0.0
173
     0
291
     1
 45
0.0
  0
VISUALSTYLE
  5
2C
102
{ACAD_REACTORS
330
2A
102
}
102
{ACAD_XDICTIONARY
360
89
102
}
330
2A
100
AcDbVisualStyle
  2
FlatWithEdges
 70
     1
 71
     2
 72
     1
 73
     1
 90
        2
 40
0.6
 41
30.0
 62
     5
 63
     7
421
 16777215
 74
     1
 91
        0
 64
     7
 65
   257
 75
     1
175
     1
 42
1.0
 92
        0
 66
   257
 43
1.0
 76
     1
 77
     6
 78
     2
 67
     7
 79
     5
170
     0
171
     0
290
     0
174
     0
 93
       13
 44
0.0
173
     0
291
     1
 45
0.0
  0
VISUALSTYLE
  5
2D
102
{ACAD_REACTORS
330
2A
102
}
102
{ACAD_XDICTIONARY
360
8B
102
}
330
2A
100
AcDbVisualStyle
  2
Gouraud
 70
     2
 71
     2
 72
     2
 73
     1
 90
        2
 40
0.6
 41
30.0
 62
     5
 63
     7
421
 16777215
 74
     0
 91
        0
 64
     7
 65
   257
 75
     1
175
     1
 42
1.0
 92
        0
 66
     7
 43
1.0
 76
     1
 77
     6
 78
     2
 67
     7
 79
     5
170
     0
171
     0
290
     0
174
     0
 93
       13
 44
0.0
173
     0
291
     1
 45
0.0
  0
VISUALSTYLE
  5
2E
102
{ACAD_REACTORS
330
2A
102
}
102
{ACAD_XDICTIONARY
360
8D
102
}
330
2A
100
AcDbVisualStyle
  2
GouraudWithEdges
 70
     3
 71
     2
 72
     2
 73
     1
 90
        2
 40
0.6
 41
30.0
 62
     5
 63
     7
421
 16777215
 74
     1
 91
        0
 64
     7
 65
   257
 75
     1
175
     1
 42
1.0
 92
        0
 66
   257
 43
1.0
 76
     1
 77
     6
 78
     2
 67
     7
 79
     5
170
     0
171
     0
290
     0
174
     0
 93
       13
 44
0.0
173
     0
291
     1
 45
0.0
  0
VISUALSTYLE
  5
31
102
{ACAD_REACTORS
330
2A
102
}
102
{ACAD_XDICTIONARY
360
93
102
}
330
2A
100
AcDbVisualStyle
  2
Hidden
 70
     6
 71
     1
 72
     2
 73
     2
 90
        0
 40
0.6
 41
30.0
 62
     5
 63
     7
421
 16777215
 74
     2
 91
        2
 64
     7
 65
   257
 75
     2
175
     1
 42
40.0
 92
        0
 66
   257
 43
1.0
 76
     1
 77
     6
 78
     2
 67
     7
 79
     3
170
     0
171
     0
290
     0
174
     0
 93
        1
 44
0.0
173
     0
291
     0
 45
0.0
  0
VISUALSTYLE
  5
3B
102
{ACAD_REACTORS
330
2A
102
}
102
{ACAD_XDICTIONARY
360
A7
102
}
330
2A
100
AcDbVisualStyle
  2
JitterOff
 70
    20
 71
     2
 72
     2
 73
     0
 90
        0
 40
0.6
 41
30.0
 62
     5
 63
     7
421
 16777215
 74
     1
 91
        4
 64
     7
 65
   257
 75
     1
175
     1
 42
1.0
 92
       10
 66
     7
 43
1.0
 76
     1
 77
     6
 78
     2
 67
     7
 79
     5
170
     0
171
     0
290
     0
174
     0
 93
        1
 44
0.0
173
     0
291
     1
 45
0.0
  0
VISUALSTYLE
  5
38
102
{ACAD_REACTORS
330
2A
102
}
102
{ACAD_XDICTIONARY
360
A1
102
}
330
2A
100
AcDbVisualStyle
  2
Linepattern
 70
    14
 71
     2
 72
     2
 73
     0
 90
        0
 40
0.6
 41
30.0
 62
     5
 63
     7
421
 16777215
 74
     1
 91
        4
 64
     7
 65
   257
 75
     7
175
     7
 42
1.0
 92
        8
 66
     7
 43
1.0
 76
     1
 77
     6
 78
     2
 67
     7
 79
     5
170
     0
171
     0
290
     0
174
     0
 93
        1
 44
0.0
173
     0
291
     1
 45
0.0
  0
VISUALSTYLE
  5
3C
102
{ACAD_REACTORS
330
2A
102
}
102
{ACAD_XDICTIONARY
360
A9
102
}
330
2A
100
AcDbVisualStyle
  2
OverhangOff
 70
    21
 71
     2
 72
     2
 73
     0
 90
        0
 40
0.6
 41
30.0
 62
     5
 63
     7
421
 16777215
 74
     1
 91
        4
 64
     7
 65
   257
 75
     1
175
     1
 42
1.0
 92
        9
 66
     7
 43
1.0
 76
     1
 77
     6
 78
     2
 67
     7
 79
     5
170
     0
171
     0
290
     0
174
     0
 93
        1
 44
0.0
173
     0
291
     1
 45
0.0
  0
VISUALSTYLE
  5
33
102
{ACAD_REACTORS
330
2A
102
}
102
{ACAD_XDICTIONARY
360
97
102
}
330
2A
100
AcDbVisualStyle
  2
Realistic
 70
     8
 71
     2
 72
     3
 73
     0
 90
        2
 40
0.6
 41
30.0
 62
     5
 63
     7
421
 16777215
 74
     0
 91
        0
 64
     7
 65
   257
 75
     1
175
     1
 42
1.0
 92
        8
 66
   257
 43
1.0
 76
     1
 77
     6
 78
     2
 67
     7
 79
     3
170
     0
171
     0
290
     0
174
     0
 93
       13
 44
0.0
173
     0
291
     0
 45
0.0
  0
VISUALSTYLE
  5
42
102
{ACAD_REACTORS
330
2A
102
}
102
{ACAD_XDICTIONARY
360
B5
102
}
330
2A
100
AcDbVisualStyle
  2
Shaded
 70
    27
 71
     2
 72
     2
 73
     1
 90
        2
 40
0.6
 41
30.0
 62
     5
 63
     7
421
 16777215
 74
     0
 91
        4
 64
     7
 65
   257
 75
     1
175
     1
 42
1.0
 92
        8
 66
   257
 43
1.0
 76
     1
 77
     6
 78
     2
 67
     8
425
  7895160
 79
     3
170
     0
171
     0
290
     0
174
     0
 93
        5
 44
0.0
173
     0
291
     0
 45
0.0
  0
VISUALSTYLE
  5
41
102
{ACAD_REACTORS
330
2A
102
}
102
{ACAD_XDICTIONARY
360
B3
102
}
330
2A
100
AcDbVisualStyle
  2
Shaded with edges
 70
    26
 71
     2
 72
     2
 73
     1
 90
        2
 40
0.6
 41
30.0
 62
     5
 63
     7
421
 16777215
 74
     1
 91
       10
 64
     7
 65
   257
 75
     2
175
     1
 42
1.0
 92
        8
 66
   257
 43
1.0
 76
     1
 77
     6
 78
     2
 67
     7
 79
     3
170
     0
171
     0
290
     0
174
     0
 93
        5
 44
0.0
173
     0
291
     0
 45
0.0
  0
VISUALSTYLE
  5
3E
102
{ACAD_REACTORS
330
2A
102
}
102
{ACAD_XDICTIONARY
360
AD
102
}
330
2A
100
AcDbVisualStyle
  2
Shades of Gray
 70
    23
 71
     2
 72
     2
 73
     3
 90
        0
 40
0.6
 41
30.0
 62
     5
 63
     7
421
 16777215
 74
     2
 91
        2
 64
     7
 65
     7
 75
     1
175
     1
 42
40.0
 92
        8
 66
     7
 43
1.0
 76
     1
 77
     6
 78
     2
 67
     7
 79
     3
170
     0
171
     0
290
     0
174
     0
 93
        1
 44
0.0
173
     0
291
     0
 45
0.0
  0
VISUALSTYLE
  5
3F
102
{ACAD_REACTORS
330
2A
102
}
102
{ACAD_XDICTIONARY
360
AF
102
}
330
2A
100
AcDbVisualStyle
  2
Sketchy
 70
    24
 71
     1
 72
     2
 73
     2
 90
        0
 40
0.6
 41
30.0
 62
     5
 63
     7
421
 16777215
 74
     2
 91
        2
 64
     7
 65
     7
 75
     1
175
     1
 42
40.0
 92
       11
 66
     7
 43
1.0
 76
     1
 77
     6
 78
     2
 67
     7
 79
     6
170
     0
171
     0
290
     0
174
     0
 93
        1
 44
0.0
173
     0
291
     0
 45
0.0
  0
VISUALSTYLE
  5
37
102
{ACAD_REACTORS
330
2A
102
}
102
{ACAD_XDICTIONARY
360
9F
102
}
330
2A
100
AcDbVisualStyle
  2
Thicken
 70
    13
 71
     2
 72
     2
 73
     0
 90
        0
 40
0.6
 41
30.0
 62
     5
 63
     7
421
 16777215
 74
     1
 91
        4
 64
     7
 65
   257
 75
     1
175
     1
 42
1.0
 92
       12
 66
     7
 43
1.0
 76
     1
 77
     6
 78
     2
 67
     7
 79
     5
170
     0
171
     0
290
     0
174
     0
 93
        1
 44
0.0
173
     0
291
     1
 45
0.0
  0
VISUALSTYLE
  5
30
102
{ACAD_REACTORS
330
2A
102
}
102
{ACAD_XDICTIONARY
360
91
102
}
330
2A
100
AcDbVisualStyle
  2
Wireframe
 70
     5
 71
     0
 72
     2
 73
     0
 90
        0
 40
0.6
 41
30.0
 62
     5
 63
     7
421
 16777215
 74
     1
 91
        4
 64
     7
 65
   257
 75
     1
175
     1
 42
1.0
 92
        0
 66
   257
 43
1.0
 76
     1
 77
     6
 78
     2
 67
     7
 79
     3
170
     0
171
     0
290
     0
174
     0
 93
        1
 44
0.0
173
     0
291
     0
 45
0.0
  0
VISUALSTYLE
  5
40
102
{ACAD_REACTORS
330
2A
102
}
102
{ACAD_XDICTIONARY
360
B1
102
}
330
2A
100
AcDbVisualStyle
  2
X-Ray
 70
    25
 71
     2
 72
     2
 73
     1
 90
        1
 40
0.5
 41
30.0
 62
     5
 63
     7
421
 16777215
 74
     1
 91
        0
 64
     7
 65
   257
 75
     1
175
     1
 42
1.0
 92
        8
 66
     7
 43
1.0
 76
     1
 77
     6
 78
     2
 67
     7
 79
     3
170
     0
171
     0
290
     0
174
     0
 93
       13
 44
0.0
173
     0
291
     0
 45
0.0
  0
DICTIONARYVAR
  5
85
102
{ACAD_REACTORS
330
84
102
}
330
84
100
DictionaryVariables
280
     0
  1
1:1
  0
DICTIONARYVAR
  5
BE
102
{ACAD_REACTORS
330
84
102
}
330
84
100
DictionaryVariables
280
     0
  1
Standard
  0
DICTIONARYVAR
  5
BD
102
{ACAD_REACTORS
330
84
102
}
330
84
100
DictionaryVariables
280
     0
  1
Standard
  0
DICTIONARYVAR
  5
86
102
{ACAD_REACTORS
330
84
102
}
330
84
100
DictionaryVariables
280
     0
  1
2
  0
DICTIONARY
  5
BA
330
6C
100
AcDbDictionary
280
     1
281
     1
  3
ACAD_XREC_ROUNDTRIP
360
BB
  0
DICTIONARY
  5
B7
330
6A
100
AcDbDictionary
280
     1
281
     1
  3
ACAD_ROUNDTRIP_2008_TABLESTYLE_CELLSTYLEMAP
360
B8
  0
DICTIONARY
  5
8F
330
2F
100
AcDbDictionary
280
     1
281
     1
  3
ACAD_XREC_ROUNDTRIP
360
90
  0
DICTIONARY
  5
95
330
32
100
AcDbDictionary
280
     1
281
     1
  3
ACAD_XREC_ROUNDTRIP
360
96
  0
DICTIONARY
  5
9D
330
36
100
AcDbDictionary
280
     1
281
     1
  3
ACAD_XREC_ROUNDTRIP
360
9E
  0
DICTIONARY
  5
A5
330
3A
100
AcDbDictionary
280
     1
281
     1
  3
ACAD_XREC_ROUNDTRIP
360
A6
  0
DICTIONARY
  5
99
330
34
100
AcDbDictionary
280
     1
281
     1
  3
ACAD_XREC_ROUNDTRIP
360
9A
  0
DICTIONARY
  5
9B
330
35
100
AcDbDictionary
280
     1
281
     1
  3
ACAD_XREC_ROUNDTRIP
360
9C
  0
DICTIONARY
  5
AB
330
3D
100
AcDbDictionary
280
     1
281
     1
  3
ACAD_XREC_ROUNDTRIP
360
AC
  0
DICTIONARY
  5
A3
330
39
100
AcDbDictionary
280
     1
281
     1
  3
ACAD_XREC_ROUNDTRIP
360
A4
  0
DICTIONARY
  5
87
330
2B
100
AcDbDictionary
280
     1
281
     1
  3
ACAD_XREC_ROUNDTRIP
360
88
  0
DICTIONARY
  5
89
330
2C
100
AcDbDictionary
280
     1
281
     1
  3
ACAD_XREC_ROUNDTRIP
360
8A
  0
DICTIONARY
  5
8B
330
2D
100
AcDbDictionary
280
     1
281
     1
  3
ACAD_XREC_ROUNDTRIP
360
8C
  0
DICTIONARY
  5
8D
330
2E
100
AcDbDictionary
280
     1
281
     1
  3
ACAD_XREC_ROUNDTRIP
360
8E
  0
DICTIONARY
  5
93
330
31
100
AcDbDictionary
280
     1
281
     1
  3
ACAD_XREC_ROUNDTRIP
360
94
  0
DICTIONARY
  5
A7
330
3B
100
AcDbDictionary
280
     1
281
     1
  3
ACAD_XREC_ROUNDTRIP
360
A8
  0
DICTIONARY
  5
A1
330
38
100
AcDbDictionary
280
     1
281
     1
  3
ACAD_XREC_ROUNDTRIP
360
A2
  0
DICTIONARY
  5
A9
330
3C
100
AcDbDictionary
280
     1
281
     1
  3
ACAD_XREC_ROUNDTRIP
360
AA
  0
DICTIONARY
  5
97
330
33
100
AcDbDictionary
280
     1
281
     1
  3
ACAD_XREC_ROUNDTRIP
360
98
  0
DICTIONARY
  5
B5
330
42
100
AcDbDictionary
280
     1
281
     1
  3
ACAD_XREC_ROUNDTRIP
360
B6
  0
DICTIONARY
  5
B3
330
41
100
AcDbDictionary
280
     1
281
     1
  3
ACAD_XREC_ROUNDTRIP
360
B4
  0
DICTIONARY
  5
AD
330
3E
100
AcDbDictionary
280
     1
281
     1
  3
ACAD_XREC_ROUNDTRIP
360
AE
  0
DICTIONARY
  5
AF
330
3F
100
AcDbDictionary
280
     1
281
     1
  3
ACAD_XREC_ROUNDTRIP
360
B0
  0
DICTIONARY
  5
9F
330
37
100
AcDbDictionary
280
     1
281
     1
  3
ACAD_XREC_ROUNDTRIP
360
A0
  0
DICTIONARY
  5
91
330
30
100
AcDbDictionary
280
     1
281
     1
  3
ACAD_XREC_ROUNDTRIP
360
92
  0
DICTIONARY
  5
B1
330
40
100
AcDbDictionary
280
     1
281
     1
  3
ACAD_XREC_ROUNDTRIP
360
B2
  0
XRECORD
  5
BB
102
{ACAD_REACTORS
330
BA
102
}
330
BA
100
AcDbXrecord
280
     1
102
ACAD_ROUNDTRIP_2010_MLEADER_STYLE
  0
CELLSTYLEMAP
  5
B8
102
{ACAD_REACTORS
330
B7
102
}
330
B7
100
AcDbCellStyleMap
 90
        3
300
CELLSTYLE
  1
TABLEFORMAT_BEGIN
 90
        5
170
     1
 91
        0
 92
    32768
 62
   257
 93
        1
300
CONTENTFORMAT
  1
CONTENTFORMAT_BEGIN
 90
        0
 91
        0
 92
        4
 93
        0
300

 40
0.0
140
1.0
 94
        5
 62
     0
340
11
144
0.25
309
CONTENTFORMAT_END
171
     1
301
MARGIN
  1
CELLMARGIN_BEGIN
 40
0.06
 40
0.06
 40
0.06
 40
0.06
 40
0.06
 40
0.06
309
CELLMARGIN_END
 94
        6
 95
        1
302
GRIDFORMAT
  1
GRIDFORMAT_BEGIN
 90
        0
 91
        1
 62
     0
 92
       -2
340
14
 93
        0
 40
0.045
309
GRIDFORMAT_END
 95
        2
302
GRIDFORMAT
  1
GRIDFORMAT_BEGIN
 90
        0
 91
        1
 62
     0
 92
       -2
340
14
 93
        0
 40
0.045
309
GRIDFORMAT_END
 95
        4
302
GRIDFORMAT
  1
GRIDFORMAT_BEGIN
 90
        0
 91
        1
 62
     0
 92
       -2
340
14
 93
        0
 40
0.045
309
GRIDFORMAT_END
 95
        8
302
GRIDFORMAT
  1
GRIDFORMAT_BEGIN
 90
        0
 91
        1
 62
     0
 92
       -2
340
14
 93
        0
 40
0.045
309
GRIDFORMAT_END
 95
       16
302
GRIDFORMAT
  1
GRIDFORMAT_BEGIN
 90
        0
 91
        1
 62
     0
 92
       -2
340
14
 93
        0
 40
0.045
309
GRIDFORMAT_END
 95
       32
302
GRIDFORMAT
  1
GRIDFORMAT_BEGIN
 90
        0
 91
        1
 62
     0
 92
       -2
340
14
 93
        0
 40
0.045
309
GRIDFORMAT_END
309
TABLEFORMAT_END
  1
CELLSTYLE_BEGIN
 90
        1
 91
        1
300
_TITLE
309
CELLSTYLE_END
300
CELLSTYLE
  1
TABLEFORMAT_BEGIN
 90
        5
170
     1
 91
        0
 92
        0
 62
   257
 93
        1
300
CONTENTFORMAT
  1
CONTENTFORMAT_BEGIN
 90
        0
 91
        0
 92
        4
 93
        0
300

 40
0.0
140
1.0
 94
        5
 62
     0
340
11
144
0.18
309
CONTENTFORMAT_END
171
     1
301
MARGIN
  1
CELLMARGIN_BEGIN
 40
0.06
 40
0.06
 40
0.06
 40
0.06
 40
0.06
 40
0.06
309
CELLMARGIN_END
 94
        6
 95
        1
302
GRIDFORMAT
  1
GRIDFORMAT_BEGIN
 90
        0
 91
        1
 62
     0
 92
       -2
340
14
 93
        0
 40
0.045
309
GRIDFORMAT_END
 95
        2
302
GRIDFORMAT
  1
GRIDFORMAT_BEGIN
 90
        0
 91
        1
 62
     0
 92
       -2
340
14
 93
        0
 40
0.045
309
GRIDFORMAT_END
 95
        4
302
GRIDFORMAT
  1
GRIDFORMAT_BEGIN
 90
        0
 91
        1
 62
     0
 92
       -2
340
14
 93
        0
 40
0.045
309
GRIDFORMAT_END
 95
        8
302
GRIDFORMAT
  1
GRIDFORMAT_BEGIN
 90
        0
 91
        1
 62
     0
 92
       -2
340
14
 93
        0
 40
0.045
309
GRIDFORMAT_END
 95
       16
302
GRIDFORMAT
  1
GRIDFORMAT_BEGIN
 90
        0
 91
        1
 62
     0
 92
       -2
340
14
 93
        0
 40
0.045
309
GRIDFORMAT_END
 95
       32
302
GRIDFORMAT
  1
GRIDFORMAT_BEGIN
 90
        0
 91
        1
 62
     0
 92
       -2
340
14
 93
        0
 40
0.045
309
GRIDFORMAT_END
309
TABLEFORMAT_END
  1
CELLSTYLE_BEGIN
 90
        2
 91
        1
300
_HEADER
309
CELLSTYLE_END
300
CELLSTYLE
  1
TABLEFORMAT_BEGIN
 90
        5
170
     1
 91
        0
 92
        0
 62
   257
 93
        1
300
CONTENTFORMAT
  1
CONTENTFORMAT_BEGIN
 90
        0
 91
        0
 92
        4
 93
        0
300

 40
0.0
140
1.0
 94
        2
 62
     0
340
11
144
0.18
309
CONTENTFORMAT_END
171
     1
301
MARGIN
  1
CELLMARGIN_BEGIN
 40
0.06
 40
0.06
 40
0.06
 40
0.06
 40
0.06
 40
0.06
309
CELLMARGIN_END
 94
        6
 95
        1
302
GRIDFORMAT
  1
GRIDFORMAT_BEGIN
 90
        0
 91
        1
 62
     0
 92
       -2
340
14
 93
        0
 40
0.045
309
GRIDFORMAT_END
 95
        2
302
GRIDFORMAT
  1
GRIDFORMAT_BEGIN
 90
        0
 91
        1
 62
     0
 92
       -2
340
14
 93
        0
 40
0.045
309
GRIDFORMAT_END
 95
        4
302
GRIDFORMAT
  1
GRIDFORMAT_BEGIN
 90
        0
 91
        1
 62
     0
 92
       -2
340
14
 93
        0
 40
0.045
309
GRIDFORMAT_END
 95
        8
302
GRIDFORMAT
  1
GRIDFORMAT_BEGIN
 90
        0
 91
        1
 62
     0
 92
       -2
340
14
 93
        0
 40
0.045
309
GRIDFORMAT_END
 95
       16
302
GRIDFORMAT
  1
GRIDFORMAT_BEGIN
 90
        0
 91
        1
 62
     0
 92
       -2
340
14
 93
        0
 40
0.045
309
GRIDFORMAT_END
 95
       32
302
GRIDFORMAT
  1
GRIDFORMAT_BEGIN
 90
        0
 91
        1
 62
     0
 92
       -2
340
14
 93
        0
 40
0.045
309
GRIDFORMAT_END
309
TABLEFORMAT_END
  1
CELLSTYLE_BEGIN
 90
        3
 91
        2
300
_DATA
309
CELLSTYLE_END
  0
XRECORD
  5
90
102
{ACAD_REACTORS
330
8F
102
}
330
8F
100
AcDbXrecord
280
     1
102
RTVSPropertyOp0
 70
     1
102
RTVSPropertyOp1
 70
     1
102
RTVSPropertyOp2
 70
     1
102
RTVSPropertyOp3
 70
     1
102
RTVSPropertyOp4
 70
     1
102
RTVSPropertyOp5
 70
     1
102
RTVSPropertyOp6
 70
     1
102
RTVSPropertyOp7
 70
     1
102
RTVSPropertyOp8
 70
     1
102
RTVSPropertyOp9
 70
     1
102
RTVSPropertyOp10
 70
     1
102
RTVSPropertyOp11
 70
     1
102
RTVSPropertyOp12
 70
     1
102
RTVSPropertyOp13
 70
     1
102
RTVSPropertyOp14
 70
     1
102
RTVSPropertyOp15
 70
     1
102
RTVSPropertyOp16
 70
     1
102
RTVSPropertyOp17
 70
     1
102
RTVSPropertyOp18
 70
     1
102
RTVSPropertyOp19
 70
     1
102
RTVSPropertyOp20
 70
     1
102
RTVSPropertyOp21
 70
     1
102
RTVSPropertyOp22
 70
     1
102
RTVSPropertyOp23
 70
     1
102
RTVSPropertyOp24
 70
     1
102
RTVSPropertyOp25
 70
     1
102
RTVSPropertyOp26
 70
     1
102
RTVSPropertyOp27
 70
     1
102
RTVSPropertyOp28
 70
     1
102
RTVSPropertyOp29
 70
     1
102
RTVSPropertyOp30
 70
     1
102
RTVSPropertyOp31
 70
     1
102
RTVSPropertyOp32
 70
     1
102
RTVSPropertyOp33
 70
     1
102
RTVSPropertyOp34
 70
     1
102
RTVSPropertyOp35
 70
     1
102
RTVSPropertyOp36
 70
     1
102
RTVSPropertyOp37
 70
     1
102
RTVSPropertyOp38
 70
     1
102
RTVSPropertyOp39
 70
     1
102
RTVSPropertyOp40
 70
     1
102
RTVSPropertyOp41
 70
     1
102
RTVSPropertyOp42
 70
     1
102
RTVSPropertyOp43
 70
     1
102
RTVSPropertyOp44
 70
     1
102
RTVSPropertyOp45
 70
     1
102
RTVSPropertyOp46
 70
     1
102
RTVSPropertyOp47
 70
     1
102
RTVSPropertyOp48
 70
     1
102
RTVSPropertyOp49
 70
     1
102
RTVSPropertyOp50
 70
     1
102
RTVSPropertyOp51
 70
     0
102
RTVSPropertyOp52
 70
     0
102
RTVSPropertyOp53
 70
     1
102
RTVSPropertyOp54
 70
     1
102
RTVSPropertyOp55
 70
     1
102
RTVSPropertyOp56
 70
     1
102
RTVSPropertyOp57
 70
     1
102
RTVSPost2010Prop28
280
     1
102
RTVSPost2010PropOp28
 70
     1
102
RTVSPost2010Prop29
280
     1
102
RTVSPost2010PropOp29
 70
     1
102
RTVSPost2010Prop30
280
     0
102
RTVSPost2010PropOp30
 70
     1
102
RTVSPost2010Prop31
280
     0
102
RTVSPost2010PropOp31
 70
     1
102
RTVSPost2010Prop32
280
     0
102
RTVSPost2010PropOp32
 70
     1
102
RTVSPost2010Prop33
280
     0
102
RTVSPost2010PropOp33
 70
     1
102
RTVSPost2010Prop34
280
     0
102
RTVSPost2010PropOp34
 70
     1
102
RTVSPost2010Prop35
280
     0
102
RTVSPost2010PropOp35
 70
     1
102
RTVSPost2010Prop36
280
     0
102
RTVSPost2010PropOp36
 70
     1
102
RTVSPost2010Prop37
 90
       50
102
RTVSPost2010PropOp37
 70
     1
102
RTVSPost2010Prop38
140
0.0
102
RTVSPost2010PropOp38
 70
     1
102
RTVSPost2010Prop39
140
1.0
102
RTVSPost2010PropOp39
 70
     1
102
RTVSPost2010Prop40
 90
        0
102
RTVSPost2010PropOp40
 70
     1
102
RTVSPost2010Prop41ColorIndex
 90
       18
102
RTVSPost2010Prop41ColorRGB
 90
        0
102
RTVSPost2010PropOp41
 70
     1
102
RTVSPost2010Prop42
 90
       50
102
RTVSPost2010PropOp42
 70
     1
102
RTVSPost2010Prop43
 90
        3
102
RTVSPost2010PropOp43
 70
     1
102
RTVSPost2010Prop44ColorIndex
 90
        5
102
RTVSPost2010Prop44ColorRGB
 90
      255
102
RTVSPost2010PropOp44
 70
     1
102
RTVSPost2010Prop45
280
     0
102
RTVSPost2010PropOp45
 70
     1
102
RTVSPost2010Prop46
 90
       50
102
RTVSPost2010PropOp46
 70
     1
102
RTVSPost2010Prop47
 90
       50
102
RTVSPost2010PropOp47
 70
     1
102
RTVSPost2010Prop48
 90
       50
102
RTVSPost2010PropOp48
 70
     1
102
RTVSPost2010Prop49
280
     0
102
RTVSPost2010PropOp49
 70
     1
102
RTVSPost2010Prop50
 90
       50
102
RTVSPost2010PropOp50
 70
     1
102
RTVSPost2010Prop51ColorIndex
 90
      256
102
RTVSPost2010Prop51ColorRGB
 90
-16777216
102
RTVSPost2010PropOp51
 70
     0
102
RTVSPost2010Prop52
140
1.0
102
RTVSPost2010PropOp52
 70
     0
102
RTVSPost2010Prop53
 90
        2
102
RTVSPost2010PropOp53
 70
     1
102
RTVSPost2010Prop54
  1
strokes_ogs.tif
102
RTVSPost2010PropOp54
 70
     1
102
RTVSPost2010Prop55
280
     0
102
RTVSPost2010PropOp55
 70
     1
102
RTVSPost2010Prop56
140
1.0
102
RTVSPost2010PropOp56
 70
     1
102
RTVSPost2010Prop57
140
1.0
102
RTVSPost2010PropOp57
 70
     1
  0
XRECORD
  5
96
102
{ACAD_REACTORS
330
95
102
}
330
95
100
AcDbXrecord
280
     1
102
RTVSPropertyOp0
 70
     1
102
RTVSPropertyOp1
 70
     1
102
RTVSPropertyOp2
 70
     1
102
RTVSPropertyOp3
 70
     1
102
RTVSPropertyOp4
 70
     1
102
RTVSPropertyOp5
 70
     1
102
RTVSPropertyOp6
 70
     1
102
RTVSPropertyOp7
 70
     1
102
RTVSPropertyOp8
 70
     1
102
RTVSPropertyOp9
 70
     1
102
RTVSPropertyOp10
 70
     1
102
RTVSPropertyOp11
 70
     1
102
RTVSPropertyOp12
 70
     1
102
RTVSPropertyOp13
 70
     1
102
RTVSPropertyOp14
 70
     1
102
RTVSPropertyOp15
 70
     1
102
RTVSPropertyOp16
 70
     1
102
RTVSPropertyOp17
 70
     1
102
RTVSPropertyOp18
 70
     1
102
RTVSPropertyOp19
 70
     1
102
RTVSPropertyOp20
 70
     1
102
RTVSPropertyOp21
 70
     1
102
RTVSPropertyOp22
 70
     1
102
RTVSPropertyOp23
 70
     1
102
RTVSPropertyOp24
 70
     1
102
RTVSPropertyOp25
 70
     1
102
RTVSPropertyOp26
 70
     1
102
RTVSPropertyOp27
 70
     1
102
RTVSPropertyOp28
 70
     1
102
RTVSPropertyOp29
 70
     1
102
RTVSPropertyOp30
 70
     1
102
RTVSPropertyOp31
 70
     1
102
RTVSPropertyOp32
 70
     1
102
RTVSPropertyOp33
 70
     1
102
RTVSPropertyOp34
 70
     1
102
RTVSPropertyOp35
 70
     1
102
RTVSPropertyOp36
 70
     1
102
RTVSPropertyOp37
 70
     1
102
RTVSPropertyOp38
 70
     1
102
RTVSPropertyOp39
 70
     1
102
RTVSPropertyOp40
 70
     1
102
RTVSPropertyOp41
 70
     1
102
RTVSPropertyOp42
 70
     1
102
RTVSPropertyOp43
 70
     1
102
RTVSPropertyOp44
 70
     1
102
RTVSPropertyOp45
 70
     1
102
RTVSPropertyOp46
 70
     1
102
RTVSPropertyOp47
 70
     1
102
RTVSPropertyOp48
 70
     1
102
RTVSPropertyOp49
 70
     1
102
RTVSPropertyOp50
 70
     1
102
RTVSPropertyOp51
 70
     0
102
RTVSPropertyOp52
 70
     0
102
RTVSPropertyOp53
 70
     1
102
RTVSPropertyOp54
 70
     1
102
RTVSPropertyOp55
 70
     1
102
RTVSPropertyOp56
 70
     1
102
RTVSPropertyOp57
 70
     1
102
RTVSPost2010Prop28
280
     0
102
RTVSPost2010PropOp28
 70
     1
102
RTVSPost2010Prop29
280
     1
102
RTVSPost2010PropOp29
 70
     1
102
RTVSPost2010Prop30
280
     1
102
RTVSPost2010PropOp30
 70
     1
102
RTVSPost2010Prop31
280
     0
102
RTVSPost2010PropOp31
 70
     1
102
RTVSPost2010Prop32
280
     0
102
RTVSPost2010PropOp32
 70
     1
102
RTVSPost2010Prop33
280
     0
102
RTVSPost2010PropOp33
 70
     1
102
RTVSPost2010Prop34
280
     0
102
RTVSPost2010PropOp34
 70
     1
102
RTVSPost2010Prop35
280
     0
102
RTVSPost2010PropOp35
 70
     1
102
RTVSPost2010Prop36
280
     0
102
RTVSPost2010PropOp36
 70
     1
102
RTVSPost2010Prop37
 90
       50
102
RTVSPost2010PropOp37
 70
     1
102
RTVSPost2010Prop38
140
0.0
102
RTVSPost2010PropOp38
 70
     1
102
RTVSPost2010Prop39
140
1.0
102
RTVSPost2010PropOp39
 70
     1
102
RTVSPost2010Prop40
 90
        0
102
RTVSPost2010PropOp40
 70
     1
102
RTVSPost2010Prop41ColorIndex
 90
       18
102
RTVSPost2010Prop41ColorRGB
 90
        0
102
RTVSPost2010PropOp41
 70
     1
102
RTVSPost2010Prop42
 90
       50
102
RTVSPost2010PropOp42
 70
     1
102
RTVSPost2010Prop43
 90
        3
102
RTVSPost2010PropOp43
 70
     1
102
RTVSPost2010Prop44ColorIndex
 90
        5
102
RTVSPost2010Prop44ColorRGB
 90
      255
102
RTVSPost2010PropOp44
 70
     1
102
RTVSPost2010Prop45
280
     0
102
RTVSPost2010PropOp45
 70
     1
102
RTVSPost2010Prop46
 90
       50
102
RTVSPost2010PropOp46
 70
     1
102
RTVSPost2010Prop47
 90
       50
102
RTVSPost2010PropOp47
 70
     1
102
RTVSPost2010Prop48
 90
       50
102
RTVSPost2010PropOp48
 70
     1
102
RTVSPost2010Prop49
280
     0
102
RTVSPost2010PropOp49
 70
     1
102
RTVSPost2010Prop50
 90
       50
102
RTVSPost2010PropOp50
 70
     1
102
RTVSPost2010Prop51ColorIndex
 90
      256
102
RTVSPost2010Prop51ColorRGB
 90
-16777216
102
RTVSPost2010PropOp51
 70
     0
102
RTVSPost2010Prop52
140
1.0
102
RTVSPost2010PropOp52
 70
     0
102
RTVSPost2010Prop53
 90
        2
102
RTVSPost2010PropOp53
 70
     1
102
RTVSPost2010Prop54
  1
strokes_ogs.tif
102
RTVSPost2010PropOp54
 70
     1
102
RTVSPost2010Prop55
280
     0
102
RTVSPost2010PropOp55
 70
     1
102
RTVSPost2010Prop56
140
1.0
102
RTVSPost2010PropOp56
 70
     1
102
RTVSPost2010Prop57
140
1.0
102
RTVSPost2010PropOp57
 70
     1
  0
XRECORD
  5
9E
102
{ACAD_REACTORS
330
9D
102
}
330
9D
100
AcDbXrecord
280
     1
102
RTVSPropertyOp0
 70
     1
102
RTVSPropertyOp1
 70
     1
102
RTVSPropertyOp2
 70
     1
102
RTVSPropertyOp3
 70
     1
102
RTVSPropertyOp4
 70
     1
102
RTVSPropertyOp5
 70
     1
102
RTVSPropertyOp6
 70
     1
102
RTVSPropertyOp7
 70
     1
102
RTVSPropertyOp8
 70
     1
102
RTVSPropertyOp9
 70
     1
102
RTVSPropertyOp10
 70
     1
102
RTVSPropertyOp11
 70
     1
102
RTVSPropertyOp12
 70
     1
102
RTVSPropertyOp13
 70
     1
102
RTVSPropertyOp14
 70
     1
102
RTVSPropertyOp15
 70
     1
102
RTVSPropertyOp16
 70
     1
102
RTVSPropertyOp17
 70
     1
102
RTVSPropertyOp18
 70
     1
102
RTVSPropertyOp19
 70
     1
102
RTVSPropertyOp20
 70
     1
102
RTVSPropertyOp21
 70
     1
102
RTVSPropertyOp22
 70
     1
102
RTVSPropertyOp23
 70
     1
102
RTVSPropertyOp24
 70
     1
102
RTVSPropertyOp25
 70
     1
102
RTVSPropertyOp26
 70
     1
102
RTVSPropertyOp27
 70
     1
102
RTVSPropertyOp28
 70
     1
102
RTVSPropertyOp29
 70
     1
102
RTVSPropertyOp30
 70
     1
102
RTVSPropertyOp31
 70
     1
102
RTVSPropertyOp32
 70
     1
102
RTVSPropertyOp33
 70
     1
102
RTVSPropertyOp34
 70
     1
102
RTVSPropertyOp35
 70
     1
102
RTVSPropertyOp36
 70
     1
102
RTVSPropertyOp37
 70
     1
102
RTVSPropertyOp38
 70
     1
102
RTVSPropertyOp39
 70
     1
102
RTVSPropertyOp40
 70
     1
102
RTVSPropertyOp41
 70
     1
102
RTVSPropertyOp42
 70
     1
102
RTVSPropertyOp43
 70
     1
102
RTVSPropertyOp44
 70
     1
102
RTVSPropertyOp45
 70
     1
102
RTVSPropertyOp46
 70
     1
102
RTVSPropertyOp47
 70
     1
102
RTVSPropertyOp48
 70
     1
102
RTVSPropertyOp49
 70
     1
102
RTVSPropertyOp50
 70
     1
102
RTVSPropertyOp51
 70
     0
102
RTVSPropertyOp52
 70
     0
102
RTVSPropertyOp53
 70
     1
102
RTVSPropertyOp54
 70
     1
102
RTVSPropertyOp55
 70
     1
102
RTVSPropertyOp56
 70
     1
102
RTVSPropertyOp57
 70
     1
102
RTVSPost2010Prop28
280
     0
102
RTVSPost2010PropOp28
 70
     1
102
RTVSPost2010Prop29
280
     1
102
RTVSPost2010PropOp29
 70
     1
102
RTVSPost2010Prop30
280
     1
102
RTVSPost2010PropOp30
 70
     1
102
RTVSPost2010Prop31
280
     0
102
RTVSPost2010PropOp31
 70
     1
102
RTVSPost2010Prop32
280
     0
102
RTVSPost2010PropOp32
 70
     1
102
RTVSPost2010Prop33
280
     0
102
RTVSPost2010PropOp33
 70
     1
102
RTVSPost2010Prop34
280
     0
102
RTVSPost2010PropOp34
 70
     1
102
RTVSPost2010Prop35
280
     0
102
RTVSPost2010PropOp35
 70
     1
102
RTVSPost2010Prop36
280
     0
102
RTVSPost2010PropOp36
 70
     1
102
RTVSPost2010Prop37
 90
       50
102
RTVSPost2010PropOp37
 70
     1
102
RTVSPost2010Prop38
140
0.0
102
RTVSPost2010PropOp38
 70
     1
102
RTVSPost2010Prop39
140
1.0
102
RTVSPost2010PropOp39
 70
     1
102
RTVSPost2010Prop40
 90
        0
102
RTVSPost2010PropOp40
 70
     1
102
RTVSPost2010Prop41ColorIndex
 90
       18
102
RTVSPost2010Prop41ColorRGB
 90
        0
102
RTVSPost2010PropOp41
 70
     1
102
RTVSPost2010Prop42
 90
       50
102
RTVSPost2010PropOp42
 70
     1
102
RTVSPost2010Prop43
 90
        3
102
RTVSPost2010PropOp43
 70
     1
102
RTVSPost2010Prop44ColorIndex
 90
        5
102
RTVSPost2010Prop44ColorRGB
 90
      255
102
RTVSPost2010PropOp44
 70
     1
102
RTVSPost2010Prop45
280
     0
102
RTVSPost2010PropOp45
 70
     1
102
RTVSPost2010Prop46
 90
       50
102
RTVSPost2010PropOp46
 70
     1
102
RTVSPost2010Prop47
 90
       50
102
RTVSPost2010PropOp47
 70
     1
102
RTVSPost2010Prop48
 90
       50
102
RTVSPost2010PropOp48
 70
     1
102
RTVSPost2010Prop49
280
     0
102
RTVSPost2010PropOp49
 70
     1
102
RTVSPost2010Prop50
 90
       50
102
RTVSPost2010PropOp50
 70
     1
102
RTVSPost2010Prop51ColorIndex
 90
      256
102
RTVSPost2010Prop51ColorRGB
 90
-16777216
102
RTVSPost2010PropOp51
 70
     0
102
RTVSPost2010Prop52
140
1.0
102
RTVSPost2010PropOp52
 70
     0
102
RTVSPost2010Prop53
 90
        2
102
RTVSPost2010PropOp53
 70
     1
102
RTVSPost2010Prop54
  1
strokes_ogs.tif
102
RTVSPost2010PropOp54
 70
     1
102
RTVSPost2010Prop55
280
     0
102
RTVSPost2010PropOp55
 70
     1
102
RTVSPost2010Prop56
140
1.0
102
RTVSPost2010PropOp56
 70
     1
102
RTVSPost2010Prop57
140
1.0
102
RTVSPost2010PropOp57
 70
     1
  0
XRECORD
  5
A6
102
{ACAD_REACTORS
330
A5
102
}
330
A5
100
AcDbXrecord
280
     1
102
RTVSPropertyOp0
 70
     1
102
RTVSPropertyOp1
 70
     1
102
RTVSPropertyOp2
 70
     1
102
RTVSPropertyOp3
 70
     1
102
RTVSPropertyOp4
 70
     1
102
RTVSPropertyOp5
 70
     1
102
RTVSPropertyOp6
 70
     1
102
RTVSPropertyOp7
 70
     1
102
RTVSPropertyOp8
 70
     1
102
RTVSPropertyOp9
 70
     1
102
RTVSPropertyOp10
 70
     1
102
RTVSPropertyOp11
 70
     1
102
RTVSPropertyOp12
 70
     1
102
RTVSPropertyOp13
 70
     1
102
RTVSPropertyOp14
 70
     1
102
RTVSPropertyOp15
 70
     1
102
RTVSPropertyOp16
 70
     1
102
RTVSPropertyOp17
 70
     1
102
RTVSPropertyOp18
 70
     1
102
RTVSPropertyOp19
 70
     1
102
RTVSPropertyOp20
 70
     1
102
RTVSPropertyOp21
 70
     1
102
RTVSPropertyOp22
 70
     1
102
RTVSPropertyOp23
 70
     1
102
RTVSPropertyOp24
 70
     1
102
RTVSPropertyOp25
 70
     1
102
RTVSPropertyOp26
 70
     1
102
RTVSPropertyOp27
 70
     1
102
RTVSPropertyOp28
 70
     1
102
RTVSPropertyOp29
 70
     1
102
RTVSPropertyOp30
 70
     1
102
RTVSPropertyOp31
 70
     1
102
RTVSPropertyOp32
 70
     1
102
RTVSPropertyOp33
 70
     1
102
RTVSPropertyOp34
 70
     1
102
RTVSPropertyOp35
 70
     1
102
RTVSPropertyOp36
 70
     1
102
RTVSPropertyOp37
 70
     1
102
RTVSPropertyOp38
 70
     1
102
RTVSPropertyOp39
 70
     1
102
RTVSPropertyOp40
 70
     1
102
RTVSPropertyOp41
 70
     1
102
RTVSPropertyOp42
 70
     1
102
RTVSPropertyOp43
 70
     1
102
RTVSPropertyOp44
 70
     1
102
RTVSPropertyOp45
 70
     1
102
RTVSPropertyOp46
 70
     1
102
RTVSPropertyOp47
 70
     1
102
RTVSPropertyOp48
 70
     1
102
RTVSPropertyOp49
 70
     1
102
RTVSPropertyOp50
 70
     1
102
RTVSPropertyOp51
 70
     0
102
RTVSPropertyOp52
 70
     0
102
RTVSPropertyOp53
 70
     1
102
RTVSPropertyOp54
 70
     1
102
RTVSPropertyOp55
 70
     1
102
RTVSPropertyOp56
 70
     1
102
RTVSPropertyOp57
 70
     1
102
RTVSPost2010Prop28
280
     0
102
RTVSPost2010PropOp28
 70
     1
102
RTVSPost2010Prop29
280
     1
102
RTVSPost2010PropOp29
 70
     1
102
RTVSPost2010Prop30
280
     1
102
RTVSPost2010PropOp30
 70
     1
102
RTVSPost2010Prop31
280
     0
102
RTVSPost2010PropOp31
 70
     1
102
RTVSPost2010Prop32
280
     0
102
RTVSPost2010PropOp32
 70
     1
102
RTVSPost2010Prop33
280
     0
102
RTVSPost2010PropOp33
 70
     1
102
RTVSPost2010Prop34
280
     0
102
RTVSPost2010PropOp34
 70
     1
102
RTVSPost2010Prop35
280
     0
102
RTVSPost2010PropOp35
 70
     1
102
RTVSPost2010Prop36
280
     0
102
RTVSPost2010PropOp36
 70
     1
102
RTVSPost2010Prop37
 90
       50
102
RTVSPost2010PropOp37
 70
     1
102
RTVSPost2010Prop38
140
0.0
102
RTVSPost2010PropOp38
 70
     1
102
RTVSPost2010Prop39
140
1.0
102
RTVSPost2010PropOp39
 70
     1
102
RTVSPost2010Prop40
 90
        0
102
RTVSPost2010PropOp40
 70
     1
102
RTVSPost2010Prop41ColorIndex
 90
       18
102
RTVSPost2010Prop41ColorRGB
 90
        0
102
RTVSPost2010PropOp41
 70
     1
102
RTVSPost2010Prop42
 90
       50
102
RTVSPost2010PropOp42
 70
     1
102
RTVSPost2010Prop43
 90
        3
102
RTVSPost2010PropOp43
 70
     1
102
RTVSPost2010Prop44ColorIndex
 90
        5
102
RTVSPost2010Prop44ColorRGB
 90
      255
102
RTVSPost2010PropOp44
 70
     1
102
RTVSPost2010Prop45
280
     0
102
RTVSPost2010PropOp45
 70
     1
102
RTVSPost2010Prop46
 90
       50
102
RTVSPost2010PropOp46
 70
     1
102
RTVSPost2010Prop47
 90
       50
102
RTVSPost2010PropOp47
 70
     1
102
RTVSPost2010Prop48
 90
       50
102
RTVSPost2010PropOp48
 70
     1
102
RTVSPost2010Prop49
280
     0
102
RTVSPost2010PropOp49
 70
     1
102
RTVSPost2010Prop50
 90
       50
102
RTVSPost2010PropOp50
 70
     1
102
RTVSPost2010Prop51ColorIndex
 90
      256
102
RTVSPost2010Prop51ColorRGB
 90
-16777216
102
RTVSPost2010PropOp51
 70
     0
102
RTVSPost2010Prop52
140
1.0
102
RTVSPost2010PropOp52
 70
     0
102
RTVSPost2010Prop53
 90
        2
102
RTVSPost2010PropOp53
 70
     1
102
RTVSPost2010Prop54
  1
strokes_ogs.tif
102
RTVSPost2010PropOp54
 70
     1
102
RTVSPost2010Prop55
280
     0
102
RTVSPost2010PropOp55
 70
     1
102
RTVSPost2010Prop56
140
1.0
102
RTVSPost2010PropOp56
 70
     1
102
RTVSPost2010Prop57
140
1.0
102
RTVSPost2010PropOp57
 70
     1
  0
XRECORD
  5
9A
102
{ACAD_REACTORS
330
99
102
}
330
99
100
AcDbXrecord
280
     1
102
RTVSPropertyOp0
 70
     1
102
RTVSPropertyOp1
 70
     1
102
RTVSPropertyOp2
 70
     1
102
RTVSPropertyOp3
 70
     1
102
RTVSPropertyOp4
 70
     1
102
RTVSPropertyOp5
 70
     1
102
RTVSPropertyOp6
 70
     1
102
RTVSPropertyOp7
 70
     1
102
RTVSPropertyOp8
 70
     1
102
RTVSPropertyOp9
 70
     1
102
RTVSPropertyOp10
 70
     1
102
RTVSPropertyOp11
 70
     1
102
RTVSPropertyOp12
 70
     1
102
RTVSPropertyOp13
 70
     1
102
RTVSPropertyOp14
 70
     1
102
RTVSPropertyOp15
 70
     1
102
RTVSPropertyOp16
 70
     1
102
RTVSPropertyOp17
 70
     1
102
RTVSPropertyOp18
 70
     1
102
RTVSPropertyOp19
 70
     1
102
RTVSPropertyOp20
 70
     1
102
RTVSPropertyOp21
 70
     1
102
RTVSPropertyOp22
 70
     1
102
RTVSPropertyOp23
 70
     1
102
RTVSPropertyOp24
 70
     1
102
RTVSPropertyOp25
 70
     1
102
RTVSPropertyOp26
 70
     1
102
RTVSPropertyOp27
 70
     1
102
RTVSPropertyOp28
 70
     1
102
RTVSPropertyOp29
 70
     1
102
RTVSPropertyOp30
 70
     1
102
RTVSPropertyOp31
 70
     1
102
RTVSPropertyOp32
 70
     1
102
RTVSPropertyOp33
 70
     1
102
RTVSPropertyOp34
 70
     1
102
RTVSPropertyOp35
 70
     1
102
RTVSPropertyOp36
 70
     1
102
RTVSPropertyOp37
 70
     1
102
RTVSPropertyOp38
 70
     1
102
RTVSPropertyOp39
 70
     1
102
RTVSPropertyOp40
 70
     1
102
RTVSPropertyOp41
 70
     1
102
RTVSPropertyOp42
 70
     1
102
RTVSPropertyOp43
 70
     1
102
RTVSPropertyOp44
 70
     1
102
RTVSPropertyOp45
 70
     1
102
RTVSPropertyOp46
 70
     1
102
RTVSPropertyOp47
 70
     1
102
RTVSPropertyOp48
 70
     1
102
RTVSPropertyOp49
 70
     1
102
RTVSPropertyOp50
 70
     1
102
RTVSPropertyOp51
 70
     0
102
RTVSPropertyOp52
 70
     0
102
RTVSPropertyOp53
 70
     1
102
RTVSPropertyOp54
 70
     1
102
RTVSPropertyOp55
 70
     1
102
RTVSPropertyOp56
 70
     1
102
RTVSPropertyOp57
 70
     1
102
RTVSPost2010Prop28
280
     0
102
RTVSPost2010PropOp28
 70
     1
102
RTVSPost2010Prop29
280
     1
102
RTVSPost2010PropOp29
 70
     1
102
RTVSPost2010Prop30
280
     1
102
RTVSPost2010PropOp30
 70
     1
102
RTVSPost2010Prop31
280
     0
102
RTVSPost2010PropOp31
 70
     1
102
RTVSPost2010Prop32
280
     0
102
RTVSPost2010PropOp32
 70
     1
102
RTVSPost2010Prop33
280
     0
102
RTVSPost2010PropOp33
 70
     1
102
RTVSPost2010Prop34
280
     0
102
RTVSPost2010PropOp34
 70
     1
102
RTVSPost2010Prop35
280
     0
102
RTVSPost2010PropOp35
 70
     1
102
RTVSPost2010Prop36
280
     0
102
RTVSPost2010PropOp36
 70
     1
102
RTVSPost2010Prop37
 90
       50
102
RTVSPost2010PropOp37
 70
     1
102
RTVSPost2010Prop38
140
0.0
102
RTVSPost2010PropOp38
 70
     1
102
RTVSPost2010Prop39
140
1.0
102
RTVSPost2010PropOp39
 70
     1
102
RTVSPost2010Prop40
 90
        0
102
RTVSPost2010PropOp40
 70
     1
102
RTVSPost2010Prop41ColorIndex
 90
       18
102
RTVSPost2010Prop41ColorRGB
 90
        0
102
RTVSPost2010PropOp41
 70
     1
102
RTVSPost2010Prop42
 90
       50
102
RTVSPost2010PropOp42
 70
     1
102
RTVSPost2010Prop43
 90
        3
102
RTVSPost2010PropOp43
 70
     1
102
RTVSPost2010Prop44ColorIndex
 90
        5
102
RTVSPost2010Prop44ColorRGB
 90
      255
102
RTVSPost2010PropOp44
 70
     1
102
RTVSPost2010Prop45
280
     0
102
RTVSPost2010PropOp45
 70
     1
102
RTVSPost2010Prop46
 90
       50
102
RTVSPost2010PropOp46
 70
     1
102
RTVSPost2010Prop47
 90
       50
102
RTVSPost2010PropOp47
 70
     1
102
RTVSPost2010Prop48
 90
       50
102
RTVSPost2010PropOp48
 70
     1
102
RTVSPost2010Prop49
280
     0
102
RTVSPost2010PropOp49
 70
     1
102
RTVSPost2010Prop50
 90
       50
102
RTVSPost2010PropOp50
 70
     1
102
RTVSPost2010Prop51ColorIndex
 90
      256
102
RTVSPost2010Prop51ColorRGB
 90
-16777216
102
RTVSPost2010PropOp51
 70
     0
102
RTVSPost2010Prop52
140
1.0
102
RTVSPost2010PropOp52
 70
     0
102
RTVSPost2010Prop53
 90
        2
102
RTVSPost2010PropOp53
 70
     1
102
RTVSPost2010Prop54
  1
strokes_ogs.tif
102
RTVSPost2010PropOp54
 70
     1
102
RTVSPost2010Prop55
280
     0
102
RTVSPost2010PropOp55
 70
     1
102
RTVSPost2010Prop56
140
1.0
102
RTVSPost2010PropOp56
 70
     1
102
RTVSPost2010Prop57
140
1.0
102
RTVSPost2010PropOp57
 70
     1
  0
XRECORD
  5
9C
102
{ACAD_REACTORS
330
9B
102
}
330
9B
100
AcDbXrecord
280
     1
102
RTVSPropertyOp0
 70
     1
102
RTVSPropertyOp1
 70
     1
102
RTVSPropertyOp2
 70
     1
102
RTVSPropertyOp3
 70
     1
102
RTVSPropertyOp4
 70
     1
102
RTVSPropertyOp5
 70
     1
102
RTVSPropertyOp6
 70
     1
102
RTVSPropertyOp7
 70
     1
102
RTVSPropertyOp8
 70
     1
102
RTVSPropertyOp9
 70
     1
102
RTVSPropertyOp10
 70
     1
102
RTVSPropertyOp11
 70
     1
102
RTVSPropertyOp12
 70
     1
102
RTVSPropertyOp13
 70
     1
102
RTVSPropertyOp14
 70
     1
102
RTVSPropertyOp15
 70
     1
102
RTVSPropertyOp16
 70
     1
102
RTVSPropertyOp17
 70
     1
102
RTVSPropertyOp18
 70
     1
102
RTVSPropertyOp19
 70
     1
102
RTVSPropertyOp20
 70
     1
102
RTVSPropertyOp21
 70
     1
102
RTVSPropertyOp22
 70
     1
102
RTVSPropertyOp23
 70
     1
102
RTVSPropertyOp24
 70
     1
102
RTVSPropertyOp25
 70
     1
102
RTVSPropertyOp26
 70
     1
102
RTVSPropertyOp27
 70
     1
102
RTVSPropertyOp28
 70
     1
102
RTVSPropertyOp29
 70
     1
102
RTVSPropertyOp30
 70
     1
102
RTVSPropertyOp31
 70
     1
102
RTVSPropertyOp32
 70
     1
102
RTVSPropertyOp33
 70
     1
102
RTVSPropertyOp34
 70
     1
102
RTVSPropertyOp35
 70
     1
102
RTVSPropertyOp36
 70
     1
102
RTVSPropertyOp37
 70
     1
102
RTVSPropertyOp38
 70
     1
102
RTVSPropertyOp39
 70
     1
102
RTVSPropertyOp40
 70
     1
102
RTVSPropertyOp41
 70
     1
102
RTVSPropertyOp42
 70
     1
102
RTVSPropertyOp43
 70
     1
102
RTVSPropertyOp44
 70
     1
102
RTVSPropertyOp45
 70
     1
102
RTVSPropertyOp46
 70
     1
102
RTVSPropertyOp47
 70
     1
102
RTVSPropertyOp48
 70
     1
102
RTVSPropertyOp49
 70
     1
102
RTVSPropertyOp50
 70
     1
102
RTVSPropertyOp51
 70
     0
102
RTVSPropertyOp52
 70
     0
102
RTVSPropertyOp53
 70
     1
102
RTVSPropertyOp54
 70
     1
102
RTVSPropertyOp55
 70
     1
102
RTVSPropertyOp56
 70
     1
102
RTVSPropertyOp57
 70
     1
102
RTVSPost2010Prop28
280
     0
102
RTVSPost2010PropOp28
 70
     1
102
RTVSPost2010Prop29
280
     1
102
RTVSPost2010PropOp29
 70
     1
102
RTVSPost2010Prop30
280
     1
102
RTVSPost2010PropOp30
 70
     1
102
RTVSPost2010Prop31
280
     0
102
RTVSPost2010PropOp31
 70
     1
102
RTVSPost2010Prop32
280
     0
102
RTVSPost2010PropOp32
 70
     1
102
RTVSPost2010Prop33
280
     0
102
RTVSPost2010PropOp33
 70
     1
102
RTVSPost2010Prop34
280
     0
102
RTVSPost2010PropOp34
 70
     1
102
RTVSPost2010Prop35
280
     0
102
RTVSPost2010PropOp35
 70
     1
102
RTVSPost2010Prop36
280
     0
102
RTVSPost2010PropOp36
 70
     1
102
RTVSPost2010Prop37
 90
       50
102
RTVSPost2010PropOp37
 70
     1
102
RTVSPost2010Prop38
140
0.0
102
RTVSPost2010PropOp38
 70
     1
102
RTVSPost2010Prop39
140
1.0
102
RTVSPost2010PropOp39
 70
     1
102
RTVSPost2010Prop40
 90
        0
102
RTVSPost2010PropOp40
 70
     1
102
RTVSPost2010Prop41ColorIndex
 90
       18
102
RTVSPost2010Prop41ColorRGB
 90
        0
102
RTVSPost2010PropOp41
 70
     1
102
RTVSPost2010Prop42
 90
       50
102
RTVSPost2010PropOp42
 70
     1
102
RTVSPost2010Prop43
 90
        3
102
RTVSPost2010PropOp43
 70
     1
102
RTVSPost2010Prop44ColorIndex
 90
        5
102
RTVSPost2010Prop44ColorRGB
 90
      255
102
RTVSPost2010PropOp44
 70
     1
102
RTVSPost2010Prop45
280
     0
102
RTVSPost2010PropOp45
 70
     1
102
RTVSPost2010Prop46
 90
       50
102
RTVSPost2010PropOp46
 70
     1
102
RTVSPost2010Prop47
 90
       50
102
RTVSPost2010PropOp47
 70
     1
102
RTVSPost2010Prop48
 90
       50
102
RTVSPost2010PropOp48
 70
     1
102
RTVSPost2010Prop49
280
     0
102
RTVSPost2010PropOp49
 70
     1
102
RTVSPost2010Prop50
 90
       50
102
RTVSPost2010PropOp50
 70
     1
102
RTVSPost2010Prop51ColorIndex
 90
      256
102
RTVSPost2010Prop51ColorRGB
 90
-16777216
102
RTVSPost2010PropOp51
 70
     0
102
RTVSPost2010Prop52
140
1.0
102
RTVSPost2010PropOp52
 70
     0
102
RTVSPost2010Prop53
 90
        2
102
RTVSPost2010PropOp53
 70
     1
102
RTVSPost2010Prop54
  1
strokes_ogs.tif
102
RTVSPost2010PropOp54
 70
     1
102
RTVSPost2010Prop55
280
     0
102
RTVSPost2010PropOp55
 70
     1
102
RTVSPost2010Prop56
140
1.0
102
RTVSPost2010PropOp56
 70
     1
102
RTVSPost2010Prop57
140
1.0
102
RTVSPost2010PropOp57
 70
     1
  0
XRECORD
  5
AC
102
{ACAD_REACTORS
330
AB
102
}
330
AB
100
AcDbXrecord
280
     1
102
RTVSPropertyOp0
 70
     0
102
RTVSPropertyOp1
 70
     0
102
RTVSPropertyOp2
 70
     0
102
RTVSPropertyOp3
 70
     0
102
RTVSPropertyOp4
 70
     0
102
RTVSPropertyOp5
 70
     0
102
RTVSPropertyOp6
 70
     0
102
RTVSPropertyOp7
 70
     0
102
RTVSPropertyOp8
 70
     0
102
RTVSPropertyOp9
 70
     0
102
RTVSPropertyOp10
 70
     0
102
RTVSPropertyOp11
 70
     0
102
RTVSPropertyOp12
 70
     0
102
RTVSPropertyOp13
 70
     0
102
RTVSPropertyOp14
 70
     2
102
RTVSPropertyOp15
 70
     0
102
RTVSPropertyOp16
 70
     0
102
RTVSPropertyOp17
 70
     0
102
RTVSPropertyOp18
 70
     0
102
RTVSPropertyOp19
 70
     0
102
RTVSPropertyOp20
 70
     0
102
RTVSPropertyOp21
 70
     0
102
RTVSPropertyOp22
 70
     0
102
RTVSPropertyOp23
 70
     0
102
RTVSPropertyOp24
 70
     0
102
RTVSPropertyOp25
 70
     0
102
RTVSPropertyOp26
 70
     0
102
RTVSPropertyOp27
 70
     0
102
RTVSPropertyOp28
 70
     0
102
RTVSPropertyOp29
 70
     0
102
RTVSPropertyOp30
 70
     0
102
RTVSPropertyOp31
 70
     0
102
RTVSPropertyOp32
 70
     0
102
RTVSPropertyOp33
 70
     0
102
RTVSPropertyOp34
 70
     0
102
RTVSPropertyOp35
 70
     0
102
RTVSPropertyOp36
 70
     0
102
RTVSPropertyOp37
 70
     0
102
RTVSPropertyOp38
 70
     0
102
RTVSPropertyOp39
 70
     0
102
RTVSPropertyOp40
 70
     0
102
RTVSPropertyOp41
 70
     0
102
RTVSPropertyOp42
 70
     0
102
RTVSPropertyOp43
 70
     0
102
RTVSPropertyOp44
 70
     0
102
RTVSPropertyOp45
 70
     0
102
RTVSPropertyOp46
 70
     0
102
RTVSPropertyOp47
 70
     0
102
RTVSPropertyOp48
 70
     0
102
RTVSPropertyOp49
 70
     0
102
RTVSPropertyOp50
 70
     0
102
RTVSPropertyOp51
 70
     0
102
RTVSPropertyOp52
 70
     0
102
RTVSPropertyOp53
 70
     0
102
RTVSPropertyOp54
 70
     0
102
RTVSPropertyOp55
 70
     0
102
RTVSPropertyOp56
 70
     0
102
RTVSPropertyOp57
 70
     0
102
RTVSPost2010Prop28
280
     0
102
RTVSPost2010PropOp28
 70
     0
102
RTVSPost2010Prop29
280
     1
102
RTVSPost2010PropOp29
 70
     0
102
RTVSPost2010Prop30
280
     1
102
RTVSPost2010PropOp30
 70
     0
102
RTVSPost2010Prop31
280
     0
102
RTVSPost2010PropOp31
 70
     0
102
RTVSPost2010Prop32
280
     0
102
RTVSPost2010PropOp32
 70
     0
102
RTVSPost2010Prop33
280
     0
102
RTVSPost2010PropOp33
 70
     0
102
RTVSPost2010Prop34
280
     0
102
RTVSPost2010PropOp34
 70
     0
102
RTVSPost2010Prop35
280
     0
102
RTVSPost2010PropOp35
 70
     0
102
RTVSPost2010Prop36
280
     0
102
RTVSPost2010PropOp36
 70
     0
102
RTVSPost2010Prop37
 90
       50
102
RTVSPost2010PropOp37
 70
     0
102
RTVSPost2010Prop38
140
0.0
102
RTVSPost2010PropOp38
 70
     0
102
RTVSPost2010Prop39
140
1.0
102
RTVSPost2010PropOp39
 70
     0
102
RTVSPost2010Prop40
 90
        0
102
RTVSPost2010PropOp40
 70
     0
102
RTVSPost2010Prop41ColorIndex
 90
       18
102
RTVSPost2010Prop41ColorRGB
 90
        0
102
RTVSPost2010PropOp41
 70
     0
102
RTVSPost2010Prop42
 90
       50
102
RTVSPost2010PropOp42
 70
     0
102
RTVSPost2010Prop43
 90
        3
102
RTVSPost2010PropOp43
 70
     0
102
RTVSPost2010Prop44ColorIndex
 90
        5
102
RTVSPost2010Prop44ColorRGB
 90
      255
102
RTVSPost2010PropOp44
 70
     0
102
RTVSPost2010Prop45
280
     0
102
RTVSPost2010PropOp45
 70
     0
102
RTVSPost2010Prop46
 90
       50
102
RTVSPost2010PropOp46
 70
     0
102
RTVSPost2010Prop47
 90
       50
102
RTVSPost2010PropOp47
 70
     0
102
RTVSPost2010Prop48
 90
       50
102
RTVSPost2010PropOp48
 70
     0
102
RTVSPost2010Prop49
280
     0
102
RTVSPost2010PropOp49
 70
     0
102
RTVSPost2010Prop50
 90
       50
102
RTVSPost2010PropOp50
 70
     0
102
RTVSPost2010Prop51ColorIndex
 90
      256
102
RTVSPost2010Prop51ColorRGB
 90
-16777216
102
RTVSPost2010PropOp51
 70
     0
102
RTVSPost2010Prop52
140
1.0
102
RTVSPost2010PropOp52
 70
     0
102
RTVSPost2010Prop53
 90
        2
102
RTVSPost2010PropOp53
 70
     0
102
RTVSPost2010Prop54
  1
strokes_ogs.tif
102
RTVSPost2010PropOp54
 70
     0
102
RTVSPost2010Prop55
280
     0
102
RTVSPost2010PropOp55
 70
     0
102
RTVSPost2010Prop56
140
1.0
102
RTVSPost2010PropOp56
 70
     0
102
RTVSPost2010Prop57
140
1.0
102
RTVSPost2010PropOp57
 70
     0
  0
XRECORD
  5
A4
102
{ACAD_REACTORS
330
A3
102
}
330
A3
100
AcDbXrecord
280
     1
102
RTVSPropertyOp0
 70
     1
102
RTVSPropertyOp1
 70
     1
102
RTVSPropertyOp2
 70
     1
102
RTVSPropertyOp3
 70
     1
102
RTVSPropertyOp4
 70
     1
102
RTVSPropertyOp5
 70
     1
102
RTVSPropertyOp6
 70
     1
102
RTVSPropertyOp7
 70
     1
102
RTVSPropertyOp8
 70
     1
102
RTVSPropertyOp9
 70
     1
102
RTVSPropertyOp10
 70
     1
102
RTVSPropertyOp11
 70
     1
102
RTVSPropertyOp12
 70
     1
102
RTVSPropertyOp13
 70
     1
102
RTVSPropertyOp14
 70
     1
102
RTVSPropertyOp15
 70
     1
102
RTVSPropertyOp16
 70
     1
102
RTVSPropertyOp17
 70
     1
102
RTVSPropertyOp18
 70
     1
102
RTVSPropertyOp19
 70
     1
102
RTVSPropertyOp20
 70
     1
102
RTVSPropertyOp21
 70
     1
102
RTVSPropertyOp22
 70
     1
102
RTVSPropertyOp23
 70
     1
102
RTVSPropertyOp24
 70
     1
102
RTVSPropertyOp25
 70
     1
102
RTVSPropertyOp26
 70
     1
102
RTVSPropertyOp27
 70
     1
102
RTVSPropertyOp28
 70
     1
102
RTVSPropertyOp29
 70
     1
102
RTVSPropertyOp30
 70
     1
102
RTVSPropertyOp31
 70
     1
102
RTVSPropertyOp32
 70
     1
102
RTVSPropertyOp33
 70
     1
102
RTVSPropertyOp34
 70
     1
102
RTVSPropertyOp35
 70
     1
102
RTVSPropertyOp36
 70
     1
102
RTVSPropertyOp37
 70
     1
102
RTVSPropertyOp38
 70
     1
102
RTVSPropertyOp39
 70
     1
102
RTVSPropertyOp40
 70
     1
102
RTVSPropertyOp41
 70
     1
102
RTVSPropertyOp42
 70
     1
102
RTVSPropertyOp43
 70
     1
102
RTVSPropertyOp44
 70
     1
102
RTVSPropertyOp45
 70
     1
102
RTVSPropertyOp46
 70
     1
102
RTVSPropertyOp47
 70
     1
102
RTVSPropertyOp48
 70
     1
102
RTVSPropertyOp49
 70
     1
102
RTVSPropertyOp50
 70
     1
102
RTVSPropertyOp51
 70
     0
102
RTVSPropertyOp52
 70
     0
102
RTVSPropertyOp53
 70
     1
102
RTVSPropertyOp54
 70
     1
102
RTVSPropertyOp55
 70
     1
102
RTVSPropertyOp56
 70
     1
102
RTVSPropertyOp57
 70
     1
102
RTVSPost2010Prop28
280
     0
102
RTVSPost2010PropOp28
 70
     1
102
RTVSPost2010Prop29
280
     1
102
RTVSPost2010PropOp29
 70
     1
102
RTVSPost2010Prop30
280
     1
102
RTVSPost2010PropOp30
 70
     1
102
RTVSPost2010Prop31
280
     0
102
RTVSPost2010PropOp31
 70
     1
102
RTVSPost2010Prop32
280
     0
102
RTVSPost2010PropOp32
 70
     1
102
RTVSPost2010Prop33
280
     0
102
RTVSPost2010PropOp33
 70
     1
102
RTVSPost2010Prop34
280
     0
102
RTVSPost2010PropOp34
 70
     1
102
RTVSPost2010Prop35
280
     0
102
RTVSPost2010PropOp35
 70
     1
102
RTVSPost2010Prop36
280
     0
102
RTVSPost2010PropOp36
 70
     1
102
RTVSPost2010Prop37
 90
       50
102
RTVSPost2010PropOp37
 70
     1
102
RTVSPost2010Prop38
140
0.0
102
RTVSPost2010PropOp38
 70
     1
102
RTVSPost2010Prop39
140
1.0
102
RTVSPost2010PropOp39
 70
     1
102
RTVSPost2010Prop40
 90
        0
102
RTVSPost2010PropOp40
 70
     1
102
RTVSPost2010Prop41ColorIndex
 90
       18
102
RTVSPost2010Prop41ColorRGB
 90
        0
102
RTVSPost2010PropOp41
 70
     1
102
RTVSPost2010Prop42
 90
       50
102
RTVSPost2010PropOp42
 70
     1
102
RTVSPost2010Prop43
 90
        3
102
RTVSPost2010PropOp43
 70
     1
102
RTVSPost2010Prop44ColorIndex
 90
        5
102
RTVSPost2010Prop44ColorRGB
 90
      255
102
RTVSPost2010PropOp44
 70
     1
102
RTVSPost2010Prop45
280
     0
102
RTVSPost2010PropOp45
 70
     1
102
RTVSPost2010Prop46
 90
       50
102
RTVSPost2010PropOp46
 70
     1
102
RTVSPost2010Prop47
 90
       50
102
RTVSPost2010PropOp47
 70
     1
102
RTVSPost2010Prop48
 90
       50
102
RTVSPost2010PropOp48
 70
     1
102
RTVSPost2010Prop49
280
     0
102
RTVSPost2010PropOp49
 70
     1
102
RTVSPost2010Prop50
 90
       50
102
RTVSPost2010PropOp50
 70
     1
102
RTVSPost2010Prop51ColorIndex
 90
      256
102
RTVSPost2010Prop51ColorRGB
 90
-16777216
102
RTVSPost2010PropOp51
 70
     0
102
RTVSPost2010Prop52
140
1.0
102
RTVSPost2010PropOp52
 70
     0
102
RTVSPost2010Prop53
 90
        2
102
RTVSPost2010PropOp53
 70
     1
102
RTVSPost2010Prop54
  1
strokes_ogs.tif
102
RTVSPost2010PropOp54
 70
     1
102
RTVSPost2010Prop55
280
     0
102
RTVSPost2010PropOp55
 70
     1
102
RTVSPost2010Prop56
140
1.0
102
RTVSPost2010PropOp56
 70
     1
102
RTVSPost2010Prop57
140
1.0
102
RTVSPost2010PropOp57
 70
     1
  0
XRECORD
  5
88
102
{ACAD_REACTORS
330
87
102
}
330
87
100
AcDbXrecord
280
     1
102
RTVSPropertyOp0
 70
     1
102
RTVSPropertyOp1
 70
     1
102
RTVSPropertyOp2
 70
     1
102
RTVSPropertyOp3
 70
     1
102
RTVSPropertyOp4
 70
     1
102
RTVSPropertyOp5
 70
     1
102
RTVSPropertyOp6
 70
     1
102
RTVSPropertyOp7
 70
     1
102
RTVSPropertyOp8
 70
     1
102
RTVSPropertyOp9
 70
     1
102
RTVSPropertyOp10
 70
     1
102
RTVSPropertyOp11
 70
     1
102
RTVSPropertyOp12
 70
     1
102
RTVSPropertyOp13
 70
     1
102
RTVSPropertyOp14
 70
     1
102
RTVSPropertyOp15
 70
     1
102
RTVSPropertyOp16
 70
     1
102
RTVSPropertyOp17
 70
     1
102
RTVSPropertyOp18
 70
     1
102
RTVSPropertyOp19
 70
     1
102
RTVSPropertyOp20
 70
     1
102
RTVSPropertyOp21
 70
     1
102
RTVSPropertyOp22
 70
     1
102
RTVSPropertyOp23
 70
     1
102
RTVSPropertyOp24
 70
     1
102
RTVSPropertyOp25
 70
     1
102
RTVSPropertyOp26
 70
     1
102
RTVSPropertyOp27
 70
     1
102
RTVSPropertyOp28
 70
     1
102
RTVSPropertyOp29
 70
     1
102
RTVSPropertyOp30
 70
     1
102
RTVSPropertyOp31
 70
     1
102
RTVSPropertyOp32
 70
     1
102
RTVSPropertyOp33
 70
     1
102
RTVSPropertyOp34
 70
     1
102
RTVSPropertyOp35
 70
     1
102
RTVSPropertyOp36
 70
     1
102
RTVSPropertyOp37
 70
     1
102
RTVSPropertyOp38
 70
     1
102
RTVSPropertyOp39
 70
     1
102
RTVSPropertyOp40
 70
     1
102
RTVSPropertyOp41
 70
     1
102
RTVSPropertyOp42
 70
     1
102
RTVSPropertyOp43
 70
     1
102
RTVSPropertyOp44
 70
     1
102
RTVSPropertyOp45
 70
     1
102
RTVSPropertyOp46
 70
     1
102
RTVSPropertyOp47
 70
     1
102
RTVSPropertyOp48
 70
     1
102
RTVSPropertyOp49
 70
     1
102
RTVSPropertyOp50
 70
     1
102
RTVSPropertyOp51
 70
     0
102
RTVSPropertyOp52
 70
     0
102
RTVSPropertyOp53
 70
     1
102
RTVSPropertyOp54
 70
     1
102
RTVSPropertyOp55
 70
     1
102
RTVSPropertyOp56
 70
     1
102
RTVSPropertyOp57
 70
     1
102
RTVSPost2010Prop28
280
     0
102
RTVSPost2010PropOp28
 70
     1
102
RTVSPost2010Prop29
280
     1
102
RTVSPost2010PropOp29
 70
     1
102
RTVSPost2010Prop30
280
     1
102
RTVSPost2010PropOp30
 70
     1
102
RTVSPost2010Prop31
280
     0
102
RTVSPost2010PropOp31
 70
     1
102
RTVSPost2010Prop32
280
     0
102
RTVSPost2010PropOp32
 70
     1
102
RTVSPost2010Prop33
280
     0
102
RTVSPost2010PropOp33
 70
     1
102
RTVSPost2010Prop34
280
     0
102
RTVSPost2010PropOp34
 70
     1
102
RTVSPost2010Prop35
280
     0
102
RTVSPost2010PropOp35
 70
     1
102
RTVSPost2010Prop36
280
     0
102
RTVSPost2010PropOp36
 70
     1
102
RTVSPost2010Prop37
 90
       50
102
RTVSPost2010PropOp37
 70
     1
102
RTVSPost2010Prop38
140
0.0
102
RTVSPost2010PropOp38
 70
     1
102
RTVSPost2010Prop39
140
1.0
102
RTVSPost2010PropOp39
 70
     1
102
RTVSPost2010Prop40
 90
        0
102
RTVSPost2010PropOp40
 70
     1
102
RTVSPost2010Prop41ColorIndex
 90
       18
102
RTVSPost2010Prop41ColorRGB
 90
        0
102
RTVSPost2010PropOp41
 70
     1
102
RTVSPost2010Prop42
 90
       50
102
RTVSPost2010PropOp42
 70
     1
102
RTVSPost2010Prop43
 90
        3
102
RTVSPost2010PropOp43
 70
     1
102
RTVSPost2010Prop44ColorIndex
 90
        5
102
RTVSPost2010Prop44ColorRGB
 90
      255
102
RTVSPost2010PropOp44
 70
     1
102
RTVSPost2010Prop45
280
     0
102
RTVSPost2010PropOp45
 70
     1
102
RTVSPost2010Prop46
 90
       50
102
RTVSPost2010PropOp46
 70
     1
102
RTVSPost2010Prop47
 90
       50
102
RTVSPost2010PropOp47
 70
     1
102
RTVSPost2010Prop48
 90
       50
102
RTVSPost2010PropOp48
 70
     1
102
RTVSPost2010Prop49
280
     0
102
RTVSPost2010PropOp49
 70
     1
102
RTVSPost2010Prop50
 90
       50
102
RTVSPost2010PropOp50
 70
     1
102
RTVSPost2010Prop51ColorIndex
 90
      256
102
RTVSPost2010Prop51ColorRGB
 90
-16777216
102
RTVSPost2010PropOp51
 70
     0
102
RTVSPost2010Prop52
140
1.0
102
RTVSPost2010PropOp52
 70
     0
102
RTVSPost2010Prop53
 90
        2
102
RTVSPost2010PropOp53
 70
     1
102
RTVSPost2010Prop54
  1
strokes_ogs.tif
102
RTVSPost2010PropOp54
 70
     1
102
RTVSPost2010Prop55
280
     0
102
RTVSPost2010PropOp55
 70
     1
102
RTVSPost2010Prop56
140
1.0
102
RTVSPost2010PropOp56
 70
     1
102
RTVSPost2010Prop57
140
1.0
102
RTVSPost2010PropOp57
 70
     1
  0
XRECORD
  5
8A
102
{ACAD_REACTORS
330
89
102
}
330
89
100
AcDbXrecord
280
     1
102
RTVSPropertyOp0
 70
     1
102
RTVSPropertyOp1
 70
     1
102
RTVSPropertyOp2
 70
     1
102
RTVSPropertyOp3
 70
     1
102
RTVSPropertyOp4
 70
     1
102
RTVSPropertyOp5
 70
     1
102
RTVSPropertyOp6
 70
     1
102
RTVSPropertyOp7
 70
     1
102
RTVSPropertyOp8
 70
     1
102
RTVSPropertyOp9
 70
     1
102
RTVSPropertyOp10
 70
     1
102
RTVSPropertyOp11
 70
     1
102
RTVSPropertyOp12
 70
     1
102
RTVSPropertyOp13
 70
     1
102
RTVSPropertyOp14
 70
     1
102
RTVSPropertyOp15
 70
     1
102
RTVSPropertyOp16
 70
     1
102
RTVSPropertyOp17
 70
     1
102
RTVSPropertyOp18
 70
     1
102
RTVSPropertyOp19
 70
     1
102
RTVSPropertyOp20
 70
     1
102
RTVSPropertyOp21
 70
     1
102
RTVSPropertyOp22
 70
     1
102
RTVSPropertyOp23
 70
     1
102
RTVSPropertyOp24
 70
     1
102
RTVSPropertyOp25
 70
     1
102
RTVSPropertyOp26
 70
     1
102
RTVSPropertyOp27
 70
     1
102
RTVSPropertyOp28
 70
     1
102
RTVSPropertyOp29
 70
     1
102
RTVSPropertyOp30
 70
     1
102
RTVSPropertyOp31
 70
     1
102
RTVSPropertyOp32
 70
     1
102
RTVSPropertyOp33
 70
     1
102
RTVSPropertyOp34
 70
     1
102
RTVSPropertyOp35
 70
     1
102
RTVSPropertyOp36
 70
     1
102
RTVSPropertyOp37
 70
     1
102
RTVSPropertyOp38
 70
     1
102
RTVSPropertyOp39
 70
     1
102
RTVSPropertyOp40
 70
     1
102
RTVSPropertyOp41
 70
     1
102
RTVSPropertyOp42
 70
     1
102
RTVSPropertyOp43
 70
     1
102
RTVSPropertyOp44
 70
     1
102
RTVSPropertyOp45
 70
     1
102
RTVSPropertyOp46
 70
     1
102
RTVSPropertyOp47
 70
     1
102
RTVSPropertyOp48
 70
     1
102
RTVSPropertyOp49
 70
     1
102
RTVSPropertyOp50
 70
     1
102
RTVSPropertyOp51
 70
     0
102
RTVSPropertyOp52
 70
     0
102
RTVSPropertyOp53
 70
     1
102
RTVSPropertyOp54
 70
     1
102
RTVSPropertyOp55
 70
     1
102
RTVSPropertyOp56
 70
     1
102
RTVSPropertyOp57
 70
     1
102
RTVSPost2010Prop28
280
     0
102
RTVSPost2010PropOp28
 70
     1
102
RTVSPost2010Prop29
280
     1
102
RTVSPost2010PropOp29
 70
     1
102
RTVSPost2010Prop30
280
     1
102
RTVSPost2010PropOp30
 70
     1
102
RTVSPost2010Prop31
280
     0
102
RTVSPost2010PropOp31
 70
     1
102
RTVSPost2010Prop32
280
     0
102
RTVSPost2010PropOp32
 70
     1
102
RTVSPost2010Prop33
280
     0
102
RTVSPost2010PropOp33
 70
     1
102
RTVSPost2010Prop34
280
     0
102
RTVSPost2010PropOp34
 70
     1
102
RTVSPost2010Prop35
280
     0
102
RTVSPost2010PropOp35
 70
     1
102
RTVSPost2010Prop36
280
     0
102
RTVSPost2010PropOp36
 70
     1
102
RTVSPost2010Prop37
 90
       50
102
RTVSPost2010PropOp37
 70
     1
102
RTVSPost2010Prop38
140
0.0
102
RTVSPost2010PropOp38
 70
     1
102
RTVSPost2010Prop39
140
1.0
102
RTVSPost2010PropOp39
 70
     1
102
RTVSPost2010Prop40
 90
        0
102
RTVSPost2010PropOp40
 70
     1
102
RTVSPost2010Prop41ColorIndex
 90
       18
102
RTVSPost2010Prop41ColorRGB
 90
        0
102
RTVSPost2010PropOp41
 70
     1
102
RTVSPost2010Prop42
 90
       50
102
RTVSPost2010PropOp42
 70
     1
102
RTVSPost2010Prop43
 90
        3
102
RTVSPost2010PropOp43
 70
     1
102
RTVSPost2010Prop44ColorIndex
 90
        5
102
RTVSPost2010Prop44ColorRGB
 90
      255
102
RTVSPost2010PropOp44
 70
     1
102
RTVSPost2010Prop45
280
     0
102
RTVSPost2010PropOp45
 70
     1
102
RTVSPost2010Prop46
 90
       50
102
RTVSPost2010PropOp46
 70
     1
102
RTVSPost2010Prop47
 90
       50
102
RTVSPost2010PropOp47
 70
     1
102
RTVSPost2010Prop48
 90
       50
102
RTVSPost2010PropOp48
 70
     1
102
RTVSPost2010Prop49
280
     0
102
RTVSPost2010PropOp49
 70
     1
102
RTVSPost2010Prop50
 90
       50
102
RTVSPost2010PropOp50
 70
     1
102
RTVSPost2010Prop51ColorIndex
 90
      256
102
RTVSPost2010Prop51ColorRGB
 90
-16777216
102
RTVSPost2010PropOp51
 70
     0
102
RTVSPost2010Prop52
140
1.0
102
RTVSPost2010PropOp52
 70
     0
102
RTVSPost2010Prop53
 90
        2
102
RTVSPost2010PropOp53
 70
     1
102
RTVSPost2010Prop54
  1
strokes_ogs.tif
102
RTVSPost2010PropOp54
 70
     1
102
RTVSPost2010Prop55
280
     0
102
RTVSPost2010PropOp55
 70
     1
102
RTVSPost2010Prop56
140
1.0
102
RTVSPost2010PropOp56
 70
     1
102
RTVSPost2010Prop57
140
1.0
102
RTVSPost2010PropOp57
 70
     1
  0
XRECORD
  5
8C
102
{ACAD_REACTORS
330
8B
102
}
330
8B
100
AcDbXrecord
280
     1
102
RTVSPropertyOp0
 70
     1
102
RTVSPropertyOp1
 70
     1
102
RTVSPropertyOp2
 70
     1
102
RTVSPropertyOp3
 70
     1
102
RTVSPropertyOp4
 70
     1
102
RTVSPropertyOp5
 70
     1
102
RTVSPropertyOp6
 70
     1
102
RTVSPropertyOp7
 70
     1
102
RTVSPropertyOp8
 70
     1
102
RTVSPropertyOp9
 70
     1
102
RTVSPropertyOp10
 70
     1
102
RTVSPropertyOp11
 70
     1
102
RTVSPropertyOp12
 70
     1
102
RTVSPropertyOp13
 70
     1
102
RTVSPropertyOp14
 70
     1
102
RTVSPropertyOp15
 70
     1
102
RTVSPropertyOp16
 70
     1
102
RTVSPropertyOp17
 70
     1
102
RTVSPropertyOp18
 70
     1
102
RTVSPropertyOp19
 70
     1
102
RTVSPropertyOp20
 70
     1
102
RTVSPropertyOp21
 70
     1
102
RTVSPropertyOp22
 70
     1
102
RTVSPropertyOp23
 70
     1
102
RTVSPropertyOp24
 70
     1
102
RTVSPropertyOp25
 70
     1
102
RTVSPropertyOp26
 70
     1
102
RTVSPropertyOp27
 70
     1
102
RTVSPropertyOp28
 70
     1
102
RTVSPropertyOp29
 70
     1
102
RTVSPropertyOp30
 70
     1
102
RTVSPropertyOp31
 70
     1
102
RTVSPropertyOp32
 70
     1
102
RTVSPropertyOp33
 70
     1
102
RTVSPropertyOp34
 70
     1
102
RTVSPropertyOp35
 70
     1
102
RTVSPropertyOp36
 70
     1
102
RTVSPropertyOp37
 70
     1
102
RTVSPropertyOp38
 70
     1
102
RTVSPropertyOp39
 70
     1
102
RTVSPropertyOp40
 70
     1
102
RTVSPropertyOp41
 70
     1
102
RTVSPropertyOp42
 70
     1
102
RTVSPropertyOp43
 70
     1
102
RTVSPropertyOp44
 70
     1
102
RTVSPropertyOp45
 70
     1
102
RTVSPropertyOp46
 70
     1
102
RTVSPropertyOp47
 70
     1
102
RTVSPropertyOp48
 70
     1
102
RTVSPropertyOp49
 70
     1
102
RTVSPropertyOp50
 70
     1
102
RTVSPropertyOp51
 70
     0
102
RTVSPropertyOp52
 70
     0
102
RTVSPropertyOp53
 70
     1
102
RTVSPropertyOp54
 70
     1
102
RTVSPropertyOp55
 70
     1
102
RTVSPropertyOp56
 70
     1
102
RTVSPropertyOp57
 70
     1
102
RTVSPost2010Prop28
280
     0
102
RTVSPost2010PropOp28
 70
     1
102
RTVSPost2010Prop29
280
     1
102
RTVSPost2010PropOp29
 70
     1
102
RTVSPost2010Prop30
280
     1
102
RTVSPost2010PropOp30
 70
     1
102
RTVSPost2010Prop31
280
     0
102
RTVSPost2010PropOp31
 70
     1
102
RTVSPost2010Prop32
280
     0
102
RTVSPost2010PropOp32
 70
     1
102
RTVSPost2010Prop33
280
     0
102
RTVSPost2010PropOp33
 70
     1
102
RTVSPost2010Prop34
280
     0
102
RTVSPost2010PropOp34
 70
     1
102
RTVSPost2010Prop35
280
     0
102
RTVSPost2010PropOp35
 70
     1
102
RTVSPost2010Prop36
280
     0
102
RTVSPost2010PropOp36
 70
     1
102
RTVSPost2010Prop37
 90
       50
102
RTVSPost2010PropOp37
 70
     1
102
RTVSPost2010Prop38
140
0.0
102
RTVSPost2010PropOp38
 70
     1
102
RTVSPost2010Prop39
140
1.0
102
RTVSPost2010PropOp39
 70
     1
102
RTVSPost2010Prop40
 90
        0
102
RTVSPost2010PropOp40
 70
     1
102
RTVSPost2010Prop41ColorIndex
 90
       18
102
RTVSPost2010Prop41ColorRGB
 90
        0
102
RTVSPost2010PropOp41
 70
     1
102
RTVSPost2010Prop42
 90
       50
102
RTVSPost2010PropOp42
 70
     1
102
RTVSPost2010Prop43
 90
        3
102
RTVSPost2010PropOp43
 70
     1
102
RTVSPost2010Prop44ColorIndex
 90
        5
102
RTVSPost2010Prop44ColorRGB
 90
      255
102
RTVSPost2010PropOp44
 70
     1
102
RTVSPost2010Prop45
280
     0
102
RTVSPost2010PropOp45
 70
     1
102
RTVSPost2010Prop46
 90
       50
102
RTVSPost2010PropOp46
 70
     1
102
RTVSPost2010Prop47
 90
       50
102
RTVSPost2010PropOp47
 70
     1
102
RTVSPost2010Prop48
 90
       50
102
RTVSPost2010PropOp48
 70
     1
102
RTVSPost2010Prop49
280
     0
102
RTVSPost2010PropOp49
 70
     1
102
RTVSPost2010Prop50
 90
       50
102
RTVSPost2010PropOp50
 70
     1
102
RTVSPost2010Prop51ColorIndex
 90
      256
102
RTVSPost2010Prop51ColorRGB
 90
-16777216
102
RTVSPost2010PropOp51
 70
     0
102
RTVSPost2010Prop52
140
1.0
102
RTVSPost2010PropOp52
 70
     0
102
RTVSPost2010Prop53
 90
        2
102
RTVSPost2010PropOp53
 70
     1
102
RTVSPost2010Prop54
  1
strokes_ogs.tif
102
RTVSPost2010PropOp54
 70
     1
102
RTVSPost2010Prop55
280
     0
102
RTVSPost2010PropOp55
 70
     1
102
RTVSPost2010Prop56
140
1.0
102
RTVSPost2010PropOp56
 70
     1
102
RTVSPost2010Prop57
140
1.0
102
RTVSPost2010PropOp57
 70
     1
  0
XRECORD
  5
8E
102
{ACAD_REACTORS
330
8D
102
}
330
8D
100
AcDbXrecord
280
     1
102
RTVSPropertyOp0
 70
     1
102
RTVSPropertyOp1
 70
     1
102
RTVSPropertyOp2
 70
     1
102
RTVSPropertyOp3
 70
     1
102
RTVSPropertyOp4
 70
     1
102
RTVSPropertyOp5
 70
     1
102
RTVSPropertyOp6
 70
     1
102
RTVSPropertyOp7
 70
     1
102
RTVSPropertyOp8
 70
     1
102
RTVSPropertyOp9
 70
     1
102
RTVSPropertyOp10
 70
     1
102
RTVSPropertyOp11
 70
     1
102
RTVSPropertyOp12
 70
     1
102
RTVSPropertyOp13
 70
     1
102
RTVSPropertyOp14
 70
     1
102
RTVSPropertyOp15
 70
     1
102
RTVSPropertyOp16
 70
     1
102
RTVSPropertyOp17
 70
     1
102
RTVSPropertyOp18
 70
     1
102
RTVSPropertyOp19
 70
     1
102
RTVSPropertyOp20
 70
     1
102
RTVSPropertyOp21
 70
     1
102
RTVSPropertyOp22
 70
     1
102
RTVSPropertyOp23
 70
     1
102
RTVSPropertyOp24
 70
     1
102
RTVSPropertyOp25
 70
     1
102
RTVSPropertyOp26
 70
     1
102
RTVSPropertyOp27
 70
     1
102
RTVSPropertyOp28
 70
     1
102
RTVSPropertyOp29
 70
     1
102
RTVSPropertyOp30
 70
     1
102
RTVSPropertyOp31
 70
     1
102
RTVSPropertyOp32
 70
     1
102
RTVSPropertyOp33
 70
     1
102
RTVSPropertyOp34
 70
     1
102
RTVSPropertyOp35
 70
     1
102
RTVSPropertyOp36
 70
     1
102
RTVSPropertyOp37
 70
     1
102
RTVSPropertyOp38
 70
     1
102
RTVSPropertyOp39
 70
     1
102
RTVSPropertyOp40
 70
     1
102
RTVSPropertyOp41
 70
     1
102
RTVSPropertyOp42
 70
     1
102
RTVSPropertyOp43
 70
     1
102
RTVSPropertyOp44
 70
     1
102
RTVSPropertyOp45
 70
     1
102
RTVSPropertyOp46
 70
     1
102
RTVSPropertyOp47
 70
     1
102
RTVSPropertyOp48
 70
     1
102
RTVSPropertyOp49
 70
     1
102
RTVSPropertyOp50
 70
     1
102
RTVSPropertyOp51
 70
     0
102
RTVSPropertyOp52
 70
     0
102
RTVSPropertyOp53
 70
     1
102
RTVSPropertyOp54
 70
     1
102
RTVSPropertyOp55
 70
     1
102
RTVSPropertyOp56
 70
     1
102
RTVSPropertyOp57
 70
     1
102
RTVSPost2010Prop28
280
     0
102
RTVSPost2010PropOp28
 70
     1
102
RTVSPost2010Prop29
280
     1
102
RTVSPost2010PropOp29
 70
     1
102
RTVSPost2010Prop30
280
     1
102
RTVSPost2010PropOp30
 70
     1
102
RTVSPost2010Prop31
280
     0
102
RTVSPost2010PropOp31
 70
     1
102
RTVSPost2010Prop32
280
     0
102
RTVSPost2010PropOp32
 70
     1
102
RTVSPost2010Prop33
280
     0
102
RTVSPost2010PropOp33
 70
     1
102
RTVSPost2010Prop34
280
     0
102
RTVSPost2010PropOp34
 70
     1
102
RTVSPost2010Prop35
280
     0
102
RTVSPost2010PropOp35
 70
     1
102
RTVSPost2010Prop36
280
     0
102
RTVSPost2010PropOp36
 70
     1
102
RTVSPost2010Prop37
 90
       50
102
RTVSPost2010PropOp37
 70
     1
102
RTVSPost2010Prop38
140
0.0
102
RTVSPost2010PropOp38
 70
     1
102
RTVSPost2010Prop39
140
1.0
102
RTVSPost2010PropOp39
 70
     1
102
RTVSPost2010Prop40
 90
        0
102
RTVSPost2010PropOp40
 70
     1
102
RTVSPost2010Prop41ColorIndex
 90
       18
102
RTVSPost2010Prop41ColorRGB
 90
        0
102
RTVSPost2010PropOp41
 70
     1
102
RTVSPost2010Prop42
 90
       50
102
RTVSPost2010PropOp42
 70
     1
102
RTVSPost2010Prop43
 90
        3
102
RTVSPost2010PropOp43
 70
     1
102
RTVSPost2010Prop44ColorIndex
 90
        5
102
RTVSPost2010Prop44ColorRGB
 90
      255
102
RTVSPost2010PropOp44
 70
     1
102
RTVSPost2010Prop45
280
     0
102
RTVSPost2010PropOp45
 70
     1
102
RTVSPost2010Prop46
 90
       50
102
RTVSPost2010PropOp46
 70
     1
102
RTVSPost2010Prop47
 90
       50
102
RTVSPost2010PropOp47
 70
     1
102
RTVSPost2010Prop48
 90
       50
102
RTVSPost2010PropOp48
 70
     1
102
RTVSPost2010Prop49
280
     0
102
RTVSPost2010PropOp49
 70
     1
102
RTVSPost2010Prop50
 90
       50
102
RTVSPost2010PropOp50
 70
     1
102
RTVSPost2010Prop51ColorIndex
 90
      256
102
RTVSPost2010Prop51ColorRGB
 90
-16777216
102
RTVSPost2010PropOp51
 70
     0
102
RTVSPost2010Prop52
140
1.0
102
RTVSPost2010PropOp52
 70
     0
102
RTVSPost2010Prop53
 90
        2
102
RTVSPost2010PropOp53
 70
     1
102
RTVSPost2010Prop54
  1
strokes_ogs.tif
102
RTVSPost2010PropOp54
 70
     1
102
RTVSPost2010Prop55
280
     0
102
RTVSPost2010PropOp55
 70
     1
102
RTVSPost2010Prop56
140
1.0
102
RTVSPost2010PropOp56
 70
     1
102
RTVSPost2010Prop57
140
1.0
102
RTVSPost2010PropOp57
 70
     1
  0
XRECORD
  5
94
102
{ACAD_REACTORS
330
93
102
}
330
93
100
AcDbXrecord
280
     1
102
RTVSPropertyOp0
 70
     1
102
RTVSPropertyOp1
 70
     1
102
RTVSPropertyOp2
 70
     1
102
RTVSPropertyOp3
 70
     1
102
RTVSPropertyOp4
 70
     1
102
RTVSPropertyOp5
 70
     1
102
RTVSPropertyOp6
 70
     1
102
RTVSPropertyOp7
 70
     1
102
RTVSPropertyOp8
 70
     1
102
RTVSPropertyOp9
 70
     1
102
RTVSPropertyOp10
 70
     1
102
RTVSPropertyOp11
 70
     1
102
RTVSPropertyOp12
 70
     1
102
RTVSPropertyOp13
 70
     1
102
RTVSPropertyOp14
 70
     1
102
RTVSPropertyOp15
 70
     1
102
RTVSPropertyOp16
 70
     1
102
RTVSPropertyOp17
 70
     1
102
RTVSPropertyOp18
 70
     1
102
RTVSPropertyOp19
 70
     1
102
RTVSPropertyOp20
 70
     1
102
RTVSPropertyOp21
 70
     1
102
RTVSPropertyOp22
 70
     1
102
RTVSPropertyOp23
 70
     1
102
RTVSPropertyOp24
 70
     1
102
RTVSPropertyOp25
 70
     1
102
RTVSPropertyOp26
 70
     1
102
RTVSPropertyOp27
 70
     1
102
RTVSPropertyOp28
 70
     1
102
RTVSPropertyOp29
 70
     1
102
RTVSPropertyOp30
 70
     1
102
RTVSPropertyOp31
 70
     1
102
RTVSPropertyOp32
 70
     1
102
RTVSPropertyOp33
 70
     1
102
RTVSPropertyOp34
 70
     1
102
RTVSPropertyOp35
 70
     1
102
RTVSPropertyOp36
 70
     1
102
RTVSPropertyOp37
 70
     1
102
RTVSPropertyOp38
 70
     1
102
RTVSPropertyOp39
 70
     1
102
RTVSPropertyOp40
 70
     1
102
RTVSPropertyOp41
 70
     1
102
RTVSPropertyOp42
 70
     1
102
RTVSPropertyOp43
 70
     1
102
RTVSPropertyOp44
 70
     1
102
RTVSPropertyOp45
 70
     1
102
RTVSPropertyOp46
 70
     1
102
RTVSPropertyOp47
 70
     1
102
RTVSPropertyOp48
 70
     1
102
RTVSPropertyOp49
 70
     1
102
RTVSPropertyOp50
 70
     1
102
RTVSPropertyOp51
 70
     0
102
RTVSPropertyOp52
 70
     0
102
RTVSPropertyOp53
 70
     1
102
RTVSPropertyOp54
 70
     1
102
RTVSPropertyOp55
 70
     1
102
RTVSPropertyOp56
 70
     1
102
RTVSPropertyOp57
 70
     1
102
RTVSPost2010Prop28
280
     0
102
RTVSPost2010PropOp28
 70
     1
102
RTVSPost2010Prop29
280
     1
102
RTVSPost2010PropOp29
 70
     1
102
RTVSPost2010Prop30
280
     1
102
RTVSPost2010PropOp30
 70
     1
102
RTVSPost2010Prop31
280
     0
102
RTVSPost2010PropOp31
 70
     1
102
RTVSPost2010Prop32
280
     0
102
RTVSPost2010PropOp32
 70
     1
102
RTVSPost2010Prop33
280
     0
102
RTVSPost2010PropOp33
 70
     1
102
RTVSPost2010Prop34
280
     0
102
RTVSPost2010PropOp34
 70
     1
102
RTVSPost2010Prop35
280
     0
102
RTVSPost2010PropOp35
 70
     1
102
RTVSPost2010Prop36
280
     0
102
RTVSPost2010PropOp36
 70
     1
102
RTVSPost2010Prop37
 90
       50
102
RTVSPost2010PropOp37
 70
     1
102
RTVSPost2010Prop38
140
0.0
102
RTVSPost2010PropOp38
 70
     1
102
RTVSPost2010Prop39
140
1.0
102
RTVSPost2010PropOp39
 70
     1
102
RTVSPost2010Prop40
 90
        0
102
RTVSPost2010PropOp40
 70
     1
102
RTVSPost2010Prop41ColorIndex
 90
       18
102
RTVSPost2010Prop41ColorRGB
 90
        0
102
RTVSPost2010PropOp41
 70
     1
102
RTVSPost2010Prop42
 90
       50
102
RTVSPost2010PropOp42
 70
     1
102
RTVSPost2010Prop43
 90
        3
102
RTVSPost2010PropOp43
 70
     1
102
RTVSPost2010Prop44ColorIndex
 90
        5
102
RTVSPost2010Prop44ColorRGB
 90
      255
102
RTVSPost2010PropOp44
 70
     1
102
RTVSPost2010Prop45
280
     0
102
RTVSPost2010PropOp45
 70
     1
102
RTVSPost2010Prop46
 90
       50
102
RTVSPost2010PropOp46
 70
     1
102
RTVSPost2010Prop47
 90
       50
102
RTVSPost2010PropOp47
 70
     1
102
RTVSPost2010Prop48
 90
       50
102
RTVSPost2010PropOp48
 70
     1
102
RTVSPost2010Prop49
280
     0
102
RTVSPost2010PropOp49
 70
     1
102
RTVSPost2010Prop50
 90
       50
102
RTVSPost2010PropOp50
 70
     1
102
RTVSPost2010Prop51ColorIndex
 90
      256
102
RTVSPost2010Prop51ColorRGB
 90
-16777216
102
RTVSPost2010PropOp51
 70
     0
102
RTVSPost2010Prop52
140
1.0
102
RTVSPost2010PropOp52
 70
     0
102
RTVSPost2010Prop53
 90
        2
102
RTVSPost2010PropOp53
 70
     1
102
RTVSPost2010Prop54
  1
strokes_ogs.tif
102
RTVSPost2010PropOp54
 70
     1
102
RTVSPost2010Prop55
280
     0
102
RTVSPost2010PropOp55
 70
     1
102
RTVSPost2010Prop56
140
1.0
102
RTVSPost2010PropOp56
 70
     1
102
RTVSPost2010Prop57
140
1.0
102
RTVSPost2010PropOp57
 70
     1
  0
XRECORD
  5
A8
102
{ACAD_REACTORS
330
A7
102
}
330
A7
100
AcDbXrecord
280
     1
102
RTVSPropertyOp0
 70
     0
102
RTVSPropertyOp1
 70
     0
102
RTVSPropertyOp2
 70
     0
102
RTVSPropertyOp3
 70
     0
102
RTVSPropertyOp4
 70
     0
102
RTVSPropertyOp5
 70
     0
102
RTVSPropertyOp6
 70
     0
102
RTVSPropertyOp7
 70
     0
102
RTVSPropertyOp8
 70
     0
102
RTVSPropertyOp9
 70
     0
102
RTVSPropertyOp10
 70
     0
102
RTVSPropertyOp11
 70
     0
102
RTVSPropertyOp12
 70
     0
102
RTVSPropertyOp13
 70
     0
102
RTVSPropertyOp14
 70
     2
102
RTVSPropertyOp15
 70
     0
102
RTVSPropertyOp16
 70
     0
102
RTVSPropertyOp17
 70
     0
102
RTVSPropertyOp18
 70
     0
102
RTVSPropertyOp19
 70
     0
102
RTVSPropertyOp20
 70
     0
102
RTVSPropertyOp21
 70
     0
102
RTVSPropertyOp22
 70
     0
102
RTVSPropertyOp23
 70
     0
102
RTVSPropertyOp24
 70
     0
102
RTVSPropertyOp25
 70
     0
102
RTVSPropertyOp26
 70
     0
102
RTVSPropertyOp27
 70
     0
102
RTVSPropertyOp28
 70
     0
102
RTVSPropertyOp29
 70
     0
102
RTVSPropertyOp30
 70
     0
102
RTVSPropertyOp31
 70
     0
102
RTVSPropertyOp32
 70
     0
102
RTVSPropertyOp33
 70
     0
102
RTVSPropertyOp34
 70
     0
102
RTVSPropertyOp35
 70
     0
102
RTVSPropertyOp36
 70
     0
102
RTVSPropertyOp37
 70
     0
102
RTVSPropertyOp38
 70
     0
102
RTVSPropertyOp39
 70
     0
102
RTVSPropertyOp40
 70
     0
102
RTVSPropertyOp41
 70
     0
102
RTVSPropertyOp42
 70
     0
102
RTVSPropertyOp43
 70
     0
102
RTVSPropertyOp44
 70
     0
102
RTVSPropertyOp45
 70
     0
102
RTVSPropertyOp46
 70
     0
102
RTVSPropertyOp47
 70
     0
102
RTVSPropertyOp48
 70
     0
102
RTVSPropertyOp49
 70
     0
102
RTVSPropertyOp50
 70
     0
102
RTVSPropertyOp51
 70
     0
102
RTVSPropertyOp52
 70
     0
102
RTVSPropertyOp53
 70
     0
102
RTVSPropertyOp54
 70
     0
102
RTVSPropertyOp55
 70
     0
102
RTVSPropertyOp56
 70
     0
102
RTVSPropertyOp57
 70
     0
102
RTVSPost2010Prop28
280
     0
102
RTVSPost2010PropOp28
 70
     0
102
RTVSPost2010Prop29
280
     1
102
RTVSPost2010PropOp29
 70
     0
102
RTVSPost2010Prop30
280
     1
102
RTVSPost2010PropOp30
 70
     0
102
RTVSPost2010Prop31
280
     0
102
RTVSPost2010PropOp31
 70
     0
102
RTVSPost2010Prop32
280
     0
102
RTVSPost2010PropOp32
 70
     0
102
RTVSPost2010Prop33
280
     0
102
RTVSPost2010PropOp33
 70
     0
102
RTVSPost2010Prop34
280
     0
102
RTVSPost2010PropOp34
 70
     0
102
RTVSPost2010Prop35
280
     0
102
RTVSPost2010PropOp35
 70
     0
102
RTVSPost2010Prop36
280
     0
102
RTVSPost2010PropOp36
 70
     0
102
RTVSPost2010Prop37
 90
       50
102
RTVSPost2010PropOp37
 70
     0
102
RTVSPost2010Prop38
140
0.0
102
RTVSPost2010PropOp38
 70
     0
102
RTVSPost2010Prop39
140
1.0
102
RTVSPost2010PropOp39
 70
     0
102
RTVSPost2010Prop40
 90
        0
102
RTVSPost2010PropOp40
 70
     0
102
RTVSPost2010Prop41ColorIndex
 90
       18
102
RTVSPost2010Prop41ColorRGB
 90
        0
102
RTVSPost2010PropOp41
 70
     0
102
RTVSPost2010Prop42
 90
       50
102
RTVSPost2010PropOp42
 70
     0
102
RTVSPost2010Prop43
 90
        3
102
RTVSPost2010PropOp43
 70
     0
102
RTVSPost2010Prop44ColorIndex
 90
        5
102
RTVSPost2010Prop44ColorRGB
 90
      255
102
RTVSPost2010PropOp44
 70
     0
102
RTVSPost2010Prop45
280
     0
102
RTVSPost2010PropOp45
 70
     0
102
RTVSPost2010Prop46
 90
       50
102
RTVSPost2010PropOp46
 70
     0
102
RTVSPost2010Prop47
 90
       50
102
RTVSPost2010PropOp47
 70
     0
102
RTVSPost2010Prop48
 90
       50
102
RTVSPost2010PropOp48
 70
     0
102
RTVSPost2010Prop49
280
     0
102
RTVSPost2010PropOp49
 70
     0
102
RTVSPost2010Prop50
 90
       50
102
RTVSPost2010PropOp50
 70
     0
102
RTVSPost2010Prop51ColorIndex
 90
      256
102
RTVSPost2010Prop51ColorRGB
 90
-16777216
102
RTVSPost2010PropOp51
 70
     0
102
RTVSPost2010Prop52
140
1.0
102
RTVSPost2010PropOp52
 70
     0
102
RTVSPost2010Prop53
 90
        2
102
RTVSPost2010PropOp53
 70
     0
102
RTVSPost2010Prop54
  1
strokes_ogs.tif
102
RTVSPost2010PropOp54
 70
     0
102
RTVSPost2010Prop55
280
     0
102
RTVSPost2010PropOp55
 70
     0
102
RTVSPost2010Prop56
140
1.0
102
RTVSPost2010PropOp56
 70
     0
102
RTVSPost2010Prop57
140
1.0
102
RTVSPost2010PropOp57
 70
     0
  0
XRECORD
  5
A2
102
{ACAD_REACTORS
330
A1
102
}
330
A1
100
AcDbXrecord
280
     1
102
RTVSPropertyOp0
 70
     1
102
RTVSPropertyOp1
 70
     1
102
RTVSPropertyOp2
 70
     1
102
RTVSPropertyOp3
 70
     1
102
RTVSPropertyOp4
 70
     1
102
RTVSPropertyOp5
 70
     1
102
RTVSPropertyOp6
 70
     1
102
RTVSPropertyOp7
 70
     1
102
RTVSPropertyOp8
 70
     1
102
RTVSPropertyOp9
 70
     1
102
RTVSPropertyOp10
 70
     1
102
RTVSPropertyOp11
 70
     1
102
RTVSPropertyOp12
 70
     1
102
RTVSPropertyOp13
 70
     1
102
RTVSPropertyOp14
 70
     1
102
RTVSPropertyOp15
 70
     1
102
RTVSPropertyOp16
 70
     1
102
RTVSPropertyOp17
 70
     1
102
RTVSPropertyOp18
 70
     1
102
RTVSPropertyOp19
 70
     1
102
RTVSPropertyOp20
 70
     1
102
RTVSPropertyOp21
 70
     1
102
RTVSPropertyOp22
 70
     1
102
RTVSPropertyOp23
 70
     1
102
RTVSPropertyOp24
 70
     1
102
RTVSPropertyOp25
 70
     1
102
RTVSPropertyOp26
 70
     1
102
RTVSPropertyOp27
 70
     1
102
RTVSPropertyOp28
 70
     1
102
RTVSPropertyOp29
 70
     1
102
RTVSPropertyOp30
 70
     1
102
RTVSPropertyOp31
 70
     1
102
RTVSPropertyOp32
 70
     1
102
RTVSPropertyOp33
 70
     1
102
RTVSPropertyOp34
 70
     1
102
RTVSPropertyOp35
 70
     1
102
RTVSPropertyOp36
 70
     1
102
RTVSPropertyOp37
 70
     1
102
RTVSPropertyOp38
 70
     1
102
RTVSPropertyOp39
 70
     1
102
RTVSPropertyOp40
 70
     1
102
RTVSPropertyOp41
 70
     1
102
RTVSPropertyOp42
 70
     1
102
RTVSPropertyOp43
 70
     1
102
RTVSPropertyOp44
 70
     1
102
RTVSPropertyOp45
 70
     1
102
RTVSPropertyOp46
 70
     1
102
RTVSPropertyOp47
 70
     1
102
RTVSPropertyOp48
 70
     1
102
RTVSPropertyOp49
 70
     1
102
RTVSPropertyOp50
 70
     1
102
RTVSPropertyOp51
 70
     0
102
RTVSPropertyOp52
 70
     0
102
RTVSPropertyOp53
 70
     1
102
RTVSPropertyOp54
 70
     1
102
RTVSPropertyOp55
 70
     1
102
RTVSPropertyOp56
 70
     1
102
RTVSPropertyOp57
 70
     1
102
RTVSPost2010Prop28
280
     0
102
RTVSPost2010PropOp28
 70
     1
102
RTVSPost2010Prop29
280
     1
102
RTVSPost2010PropOp29
 70
     1
102
RTVSPost2010Prop30
280
     1
102
RTVSPost2010PropOp30
 70
     1
102
RTVSPost2010Prop31
280
     0
102
RTVSPost2010PropOp31
 70
     1
102
RTVSPost2010Prop32
280
     0
102
RTVSPost2010PropOp32
 70
     1
102
RTVSPost2010Prop33
280
     0
102
RTVSPost2010PropOp33
 70
     1
102
RTVSPost2010Prop34
280
     0
102
RTVSPost2010PropOp34
 70
     1
102
RTVSPost2010Prop35
280
     0
102
RTVSPost2010PropOp35
 70
     1
102
RTVSPost2010Prop36
280
     0
102
RTVSPost2010PropOp36
 70
     1
102
RTVSPost2010Prop37
 90
       50
102
RTVSPost2010PropOp37
 70
     1
102
RTVSPost2010Prop38
140
0.0
102
RTVSPost2010PropOp38
 70
     1
102
RTVSPost2010Prop39
140
1.0
102
RTVSPost2010PropOp39
 70
     1
102
RTVSPost2010Prop40
 90
        0
102
RTVSPost2010PropOp40
 70
     1
102
RTVSPost2010Prop41ColorIndex
 90
       18
102
RTVSPost2010Prop41ColorRGB
 90
        0
102
RTVSPost2010PropOp41
 70
     1
102
RTVSPost2010Prop42
 90
       50
102
RTVSPost2010PropOp42
 70
     1
102
RTVSPost2010Prop43
 90
        3
102
RTVSPost2010PropOp43
 70
     1
102
RTVSPost2010Prop44ColorIndex
 90
        5
102
RTVSPost2010Prop44ColorRGB
 90
      255
102
RTVSPost2010PropOp44
 70
     1
102
RTVSPost2010Prop45
280
     0
102
RTVSPost2010PropOp45
 70
     1
102
RTVSPost2010Prop46
 90
       50
102
RTVSPost2010PropOp46
 70
     1
102
RTVSPost2010Prop47
 90
       50
102
RTVSPost2010PropOp47
 70
     1
102
RTVSPost2010Prop48
 90
       50
102
RTVSPost2010PropOp48
 70
     1
102
RTVSPost2010Prop49
280
     0
102
RTVSPost2010PropOp49
 70
     1
102
RTVSPost2010Prop50
 90
       50
102
RTVSPost2010PropOp50
 70
     1
102
RTVSPost2010Prop51ColorIndex
 90
      256
102
RTVSPost2010Prop51ColorRGB
 90
-16777216
102
RTVSPost2010PropOp51
 70
     0
102
RTVSPost2010Prop52
140
1.0
102
RTVSPost2010PropOp52
 70
     0
102
RTVSPost2010Prop53
 90
        2
102
RTVSPost2010PropOp53
 70
     1
102
RTVSPost2010Prop54
  1
strokes_ogs.tif
102
RTVSPost2010PropOp54
 70
     1
102
RTVSPost2010Prop55
280
     0
102
RTVSPost2010PropOp55
 70
     1
102
RTVSPost2010Prop56
140
1.0
102
RTVSPost2010PropOp56
 70
     1
102
RTVSPost2010Prop57
140
1.0
102
RTVSPost2010PropOp57
 70
     1
  0
XRECORD
  5
AA
102
{ACAD_REACTORS
330
A9
102
}
330
A9
100
AcDbXrecord
280
     1
102
RTVSPropertyOp0
 70
     0
102
RTVSPropertyOp1
 70
     0
102
RTVSPropertyOp2
 70
     0
102
RTVSPropertyOp3
 70
     0
102
RTVSPropertyOp4
 70
     0
102
RTVSPropertyOp5
 70
     0
102
RTVSPropertyOp6
 70
     0
102
RTVSPropertyOp7
 70
     0
102
RTVSPropertyOp8
 70
     0
102
RTVSPropertyOp9
 70
     0
102
RTVSPropertyOp10
 70
     0
102
RTVSPropertyOp11
 70
     0
102
RTVSPropertyOp12
 70
     0
102
RTVSPropertyOp13
 70
     0
102
RTVSPropertyOp14
 70
     2
102
RTVSPropertyOp15
 70
     0
102
RTVSPropertyOp16
 70
     0
102
RTVSPropertyOp17
 70
     0
102
RTVSPropertyOp18
 70
     0
102
RTVSPropertyOp19
 70
     0
102
RTVSPropertyOp20
 70
     0
102
RTVSPropertyOp21
 70
     0
102
RTVSPropertyOp22
 70
     0
102
RTVSPropertyOp23
 70
     0
102
RTVSPropertyOp24
 70
     0
102
RTVSPropertyOp25
 70
     0
102
RTVSPropertyOp26
 70
     0
102
RTVSPropertyOp27
 70
     0
102
RTVSPropertyOp28
 70
     0
102
RTVSPropertyOp29
 70
     0
102
RTVSPropertyOp30
 70
     0
102
RTVSPropertyOp31
 70
     0
102
RTVSPropertyOp32
 70
     0
102
RTVSPropertyOp33
 70
     0
102
RTVSPropertyOp34
 70
     0
102
RTVSPropertyOp35
 70
     0
102
RTVSPropertyOp36
 70
     0
102
RTVSPropertyOp37
 70
     0
102
RTVSPropertyOp38
 70
     0
102
RTVSPropertyOp39
 70
     0
102
RTVSPropertyOp40
 70
     0
102
RTVSPropertyOp41
 70
     0
102
RTVSPropertyOp42
 70
     0
102
RTVSPropertyOp43
 70
     0
102
RTVSPropertyOp44
 70
     0
102
RTVSPropertyOp45
 70
     0
102
RTVSPropertyOp46
 70
     0
102
RTVSPropertyOp47
 70
     0
102
RTVSPropertyOp48
 70
     0
102
RTVSPropertyOp49
 70
     0
102
RTVSPropertyOp50
 70
     0
102
RTVSPropertyOp51
 70
     0
102
RTVSPropertyOp52
 70
     0
102
RTVSPropertyOp53
 70
     0
102
RTVSPropertyOp54
 70
     0
102
RTVSPropertyOp55
 70
     0
102
RTVSPropertyOp56
 70
     0
102
RTVSPropertyOp57
 70
     0
102
RTVSPost2010Prop28
280
     0
102
RTVSPost2010PropOp28
 70
     0
102
RTVSPost2010Prop29
280
     1
102
RTVSPost2010PropOp29
 70
     0
102
RTVSPost2010Prop30
280
     1
102
RTVSPost2010PropOp30
 70
     0
102
RTVSPost2010Prop31
280
     0
102
RTVSPost2010PropOp31
 70
     0
102
RTVSPost2010Prop32
280
     0
102
RTVSPost2010PropOp32
 70
     0
102
RTVSPost2010Prop33
280
     0
102
RTVSPost2010PropOp33
 70
     0
102
RTVSPost2010Prop34
280
     0
102
RTVSPost2010PropOp34
 70
     0
102
RTVSPost2010Prop35
280
     0
102
RTVSPost2010PropOp35
 70
     0
102
RTVSPost2010Prop36
280
     0
102
RTVSPost2010PropOp36
 70
     0
102
RTVSPost2010Prop37
 90
       50
102
RTVSPost2010PropOp37
 70
     0
102
RTVSPost2010Prop38
140
0.0
102
RTVSPost2010PropOp38
 70
     0
102
RTVSPost2010Prop39
140
1.0
102
RTVSPost2010PropOp39
 70
     0
102
RTVSPost2010Prop40
 90
        0
102
RTVSPost2010PropOp40
 70
     0
102
RTVSPost2010Prop41ColorIndex
 90
       18
102
RTVSPost2010Prop41ColorRGB
 90
        0
102
RTVSPost2010PropOp41
 70
     0
102
RTVSPost2010Prop42
 90
       50
102
RTVSPost2010PropOp42
 70
     0
102
RTVSPost2010Prop43
 90
        3
102
RTVSPost2010PropOp43
 70
     0
102
RTVSPost2010Prop44ColorIndex
 90
        5
102
RTVSPost2010Prop44ColorRGB
 90
      255
102
RTVSPost2010PropOp44
 70
     0
102
RTVSPost2010Prop45
280
     0
102
RTVSPost2010PropOp45
 70
     0
102
RTVSPost2010Prop46
 90
       50
102
RTVSPost2010PropOp46
 70
     0
102
RTVSPost2010Prop47
 90
       50
102
RTVSPost2010PropOp47
 70
     0
102
RTVSPost2010Prop48
 90
       50
102
RTVSPost2010PropOp48
 70
     0
102
RTVSPost2010Prop49
280
     0
102
RTVSPost2010PropOp49
 70
     0
102
RTVSPost2010Prop50
 90
       50
102
RTVSPost2010PropOp50
 70
     0
102
RTVSPost2010Prop51ColorIndex
 90
      256
102
RTVSPost2010Prop51ColorRGB
 90
-16777216
102
RTVSPost2010PropOp51
 70
     0
102
RTVSPost2010Prop52
140
1.0
102
RTVSPost2010PropOp52
 70
     0
102
RTVSPost2010Prop53
 90
        2
102
RTVSPost2010PropOp53
 70
     0
102
RTVSPost2010Prop54
  1
strokes_ogs.tif
102
RTVSPost2010PropOp54
 70
     0
102
RTVSPost2010Prop55
280
     0
102
RTVSPost2010PropOp55
 70
     0
102
RTVSPost2010Prop56
140
1.0
102
RTVSPost2010PropOp56
 70
     0
102
RTVSPost2010Prop57
140
1.0
102
RTVSPost2010PropOp57
 70
     0
  0
XRECORD
  5
98
102
{ACAD_REACTORS
330
97
102
}
330
97
100
AcDbXrecord
280
     1
102
RTVSPropertyOp0
 70
     1
102
RTVSPropertyOp1
 70
     1
102
RTVSPropertyOp2
 70
     1
102
RTVSPropertyOp3
 70
     1
102
RTVSPropertyOp4
 70
     1
102
RTVSPropertyOp5
 70
     1
102
RTVSPropertyOp6
 70
     1
102
RTVSPropertyOp7
 70
     1
102
RTVSPropertyOp8
 70
     1
102
RTVSPropertyOp9
 70
     1
102
RTVSPropertyOp10
 70
     1
102
RTVSPropertyOp11
 70
     1
102
RTVSPropertyOp12
 70
     1
102
RTVSPropertyOp13
 70
     1
102
RTVSPropertyOp14
 70
     1
102
RTVSPropertyOp15
 70
     1
102
RTVSPropertyOp16
 70
     1
102
RTVSPropertyOp17
 70
     1
102
RTVSPropertyOp18
 70
     1
102
RTVSPropertyOp19
 70
     1
102
RTVSPropertyOp20
 70
     1
102
RTVSPropertyOp21
 70
     1
102
RTVSPropertyOp22
 70
     1
102
RTVSPropertyOp23
 70
     1
102
RTVSPropertyOp24
 70
     1
102
RTVSPropertyOp25
 70
     1
102
RTVSPropertyOp26
 70
     1
102
RTVSPropertyOp27
 70
     1
102
RTVSPropertyOp28
 70
     1
102
RTVSPropertyOp29
 70
     1
102
RTVSPropertyOp30
 70
     1
102
RTVSPropertyOp31
 70
     1
102
RTVSPropertyOp32
 70
     1
102
RTVSPropertyOp33
 70
     1
102
RTVSPropertyOp34
 70
     1
102
RTVSPropertyOp35
 70
     1
102
RTVSPropertyOp36
 70
     1
102
RTVSPropertyOp37
 70
     1
102
RTVSPropertyOp38
 70
     1
102
RTVSPropertyOp39
 70
     1
102
RTVSPropertyOp40
 70
     1
102
RTVSPropertyOp41
 70
     1
102
RTVSPropertyOp42
 70
     1
102
RTVSPropertyOp43
 70
     1
102
RTVSPropertyOp44
 70
     1
102
RTVSPropertyOp45
 70
     1
102
RTVSPropertyOp46
 70
     1
102
RTVSPropertyOp47
 70
     1
102
RTVSPropertyOp48
 70
     1
102
RTVSPropertyOp49
 70
     1
102
RTVSPropertyOp50
 70
     1
102
RTVSPropertyOp51
 70
     0
102
RTVSPropertyOp52
 70
     0
102
RTVSPropertyOp53
 70
     1
102
RTVSPropertyOp54
 70
     1
102
RTVSPropertyOp55
 70
     1
102
RTVSPropertyOp56
 70
     1
102
RTVSPropertyOp57
 70
     1
102
RTVSPost2010Prop28
280
     0
102
RTVSPost2010PropOp28
 70
     1
102
RTVSPost2010Prop29
280
     1
102
RTVSPost2010PropOp29
 70
     1
102
RTVSPost2010Prop30
280
     1
102
RTVSPost2010PropOp30
 70
     1
102
RTVSPost2010Prop31
280
     0
102
RTVSPost2010PropOp31
 70
     1
102
RTVSPost2010Prop32
280
     0
102
RTVSPost2010PropOp32
 70
     1
102
RTVSPost2010Prop33
280
     0
102
RTVSPost2010PropOp33
 70
     1
102
RTVSPost2010Prop34
280
     0
102
RTVSPost2010PropOp34
 70
     1
102
RTVSPost2010Prop35
280
     0
102
RTVSPost2010PropOp35
 70
     1
102
RTVSPost2010Prop36
280
     0
102
RTVSPost2010PropOp36
 70
     1
102
RTVSPost2010Prop37
 90
       50
102
RTVSPost2010PropOp37
 70
     1
102
RTVSPost2010Prop38
140
0.0
102
RTVSPost2010PropOp38
 70
     1
102
RTVSPost2010Prop39
140
1.0
102
RTVSPost2010PropOp39
 70
     1
102
RTVSPost2010Prop40
 90
        0
102
RTVSPost2010PropOp40
 70
     1
102
RTVSPost2010Prop41ColorIndex
 90
       18
102
RTVSPost2010Prop41ColorRGB
 90
        0
102
RTVSPost2010PropOp41
 70
     1
102
RTVSPost2010Prop42
 90
       50
102
RTVSPost2010PropOp42
 70
     1
102
RTVSPost2010Prop43
 90
        3
102
RTVSPost2010PropOp43
 70
     1
102
RTVSPost2010Prop44ColorIndex
 90
        5
102
RTVSPost2010Prop44ColorRGB
 90
      255
102
RTVSPost2010PropOp44
 70
     1
102
RTVSPost2010Prop45
280
     0
102
RTVSPost2010PropOp45
 70
     1
102
RTVSPost2010Prop46
 90
       50
102
RTVSPost2010PropOp46
 70
     1
102
RTVSPost2010Prop47
 90
       50
102
RTVSPost2010PropOp47
 70
     1
102
RTVSPost2010Prop48
 90
       50
102
RTVSPost2010PropOp48
 70
     1
102
RTVSPost2010Prop49
280
     0
102
RTVSPost2010PropOp49
 70
     1
102
RTVSPost2010Prop50
 90
       50
102
RTVSPost2010PropOp50
 70
     1
102
RTVSPost2010Prop51ColorIndex
 90
      256
102
RTVSPost2010Prop51ColorRGB
 90
-16777216
102
RTVSPost2010PropOp51
 70
     0
102
RTVSPost2010Prop52
140
1.0
102
RTVSPost2010PropOp52
 70
     0
102
RTVSPost2010Prop53
 90
        2
102
RTVSPost2010PropOp53
 70
     1
102
RTVSPost2010Prop54
  1
strokes_ogs.tif
102
RTVSPost2010PropOp54
 70
     1
102
RTVSPost2010Prop55
280
     0
102
RTVSPost2010PropOp55
 70
     1
102
RTVSPost2010Prop56
140
1.0
102
RTVSPost2010PropOp56
 70
     1
102
RTVSPost2010Prop57
140
1.0
102
RTVSPost2010PropOp57
 70
     1
  0
XRECORD
  5
B6
102
{ACAD_REACTORS
330
B5
102
}
330
B5
100
AcDbXrecord
280
     1
102
RTVSPropertyOp0
 70
     1
102
RTVSPropertyOp1
 70
     1
102
RTVSPropertyOp2
 70
     1
102
RTVSPropertyOp3
 70
     1
102
RTVSPropertyOp4
 70
     1
102
RTVSPropertyOp5
 70
     1
102
RTVSPropertyOp6
 70
     1
102
RTVSPropertyOp7
 70
     1
102
RTVSPropertyOp8
 70
     1
102
RTVSPropertyOp9
 70
     1
102
RTVSPropertyOp10
 70
     1
102
RTVSPropertyOp11
 70
     1
102
RTVSPropertyOp12
 70
     1
102
RTVSPropertyOp13
 70
     1
102
RTVSPropertyOp14
 70
     1
102
RTVSPropertyOp15
 70
     1
102
RTVSPropertyOp16
 70
     1
102
RTVSPropertyOp17
 70
     1
102
RTVSPropertyOp18
 70
     1
102
RTVSPropertyOp19
 70
     1
102
RTVSPropertyOp20
 70
     1
102
RTVSPropertyOp21
 70
     1
102
RTVSPropertyOp22
 70
     1
102
RTVSPropertyOp23
 70
     1
102
RTVSPropertyOp24
 70
     1
102
RTVSPropertyOp25
 70
     1
102
RTVSPropertyOp26
 70
     1
102
RTVSPropertyOp27
 70
     1
102
RTVSPropertyOp28
 70
     1
102
RTVSPropertyOp29
 70
     1
102
RTVSPropertyOp30
 70
     1
102
RTVSPropertyOp31
 70
     1
102
RTVSPropertyOp32
 70
     1
102
RTVSPropertyOp33
 70
     1
102
RTVSPropertyOp34
 70
     1
102
RTVSPropertyOp35
 70
     1
102
RTVSPropertyOp36
 70
     1
102
RTVSPropertyOp37
 70
     1
102
RTVSPropertyOp38
 70
     1
102
RTVSPropertyOp39
 70
     1
102
RTVSPropertyOp40
 70
     1
102
RTVSPropertyOp41
 70
     1
102
RTVSPropertyOp42
 70
     1
102
RTVSPropertyOp43
 70
     1
102
RTVSPropertyOp44
 70
     1
102
RTVSPropertyOp45
 70
     1
102
RTVSPropertyOp46
 70
     1
102
RTVSPropertyOp47
 70
     1
102
RTVSPropertyOp48
 70
     1
102
RTVSPropertyOp49
 70
     1
102
RTVSPropertyOp50
 70
     1
102
RTVSPropertyOp51
 70
     0
102
RTVSPropertyOp52
 70
     0
102
RTVSPropertyOp53
 70
     1
102
RTVSPropertyOp54
 70
     1
102
RTVSPropertyOp55
 70
     1
102
RTVSPropertyOp56
 70
     1
102
RTVSPropertyOp57
 70
     1
102
RTVSPost2010Prop28
280
     0
102
RTVSPost2010PropOp28
 70
     1
102
RTVSPost2010Prop29
280
     1
102
RTVSPost2010PropOp29
 70
     1
102
RTVSPost2010Prop30
280
     1
102
RTVSPost2010PropOp30
 70
     1
102
RTVSPost2010Prop31
280
     0
102
RTVSPost2010PropOp31
 70
     1
102
RTVSPost2010Prop32
280
     0
102
RTVSPost2010PropOp32
 70
     1
102
RTVSPost2010Prop33
280
     0
102
RTVSPost2010PropOp33
 70
     1
102
RTVSPost2010Prop34
280
     0
102
RTVSPost2010PropOp34
 70
     1
102
RTVSPost2010Prop35
280
     0
102
RTVSPost2010PropOp35
 70
     1
102
RTVSPost2010Prop36
280
     0
102
RTVSPost2010PropOp36
 70
     1
102
RTVSPost2010Prop37
 90
       50
102
RTVSPost2010PropOp37
 70
     1
102
RTVSPost2010Prop38
140
0.0
102
RTVSPost2010PropOp38
 70
     1
102
RTVSPost2010Prop39
140
1.0
102
RTVSPost2010PropOp39
 70
     1
102
RTVSPost2010Prop40
 90
        0
102
RTVSPost2010PropOp40
 70
     1
102
RTVSPost2010Prop41ColorIndex
 90
       18
102
RTVSPost2010Prop41ColorRGB
 90
        0
102
RTVSPost2010PropOp41
 70
     1
102
RTVSPost2010Prop42
 90
       50
102
RTVSPost2010PropOp42
 70
     1
102
RTVSPost2010Prop43
 90
        3
102
RTVSPost2010PropOp43
 70
     1
102
RTVSPost2010Prop44ColorIndex
 90
        5
102
RTVSPost2010Prop44ColorRGB
 90
      255
102
RTVSPost2010PropOp44
 70
     1
102
RTVSPost2010Prop45
280
     0
102
RTVSPost2010PropOp45
 70
     1
102
RTVSPost2010Prop46
 90
       50
102
RTVSPost2010PropOp46
 70
     1
102
RTVSPost2010Prop47
 90
       50
102
RTVSPost2010PropOp47
 70
     1
102
RTVSPost2010Prop48
 90
       50
102
RTVSPost2010PropOp48
 70
     1
102
RTVSPost2010Prop49
280
     0
102
RTVSPost2010PropOp49
 70
     1
102
RTVSPost2010Prop50
 90
       50
102
RTVSPost2010PropOp50
 70
     1
102
RTVSPost2010Prop51ColorIndex
 90
      256
102
RTVSPost2010Prop51ColorRGB
 90
-16777216
102
RTVSPost2010PropOp51
 70
     0
102
RTVSPost2010Prop52
140
1.0
102
RTVSPost2010PropOp52
 70
     0
102
RTVSPost2010Prop53
 90
        2
102
RTVSPost2010PropOp53
 70
     1
102
RTVSPost2010Prop54
  1
strokes_ogs.tif
102
RTVSPost2010PropOp54
 70
     1
102
RTVSPost2010Prop55
280
     0
102
RTVSPost2010PropOp55
 70
     1
102
RTVSPost2010Prop56
140
1.0
102
RTVSPost2010PropOp56
 70
     1
102
RTVSPost2010Prop57
140
1.0
102
RTVSPost2010PropOp57
 70
     1
  0
XRECORD
  5
B4
102
{ACAD_REACTORS
330
B3
102
}
330
B3
100
AcDbXrecord
280
     1
102
RTVSPropertyOp0
 70
     1
102
RTVSPropertyOp1
 70
     1
102
RTVSPropertyOp2
 70
     1
102
RTVSPropertyOp3
 70
     1
102
RTVSPropertyOp4
 70
     1
102
RTVSPropertyOp5
 70
     1
102
RTVSPropertyOp6
 70
     1
102
RTVSPropertyOp7
 70
     1
102
RTVSPropertyOp8
 70
     1
102
RTVSPropertyOp9
 70
     1
102
RTVSPropertyOp10
 70
     1
102
RTVSPropertyOp11
 70
     1
102
RTVSPropertyOp12
 70
     1
102
RTVSPropertyOp13
 70
     1
102
RTVSPropertyOp14
 70
     1
102
RTVSPropertyOp15
 70
     1
102
RTVSPropertyOp16
 70
     1
102
RTVSPropertyOp17
 70
     1
102
RTVSPropertyOp18
 70
     1
102
RTVSPropertyOp19
 70
     1
102
RTVSPropertyOp20
 70
     1
102
RTVSPropertyOp21
 70
     1
102
RTVSPropertyOp22
 70
     1
102
RTVSPropertyOp23
 70
     1
102
RTVSPropertyOp24
 70
     1
102
RTVSPropertyOp25
 70
     1
102
RTVSPropertyOp26
 70
     1
102
RTVSPropertyOp27
 70
     1
102
RTVSPropertyOp28
 70
     1
102
RTVSPropertyOp29
 70
     1
102
RTVSPropertyOp30
 70
     1
102
RTVSPropertyOp31
 70
     1
102
RTVSPropertyOp32
 70
     1
102
RTVSPropertyOp33
 70
     1
102
RTVSPropertyOp34
 70
     1
102
RTVSPropertyOp35
 70
     1
102
RTVSPropertyOp36
 70
     1
102
RTVSPropertyOp37
 70
     1
102
RTVSPropertyOp38
 70
     1
102
RTVSPropertyOp39
 70
     1
102
RTVSPropertyOp40
 70
     1
102
RTVSPropertyOp41
 70
     1
102
RTVSPropertyOp42
 70
     1
102
RTVSPropertyOp43
 70
     1
102
RTVSPropertyOp44
 70
     1
102
RTVSPropertyOp45
 70
     1
102
RTVSPropertyOp46
 70
     1
102
RTVSPropertyOp47
 70
     1
102
RTVSPropertyOp48
 70
     1
102
RTVSPropertyOp49
 70
     1
102
RTVSPropertyOp50
 70
     1
102
RTVSPropertyOp51
 70
     0
102
RTVSPropertyOp52
 70
     0
102
RTVSPropertyOp53
 70
     1
102
RTVSPropertyOp54
 70
     1
102
RTVSPropertyOp55
 70
     1
102
RTVSPropertyOp56
 70
     1
102
RTVSPropertyOp57
 70
     1
102
RTVSPost2010Prop28
280
     0
102
RTVSPost2010PropOp28
 70
     1
102
RTVSPost2010Prop29
280
     1
102
RTVSPost2010PropOp29
 70
     1
102
RTVSPost2010Prop30
280
     1
102
RTVSPost2010PropOp30
 70
     1
102
RTVSPost2010Prop31
280
     0
102
RTVSPost2010PropOp31
 70
     1
102
RTVSPost2010Prop32
280
     0
102
RTVSPost2010PropOp32
 70
     1
102
RTVSPost2010Prop33
280
     0
102
RTVSPost2010PropOp33
 70
     1
102
RTVSPost2010Prop34
280
     0
102
RTVSPost2010PropOp34
 70
     1
102
RTVSPost2010Prop35
280
     0
102
RTVSPost2010PropOp35
 70
     1
102
RTVSPost2010Prop36
280
     0
102
RTVSPost2010PropOp36
 70
     1
102
RTVSPost2010Prop37
 90
       50
102
RTVSPost2010PropOp37
 70
     1
102
RTVSPost2010Prop38
140
0.0
102
RTVSPost2010PropOp38
 70
     1
102
RTVSPost2010Prop39
140
1.0
102
RTVSPost2010PropOp39
 70
     1
102
RTVSPost2010Prop40
 90
        0
102
RTVSPost2010PropOp40
 70
     1
102
RTVSPost2010Prop41ColorIndex
 90
       18
102
RTVSPost2010Prop41ColorRGB
 90
        0
102
RTVSPost2010PropOp41
 70
     1
102
RTVSPost2010Prop42
 90
       50
102
RTVSPost2010PropOp42
 70
     1
102
RTVSPost2010Prop43
 90
        3
102
RTVSPost2010PropOp43
 70
     1
102
RTVSPost2010Prop44ColorIndex
 90
        5
102
RTVSPost2010Prop44ColorRGB
 90
      255
102
RTVSPost2010PropOp44
 70
     1
102
RTVSPost2010Prop45
280
     0
102
RTVSPost2010PropOp45
 70
     1
102
RTVSPost2010Prop46
 90
       50
102
RTVSPost2010PropOp46
 70
     1
102
RTVSPost2010Prop47
 90
       50
102
RTVSPost2010PropOp47
 70
     1
102
RTVSPost2010Prop48
 90
       50
102
RTVSPost2010PropOp48
 70
     1
102
RTVSPost2010Prop49
280
     0
102
RTVSPost2010PropOp49
 70
     1
102
RTVSPost2010Prop50
 90
       50
102
RTVSPost2010PropOp50
 70
     1
102
RTVSPost2010Prop51ColorIndex
 90
      256
102
RTVSPost2010Prop51ColorRGB
 90
-16777216
102
RTVSPost2010PropOp51
 70
     0
102
RTVSPost2010Prop52
140
1.0
102
RTVSPost2010PropOp52
 70
     0
102
RTVSPost2010Prop53
 90
        2
102
RTVSPost2010PropOp53
 70
     1
102
RTVSPost2010Prop54
  1
strokes_ogs.tif
102
RTVSPost2010PropOp54
 70
     1
102
RTVSPost2010Prop55
280
     0
102
RTVSPost2010PropOp55
 70
     1
102
RTVSPost2010Prop56
140
1.0
102
RTVSPost2010PropOp56
 70
     1
102
RTVSPost2010Prop57
140
1.0
102
RTVSPost2010PropOp57
 70
     1
  0
XRECORD
  5
AE
102
{ACAD_REACTORS
330
AD
102
}
330
AD
100
AcDbXrecord
280
     1
102
RTVSPropertyOp0
 70
     1
102
RTVSPropertyOp1
 70
     1
102
RTVSPropertyOp2
 70
     1
102
RTVSPropertyOp3
 70
     1
102
RTVSPropertyOp4
 70
     1
102
RTVSPropertyOp5
 70
     1
102
RTVSPropertyOp6
 70
     1
102
RTVSPropertyOp7
 70
     1
102
RTVSPropertyOp8
 70
     1
102
RTVSPropertyOp9
 70
     1
102
RTVSPropertyOp10
 70
     1
102
RTVSPropertyOp11
 70
     1
102
RTVSPropertyOp12
 70
     1
102
RTVSPropertyOp13
 70
     1
102
RTVSPropertyOp14
 70
     1
102
RTVSPropertyOp15
 70
     1
102
RTVSPropertyOp16
 70
     1
102
RTVSPropertyOp17
 70
     1
102
RTVSPropertyOp18
 70
     1
102
RTVSPropertyOp19
 70
     1
102
RTVSPropertyOp20
 70
     1
102
RTVSPropertyOp21
 70
     1
102
RTVSPropertyOp22
 70
     1
102
RTVSPropertyOp23
 70
     1
102
RTVSPropertyOp24
 70
     1
102
RTVSPropertyOp25
 70
     1
102
RTVSPropertyOp26
 70
     1
102
RTVSPropertyOp27
 70
     1
102
RTVSPropertyOp28
 70
     1
102
RTVSPropertyOp29
 70
     1
102
RTVSPropertyOp30
 70
     1
102
RTVSPropertyOp31
 70
     1
102
RTVSPropertyOp32
 70
     1
102
RTVSPropertyOp33
 70
     1
102
RTVSPropertyOp34
 70
     1
102
RTVSPropertyOp35
 70
     1
102
RTVSPropertyOp36
 70
     1
102
RTVSPropertyOp37
 70
     1
102
RTVSPropertyOp38
 70
     1
102
RTVSPropertyOp39
 70
     1
102
RTVSPropertyOp40
 70
     1
102
RTVSPropertyOp41
 70
     1
102
RTVSPropertyOp42
 70
     1
102
RTVSPropertyOp43
 70
     1
102
RTVSPropertyOp44
 70
     1
102
RTVSPropertyOp45
 70
     1
102
RTVSPropertyOp46
 70
     1
102
RTVSPropertyOp47
 70
     1
102
RTVSPropertyOp48
 70
     1
102
RTVSPropertyOp49
 70
     1
102
RTVSPropertyOp50
 70
     1
102
RTVSPropertyOp51
 70
     0
102
RTVSPropertyOp52
 70
     0
102
RTVSPropertyOp53
 70
     1
102
RTVSPropertyOp54
 70
     1
102
RTVSPropertyOp55
 70
     1
102
RTVSPropertyOp56
 70
     1
102
RTVSPropertyOp57
 70
     1
102
RTVSPost2010Prop28
280
     0
102
RTVSPost2010PropOp28
 70
     1
102
RTVSPost2010Prop29
280
     1
102
RTVSPost2010PropOp29
 70
     1
102
RTVSPost2010Prop30
280
     1
102
RTVSPost2010PropOp30
 70
     1
102
RTVSPost2010Prop31
280
     0
102
RTVSPost2010PropOp31
 70
     1
102
RTVSPost2010Prop32
280
     0
102
RTVSPost2010PropOp32
 70
     1
102
RTVSPost2010Prop33
280
     0
102
RTVSPost2010PropOp33
 70
     1
102
RTVSPost2010Prop34
280
     0
102
RTVSPost2010PropOp34
 70
     1
102
RTVSPost2010Prop35
280
     0
102
RTVSPost2010PropOp35
 70
     1
102
RTVSPost2010Prop36
280
     0
102
RTVSPost2010PropOp36
 70
     1
102
RTVSPost2010Prop37
 90
       50
102
RTVSPost2010PropOp37
 70
     1
102
RTVSPost2010Prop38
140
0.0
102
RTVSPost2010PropOp38
 70
     1
102
RTVSPost2010Prop39
140
1.0
102
RTVSPost2010PropOp39
 70
     1
102
RTVSPost2010Prop40
 90
        0
102
RTVSPost2010PropOp40
 70
     1
102
RTVSPost2010Prop41ColorIndex
 90
       18
102
RTVSPost2010Prop41ColorRGB
 90
        0
102
RTVSPost2010PropOp41
 70
     1
102
RTVSPost2010Prop42
 90
       50
102
RTVSPost2010PropOp42
 70
     1
102
RTVSPost2010Prop43
 90
        3
102
RTVSPost2010PropOp43
 70
     1
102
RTVSPost2010Prop44ColorIndex
 90
        5
102
RTVSPost2010Prop44ColorRGB
 90
      255
102
RTVSPost2010PropOp44
 70
     1
102
RTVSPost2010Prop45
280
     0
102
RTVSPost2010PropOp45
 70
     1
102
RTVSPost2010Prop46
 90
       50
102
RTVSPost2010PropOp46
 70
     1
102
RTVSPost2010Prop47
 90
       50
102
RTVSPost2010PropOp47
 70
     1
102
RTVSPost2010Prop48
 90
       50
102
RTVSPost2010PropOp48
 70
     1
102
RTVSPost2010Prop49
280
     0
102
RTVSPost2010PropOp49
 70
     1
102
RTVSPost2010Prop50
 90
       50
102
RTVSPost2010PropOp50
 70
     1
102
RTVSPost2010Prop51ColorIndex
 90
      256
102
RTVSPost2010Prop51ColorRGB
 90
-16777216
102
RTVSPost2010PropOp51
 70
     0
102
RTVSPost2010Prop52
140
1.0
102
RTVSPost2010PropOp52
 70
     0
102
RTVSPost2010Prop53
 90
        2
102
RTVSPost2010PropOp53
 70
     1
102
RTVSPost2010Prop54
  1
strokes_ogs.tif
102
RTVSPost2010PropOp54
 70
     1
102
RTVSPost2010Prop55
280
     0
102
RTVSPost2010PropOp55
 70
     1
102
RTVSPost2010Prop56
140
1.0
102
RTVSPost2010PropOp56
 70
     1
102
RTVSPost2010Prop57
140
1.0
102
RTVSPost2010PropOp57
 70
     1
  0
XRECORD
  5
B0
102
{ACAD_REACTORS
330
AF
102
}
330
AF
100
AcDbXrecord
280
     1
102
RTVSPropertyOp0
 70
     1
102
RTVSPropertyOp1
 70
     1
102
RTVSPropertyOp2
 70
     1
102
RTVSPropertyOp3
 70
     1
102
RTVSPropertyOp4
 70
     1
102
RTVSPropertyOp5
 70
     1
102
RTVSPropertyOp6
 70
     1
102
RTVSPropertyOp7
 70
     1
102
RTVSPropertyOp8
 70
     1
102
RTVSPropertyOp9
 70
     1
102
RTVSPropertyOp10
 70
     1
102
RTVSPropertyOp11
 70
     1
102
RTVSPropertyOp12
 70
     1
102
RTVSPropertyOp13
 70
     1
102
RTVSPropertyOp14
 70
     1
102
RTVSPropertyOp15
 70
     1
102
RTVSPropertyOp16
 70
     1
102
RTVSPropertyOp17
 70
     1
102
RTVSPropertyOp18
 70
     1
102
RTVSPropertyOp19
 70
     1
102
RTVSPropertyOp20
 70
     1
102
RTVSPropertyOp21
 70
     1
102
RTVSPropertyOp22
 70
     1
102
RTVSPropertyOp23
 70
     1
102
RTVSPropertyOp24
 70
     1
102
RTVSPropertyOp25
 70
     1
102
RTVSPropertyOp26
 70
     1
102
RTVSPropertyOp27
 70
     1
102
RTVSPropertyOp28
 70
     1
102
RTVSPropertyOp29
 70
     1
102
RTVSPropertyOp30
 70
     1
102
RTVSPropertyOp31
 70
     1
102
RTVSPropertyOp32
 70
     1
102
RTVSPropertyOp33
 70
     1
102
RTVSPropertyOp34
 70
     1
102
RTVSPropertyOp35
 70
     1
102
RTVSPropertyOp36
 70
     1
102
RTVSPropertyOp37
 70
     1
102
RTVSPropertyOp38
 70
     1
102
RTVSPropertyOp39
 70
     1
102
RTVSPropertyOp40
 70
     1
102
RTVSPropertyOp41
 70
     1
102
RTVSPropertyOp42
 70
     1
102
RTVSPropertyOp43
 70
     1
102
RTVSPropertyOp44
 70
     1
102
RTVSPropertyOp45
 70
     1
102
RTVSPropertyOp46
 70
     1
102
RTVSPropertyOp47
 70
     1
102
RTVSPropertyOp48
 70
     1
102
RTVSPropertyOp49
 70
     1
102
RTVSPropertyOp50
 70
     1
102
RTVSPropertyOp51
 70
     0
102
RTVSPropertyOp52
 70
     0
102
RTVSPropertyOp53
 70
     1
102
RTVSPropertyOp54
 70
     1
102
RTVSPropertyOp55
 70
     1
102
RTVSPropertyOp56
 70
     1
102
RTVSPropertyOp57
 70
     1
102
RTVSPost2010Prop28
280
     0
102
RTVSPost2010PropOp28
 70
     1
102
RTVSPost2010Prop29
280
     1
102
RTVSPost2010PropOp29
 70
     1
102
RTVSPost2010Prop30
280
     1
102
RTVSPost2010PropOp30
 70
     1
102
RTVSPost2010Prop31
280
     0
102
RTVSPost2010PropOp31
 70
     1
102
RTVSPost2010Prop32
280
     0
102
RTVSPost2010PropOp32
 70
     1
102
RTVSPost2010Prop33
280
     0
102
RTVSPost2010PropOp33
 70
     1
102
RTVSPost2010Prop34
280
     0
102
RTVSPost2010PropOp34
 70
     1
102
RTVSPost2010Prop35
280
     0
102
RTVSPost2010PropOp35
 70
     1
102
RTVSPost2010Prop36
280
     0
102
RTVSPost2010PropOp36
 70
     1
102
RTVSPost2010Prop37
 90
       50
102
RTVSPost2010PropOp37
 70
     1
102
RTVSPost2010Prop38
140
0.0
102
RTVSPost2010PropOp38
 70
     1
102
RTVSPost2010Prop39
140
1.0
102
RTVSPost2010PropOp39
 70
     1
102
RTVSPost2010Prop40
 90
        0
102
RTVSPost2010PropOp40
 70
     1
102
RTVSPost2010Prop41ColorIndex
 90
       18
102
RTVSPost2010Prop41ColorRGB
 90
        0
102
RTVSPost2010PropOp41
 70
     1
102
RTVSPost2010Prop42
 90
       50
102
RTVSPost2010PropOp42
 70
     1
102
RTVSPost2010Prop43
 90
        3
102
RTVSPost2010PropOp43
 70
     1
102
RTVSPost2010Prop44ColorIndex
 90
        5
102
RTVSPost2010Prop44ColorRGB
 90
      255
102
RTVSPost2010PropOp44
 70
     1
102
RTVSPost2010Prop45
280
     0
102
RTVSPost2010PropOp45
 70
     1
102
RTVSPost2010Prop46
 90
       50
102
RTVSPost2010PropOp46
 70
     1
102
RTVSPost2010Prop47
 90
       50
102
RTVSPost2010PropOp47
 70
     1
102
RTVSPost2010Prop48
 90
       50
102
RTVSPost2010PropOp48
 70
     1
102
RTVSPost2010Prop49
280
     0
102
RTVSPost2010PropOp49
 70
     1
102
RTVSPost2010Prop50
 90
       50
102
RTVSPost2010PropOp50
 70
     1
102
RTVSPost2010Prop51ColorIndex
 90
      256
102
RTVSPost2010Prop51ColorRGB
 90
-16777216
102
RTVSPost2010PropOp51
 70
     0
102
RTVSPost2010Prop52
140
1.0
102
RTVSPost2010PropOp52
 70
     0
102
RTVSPost2010Prop53
 90
        2
102
RTVSPost2010PropOp53
 70
     1
102
RTVSPost2010Prop54
  1
strokes_ogs.tif
102
RTVSPost2010PropOp54
 70
     1
102
RTVSPost2010Prop55
280
     0
102
RTVSPost2010PropOp55
 70
     1
102
RTVSPost2010Prop56
140
1.0
102
RTVSPost2010PropOp56
 70
     1
102
RTVSPost2010Prop57
140
1.0
102
RTVSPost2010PropOp57
 70
     1
  0
XRECORD
  5
A0
102
{ACAD_REACTORS
330
9F
102
}
330
9F
100
AcDbXrecord
280
     1
102
RTVSPropertyOp0
 70
     1
102
RTVSPropertyOp1
 70
     1
102
RTVSPropertyOp2
 70
     1
102
RTVSPropertyOp3
 70
     1
102
RTVSPropertyOp4
 70
     1
102
RTVSPropertyOp5
 70
     1
102
RTVSPropertyOp6
 70
     1
102
RTVSPropertyOp7
 70
     1
102
RTVSPropertyOp8
 70
     1
102
RTVSPropertyOp9
 70
     1
102
RTVSPropertyOp10
 70
     1
102
RTVSPropertyOp11
 70
     1
102
RTVSPropertyOp12
 70
     1
102
RTVSPropertyOp13
 70
     1
102
RTVSPropertyOp14
 70
     1
102
RTVSPropertyOp15
 70
     1
102
RTVSPropertyOp16
 70
     1
102
RTVSPropertyOp17
 70
     1
102
RTVSPropertyOp18
 70
     1
102
RTVSPropertyOp19
 70
     1
102
RTVSPropertyOp20
 70
     1
102
RTVSPropertyOp21
 70
     1
102
RTVSPropertyOp22
 70
     1
102
RTVSPropertyOp23
 70
     1
102
RTVSPropertyOp24
 70
     1
102
RTVSPropertyOp25
 70
     1
102
RTVSPropertyOp26
 70
     1
102
RTVSPropertyOp27
 70
     1
102
RTVSPropertyOp28
 70
     1
102
RTVSPropertyOp29
 70
     1
102
RTVSPropertyOp30
 70
     1
102
RTVSPropertyOp31
 70
     1
102
RTVSPropertyOp32
 70
     1
102
RTVSPropertyOp33
 70
     1
102
RTVSPropertyOp34
 70
     1
102
RTVSPropertyOp35
 70
     1
102
RTVSPropertyOp36
 70
     1
102
RTVSPropertyOp37
 70
     1
102
RTVSPropertyOp38
 70
     1
102
RTVSPropertyOp39
 70
     1
102
RTVSPropertyOp40
 70
     1
102
RTVSPropertyOp41
 70
     1
102
RTVSPropertyOp42
 70
     1
102
RTVSPropertyOp43
 70
     1
102
RTVSPropertyOp44
 70
     1
102
RTVSPropertyOp45
 70
     1
102
RTVSPropertyOp46
 70
     1
102
RTVSPropertyOp47
 70
     1
102
RTVSPropertyOp48
 70
     1
102
RTVSPropertyOp49
 70
     1
102
RTVSPropertyOp50
 70
     1
102
RTVSPropertyOp51
 70
     0
102
RTVSPropertyOp52
 70
     0
102
RTVSPropertyOp53
 70
     1
102
RTVSPropertyOp54
 70
     1
102
RTVSPropertyOp55
 70
     1
102
RTVSPropertyOp56
 70
     1
102
RTVSPropertyOp57
 70
     1
102
RTVSPost2010Prop28
280
     0
102
RTVSPost2010PropOp28
 70
     1
102
RTVSPost2010Prop29
280
     1
102
RTVSPost2010PropOp29
 70
     1
102
RTVSPost2010Prop30
280
     1
102
RTVSPost2010PropOp30
 70
     1
102
RTVSPost2010Prop31
280
     0
102
RTVSPost2010PropOp31
 70
     1
102
RTVSPost2010Prop32
280
     0
102
RTVSPost2010PropOp32
 70
     1
102
RTVSPost2010Prop33
280
     0
102
RTVSPost2010PropOp33
 70
     1
102
RTVSPost2010Prop34
280
     0
102
RTVSPost2010PropOp34
 70
     1
102
RTVSPost2010Prop35
280
     0
102
RTVSPost2010PropOp35
 70
     1
102
RTVSPost2010Prop36
280
     0
102
RTVSPost2010PropOp36
 70
     1
102
RTVSPost2010Prop37
 90
       50
102
RTVSPost2010PropOp37
 70
     1
102
RTVSPost2010Prop38
140
0.0
102
RTVSPost2010PropOp38
 70
     1
102
RTVSPost2010Prop39
140
1.0
102
RTVSPost2010PropOp39
 70
     1
102
RTVSPost2010Prop40
 90
        0
102
RTVSPost2010PropOp40
 70
     1
102
RTVSPost2010Prop41ColorIndex
 90
       18
102
RTVSPost2010Prop41ColorRGB
 90
        0
102
RTVSPost2010PropOp41
 70
     1
102
RTVSPost2010Prop42
 90
       50
102
RTVSPost2010PropOp42
 70
     1
102
RTVSPost2010Prop43
 90
        3
102
RTVSPost2010PropOp43
 70
     1
102
RTVSPost2010Prop44ColorIndex
 90
        5
102
RTVSPost2010Prop44ColorRGB
 90
      255
102
RTVSPost2010PropOp44
 70
     1
102
RTVSPost2010Prop45
280
     0
102
RTVSPost2010PropOp45
 70
     1
102
RTVSPost2010Prop46
 90
       50
102
RTVSPost2010PropOp46
 70
     1
102
RTVSPost2010Prop47
 90
       50
102
RTVSPost2010PropOp47
 70
     1
102
RTVSPost2010Prop48
 90
       50
102
RTVSPost2010PropOp48
 70
     1
102
RTVSPost2010Prop49
280
     0
102
RTVSPost2010PropOp49
 70
     1
102
RTVSPost2010Prop50
 90
       50
102
RTVSPost2010PropOp50
 70
     1
102
RTVSPost2010Prop51ColorIndex
 90
      256
102
RTVSPost2010Prop51ColorRGB
 90
-16777216
102
RTVSPost2010PropOp51
 70
     0
102
RTVSPost2010Prop52
140
1.0
102
RTVSPost2010PropOp52
 70
     0
102
RTVSPost2010Prop53
 90
        2
102
RTVSPost2010PropOp53
 70
     1
102
RTVSPost2010Prop54
  1
strokes_ogs.tif
102
RTVSPost2010PropOp54
 70
     1
102
RTVSPost2010Prop55
280
     0
102
RTVSPost2010PropOp55
 70
     1
102
RTVSPost2010Prop56
140
1.0
102
RTVSPost2010PropOp56
 70
     1
102
RTVSPost2010Prop57
140
1.0
102
RTVSPost2010PropOp57
 70
     1
  0
XRECORD
  5
92
102
{ACAD_REACTORS
330
91
102
}
330
91
100
AcDbXrecord
280
     1
102
RTVSPropertyOp0
 70
     1
102
RTVSPropertyOp1
 70
     1
102
RTVSPropertyOp2
 70
     1
102
RTVSPropertyOp3
 70
     1
102
RTVSPropertyOp4
 70
     1
102
RTVSPropertyOp5
 70
     1
102
RTVSPropertyOp6
 70
     1
102
RTVSPropertyOp7
 70
     1
102
RTVSPropertyOp8
 70
     1
102
RTVSPropertyOp9
 70
     1
102
RTVSPropertyOp10
 70
     1
102
RTVSPropertyOp11
 70
     1
102
RTVSPropertyOp12
 70
     1
102
RTVSPropertyOp13
 70
     1
102
RTVSPropertyOp14
 70
     1
102
RTVSPropertyOp15
 70
     1
102
RTVSPropertyOp16
 70
     1
102
RTVSPropertyOp17
 70
     1
102
RTVSPropertyOp18
 70
     1
102
RTVSPropertyOp19
 70
     1
102
RTVSPropertyOp20
 70
     1
102
RTVSPropertyOp21
 70
     1
102
RTVSPropertyOp22
 70
     1
102
RTVSPropertyOp23
 70
     1
102
RTVSPropertyOp24
 70
     1
102
RTVSPropertyOp25
 70
     1
102
RTVSPropertyOp26
 70
     1
102
RTVSPropertyOp27
 70
     1
102
RTVSPropertyOp28
 70
     1
102
RTVSPropertyOp29
 70
     1
102
RTVSPropertyOp30
 70
     1
102
RTVSPropertyOp31
 70
     1
102
RTVSPropertyOp32
 70
     1
102
RTVSPropertyOp33
 70
     1
102
RTVSPropertyOp34
 70
     1
102
RTVSPropertyOp35
 70
     1
102
RTVSPropertyOp36
 70
     1
102
RTVSPropertyOp37
 70
     1
102
RTVSPropertyOp38
 70
     1
102
RTVSPropertyOp39
 70
     1
102
RTVSPropertyOp40
 70
     1
102
RTVSPropertyOp41
 70
     1
102
RTVSPropertyOp42
 70
     1
102
RTVSPropertyOp43
 70
     1
102
RTVSPropertyOp44
 70
     1
102
RTVSPropertyOp45
 70
     1
102
RTVSPropertyOp46
 70
     1
102
RTVSPropertyOp47
 70
     1
102
RTVSPropertyOp48
 70
     1
102
RTVSPropertyOp49
 70
     1
102
RTVSPropertyOp50
 70
     1
102
RTVSPropertyOp51
 70
     0
102
RTVSPropertyOp52
 70
     0
102
RTVSPropertyOp53
 70
     1
102
RTVSPropertyOp54
 70
     1
102
RTVSPropertyOp55
 70
     1
102
RTVSPropertyOp56
 70
     1
102
RTVSPropertyOp57
 70
     1
102
RTVSPost2010Prop28
280
     0
102
RTVSPost2010PropOp28
 70
     1
102
RTVSPost2010Prop29
280
     1
102
RTVSPost2010PropOp29
 70
     1
102
RTVSPost2010Prop30
280
     1
102
RTVSPost2010PropOp30
 70
     1
102
RTVSPost2010Prop31
280
     0
102
RTVSPost2010PropOp31
 70
     1
102
RTVSPost2010Prop32
280
     0
102
RTVSPost2010PropOp32
 70
     1
102
RTVSPost2010Prop33
280
     0
102
RTVSPost2010PropOp33
 70
     1
102
RTVSPost2010Prop34
280
     0
102
RTVSPost2010PropOp34
 70
     1
102
RTVSPost2010Prop35
280
     0
102
RTVSPost2010PropOp35
 70
     1
102
RTVSPost2010Prop36
280
     0
102
RTVSPost2010PropOp36
 70
     1
102
RTVSPost2010Prop37
 90
       50
102
RTVSPost2010PropOp37
 70
     1
102
RTVSPost2010Prop38
140
0.0
102
RTVSPost2010PropOp38
 70
     1
102
RTVSPost2010Prop39
140
1.0
102
RTVSPost2010PropOp39
 70
     1
102
RTVSPost2010Prop40
 90
        0
102
RTVSPost2010PropOp40
 70
     1
102
RTVSPost2010Prop41ColorIndex
 90
       18
102
RTVSPost2010Prop41ColorRGB
 90
        0
102
RTVSPost2010PropOp41
 70
     1
102
RTVSPost2010Prop42
 90
       50
102
RTVSPost2010PropOp42
 70
     1
102
RTVSPost2010Prop43
 90
        3
102
RTVSPost2010PropOp43
 70
     1
102
RTVSPost2010Prop44ColorIndex
 90
        5
102
RTVSPost2010Prop44ColorRGB
 90
      255
102
RTVSPost2010PropOp44
 70
     1
102
RTVSPost2010Prop45
280
     0
102
RTVSPost2010PropOp45
 70
     1
102
RTVSPost2010Prop46
 90
       50
102
RTVSPost2010PropOp46
 70
     1
102
RTVSPost2010Prop47
 90
       50
102
RTVSPost2010PropOp47
 70
     1
102
RTVSPost2010Prop48
 90
       50
102
RTVSPost2010PropOp48
 70
     1
102
RTVSPost2010Prop49
280
     0
102
RTVSPost2010PropOp49
 70
     1
102
RTVSPost2010Prop50
 90
       50
102
RTVSPost2010PropOp50
 70
     1
102
RTVSPost2010Prop51ColorIndex
 90
      256
102
RTVSPost2010Prop51ColorRGB
 90
-16777216
102
RTVSPost2010PropOp51
 70
     0
102
RTVSPost2010Prop52
140
1.0
102
RTVSPost2010PropOp52
 70
     0
102
RTVSPost2010Prop53
 90
        2
102
RTVSPost2010PropOp53
 70
     1
102
RTVSPost2010Prop54
  1
strokes_ogs.tif
102
RTVSPost2010PropOp54
 70
     1
102
RTVSPost2010Prop55
280
     0
102
RTVSPost2010PropOp55
 70
     1
102
RTVSPost2010Prop56
140
1.0
102
RTVSPost2010PropOp56
 70
     1
102
RTVSPost2010Prop57
140
1.0
102
RTVSPost2010PropOp57
 70
     1
  0
XRECORD
  5
B2
102
{ACAD_REACTORS
330
B1
102
}
330
B1
100
AcDbXrecord
280
     1
102
RTVSPropertyOp0
 70
     1
102
RTVSPropertyOp1
 70
     1
102
RTVSPropertyOp2
 70
     1
102
RTVSPropertyOp3
 70
     1
102
RTVSPropertyOp4
 70
     1
102
RTVSPropertyOp5
 70
     1
102
RTVSPropertyOp6
 70
     1
102
RTVSPropertyOp7
 70
     1
102
RTVSPropertyOp8
 70
     1
102
RTVSPropertyOp9
 70
     1
102
RTVSPropertyOp10
 70
     1
102
RTVSPropertyOp11
 70
     1
102
RTVSPropertyOp12
 70
     1
102
RTVSPropertyOp13
 70
     1
102
RTVSPropertyOp14
 70
     1
102
RTVSPropertyOp15
 70
     1
102
RTVSPropertyOp16
 70
     1
102
RTVSPropertyOp17
 70
     1
102
RTVSPropertyOp18
 70
     1
102
RTVSPropertyOp19
 70
     1
102
RTVSPropertyOp20
 70
     1
102
RTVSPropertyOp21
 70
     1
102
RTVSPropertyOp22
 70
     1
102
RTVSPropertyOp23
 70
     1
102
RTVSPropertyOp24
 70
     1
102
RTVSPropertyOp25
 70
     1
102
RTVSPropertyOp26
 70
     1
102
RTVSPropertyOp27
 70
     1
102
RTVSPropertyOp28
 70
     1
102
RTVSPropertyOp29
 70
     1
102
RTVSPropertyOp30
 70
     1
102
RTVSPropertyOp31
 70
     1
102
RTVSPropertyOp32
 70
     1
102
RTVSPropertyOp33
 70
     1
102
RTVSPropertyOp34
 70
     1
102
RTVSPropertyOp35
 70
     1
102
RTVSPropertyOp36
 70
     1
102
RTVSPropertyOp37
 70
     1
102
RTVSPropertyOp38
 70
     1
102
RTVSPropertyOp39
 70
     1
102
RTVSPropertyOp40
 70
     1
102
RTVSPropertyOp41
 70
     1
102
RTVSPropertyOp42
 70
     1
102
RTVSPropertyOp43
 70
     1
102
RTVSPropertyOp44
 70
     1
102
RTVSPropertyOp45
 70
     1
102
RTVSPropertyOp46
 70
     1
102
RTVSPropertyOp47
 70
     1
102
RTVSPropertyOp48
 70
     1
102
RTVSPropertyOp49
 70
     1
102
RTVSPropertyOp50
 70
     1
102
RTVSPropertyOp51
 70
     0
102
RTVSPropertyOp52
 70
     0
102
RTVSPropertyOp53
 70
     1
102
RTVSPropertyOp54
 70
     1
102
RTVSPropertyOp55
 70
     1
102
RTVSPropertyOp56
 70
     1
102
RTVSPropertyOp57
 70
     1
102
RTVSPost2010Prop28
280
     0
102
RTVSPost2010PropOp28
 70
     1
102
RTVSPost2010Prop29
280
     1
102
RTVSPost2010PropOp29
 70
     1
102
RTVSPost2010Prop30
280
     1
102
RTVSPost2010PropOp30
 70
     1
102
RTVSPost2010Prop31
280
     0
102
RTVSPost2010PropOp31
 70
     1
102
RTVSPost2010Prop32
280
     0
102
RTVSPost2010PropOp32
 70
     1
102
RTVSPost2010Prop33
280
     0
102
RTVSPost2010PropOp33
 70
     1
102
RTVSPost2010Prop34
280
     0
102
RTVSPost2010PropOp34
 70
     1
102
RTVSPost2010Prop35
280
     0
102
RTVSPost2010PropOp35
 70
     1
102
RTVSPost2010Prop36
280
     0
102
RTVSPost2010PropOp36
 70
     1
102
RTVSPost2010Prop37
 90
       50
102
RTVSPost2010PropOp37
 70
     1
102
RTVSPost2010Prop38
140
0.0
102
RTVSPost2010PropOp38
 70
     1
102
RTVSPost2010Prop39
140
1.0
102
RTVSPost2010PropOp39
 70
     1
102
RTVSPost2010Prop40
 90
        0
102
RTVSPost2010PropOp40
 70
     1
102
RTVSPost2010Prop41ColorIndex
 90
       18
102
RTVSPost2010Prop41ColorRGB
 90
        0
102
RTVSPost2010PropOp41
 70
     1
102
RTVSPost2010Prop42
 90
       50
102
RTVSPost2010PropOp42
 70
     1
102
RTVSPost2010Prop43
 90
        3
102
RTVSPost2010PropOp43
 70
     1
102
RTVSPost2010Prop44ColorIndex
 90
        5
102
RTVSPost2010Prop44ColorRGB
 90
      255
102
RTVSPost2010PropOp44
 70
     1
102
RTVSPost2010Prop45
280
     0
102
RTVSPost2010PropOp45
 70
     1
102
RTVSPost2010Prop46
 90
       50
102
RTVSPost2010PropOp46
 70
     1
102
RTVSPost2010Prop47
 90
       50
102
RTVSPost2010PropOp47
 70
     1
102
RTVSPost2010Prop48
 90
       50
102
RTVSPost2010PropOp48
 70
     1
102
RTVSPost2010Prop49
280
     0
102
RTVSPost2010PropOp49
 70
     1
102
RTVSPost2010Prop50
 90
       50
102
RTVSPost2010PropOp50
 70
     1
102
RTVSPost2010Prop51ColorIndex
 90
      256
102
RTVSPost2010Prop51ColorRGB
 90
-16777216
102
RTVSPost2010PropOp51
 70
     0
102
RTVSPost2010Prop52
140
1.0
102
RTVSPost2010PropOp52
 70
     0
102
RTVSPost2010Prop53
 90
        2
102
RTVSPost2010PropOp53
 70
     1
102
RTVSPost2010Prop54
  1
strokes_ogs.tif
102
RTVSPost2010PropOp54
 70
     1
102
RTVSPost2010Prop55
280
     0
102
RTVSPost2010PropOp55
 70
     1
102
RTVSPost2010Prop56
140
1.0
102
RTVSPost2010PropOp56
 70
     1
102
RTVSPost2010Prop57
140
1.0
102
RTVSPost2010PropOp57
 70
     1
  0
ENDSEC
  0
EOF
