0
SECTION
2
HEADER
9
$INSUNITS
70
4
9
$ACADVER
1
AC1014
9
$HANDSEED
5
FFFF
0
ENDSEC
0
SECTION
2
TABLES
0
TABLE
2
VPORT
5
8
100
AcDbSymbolTable
0
ENDTAB
0
TABLE
2
LTYPE
5
5
100
AcDbSymbolTable
0
LTYPE
5
14
100
AcDbSymbolTableRecord
100
AcDbLinetypeTableRecord
2
BYBLOCK
70
0
0
LTYPE
5
15
100
AcDbSymbolTableRecord
100
AcDbLinetypeTableRecord
2
BYLAYER
70
0
0
ENDTAB
0
TABLE
2
LAYER
5
2
100
AcDbSymbolTable
70
2
0
LAYER
5
50
100
AcDbSymbolTableRecord
100
AcDbLayerTableRecord
2
0
70
0
6
CONTINUOUS
0
ENDTAB
0
TABLE
2
STYLE
5
3
100
AcDbSymbolTable
70
1
0
STYLE
5
11
100
AcDbSymbolTableRecord
100
AcDbTextStyleTableRecord
2
STANDARD
70
0
0
ENDTAB
0
TABLE
2
VIEW
5
6
100
AcDbSymbolTable
70
0
0
ENDTAB
0
TABLE
2
UCS
5
7
100
AcDbSymbolTable
70
0
0
ENDTAB
0
TABLE
2
APPID
5
9
100
AcDbSymbolTable
70
2
0
APPID
5
12
100
AcDbSymbolTableRecord
100
AcDbRegAppTableRecord
2
ACAD
70
0
0
ENDTAB
0
TABLE
2
DIMSTYLE
5
A
100
AcDbSymbolTable
70
1
0
ENDTAB
0
TABLE
2
BLOCK_RECORD
5
1
100
AcDbSymbolTable
70
1
0
BLOCK_RECORD
5
1F
100
AcDbSymbolTableRecord
100
AcDbBlockTableRecord
2
*MODEL_SPACE
0
BLOCK_RECORD
5
1B
100
AcDbSymbolTableRecord
100
AcDbBlockTableRecord
2
*PAPER_SPACE
0
ENDTAB
0
ENDSEC
0
SECTION
2
BLOCKS
0
BLOCK
5
20
100
AcDbEntity
100
AcDbBlockBegin
2
*MODEL_SPACE
0
ENDBLK
5
21
100
AcDbEntity
100
AcDbBlockEnd
0
BLOCK
5
1C
100
AcDbEntity
100
AcDbBlockBegin
2
*PAPER_SPACE
0
ENDBLK
5
1D
100
AcDbEntity
100
AcDbBlockEnd
0
ENDSEC
0
SECTION
2
ENTITIES
0
LWPOLYLINE
5
100
100
AcDbEntity
8
0
100
AcDbPolyline
90
20
70
1
43
0.0
10
57.796047161555904
20
14.42658850487712
10
-82.203952838443982
20
14.426588504877206
10
-82.203952838443968
20
34.426588504877188
10
-76.203952838443982
20
34.426588504877181
10
-76.203952838443996
20
40.426588504877181
10
-82.203952838443954
20
40.426588504877202
10
-82.203952838443939
20
99.970588504877171
10
-76.203952838443939
20
99.970588504877171
10
-76.203952838443939
20
105.97058850487716
10
-82.203952838443954
20
105.97058850487716
10
-82.203952838443911
20
125.97058850487718
10
57.796047161555975
20
125.9705885048771
10
57.796047161555961
20
105.9705885048771
10
51.796047161555961
20
105.97058850487707
10
51.796047161555961
20
99.970588504877071
10
57.796047161555961
20
99.970588504877071
10
57.796047161555904
20
40.426588504877103
10
51.796047161555919
20
40.42658850487711
10
51.796047161555933
20
34.42658850487711
10
57.796047161555919
20
34.42658850487711
0
LWPOLYLINE
5
101
100
AcDbEntity
8
0
100
AcDbPolyline
90
4
70
1
43
0.0
10
21.796047161555965
20
58.426588504877124
10
21.796047161555943
20
28.426588504877131
10
43.796047161555933
20
28.42658850487712
10
43.79604716155594
20
58.426588504877095
0
CIRCLE
5
102
100
AcDbEntity
8
0
100
AcDbCircle
10
32.796047161555975
20
100.9705885048771
30
0
40
10.999999999999996
210
-1.1414077589522497e-31
220
5.5511151231257827e-17
230
1
0
LWPOLYLINE
5
103
100
AcDbEntity
8
0
100
AcDbPolyline
90
4
70
1
43
0.0
10
7.7960471615559701
20
66.698588504877108
10
-68.203952838443968
20
66.698588504877151
10
-68.203952838443996
20
28.426588504877181
10
7.7960471615559479
20
28.426588504877124
0
LWPOLYLINE
5
104
100
AcDbEntity
8
0
100
AcDbPolyline
90
4
70
1
43
0.0
10
-68.203952838443954
20
73.698588504877179
10
7.7960471615559879
20
73.698588504877137
10
7.7960471615560145
20
111.9705885048771
10
-68.203952838443925
20
111.97058850487716
0
LWPOLYLINE
5
105
100
AcDbEntity
8
0
100
AcDbPolyline
90
4
70
1
43
0.0
10
-45.355952838443969
20
106.97058850487718
10
-45.355952838443983
20
78.698588504877165
10
3.7960471615560114
20
78.698588504877137
10
3.7960471615560287
20
106.97058850487714
0
LWPOLYLINE
5
106
100
AcDbEntity
8
0
100
AcDbPolyline
90
4
70
1
43
0.0
10
-66.203952838443996
20
75.698588504877179
10
-66.203952838443968
20
109.97058850487717
10
5.7960471615560252
20
109.97058850487713
10
5.7960471615560127
20
75.698588504877137
0
CIRCLE
5
107
100
AcDbEntity
8
0
100
AcDbCircle
10
56.77995283844399
20
92.834588504877175
30
9.1557998290707181e-15
40
6.0000000000000053
210
2.026965288568693e-17
220
1.1102230246251564e-16
230
-1
0
SPLINE
5
108
100
AcDbEntity
8
0
100
AcDbSpline
70
0
71
3
72
9
73
5
74
0
42
0.000000001
43
0.0000000001
44
0.0000000001
40
0
40
0
40
0
40
0
40
0.054399310852727215
40
0.10168737082405696
40
0.10168737082405696
40
0.10168737082405696
40
0.10168737082405696
10
-39.08094136603998
20
90.561737596597737
30
-1.7763568394002505e-14
10
-39.264894381390846
20
90.569136386914096
30
0
10
-39.608753489033361
20
90.582966774151629
30
-8.8817841970012523e-15
10
-39.911735714293549
20
90.744474694596391
30
8.8817841970012523e-15
10
-40.052632676445711
20
90.819581329431585
30
-8.8817841970012523e-15
0
SPLINE
5
109
100
AcDbEntity
8
0
100
AcDbSpline
70
0
71
3
72
9
73
5
74
0
42
0.000000001
43
0.0000000001
44
0.0000000001
40
0
40
0
40
0
40
0
40
0.04598805430864223
40
0.10378278131250651
40
0.10378278131250651
40
0.10378278131250651
40
0.10378278131250651
10
-40.052632676445711
20
90.819581329431585
30
-8.8817841970012523e-15
10
-40.161732784101773
20
90.934092541990523
30
0
10
-40.407942648473281
20
91.192513827898267
30
0
10
-40.422013700734539
20
91.552566683211154
30
0
10
-40.429849611603487
20
91.753073513116888
30
0
0
LINE
5
110
100
AcDbEntity
8
0
100
AcDbLine
10
-40.429849611603487
20
91.753073513116902
30
0
11
-39.971459494911898
21
91.796048461999945
31
-1.465841337200402e-15
0
LINE
5
111
100
AcDbEntity
8
0
100
AcDbLine
10
-39.971459494911898
20
91.796048461999945
30
-1.465841337200402e-15
11
-39.976234423004861
21
91.674288093652777
31
-1.1379786002407855e-14
0
SPLINE
5
112
100
AcDbEntity
8
0
100
AcDbSpline
70
0
71
3
72
9
73
5
74
0
42
0.000000001
43
0.0000000001
44
0.0000000001
40
0
40
0
40
0
40
0
40
0.019596441500544782
40
0.038704708960199008
40
0.038704708960199008
40
0.038704708960199008
40
0.038704708960199008
10
-39.976234423004861
20
91.674288093652791
30
-8.8817841970012523e-15
10
-39.972554261958038
20
91.608402320547697
30
0
10
-39.965285617687087
20
91.478272078657668
30
8.8817841970012523e-15
10
-39.910279894999185
20
91.360158168962343
30
-8.8817841970012523e-15
10
-39.883123921238656
20
91.301846086587972
30
-1.7763568394002505e-14
0
SPLINE
5
113
100
AcDbEntity
8
0
100
AcDbSpline
70
0
71
3
72
9
73
5
74
0
42
0.000000001
43
0.0000000001
44
0.0000000001
40
0
40
0
40
0
40
0
40
0.019326678787866005
40
0.040884073065138193
40
0.040884073065138193
40
0.040884073065138193
40
0.040884073065138193
10
-39.883123921238656
20
91.301846086587972
30
-1.7763568394002505e-14
10
-39.84523342567207
20
91.248481243156405
30
8.8817841970012523e-15
10
-39.765079054286169
20
91.135592102610644
30
0
10
-39.640716929133234
20
91.074059541210076
30
-8.8817841970012523e-15
10
-39.575143145405519
20
91.041614591684393
30
-1.7763568394002505e-14
0
SPLINE
5
114
100
AcDbEntity
8
0
100
AcDbSpline
70
0
71
3
72
9
73
5
74
0
42
0.000000001
43
0.0000000001
44
0.0000000001
40
0
40
0
40
0
40
0
40
0.024481000054876138
40
0.052149134742306161
40
0.052149134742306161
40
0.052149134742306161
40
0.052149134742306161
10
-39.575143145405519
20
91.041614591684393
30
-1.7763568394002505e-14
10
-39.497445319837361
20
91.015180317845676
30
0
10
-39.331934337211841
20
90.958870342552999
30
-8.8817841970012523e-15
10
-39.157027187366012
20
90.953657348871985
30
-1.7763568394002505e-14
10
-39.064228819691408
20
90.950891553964681
30
-1.7763568394002505e-14
0
SPLINE
5
115
100
AcDbEntity
8
0
100
AcDbSpline
70
0
71
3
72
9
73
5
74
0
42
0.000000001
43
0.0000000001
44
0.0000000001
40
0
40
0
40
0
40
0
40
0.037289724002827561
40
0.067586891645268293
40
0.067586891645268293
40
0.067586891645268293
40
0.067586891645268293
10
-39.064228819691408
20
90.950891553964681
30
-1.7763568394002505e-14
10
-38.937382480256829
20
90.954832831979999
30
0
10
-38.707475983809864
20
90.96197632089789
30
-8.8817841970012523e-15
10
-38.512012858714314
20
91.081255933940085
30
-8.8817841970012523e-15
10
-38.424392627560366
20
91.134725391473822
30
-8.8817841970012523e-15
0
SPLINE
5
116
100
AcDbEntity
8
0
100
AcDbSpline
70
0
71
3
72
9
73
5
74
0
42
0.000000001
43
0.0000000001
44
0.0000000001
40
0
40
0
40
0
40
0
40
0.025792459773025085
40
0.048794901253105212
40
0.048794901253105212
40
0.048794901253105212
40
0.048794901253105212
10
-38.424392627560366
20
91.134725391473822
30
-8.8817841970012523e-15
10
-38.359697183432957
20
91.195680868041052
30
-1.7763568394002505e-14
10
-38.237304521565761
20
91.310998154027203
30
-8.8817841970012523e-15
10
-38.213555503845114
20
91.476769222169281
30
-8.8817841970012523e-15
10
-38.202359961354013
20
91.554915487375325
30
-1.7763568394002505e-14
0
SPLINE
5
117
100
AcDbEntity
8
0
100
AcDbSpline
70
0
71
3
72
9
73
5
74
0
42
0.000000001
43
0.0000000001
44
0.0000000001
40
0
40
0
40
0
40
0
40
0.016026317674692116
40
0.03282443384395848
40
0.03282443384395848
40
0.03282443384395848
40
0.03282443384395848
10
-38.202359961354013
20
91.554915487375325
30
-1.7763568394002505e-14
10
-38.207676974986583
20
91.609140776203887
30
-8.8817841970012523e-15
10
-38.218567060018735
20
91.720202745768688
30
0
10
-38.285229745443793
20
91.809854370634298
30
0
10
-38.319344805561776
20
91.85573416909223
30
0
0
SPLINE
5
118
100
AcDbEntity
8
0
100
AcDbSpline
70
0
71
3
72
9
73
5
74
0
42
0.000000001
43
0.0000000001
44
0.0000000001
40
0
40
0
40
0
40
0
40
0.027275014897925595
40
0.074848256629891002
40
0.074848256629891002
40
0.074848256629891002
40
0.074848256629891002
10
-38.319344805561776
20
91.85573416909223
30
0
10
-38.392133002365711
20
91.910678313895431
30
0
10
-38.59187880101684
20
92.061456359881078
30
0
10
-38.823745257252902
20
92.157549755769438
30
0
10
-38.971118615948434
20
92.218626319971136
30
0
0
SPLINE
5
119
100
AcDbEntity
8
0
100
AcDbSpline
70
0
71
3
72
9
73
5
74
0
42
0.000000001
43
0.0000000001
44
0.0000000001
40
0
40
0
40
0
40
0
40
0.038168821478495346
40
0.062710610854920509
40
0.062710610854920509
40
0.062710610854920509
40
0.062710610854920509
10
-38.971118615948434
20
92.218626319971136
30
0
10
-39.088060221340307
20
92.269031418273755
30
0
10
-39.280192941828183
20
92.351845987398988
30
0
10
-39.463010806967851
20
92.45342878184627
30
0
10
-39.534556554638613
20
92.493183195200018
30
0
0
SPLINE
5
120
100
AcDbEntity
8
0
100
AcDbSpline
70
0
71
3
72
9
73
5
74
0
42
0.000000001
43
0.0000000001
44
0.0000000001
40
0
40
0
40
0
40
0
40
0.026138025733682058
40
0.048743934790938581
40
0.048743934790938581
40
0.048743934790938581
40
0.048743934790938581
10
-39.534556554638613
20
92.493183195200018
30
0
10
-39.606543997640188
20
92.54348449212921
30
0
10
-39.740790985656325
20
92.637289707656862
30
0
10
-39.838028301905943
20
92.768815841469603
30
0
10
-39.883123921238649
20
92.829813539590887
30
0
0
SPLINE
5
121
100
AcDbEntity
8
0
100
AcDbSpline
70
0
71
3
72
9
73
5
74
0
42
0.000000001
43
0.0000000001
44
0.0000000001
40
0
40
0
40
0
40
0
40
0.021364151100144484
40
0.0436847348328427
40
0.0436847348328427
40
0.0436847348328427
40
0.0436847348328427
10
-39.883123921238649
20
92.829813539590887
30
0
10
-39.91584750062907
20
92.893999463455614
30
0
10
-39.982759632159656
20
93.025244793583056
30
0
10
-39.991081701222612
20
93.172418899316725
30
0
10
-39.995333837353456
20
93.24761706551557
30
0
0
SPLINE
5
122
100
AcDbEntity
8
0
100
AcDbSpline
70
0
71
3
72
9
73
5
74
0
42
0.000000001
43
0.0000000001
44
0.0000000001
40
0
40
0
40
0
40
0
40
0.025930457505500874
40
0.051504562790220573
40
0.051504562790220573
40
0.051504562790220573
40
0.051504562790220573
10
-39.995333837353456
20
93.24761706551557
30
0
10
-39.989338670316513
20
93.335101467925767
30
0
10
-39.977430725498088
20
93.508868008533227
30
0
10
-39.890484558449351
20
93.659741395981726
30
0
10
-39.847312258564699
20
93.734656154718451
30
0
0
SPLINE
5
123
100
AcDbEntity
8
0
100
AcDbSpline
70
0
71
3
72
9
73
5
74
0
42
0.000000001
43
0.0000000001
44
0.0000000001
40
0
40
0
40
0
40
0
40
0.026428717528310375
40
0.055102079771345305
40
0.055102079771345305
40
0.055102079771345305
40
0.055102079771345305
10
-39.847312258564699
20
93.734656154718451
30
0
10
-39.790505317732283
20
93.803501567472679
30
0
10
-39.672066707082301
20
93.947039573863293
30
0
10
-39.503105804906376
20
94.025620936165637
30
-1.7763568394002505e-14
10
-39.415183948361147
20
94.066512167062825
30
-8.8817841970012523e-15
0
SPLINE
5
124
100
AcDbEntity
8
0
100
AcDbSpline
70
0
71
3
72
9
73
5
74
0
42
0.000000001
43
0.0000000001
44
0.0000000001
40
0
40
0
40
0
40
0
40
0.031630075872332034
40
0.065771632463997864
40
0.065771632463997864
40
0.065771632463997864
40
0.065771632463997864
10
-39.415183948361147
20
94.066512167062825
30
-8.8817841970012523e-15
10
-39.314581838366671
20
94.099922758460252
30
-1.7763568394002505e-14
10
-39.105389643243058
20
94.169396797873446
30
0
10
-38.884983821808973
20
94.177106961578971
30
0
10
-38.770572828137148
20
94.181109249200873
30
0
0
SPLINE
5
125
100
AcDbEntity
8
0
100
AcDbSpline
70
0
71
3
72
9
73
5
74
0
42
0.000000001
43
0.0000000001
44
0.0000000001
40
0
40
0
40
0
40
0
40
0.039555333645812131
40
0.073982637114955285
40
0.073982637114955285
40
0.073982637114955285
40
0.073982637114955285
10
-38.770572828137148
20
94.181109249200873
30
0
10
-38.637647736522275
20
94.176980339518096
30
0
10
-38.389030219995355
20
94.16925780001236
30
0
10
-38.157366533151084
20
94.079589237707239
30
-1.7763568394002505e-14
10
-38.049563454472292
20
94.037862598505086
30
-8.8817841970012523e-15
0
SPLINE
5
126
100
AcDbEntity
8
0
100
AcDbSpline
70
0
71
3
72
9
73
5
74
0
42
0.000000001
43
0.0000000001
44
0.0000000001
40
0
40
0
40
0
40
0
40
0.030327190242175395
40
0.057844025400910284
40
0.057844025400910284
40
0.057844025400910284
40
0.057844025400910284
10
-38.049563454472292
20
94.037862598505086
30
-8.8817841970012523e-15
10
-37.959648055046848
20
93.988245243022931
30
0
10
-37.7881495216593
20
93.893608465005684
30
0
10
-37.677319776433293
20
93.732507614002884
30
-8.8817841970012523e-15
10
-37.624597238384951
20
93.655870735254354
30
-1.7763568394002505e-14
0
SPLINE
5
127
100
AcDbEntity
8
0
100
AcDbSpline
70
0
71
3
72
9
73
5
74
0
42
0.000000001
43
0.0000000001
44
0.0000000001
40
0
40
0
40
0
40
0
40
0.02540037598491687
40
0.047912818337723082
40
0.047912818337723082
40
0.047912818337723082
40
0.047912818337723082
10
-37.624597238384951
20
93.655870735254354
30
-1.7763568394002505e-14
10
-37.585645317490972
20
93.579653580925907
30
0
10
-37.512170172445607
20
93.435884895307765
30
0
10
-37.497699211467037
20
93.275314031391503
30
0
10
-37.490899847828615
20
93.199867784586004
30
0
0
SPLINE
5
128
100
AcDbEntity
8
0
100
AcDbSpline
70
0
71
3
72
9
73
5
74
0
42
0.000000001
43
0.0000000001
44
0.0000000001
40
0
40
0
40
0
40
0
40
0.0028655792999305375
40
0.007166683515324547
40
0.007166683515324547
40
0.007166683515324547
40
0.007166683515324547
10
-37.490899847828615
20
93.199867784586004
30
0
10
-37.491059230185876
20
93.190316687763115
30
0
10
-37.491457838213378
20
93.16642982895047
30
0
10
-37.492601336408427
20
93.142566249847846
30
0
10
-37.493287609898317
20
93.128244459238118
30
0
0
LINE
5
129
100
AcDbEntity
8
0
100
AcDbLine
10
-37.493287609898317
20
93.128244459238118
30
0
11
-37.944515036427248
21
93.092432796564168
31
-2.2703193491846463e-15
0
SPLINE
5
130
100
AcDbEntity
8
0
100
AcDbSpline
70
0
71
3
72
9
73
5
74
0
42
0.000000001
43
0.0000000001
44
0.0000000001
40
0
40
0
40
0
40
0
40
0.013207075364950603
40
0.023367393346041931
40
0.023367393346041931
40
0.023367393346041931
40
0.023367393346041931
10
-37.944515036427248
20
93.092432796564168
30
-1.7763568394002505e-14
10
-37.944910165390453
20
93.136622586752765
30
-8.8817841970012523e-15
10
-37.945609270502707
20
93.214807966988857
30
0
10
-37.963150416882883
20
93.290921276748037
30
0
10
-37.970777438961733
20
93.324015915002889
30
-8.8817841970012523e-15
0
SPLINE
5
131
100
AcDbEntity
8
0
100
AcDbSpline
70
0
71
3
72
9
73
5
74
0
42
0.000000001
43
0.0000000001
44
0.0000000001
40
0
40
0
40
0
40
0
40
0.014744901343687757
40
0.02890514476842386
40
0.02890514476842386
40
0.02890514476842386
40
0.02890514476842386
10
-37.970777438961733
20
93.324015915002889
30
-8.8817841970012523e-15
10
-37.988531938290961
20
93.370317087662031
30
0
10
-38.023336943861381
20
93.461083520577716
30
-8.8817841970012523e-15
10
-38.087410325791254
20
93.534135859096764
30
0
10
-38.11879901775049
20
93.569923221674017
30
0
0
SPLINE
5
132
100
AcDbEntity
8
0
100
AcDbSpline
70
0
71
3
72
9
73
5
74
0
42
0.000000001
43
0.0000000001
44
0.0000000001
40
0
40
0
40
0
40
0
40
0.014957432536081255
40
0.032192735019644078
40
0.032192735019644078
40
0.032192735019644078
40
0.032192735019644078
10
-38.11879901775049
20
93.569923221674017
30
0
10
-38.157244480380157
20
93.602251270940755
30
0
10
-38.239990271688868
20
93.671830613601031
30
0
10
-38.341433251265038
20
93.70963966460917
30
-8.8817841970012523e-15
10
-38.395743655049074
20
93.729881822671956
30
-8.8817841970012523e-15
0
SPLINE
5
133
100
AcDbEntity
8
0
100
AcDbSpline
70
0
71
3
72
9
73
5
74
0
42
0.000000001
43
0.0000000001
44
0.0000000001
40
0
40
0
40
0
40
0
40
0.019079409273108309
40
0.039789094862714154
40
0.039789094862714154
40
0.039789094862714154
40
0.039789094862714154
10
-38.395743655049074
20
93.729881822671956
30
-8.8817841970012523e-15
10
-38.457001342875287
20
93.747978097227559
30
0
10
-38.584750997861875
20
93.785716916844422
30
0
10
-38.717954666831666
20
93.789819797801556
30
0
10
-38.78728537448572
20
93.791955291833943
30
-8.8817841970012523e-15
0
SPLINE
5
134
100
AcDbEntity
8
0
100
AcDbSpline
70
0
71
3
72
9
73
5
74
0
42
0.000000001
43
0.0000000001
44
0.0000000001
40
0
40
0
40
0
40
0
40
0.034232224091972054
40
0.062793488481033277
40
0.062793488481033277
40
0.062793488481033277
40
0.062793488481033277
10
-38.78728537448572
20
93.791955291833943
30
-8.8817841970012523e-15
10
-38.903593001147215
20
93.78776576781209
30
0
10
-39.116940564992404
20
93.780080762371
30
0
10
-39.298966143194512
20
93.670088454156115
30
0
10
-39.381759451710451
20
93.620059072580403
30
-8.8817841970012523e-15
0
SPLINE
5
135
100
AcDbEntity
8
0
100
AcDbSpline
70
0
71
3
72
9
73
5
74
0
42
0.000000001
43
0.0000000001
44
0.0000000001
40
0
40
0
40
0
40
0
40
0.019537841260480485
40
0.039531157015561189
40
0.039531157015561189
40
0.039531157015561189
40
0.039531157015561189
10
-39.381759451710451
20
93.620059072580403
30
-8.8817841970012523e-15
10
-39.429108946493272
20
93.57229891597467
30
0
10
-39.524911767691002
20
93.475665197607398
30
8.8817841970012523e-15
10
-39.537659238038074
20
93.340069911456283
30
1.7763568394002505e-14
10
-39.544106410824526
20
93.271491109933919
30
-1.7763568394002505e-14
0
SPLINE
5
136
100
AcDbEntity
8
0
100
AcDbSpline
70
0
71
3
72
9
73
5
74
0
42
0.000000001
43
0.0000000001
44
0.0000000001
40
0
40
0
40
0
40
0
40
0.01234924350896347
40
0.024367511140618803
40
0.024367511140618803
40
0.024367511140618803
40
0.024367511140618803
10
-39.544106410824526
20
93.271491109933919
30
-1.7763568394002505e-14
10
-39.541475591740934
20
93.229850605485254
30
0
10
-39.53628446296598
20
93.147685616567756
30
0
10
-39.496754522648921
20
93.075507872406646
30
0
10
-39.477258013569582
20
93.039909183588094
30
0
0
SPLINE
5
137
100
AcDbEntity
8
0
100
AcDbSpline
70
0
71
3
72
9
73
5
74
0
42
0.000000001
43
0.0000000001
44
0.0000000001
40
0
40
0
40
0
40
0
40
0.013680801409315062
40
0.031410190546601838
40
0.031410190546601838
40
0.031410190546601838
40
0.031410190546601838
10
-39.477258013569582
20
93.039909183588094
30
0
10
-39.447477599487677
20
93.004964890721652
30
-8.8817841970012523e-15
10
-39.379103792070765
20
92.924735168455257
30
0
10
-39.287711274904609
20
92.871690737750441
30
0
10
-39.236125038944948
20
92.841749965753621
30
0
0
SPLINE
5
138
100
AcDbEntity
8
0
100
AcDbSpline
70
0
71
3
72
9
73
5
74
0
42
0.000000001
43
0.0000000001
44
0.0000000001
40
0
40
0
40
0
40
0
40
0.023356268641229021
40
0.065057155864336802
40
0.065057155864336802
40
0.065057155864336802
40
0.065057155864336802
10
-39.236125038944948
20
92.841749965753621
30
0
10
-39.166498592973895
20
92.806893443096513
30
0
10
-38.972559286255077
20
92.709803181709916
30
0
10
-38.773816883637281
20
92.622898915693256
30
0
10
-38.646425293766725
20
92.567194282617635
30
0
0
SPLINE
5
139
100
AcDbEntity
8
0
100
AcDbSpline
70
0
71
3
72
9
73
5
74
0
42
0.000000001
43
0.0000000001
44
0.0000000001
40
0
40
0
40
0
40
0
40
0.035192355522604676
40
0.058335293038591793
40
0.058335293038591793
40
0.058335293038591793
40
0.058335293038591793
10
-38.646425293766725
20
92.567194282617635
30
0
10
-38.53898274560644
20
92.51979171143681
30
8.8817841970012523e-15
10
-38.360884620639567
20
92.44121661069255
30
0
10
-38.192688384262794
20
92.343386468201857
30
0
10
-38.125961111866701
20
92.304575025644368
30
0
0
SPLINE
5
140
100
AcDbEntity
8
0
100
AcDbSpline
70
0
71
3
72
9
73
5
74
0
42
0.000000001
43
0.0000000001
44
0.0000000001
40
0
40
0
40
0
40
0
40
0.02195560658184903
40
0.042857823264481468
40
0.042857823264481468
40
0.042857823264481468
40
0.042857823264481468
10
-38.125961111866701
20
92.304575025644368
30
0
10
-38.066422779670745
20
92.260886576313524
30
0
10
-37.950202655703585
20
92.175605769648485
30
0
10
-37.870955431359789
20
92.055278930363968
30
0
10
-37.832305716358896
20
91.996594249811238
30
0
0
SPLINE
5
141
100
AcDbEntity
8
0
100
AcDbSpline
70
0
71
3
72
9
73
5
74
0
42
0.000000001
43
0.0000000001
44
0.0000000001
40
0
40
0
40
0
40
0
40
0.020648546835004642
40
0.042466079398964698
40
0.042466079398964698
40
0.042466079398964698
40
0.042466079398964698
10
-37.832305716358896
20
91.996594249811238
30
0
10
-37.802369334074648
20
91.933820539239946
30
0
10
-37.740801767254631
20
91.804719280996949
30
0
10
-37.733431590232044
20
91.661778416084076
30
-1.7763568394002505e-14
10
-37.729645060383554
20
91.588340580072469
30
-1.7763568394002505e-14
0
SPLINE
5
142
100
AcDbEntity
8
0
100
AcDbSpline
70
0
71
3
72
9
73
5
74
0
42
0.000000001
43
0.0000000001
44
0.0000000001
40
0
40
0
40
0
40
0
40
0.027681416889906801
40
0.056058778010529664
40
0.056058778010529664
40
0.056058778010529664
40
0.056058778010529664
10
-37.729645060383554
20
91.588340580072469
30
-1.7763568394002505e-14
10
-37.737260869472763
20
91.494942616777337
30
0
10
-37.752683958283598
20
91.30579855266312
30
0
10
-37.853098480359684
20
91.144666892333845
30
0
10
-37.903929041706789
20
91.06310087403304
30
-8.8817841970012523e-15
0
SPLINE
5
143
100
AcDbEntity
8
0
100
AcDbSpline
70
0
71
3
72
9
73
5
74
0
42
0.000000001
43
0.0000000001
44
0.0000000001
40
0
40
0
40
0
40
0
40
0.029504634274701312
40
0.06098370142861384
40
0.06098370142861384
40
0.06098370142861384
40
0.06098370142861384
10
-37.903929041706789
20
91.06310087403304
30
-8.8817841970012523e-15
10
-37.968355466248148
20
90.987340624064345
30
-8.8817841970012523e-15
10
-38.101519694001766
20
90.830750292483486
30
-8.8817841970012523e-15
10
-38.2861268400762
20
90.739928016383274
30
-1.7763568394002505e-14
10
-38.381418870770204
20
90.693046629037923
30
-8.8817841970012523e-15
0
SPLINE
5
144
100
AcDbEntity
8
0
100
AcDbSpline
70
0
71
3
72
9
73
5
74
0
42
0.000000001
43
0.0000000001
44
0.0000000001
40
0
40
0
40
0
40
0
40
0.034215674051713767
40
0.071544777963716999
40
0.071544777963716999
40
0.071544777963716999
40
0.071544777963716999
10
-38.381418870770204
20
90.693046629037923
30
-8.8817841970012523e-15
10
-38.489596365422699
20
90.654768309004368
30
0
10
-38.715794885547901
20
90.574728561621782
30
0
10
-38.955745215424628
20
90.566191751028029
30
0
10
-39.08094136603998
20
90.561737596597737
30
-1.7763568394002505e-14
0
LWPOLYLINE
5
145
100
AcDbEntity
8
0
100
AcDbPolyline
90
12
70
1
43
0.0
10
-31.634488390766847
20
90.621423303690008
10
-31.550927447163332
20
91.017739355173163
10
-33.754543351017702
20
91.017739355173163
10
-33.50147275813746
20
92.23533827027326
10
-31.496017264210447
20
92.23533827027326
10
-31.412456320606932
20
92.634042083826117
10
-33.417913006626833
20
92.634042083826131
10
-33.188717650257814
20
93.72271853646285
10
-31.130737351261843
20
93.72271853646285
10
-31.047176407658327
20
94.121423542108602
10
-33.573097275578249
20
94.121423542108587
10
-34.306043671452272
20
90.621423303690023
0
SPLINE
5
146
100
AcDbEntity
8
0
100
AcDbSpline
70
0
71
3
72
9
73
5
74
0
42
0.000000001
43
0.0000000001
44
0.0000000001
40
0
40
0
40
0
40
0
40
0.026406000623334015
40
0.057890507307598947
40
0.057890507307598947
40
0.057890507307598947
40
0.057890507307598947
10
-25.94997315295862
20
90.676334678735785
30
-8.8817841970012523e-15
10
-26.036689505676954
20
90.660351377684833
30
-8.8817841970012523e-15
10
-26.226799841669784
20
90.625310804161899
30
-8.8817841970012523e-15
10
-26.420176890303569
20
90.622792769596927
30
0
10
-26.525347517811525
20
90.621423303690008
30
-8.8817841970012523e-15
0
LINE
5
147
100
AcDbEntity
8
0
100
AcDbLine
10
-26.525347517811525
20
90.621423303690008
30
-8.8817841970012539e-15
11
-27.78592138179468
21
90.621423303690008
31
-9.7102386826803206e-15
0
LINE
5
148
100
AcDbEntity
8
0
100
AcDbLine
10
-27.78592138179468
20
90.621423303690008
30
-9.7102386826803206e-15
11
-27.055361555897463
21
94.121423542108602
31
-2.4980018054066022e-15
0
LINE
5
149
100
AcDbEntity
8
0
100
AcDbLine
10
-27.055361555897463
20
94.121423542108602
30
-2.4980018054066022e-15
11
-26.000109003864992
21
94.121423542108587
31
6.9351644932031382e-16
0
SPLINE
5
150
100
AcDbEntity
8
0
100
AcDbSpline
70
0
71
3
72
9
73
5
74
0
42
0.000000001
43
0.0000000001
44
0.0000000001
40
0
40
0
40
0
40
0
40
0.033512112364283045
40
0.058386414008354592
40
0.058386414008354592
40
0.058386414008354592
40
0.058386414008354592
10
-26.000109003864992
20
94.121423542108587
30
0
10
-25.888080197601422
20
94.120841981061361
30
0
10
-25.6928982230286
20
94.119828757433268
30
0
10
-25.501500207253823
20
94.082440602713604
30
0
10
-25.419959114872682
20
94.066512167062811
30
0
0
SPLINE
5
151
100
AcDbEntity
8
0
100
AcDbSpline
70
0
71
3
72
9
73
5
74
0
42
0.000000001
43
0.0000000001
44
0.0000000001
40
0
40
0
40
0
40
0
40
0.028496984827595453
40
0.056112077210366713
40
0.056112077210366713
40
0.056112077210366713
40
0.056112077210366713
10
-25.419959114872682
20
94.066512167062811
30
0
10
-25.32849284731131
20
94.037480967487298
30
0
10
-25.148390906751686
20
93.9803169930547
30
0
10
-25.002386914679924
20
93.860481292128938
30
0
10
-24.930532263600099
20
93.801505148019857
30
0
0
SPLINE
5
152
100
AcDbEntity
8
0
100
AcDbSpline
70
0
71
3
72
9
73
5
74
0
42
0.000000001
43
0.0000000001
44
0.0000000001
40
0
40
0
40
0
40
0
40
0.027710045033595653
40
0.056698920422468949
40
0.056698920422468949
40
0.056698920422468949
40
0.056698920422468949
10
-24.930532263600099
20
93.801505148019857
30
0
10
-24.866701105411369
20
93.733632106851388
30
0
10
-24.73609295395477
20
93.594753654818021
30
-8.8817841970012523e-15
10
-24.662543448278015
20
93.418767822184833
30
0
10
-24.624939249836672
20
93.328790247049383
30
0
0
SPLINE
5
153
100
AcDbEntity
8
0
100
AcDbSpline
70
0
71
3
72
9
73
5
74
0
42
0.000000001
43
0.0000000001
44
0.0000000001
40
0
40
0
40
0
40
0
40
0.031109447276473318
40
0.064810631152680154
40
0.064810631152680154
40
0.064810631152680154
40
0.064810631152680154
10
-24.624939249836672
20
93.328790247049383
30
0
10
-24.595010003659521
20
93.229020288401159
30
0
10
-24.532658097583322
20
93.021168508438535
30
0
10
-24.525829452845869
20
92.804176113487898
30
0
10
-24.522278593861326
20
92.691341220941595
30
0
0
SPLINE
5
154
100
AcDbEntity
8
0
100
AcDbSpline
70
0
71
3
72
9
73
5
74
0
42
0.000000001
43
0.0000000001
44
0.0000000001
40
0
40
0
40
0
40
0
40
0.040535886014255763
40
0.078495046707398264
40
0.078495046707398264
40
0.078495046707398264
40
0.078495046707398264
10
-24.522278593861326
20
92.691341220941595
30
0
10
-24.526909714979219
20
92.555609055652809
30
0
10
-24.53587757294904
20
92.292772746849948
30
0
10
-24.613610463980603
20
92.041639903559101
30
0
10
-24.651201056324709
20
91.920195400323919
30
-8.8817841970012523e-15
0
SPLINE
5
155
100
AcDbEntity
8
0
100
AcDbSpline
70
0
71
3
72
9
73
5
74
0
42
0.000000001
43
0.0000000001
44
0.0000000001
40
0
40
0
40
0
40
0
40
0.035743648673298475
40
0.069878738876346838
40
0.069878738876346838
40
0.069878738876346838
40
0.069878738876346838
10
-24.651201056324709
20
91.920195400323919
30
-8.8817841970012523e-15
10
-24.695930590412104
20
91.809252356281164
30
0
10
-24.783376711571201
20
91.592358997808731
30
-8.8817841970012523e-15
10
-24.919129641326524
20
91.401997793591008
30
-8.8817841970012523e-15
10
-24.985443638645876
20
91.309008180704154
30
-8.8817841970012523e-15
0
SPLINE
5
156
100
AcDbEntity
8
0
100
AcDbSpline
70
0
71
3
72
9
73
5
74
0
42
0.000000001
43
0.0000000001
44
0.0000000001
40
0
40
0
40
0
40
0
40
0.031529768734358553
40
0.059969576720104459
40
0.059969576720104459
40
0.059969576720104459
40
0.059969576720104459
10
-24.985443638645876
20
91.309008180704154
30
-8.8817841970012523e-15
10
-25.052624500713073
20
91.227601869267986
30
-8.8817841970012523e-15
10
-25.180402407865031
20
91.072767177002902
30
0
10
-25.341278103204438
20
90.952849574590118
30
0
10
-25.41757135280298
20
90.89598017891889
30
-8.8817841970012523e-15
0
SPLINE
5
157
100
AcDbEntity
8
0
100
AcDbSpline
70
0
71
3
72
9
73
5
74
0
42
0.000000001
43
0.0000000001
44
0.0000000001
40
0
40
0
40
0
40
0
40
0.027712563165468555
40
0.057820975227828524
40
0.057820975227828524
40
0.057820975227828524
40
0.057820975227828524
10
-25.41757135280298
20
90.89598017891889
30
-8.8817841970012523e-15
10
-25.497829292757036
20
90.849377968393554
30
8.8817841970012523e-15
10
-25.665283754843834
20
90.752144621760849
30
0
10
-25.852491003106529
20
90.702293201515999
30
0
10
-25.94997315295862
20
90.676334678735785
30
-8.8817841970012523e-15
0
LWPOLYLINE
5
158
100
AcDbEntity
8
0
100
AcDbPolyline
90
4
70
1
43
0.0
10
-20.014775084339853
20
92.667467176523274
10
-19.914503382527105
20
93.156894027795857
10
-20.401542471729982
20
93.156894027795843
10
-20.504203127705324
20
92.66746717652326
0
LINE
5
159
100
AcDbEntity
8
0
100
AcDbLine
10
-17.472141074024908
20
92.175652563180975
30
0
11
-17.796833800160165
21
90.621423303690008
31
1.9428902930940239e-15
0
LINE
5
160
100
AcDbEntity
8
0
100
AcDbLine
10
-17.796833800160165
20
90.621423303690008
30
1.9428902930940239e-15
11
-18.264775561177011
21
90.621423303689994
31
-3.0753330846160501e-16
0
LINE
5
161
100
AcDbEntity
8
0
100
AcDbLine
10
-18.264775561177011
20
90.621423303689994
30
-3.0753330846160501e-16
11
-17.531826781117189
21
94.121423542108573
31
1.9428902930940239e-15
0
LINE
5
162
100
AcDbEntity
8
0
100
AcDbLine
10
-17.531826781117189
20
94.121423542108573
30
1.9428902930940239e-15
11
-16.063547419392336
21
94.121423542108573
31
9.6495941904377802e-16
0
SPLINE
5
163
100
AcDbEntity
8
0
100
AcDbSpline
70
0
71
3
72
9
73
5
74
0
42
0.000000001
43
0.0000000001
44
0.0000000001
40
0
40
0
40
0
40
0
40
0.038244208269026733
40
0.066489246371581559
40
0.066489246371581559
40
0.066489246371581559
40
0.066489246371581559
10
-16.063547419392336
20
94.121423542108573
30
0
10
-15.935543961117094
20
94.120687513505729
30
0
10
-15.713004291481155
20
94.119407895249083
30
0
10
-15.496558439311364
20
94.068877903794885
30
0
10
-15.404610918843019
20
94.047412454690985
30
0
0
SPLINE
5
164
100
AcDbEntity
8
0
100
AcDbSpline
70
0
71
3
72
9
73
5
74
0
42
0.000000001
43
0.0000000001
44
0.0000000001
40
0
40
0
40
0
40
0
40
0.022531209493731524
40
0.045143693694850204
40
0.045143693694850204
40
0.045143693694850204
40
0.045143693694850204
10
-15.404610918843019
20
94.047412454690985
30
0
10
-15.333844454872994
20
94.018106249538278
30
0
10
-15.192056257740511
20
93.959388125722512
30
0
10
-15.099845014406608
20
93.836698564546651
30
0
10
-15.053656386219728
20
93.775243341531805
30
0
0
SPLINE
5
165
100
AcDbEntity
8
0
100
AcDbSpline
70
0
71
3
72
9
73
5
74
0
42
0.000000001
43
0.0000000001
44
0.0000000001
40
0
40
0
40
0
40
0
40
0.024655893474297124
40
0.052774359432827017
40
0.052774359432827017
40
0.052774359432827017
40
0.052774359432827017
10
-15.053656386219728
20
93.775243341531805
30
0
10
-15.016097973991517
20
93.70105172451845
30
0
10
-14.93570660027293
20
93.542249324303384
30
-8.8817841970012523e-15
10
-14.928548042370856
20
93.364049293973238
30
0
10
-14.924733923756349
20
93.269103347864203
30
0
0
SPLINE
5
166
100
AcDbEntity
8
0
100
AcDbSpline
70
0
71
3
72
9
73
5
74
0
42
0.000000001
43
0.0000000001
44
0.0000000001
40
0
40
0
40
0
40
0
40
0.039713248085860506
40
0.077804476136574596
40
0.077804476136574596
40
0.077804476136574596
40
0.077804476136574596
10
-14.924733923756349
20
93.269103347864203
30
0
10
-14.935371173278982
20
93.133746285937519
30
0
10
-14.956211211969686
20
92.868560590931622
30
0
10
-15.122603439069467
20
92.661435651377815
30
0
10
-15.204065131031744
20
92.560032188501395
30
0
0
SPLINE
5
167
100
AcDbEntity
8
0
100
AcDbSpline
70
0
71
3
72
9
73
5
74
0
42
0.000000001
43
0.0000000001
44
0.0000000001
40
0
40
0
40
0
40
0
40
0.043282295285412782
40
0.098624323269790051
40
0.098624323269790051
40
0.098624323269790051
40
0.098624323269790051
10
-15.204065131031744
20
92.560032188501395
30
0
10
-15.321813529926674
20
92.473270727808313
30
-8.8817841970012523e-15
10
-15.590118528091301
20
92.275573487162177
30
0
10
-15.920903428288698
20
92.223802842239508
30
0
10
-16.106519984089605
20
92.194752275552801
30
0
0
SPLINE
5
168
100
AcDbEntity
8
0
100
AcDbSpline
70
0
71
3
72
9
73
5
74
0
42
0.000000001
43
0.0000000001
44
0.0000000001
40
0
40
0
40
0
40
0
40
0.021825700240560783
40
0.040135648611893483
40
0.040135648611893483
40
0.040135648611893483
40
0.040135648611893483
10
-16.106519984089605
20
92.194752275552801
30
0
10
-16.048503044021476
20
92.1503691699629
30
1.7763568394002505e-14
10
-15.941814713546549
20
92.068752327862654
30
0
10
-15.856541769090546
20
91.965095879222147
30
0
10
-15.817640112721197
20
91.917807638254217
30
0
0
SPLINE
5
169
100
AcDbEntity
8
0
100
AcDbSpline
70
0
71
3
72
9
73
5
74
0
42
0.000000001
43
0.0000000001
44
0.0000000001
40
0
40
0
40
0
40
0
40
0.037075162659099721
40
0.073008547569854698
40
0.073008547569854698
40
0.073008547569854698
40
0.073008547569854698
10
-15.817640112721197
20
91.917807638254217
30
0
10
-15.748367126675211
20
91.815137817551971
30
0
10
-15.611954506087478
20
91.612960026515665
30
0
10
-15.5130000711726
20
91.39006379519445
30
-8.8817841970012523e-15
10
-15.464296625935308
20
91.280358612146415
30
0
0
LINE
5
170
100
AcDbEntity
8
0
100
AcDbLine
10
-15.464296625935305
20
91.280358612146401
30
7.6878553057902458e-31
11
-15.196903036915533
21
90.621423303689994
31
-8.3266726846886741e-16
0
LINE
5
171
100
AcDbEntity
8
0
100
AcDbLine
10
-15.196903036915533
20
90.621423303689994
30
-8.3266726846886741e-16
11
-15.719754980885259
21
90.621423303689994
31
-3.4362051340573386e-16
0
LINE
5
172
100
AcDbEntity
8
0
100
AcDbLine
10
-15.719754980885259
20
90.621423303689994
30
-3.4362051340573386e-16
11
-15.970437811695806
21
91.273196518030204
31
5.2041704279304213e-16
0
SPLINE
5
173
100
AcDbEntity
8
0
100
AcDbSpline
70
0
71
3
72
9
73
5
74
0
42
0.000000001
43
0.0000000001
44
0.0000000001
40
0
40
0
40
0
40
0
40
0.036021988132600505
40
0.068656711498715189
40
0.068656711498715189
40
0.068656711498715189
40
0.068656711498715189
10
-15.970437811695806
20
91.273196518030218
30
0
10
-16.015816906038765
20
91.384637759712916
30
0
10
-16.102307950811444
20
91.597041060472009
30
1.7763568394002505e-14
10
-16.223294975968241
20
91.791805833175673
30
1.7763568394002505e-14
10
-16.280803965412847
20
91.884383737649955
30
0
0
SPLINE
5
174
100
AcDbEntity
8
0
100
AcDbSpline
70
0
71
3
72
9
73
5
74
0
42
0.000000001
43
0.0000000001
44
0.0000000001
40
0
40
0
40
0
40
0
40
0.019091018406485652
40
0.034092641353679676
40
0.034092641353679676
40
0.034092641353679676
40
0.034092641353679676
10
-16.280803965412847
20
91.884383737649955
30
0
10
-16.317641514641629
20
91.937331226198154
30
0
10
-16.383425818415532
20
92.031884575800404
30
8.8817841970012523e-15
10
-16.481270549918058
20
92.0919313356884
30
0
10
-16.524324702107183
20
92.118353426065482
30
0
0
SPLINE
5
175
100
AcDbEntity
8
0
100
AcDbSpline
70
0
71
3
72
9
73
5
74
0
42
0.000000001
43
0.0000000001
44
0.0000000001
40
0
40
0
40
0
40
0
40
0.016851401304146193
40
0.040947595371867589
40
0.040947595371867589
40
0.040947595371867589
40
0.040947595371867589
10
-16.524324702107183
20
92.118353426065482
30
0
10
-16.578277130049837
20
92.134938403838333
30
1.7763568394002505e-14
10
-16.709377336427476
20
92.17523861073721
30
0
10
-16.846884691577124
20
92.175499209901488
30
0
10
-16.927802847706548
20
92.175652563180975
30
0
0
LINE
5
176
100
AcDbEntity
8
0
100
AcDbLine
10
-16.927802847706548
20
92.175652563180961
30
-1.1727226739422304e-30
11
-17.472141074024908
21
92.175652563180975
31
0
0
LWPOLYLINE
5
177
100
AcDbEntity
8
0
100
AcDbPolyline
90
8
70
1
43
0.0
10
-11.286263750874273
20
90.621423303689994
10
-10.725214766346681
20
91.628926574792899
10
-9.3094566334121112
20
91.628926574792899
10
-9.139948176228275
20
90.621423303689994
10
-8.6863329876296422
20
90.621423303689994
10
-9.2640951145522479
20
94.121423542108573
10
-9.8155954349868182
20
94.121423542108573
10
-11.799567030750982
20
90.621423303689994
0
LINE
5
178
100
AcDbEntity
8
0
100
AcDbLine
10
-2.8012707699172399
20
91.939295112695731
30
0
11
-3.075828837239019
21
90.621423303689994
31
-2.5673907444456745e-15
0
LINE
5
179
100
AcDbEntity
8
0
100
AcDbLine
10
-3.075828837239019
20
90.621423303689994
30
-2.5673907444456745e-15
11
-3.5437682140700733
21
90.621423303689994
31
-3.0753174156459898e-16
0
LINE
5
180
100
AcDbEntity
8
0
100
AcDbLine
10
-3.5437682140700733
20
90.621423303689994
30
-3.0753174156459898e-16
11
-3.2620480526320832
21
91.975106775369682
31
4.5796699765787707e-15
0
LINE
5
181
100
AcDbEntity
8
0
100
AcDbLine
10
-3.2620480526320832
20
91.975106775369682
30
4.5796699765787707e-15
11
-4.3387892711989773
21
94.121423542108573
31
5.5511151231257827e-16
0
LINE
5
182
100
AcDbEntity
8
0
100
AcDbLine
10
-4.3387892711989773
20
94.121423542108573
30
5.5511151231257827e-16
11
-3.8374236095778831
21
94.121423542108573
31
3.2949963758807553e-16
0
LINE
5
183
100
AcDbEntity
8
0
100
AcDbLine
10
-3.8374236095778831
20
94.121423542108573
30
3.2949963758807553e-16
11
-3.3217337597243684
21
93.099594890680351
31
-5.5511151231257827e-16
0
SPLINE
5
184
100
AcDbEntity
8
0
100
AcDbSpline
70
0
71
3
72
9
73
5
74
0
42
0.000000001
43
0.0000000001
44
0.0000000001
40
0
40
0
40
0
40
0
40
0.038440923044981742
40
0.078850787152411284
40
0.078850787152411284
40
0.078850787152411284
40
0.078850787152411284
10
-3.3217337597243684
20
93.099594890680351
30
0
10
-3.2649955327704259
20
92.984676282913057
30
1.7763568394002505e-14
10
-3.1486129513293779
20
92.748952945304637
30
0
10
-3.0452433089844684
20
92.50723653580188
30
0
10
-2.9922678936355025
20
92.383360445108451
30
0
0
SPLINE
5
185
100
AcDbEntity
8
0
100
AcDbSpline
70
0
71
3
72
9
73
5
74
0
42
0.000000001
43
0.0000000001
44
0.0000000001
40
0
40
0
40
0
40
0
40
0.039872041389308908
40
0.085831339626938286
40
0.085831339626938286
40
0.085831339626938286
40
0.085831339626938286
10
-2.9922678936355025
20
92.383360445108451
30
0
10
-2.9248211713485057
20
92.498043193501829
30
1.7763568394002505e-14
10
-2.7796306487260267
20
92.744917283308041
30
0
10
-2.6040310110546336
20
92.971243845856179
30
-8.8817841970012523e-15
10
-2.5100043285720246
20
93.09243279656414
30
0
0
LINE
5
186
100
AcDbEntity
8
0
100
AcDbLine
10
-2.5100043285720246
20
93.09243279656414
30
-2.7967549673859996e-31
11
-1.6887190807692893
21
94.121423542108573
31
1.7347234759768071e-15
0
LINE
5
187
100
AcDbEntity
8
0
100
AcDbLine
10
-1.6887190807692893
20
94.121423542108573
30
1.7347234759768071e-15
11
-1.1300566662185081
21
94.121423542108573
31
3.6715530643516438e-16
0
LINE
5
188
100
AcDbEntity
8
0
100
AcDbLine
10
-1.1300566662185081
20
94.121423542108573
30
3.6715530643516438e-16
11
-2.8012707699172399
21
91.939295112695731
31
0
0
SPLINE
5
189
100
AcDbEntity
8
0
100
AcDbSpline
70
0
71
3
72
9
73
5
74
0
42
0.000000001
43
0.0000000001
44
0.0000000001
40
0
40
0
40
0
40
0
40
0.030765228404814691
40
0.063016189513333445
40
0.063016189513333445
40
0.063016189513333445
40
0.063016189513333445
10
-38.122381256901498
20
85.302189170923299
30
0
10
-38.217054947395745
20
85.260415967455145
30
0
10
-38.410974366540323
20
85.174852224137823
30
0
10
-38.622780679331605
20
85.164328461118046
30
0
10
-38.731180714451547
20
85.158942520227498
30
0
0
LINE
5
190
100
AcDbEntity
8
0
100
AcDbLine
10
-38.731180714451547
20
85.158942520227498
30
0
11
-40.42626945861506
21
85.158942520227498
31
-1.1140195063929459e-15
0
LINE
5
191
100
AcDbEntity
8
0
100
AcDbLine
10
-40.42626945861506
20
85.158942520227498
30
-1.1140195063929459e-15
11
-39.693322466694582
21
88.658942758646077
31
6.3837823915946501e-15
0
LINE
5
192
100
AcDbEntity
8
0
100
AcDbLine
10
-39.693322466694582
20
88.658942758646077
30
6.3837823915946501e-15
11
-38.60942094215082
21
88.658942758646077
31
5.1532367739687457e-15
0
SPLINE
5
193
100
AcDbEntity
8
0
100
AcDbSpline
70
0
71
3
72
9
73
5
74
0
42
0.000000001
43
0.0000000001
44
0.0000000001
40
0
40
0
40
0
40
0
40
0.025791340527033815
40
0.04402409085001513
40
0.04402409085001513
40
0.04402409085001513
40
0.04402409085001513
10
-38.60942094215082
20
88.658942758646077
30
0
10
-38.52335783512661
20
88.658843576159171
30
-8.8817841970012523e-15
10
-38.376453875695063
20
88.658674278296971
30
-8.8817841970012523e-15
10
-38.230555092533812
20
88.641981077061985
30
0
10
-38.170130537831056
20
88.635067522134847
30
0
0
SPLINE
5
194
100
AcDbEntity
8
0
100
AcDbSpline
70
0
71
3
72
9
73
5
74
0
42
0.000000001
43
0.0000000001
44
0.0000000001
40
0
40
0
40
0
40
0
40
0.022265244282419282
40
0.042125328498797354
40
0.042125328498797354
40
0.042125328498797354
40
0.042125328498797354
10
-38.170130537831056
20
88.635067522134847
30
0
10
-38.096951901361464
20
88.620029745094712
30
-8.8817841970012523e-15
10
-37.958499609472184
20
88.591578617872699
30
-8.8817841970012523e-15
10
-37.834609389179874
20
88.523783185774391
30
0
10
-37.776201056324709
20
88.491820871439046
30
0
0
SPLINE
5
195
100
AcDbEntity
8
0
100
AcDbSpline
70
0
71
3
72
9
73
5
74
0
42
0.000000001
43
0.0000000001
44
0.0000000001
40
0
40
0
40
0
40
0
40
0.018692480734280034
40
0.037730042026302653
40
0.037730042026302653
40
0.037730042026302653
40
0.037730042026302653
10
-37.776201056324709
20
88.491820871439046
30
0
10
-37.725037548144584
20
88.454948237373827
30
8.8817841970012523e-15
10
-37.621766005897712
20
88.380522266167645
30
0
10
-37.557796635890469
20
88.270428015101317
30
0
10
-37.525519417607065
20
88.214877426233357
30
0
0
SPLINE
5
196
100
AcDbEntity
8
0
100
AcDbSpline
70
0
71
3
72
9
73
5
74
0
42
0.000000001
43
0.0000000001
44
0.0000000001
40
0
40
0
40
0
40
0
40
0.019540883582290849
40
0.039953930894797304
40
0.039953930894797304
40
0.039953930894797304
40
0.039953930894797304
10
-37.525519417607065
20
88.214877426233357
30
0
10
-37.499758294654725
20
88.154449022239277
30
0
10
-37.44708625851699
20
88.030895127294073
30
0
10
-37.440532140572103
20
87.896681660742246
30
0
10
-37.437183545910592
20
87.828110038843221
30
8.8817841970012523e-15
0
SPLINE
5
197
100
AcDbEntity
8
0
100
AcDbSpline
70
0
71
3
72
9
73
5
74
0
42
0.000000001
43
0.0000000001
44
0.0000000001
40
0
40
0
40
0
40
0
40
0.027450033037375091
40
0.054009454777509722
40
0.054009454777509722
40
0.054009454777509722
40
0.054009454777509722
10
-37.437183545910592
20
87.828110038843221
30
8.8817841970012523e-15
10
-37.443397611287715
20
87.735326810188994
30
0
10
-37.455624127828273
20
87.552770687750524
30
-8.8817841970012523e-15
10
-37.550491321889083
20
87.396453326067487
30
0
10
-37.597142742954965
20
87.319583475198812
30
8.8817841970012523e-15
0
SPLINE
5
198
100
AcDbEntity
8
0
100
AcDbSpline
70
0
71
3
72
9
73
5
74
0
42
0.000000001
43
0.0000000001
44
0.0000000001
40
0
40
0
40
0
40
0
40
0.027816663233137352
40
0.059580988760392861
40
0.059580988760392861
40
0.059580988760392861
40
0.059580988760392861
10
-37.597142742954965
20
87.319583475198812
30
8.8817841970012523e-15
10
-37.659950532729532
20
87.249673020510699
30
0
10
-37.794479616439538
20
87.099930616826356
30
-8.8817841970012523e-15
10
-37.98188402661723
20
87.025188205484412
30
-1.7763568394002505e-14
10
-38.081794666134591
20
86.985340892877645
30
0
0
SPLINE
5
199
100
AcDbEntity
8
0
100
AcDbSpline
70
0
71
3
72
9
73
5
74
0
42
0.000000001
43
0.0000000001
44
0.0000000001
40
0
40
0
40
0
40
0
40
0.027447331189917788
40
0.051603124883825582
40
0.051603124883825582
40
0.051603124883825582
40
0.051603124883825582
10
-38.081794666134591
20
86.985340892877645
30
0
10
-37.994814685998499
20
86.952568773671175
30
0
10
-37.831285534610409
20
86.890954631719879
30
-1.7763568394002505e-14
10
-37.712454235397182
20
86.763353112098187
30
0
10
-37.65682845004725
20
86.703621923532552
30
0
0
SPLINE
5
200
100
AcDbEntity
8
0
100
AcDbSpline
70
0
71
3
72
9
73
5
74
0
42
0.000000001
43
0.0000000001
44
0.0000000001
40
0
40
0
40
0
40
0
40
0.022825585592659348
40
0.046545134257991144
40
0.046545134257991144
40
0.046545134257991144
40
0.046545134257991144
10
-37.65682845004725
20
86.703621923532552
30
0
10
-37.615748708851065
20
86.638088220947651
30
0
10
-37.531980340171181
20
86.504454191150046
30
0
10
-37.521374388283398
20
86.346972073814754
30
0
10
-37.515969561421151
20
86.266718685236043
30
0
0
SPLINE
5
201
100
AcDbEntity
8
0
100
AcDbSpline
70
0
71
3
72
9
73
5
74
0
42
0.000000001
43
0.0000000001
44
0.0000000001
40
0
40
0
40
0
40
0
40
0.028598068374636468
40
0.058453984772409581
40
0.058453984772409581
40
0.058453984772409581
40
0.058453984772409581
10
-37.515969561421151
20
86.266718685236043
30
0
10
-37.523513452582094
20
86.170510317025048
30
-8.8817841970012523e-15
10
-37.538933042928889
20
85.973861983413457
30
0
10
-37.634353808874856
20
85.801081191376284
30
-1.7763568394002505e-14
10
-37.683090852581735
20
85.712831794824666
30
0
0
SPLINE
5
202
100
AcDbEntity
8
0
100
AcDbSpline
70
0
71
3
72
9
73
5
74
0
42
0.000000001
43
0.0000000001
44
0.0000000001
40
0
40
0
40
0
40
0
40
0.030370892121270997
40
0.060677886654304437
40
0.060677886654304437
40
0.060677886654304437
40
0.060677886654304437
10
-37.683090852581735
20
85.712831794824666
30
0
10
-37.742529946361842
20
85.629495556226288
30
0
10
-37.861283079487556
20
85.462998410878129
30
0
10
-38.035409653133875
20
85.355754606109571
30
-1.7763568394002505e-14
10
-38.122381256901498
20
85.302189170923299
30
0
0
LWPOLYLINE
5
203
100
AcDbEntity
8
0
100
AcDbPolyline
90
4
70
1
43
0.0
10
-33.910920904957528
20
85.158942520227484
10
-33.1803622711532
20
88.658942758646063
10
-33.645913885914553
20
88.658942758646063
10
-34.378861473881479
20
85.158942520227498
0
LWPOLYLINE
5
204
100
AcDbEntity
8
0
100
AcDbPolyline
90
12
70
1
43
0.0
10
-29.083500193440194
20
85.158942520227484
10
-28.844754980885263
20
86.295368253793754
10
-28.111808585011239
20
86.932817279901542
10
-27.101917551838632
20
85.158942520227484
10
-26.579066799961804
20
85.158942520227484
10
-27.770403908573854
20
87.233635961618461
10
-26.144550131642092
20
88.658942758646049
10
-26.803486632191415
20
88.658942758646063
10
-28.703896092259157
20
86.973403274622015
10
-28.352940367542971
20
88.658942758646063
10
-28.820880936466921
20
88.658942758646077
10
-29.551440762364145
20
85.158942520227498
0
LINE
5
205
100
AcDbEntity
8
0
100
AcDbLine
10
-24.010172175251718
20
87.286159574594549
30
-1.7763568394002505e-14
11
-24.454236315571546
21
85.158942520227484
31
-2.1094237467877974e-14
0
LINE
5
206
100
AcDbEntity
8
0
100
AcDbLine
10
-24.454236315571546
20
85.158942520227484
30
-2.1094237467877974e-14
11
-24.910240458332773
21
85.158942520227484
31
-1.80632562491553e-14
0
LINE
5
207
100
AcDbEntity
8
0
100
AcDbLine
10
-24.910240458332773
20
85.158942520227484
30
-1.80632562491553e-14
11
-24.177294062458742
21
88.658942758646063
31
-1.1379786002407855e-14
0
LINE
5
208
100
AcDbEntity
8
0
100
AcDbLine
10
-24.177294062458742
20
88.658942758646063
30
-1.1379786002407855e-14
11
-23.723678873860109
21
88.658942758646049
31
-8.5836663726484245e-15
0
LINE
5
209
100
AcDbEntity
8
0
100
AcDbLine
10
-23.723678873860109
20
88.658942758646049
30
-8.5836663726484245e-15
11
-23.133979128681887
21
87.34584528168682
31
-9.298117831235686e-15
0
SPLINE
5
210
100
AcDbEntity
8
0
100
AcDbSpline
70
0
71
3
72
9
73
5
74
0
42
0.000000001
43
0.0000000001
44
0.0000000001
40
0
40
0
40
0
40
0
40
0.060433889821621858
40
0.10988869733439162
40
0.10988869733439162
40
0.10988869733439162
40
0.10988869733439162
10
-23.133979128681894
20
87.34584528168682
30
0
10
-23.052037093934846
20
87.161790164004088
30
0
10
-22.903039511918195
20
86.827117397124709
30
-8.8817841970012523e-15
10
-22.767584258638259
20
86.486748734483996
30
0
10
-22.706623362385507
20
86.333567678537406
30
-8.8817841970012523e-15
0
SPLINE
5
211
100
AcDbEntity
8
0
100
AcDbSpline
70
0
71
3
72
9
73
5
74
0
42
0.000000001
43
0.0000000001
44
0.0000000001
40
0
40
0
40
0
40
0
40
0.029711191459515427
40
0.067809748409830006
40
0.067809748409830006
40
0.067809748409830006
40
0.067809748409830006
10
-22.706623362385507
20
86.333567678537406
30
-8.8817841970012523e-15
10
-22.673237078919112
20
86.240308442714479
30
0
10
-22.597039680868605
20
86.027463214792093
30
0
10
-22.532685803906158
20
85.810728076477716
30
-8.8817841970012523e-15
10
-22.49652891048121
20
85.688956558313407
30
-8.8817841970012523e-15
0
SPLINE
5
212
100
AcDbEntity
8
0
100
AcDbSpline
70
0
71
3
72
9
73
5
74
0
42
0.000000001
43
0.0000000001
44
0.0000000001
40
0
40
0
40
0
40
0
40
0.045470929929028535
40
0.092644663892979429
40
0.092644663892979429
40
0.092644663892979429
40
0.092644663892979429
10
-22.49652891048121
20
85.688956558313407
30
-8.8817841970012523e-15
10
-22.473358922212316
20
85.838766138942191
30
0
10
-22.426151271545702
20
86.143995397876665
30
-8.8817841970012523e-15
10
-22.365212141456364
20
86.446784230076247
30
0
10
-22.334182547413583
20
86.600961267557182
30
-8.8817841970012523e-15
0
LINE
5
213
100
AcDbEntity
8
0
100
AcDbLine
10
-22.334182547413583
20
86.600961267557182
30
-8.8817841970012507e-15
11
-21.904442595326174
21
88.658942758646049
31
-6.2450045135165055e-15
0
LINE
5
214
100
AcDbEntity
8
0
100
AcDbLine
10
-21.904442595326174
20
88.658942758646049
30
-6.2450045135165055e-15
11
-21.448440836750734
21
88.658942758646049
31
2.9968628825578685e-16
0
LINE
5
215
100
AcDbEntity
8
0
100
AcDbLine
10
-21.448440836750734
20
88.658942758646049
30
2.9968628825578685e-16
11
-22.178998278462167
21
85.15894252022747
31
-6.3837823915946501e-15
0
LINE
5
216
100
AcDbEntity
8
0
100
AcDbLine
10
-22.178998278462167
20
85.15894252022747
30
-6.3837823915946501e-15
11
-22.642164515339608
21
85.158942520227484
31
-9.1861790107599317e-15
0
LINE
5
217
100
AcDbEntity
8
0
100
AcDbLine
10
-22.642164515339608
20
85.158942520227484
30
-9.1861790107599317e-15
11
-23.511195467793215
21
87.181111156549505
31
-4.9960036108132044e-15
0
SPLINE
5
218
100
AcDbEntity
8
0
100
AcDbSpline
70
0
71
3
72
9
73
5
74
0
42
0.000000001
43
0.0000000001
44
0.0000000001
40
0
40
0
40
0
40
0
40
0.05436617561909602
40
0.10099206921516024
40
0.10099206921516024
40
0.10099206921516024
40
0.10099206921516024
10
-23.511195467793222
20
87.181111156549491
30
0
10
-23.582137615125937
20
87.347954598711226
30
8.8817841970012523e-15
10
-23.713921654965237
20
87.657887461691061
30
-8.8817841970012523e-15
10
-23.821863983696833
20
87.976881579003333
30
-8.8817841970012523e-15
10
-23.87169866450953
20
88.124154388513602
30
-8.8817841970012523e-15
0
SPLINE
5
219
100
AcDbEntity
8
0
100
AcDbSpline
70
0
71
3
72
9
73
5
74
0
42
0.000000001
43
0.0000000001
44
0.0000000001
40
0
40
0
40
0
40
0
40
0.038381335974438602
40
0.084960425540513668
40
0.084960425540513668
40
0.084960425540513668
40
0.084960425540513668
10
-23.87169866450953
20
88.124154388513602
30
-8.8817841970012523e-15
10
-23.887828725820775
20
87.997195834984296
30
8.8817841970012523e-15
10
-23.92353401950599
20
87.716162034049262
30
-1.7763568394002505e-14
10
-23.979492980387342
20
87.438426542101197
30
0
10
-24.010172175251718
20
87.286159574594549
30
-1.7763568394002505e-14
0
LWPOLYLINE
5
220
100
AcDbEntity
8
0
100
AcDbPolyline
90
4
70
1
43
0.0
10
-16.618628786885015
20
87.204986393060707
10
-16.51835470088648
20
87.694413244333305
10
-17.005396174275155
20
87.694413244333319
10
-17.108056830250497
20
87.204986393060722
0
SPLINE
5
221
100
AcDbEntity
8
0
100
AcDbSpline
70
0
71
3
72
9
73
5
74
0
42
0.000000001
43
0.0000000001
44
0.0000000001
40
0
40
0
40
0
40
0
40
0.030765172552512494
40
0.063016192897049211
40
0.063016192897049211
40
0.063016192897049211
40
0.063016192897049211
10
-12.581453608357187
20
85.30218917092327
30
0
10
-12.676127098920766
20
85.260415968446566
30
0
10
-12.870046471009731
20
85.17485206722975
30
0
10
-13.081852819326009
20
85.164328414351871
30
0
10
-13.190253065907235
20
85.15894252022747
30
-8.8817841970012523e-15
0
LINE
5
222
100
AcDbEntity
8
0
100
AcDbLine
10
-13.190253065907234
20
85.158942520227455
30
-8.8817841970012507e-15
11
-14.885342406117196
21
85.15894252022747
31
-5.5549119966178344e-15
0
LINE
5
223
100
AcDbEntity
8
0
100
AcDbLine
10
-14.885342406117196
20
85.15894252022747
30
-5.5549119966178344e-15
11
-14.152396010243171
21
88.658942758646049
31
1.9428902930940239e-15
0
LINE
5
224
100
AcDbEntity
8
0
100
AcDbLine
10
-14.152396010243171
20
88.658942758646049
30
1.9428902930940239e-15
11
-13.068492697560066
21
88.658942758646049
31
7.1234585064086418e-16
0
SPLINE
5
225
100
AcDbEntity
8
0
100
AcDbSpline
70
0
71
3
72
9
73
5
74
0
42
0.000000001
43
0.0000000001
44
0.0000000001
40
0
40
0
40
0
40
0
40
0.025791161760991173
40
0.044024149349977143
40
0.044024149349977143
40
0.044024149349977143
40
0.044024149349977143
10
-13.068492697560066
20
88.658942758646049
30
0
10
-12.982430191598851
20
88.658843511218279
30
8.8817841970012523e-15
10
-12.835526044706169
20
88.658674101107025
30
8.8817841970012523e-15
10
-12.689627046839881
20
88.641981082291636
30
0
10
-12.629201697193855
20
88.635067522134818
30
0
0
SPLINE
5
226
100
AcDbEntity
8
0
100
AcDbSpline
70
0
71
3
72
9
73
5
74
0
42
0.000000001
43
0.0000000001
44
0.0000000001
40
0
40
0
40
0
40
0
40
0.022265071238565373
40
0.042125101894540766
40
0.042125101894540766
40
0.042125101894540766
40
0.042125101894540766
10
-12.629201697193855
20
88.635067522134818
30
0
10
-12.55602366922286
20
88.620029692652196
30
8.8817841970012523e-15
10
-12.41757219733266
20
88.591578398136164
30
0
10
-12.293682733002687
20
88.523783173637142
30
0
10
-12.235274599873298
20
88.491820871439018
30
0
0
SPLINE
5
227
100
AcDbEntity
8
0
100
AcDbSpline
70
0
71
3
72
9
73
5
74
0
42
0.000000001
43
0.0000000001
44
0.0000000001
40
0
40
0
40
0
40
0
40
0.018692388999538626
40
0.037730084091782495
40
0.037730084091782495
40
0.037730084091782495
40
0.037730084091782495
10
-12.235274599873298
20
88.491820871439018
30
0
10
-12.184111696763713
20
88.45494806732134
30
0
10
-12.080840753881468
20
88.380521304637654
30
8.8817841970012523e-15
10
-12.01686991790449
20
88.27042791096757
30
0
10
-11.984591769062751
20
88.214877426233343
30
-8.8817841970012523e-15
0
SPLINE
5
228
100
AcDbEntity
8
0
100
AcDbSpline
70
0
71
3
72
9
73
5
74
0
42
0.000000001
43
0.0000000001
44
0.0000000001
40
0
40
0
40
0
40
0
40
0.019540883582290849
40
0.039953937343288219
40
0.039953937343288219
40
0.039953937343288219
40
0.039953937343288219
10
-11.984591769062751
20
88.214877426233343
30
-8.8817841970012523e-15
10
-11.958830692669888
20
88.154449017099751
30
-8.8817841970012523e-15
10
-11.906158743228019
20
88.030895091704792
30
0
10
-11.899604142936633
20
87.896681655719703
30
0
10
-11.89625530131983
20
87.828110038843192
30
0
0
SPLINE
5
229
100
AcDbEntity
8
0
100
AcDbSpline
70
0
71
3
72
9
73
5
74
0
42
0.000000001
43
0.0000000001
44
0.0000000001
40
0
40
0
40
0
40
0
40
0.027450041720674369
40
0.054009463460809003
40
0.054009463460809003
40
0.054009463460809003
40
0.054009463460809003
10
-11.89625530131983
20
87.828110038843192
30
0
10
-11.902469611439345
20
87.735326816399805
30
8.8817841970012523e-15
10
-11.914696607622071
20
87.552770734579397
30
0
10
-12.009563720679095
20
87.396453333219895
30
-8.8817841970012523e-15
10
-12.056215094410652
20
87.319583475198783
30
0
0
SPLINE
5
230
100
AcDbEntity
8
0
100
AcDbSpline
70
0
71
3
72
9
73
5
74
0
42
0.000000001
43
0.0000000001
44
0.0000000001
40
0
40
0
40
0
40
0
40
0.027816577544606112
40
0.059581063342734671
40
0.059581063342734671
40
0.059581063342734671
40
0.059581063342734671
10
-12.056215094410652
20
87.319583475198783
30
0
10
-12.119022446506413
20
87.249672966121793
30
-1.7763568394002505e-14
10
-12.253551175556803
20
87.099929797216163
30
0
10
-12.440956244086742
20
87.025188019078286
30
0
10
-12.540867613636726
20
86.985340892877616
30
-8.8817841970012523e-15
0
SPLINE
5
231
100
AcDbEntity
8
0
100
AcDbSpline
70
0
71
3
72
9
73
5
74
0
42
0.000000001
43
0.0000000001
44
0.0000000001
40
0
40
0
40
0
40
0
40
0.027447492948961934
40
0.051603199455173748
40
0.051603199455173748
40
0.051603199455173748
40
0.051603199455173748
10
-12.540867613636726
20
86.985340892877616
30
-8.8817841970012523e-15
10
-12.45388690921966
20
86.952568959037791
30
0
10
-12.290357123561954
20
86.890955439667749
30
0
10
-12.171526152216936
20
86.763353164066103
30
0
10
-12.115900801502937
20
86.703621923532523
30
-8.8817841970012523e-15
0
SPLINE
5
232
100
AcDbEntity
8
0
100
AcDbSpline
70
0
71
3
72
9
73
5
74
0
42
0.000000001
43
0.0000000001
44
0.0000000001
40
0
40
0
40
0
40
0
40
0.022825640766960746
40
0.04654518943229255
40
0.04654518943229255
40
0.04654518943229255
40
0.04654518943229255
10
-12.115900801502937
20
86.703621923532523
30
-8.8817841970012523e-15
10
-12.074820564979687
20
86.638088267898354
30
0
10
-11.991051289434701
20
86.504454498453512
30
-1.7763568394002505e-14
10
-11.980445472478083
20
86.346972114534637
30
0
10
-11.975040720783943
20
86.266718685236029
30
-1.7763568394002505e-14
0
SPLINE
5
233
100
AcDbEntity
8
0
100
AcDbSpline
70
0
71
3
72
9
73
5
74
0
42
0.000000001
43
0.0000000001
44
0.0000000001
40
0
40
0
40
0
40
0
40
0.028598068374636468
40
0.058454009795622888
40
0.058454009795622888
40
0.058454009795622888
40
0.058454009795622888
10
-11.975040720783943
20
86.266718685236029
30
-1.7763568394002505e-14
10
-11.982584576328366
20
86.170510300101668
30
-8.8817841970012523e-15
10
-11.998004100476427
20
85.973861847716961
30
0
10
-12.093425315121973
20
85.801081169452374
30
0
10
-12.142162607990974
20
85.712831794824638
30
0
0
SPLINE
5
234
100
AcDbEntity
8
0
100
AcDbSpline
70
0
71
3
72
9
73
5
74
0
42
0.000000001
43
0.0000000001
44
0.0000000001
40
0
40
0
40
0
40
0
40
0.030371005276697095
40
0.060677902615460327
40
0.060677902615460327
40
0.060677902615460327
40
0.060677902615460327
10
-12.142162607990974
20
85.712831794824638
30
0
10
-12.201602387420296
20
85.629495640792825
30
0
10
-12.320356479187691
20
85.462999240933158
30
0
10
-12.494482555025568
20
85.355754758639918
30
0
10
-12.581453608357187
20
85.30218917092327
30
0
0
SPLINE
5
235
100
AcDbEntity
8
0
100
AcDbSpline
70
0
71
3
72
9
73
5
74
0
42
0.000000001
43
0.0000000001
44
0.0000000001
40
0
40
0
40
0
40
0
40
0.054399384163167565
40
0.10168741693816381
40
0.10168741693816381
40
0.10168741693816381
40
0.10168741693816381
10
-6.6128328312270579
20
85.099256813135185
30
-8.8817841970012523e-15
10
-6.7967860473543507
20
85.106656056369232
30
0
10
-7.1406452228432649
20
85.120487277868122
30
0
10
-7.4436275670961694
20
85.281995186141984
30
0
10
-7.584524439656013
20
85.357101738061942
30
0
0
SPLINE
5
236
100
AcDbEntity
8
0
100
AcDbSpline
70
0
71
3
72
9
73
5
74
0
42
0.000000001
43
0.0000000001
44
0.0000000001
40
0
40
0
40
0
40
0
40
0.045987887059061941
40
0.10378262391181713
40
0.10378262391181713
40
0.10378262391181713
40
0.10378262391181713
10
-7.584524439656013
20
85.357101738061942
30
0
10
-7.6936240160339686
20
85.471612606849234
30
-1.7763568394002505e-14
10
-7.9398332034582575
20
85.730033664853167
30
-8.8817841970012523e-15
10
-7.9539046404365834
20
86.090085904395508
30
0
10
-7.9617407787673402
20
86.29059272965435
30
0
0
LINE
5
237
100
AcDbEntity
8
0
100
AcDbLine
10
-7.9617407787673402
20
86.29059272965435
30
1.6247181778585732e-30
11
-7.5033500660293031
21
86.33356767853742
31
-5.9067334357010282e-15
0
LINE
5
238
100
AcDbEntity
8
0
100
AcDbLine
10
-7.5033500660293031
20
86.33356767853742
30
-5.9067334357010282e-15
11
-7.5081255901687074
21
86.211807310190238
31
-6.9388939039072284e-15
0
SPLINE
5
239
100
AcDbEntity
8
0
100
AcDbSpline
70
0
71
3
72
9
73
5
74
0
42
0.000000001
43
0.0000000001
44
0.0000000001
40
0
40
0
40
0
40
0
40
0.019596430880508737
40
0.038704698340162963
40
0.038704698340162963
40
0.038704698340162963
40
0.038704698340162963
10
-7.5081255901687074
20
86.211807310190238
30
-8.8817841970012523e-15
10
-7.5044457982241477
20
86.145921529018139
30
8.8817841970012523e-15
10
-7.4971778810183567
20
86.015791236378476
30
-8.8817841970012523e-15
10
-7.4421720280182502
20
85.897677376771526
30
0
10
-7.4150159824721751
20
85.839365303125419
30
-8.8817841970012523e-15
0
SPLINE
5
240
100
AcDbEntity
8
0
100
AcDbSpline
70
0
71
3
72
9
73
5
74
0
42
0.000000001
43
0.0000000001
44
0.0000000001
40
0
40
0
40
0
40
0
40
0.019326716891577871
40
0.040884162162573456
40
0.040884162162573456
40
0.040884162162573456
40
0.040884162162573456
10
-7.4150159824721751
20
85.839365303125419
30
-8.8817841970012523e-15
10
-7.3771252775484131
20
85.786000457382841
30
0
10
-7.2969704466349139
20
85.673111288500223
30
-8.8817841970012523e-15
10
-7.1726079869022819
20
85.611578751122508
30
0
10
-7.1070340145461497
20
85.579133808221854
30
-8.8817841970012523e-15
0
SPLINE
5
241
100
AcDbEntity
8
0
100
AcDbSpline
70
0
71
3
72
9
73
5
74
0
42
0.000000001
43
0.0000000001
44
0.0000000001
40
0
40
0
40
0
40
0
40
0.024481000054876138
40
0.052149134742306161
40
0.052149134742306161
40
0.052149134742306161
40
0.052149134742306161
10
-7.1070340145461497
20
85.579133808221854
30
-8.8817841970012523e-15
10
-7.0293361889779904
20
85.552699534383152
30
0
10
-6.8638252063524696
20
85.49638955909046
30
0
10
-6.6889180565066431
20
85.491176565409432
30
-8.8817841970012523e-15
10
-6.5961196888320384
20
85.488410770502128
30
0
0
SPLINE
5
242
100
AcDbEntity
8
0
100
AcDbSpline
70
0
71
3
72
9
73
5
74
0
42
0.000000001
43
0.0000000001
44
0.0000000001
40
0
40
0
40
0
40
0
40
0.03728994591169852
40
0.067586954328898011
40
0.067586954328898011
40
0.067586954328898011
40
0.067586954328898011
10
-6.5961196888320384
20
85.488410770502128
30
0
10
-6.4692724576645322
20
85.492351309503675
30
0
10
-6.2393654999026005
20
85.499493423095316
30
-8.8817841970012523e-15
10
-6.0439025234361488
20
85.618773901201166
30
-1.7763568394002505e-14
10
-5.9562829006545481
20
85.672243415918388
30
0
0
SPLINE
5
243
100
AcDbEntity
8
0
100
AcDbSpline
70
0
71
3
72
9
73
5
74
0
42
0.000000001
43
0.0000000001
44
0.0000000001
40
0
40
0
40
0
40
0
40
0.025792473842023524
40
0.048794929705587242
40
0.048794929705587242
40
0.048794929705587242
40
0.048794929705587242
10
-5.9562829006545481
20
85.672243415918388
30
0
10
-5.8915880177004265
20
85.733199396808402
30
0
10
-5.7691964128705653
20
85.848517641226536
30
0
10
-5.7454467007879151
20
86.014288523180227
30
-8.8817841970012523e-15
10
-5.734250830494636
20
86.092434703912772
30
0
0
SPLINE
5
244
100
AcDbEntity
8
0
100
AcDbSpline
70
0
71
3
72
9
73
5
74
0
42
0.000000001
43
0.0000000001
44
0.0000000001
40
0
40
0
40
0
40
0
40
0.016026328551970531
40
0.032824413589072475
40
0.032824413589072475
40
0.032824413589072475
40
0.032824413589072475
10
-5.734250830494636
20
86.092434703912772
30
0
10
-5.7395681145966337
20
86.146659966787126
30
0
10
-5.7504587394810835
20
86.257721739281834
30
0
10
-5.8171209167902838
20
86.347373549192596
30
0
10
-5.8512356747023997
20
86.393253385629691
30
0
0
SPLINE
5
245
100
AcDbEntity
8
0
100
AcDbSpline
70
0
71
3
72
9
73
5
74
0
42
0.000000001
43
0.0000000001
44
0.0000000001
40
0
40
0
40
0
40
0
40
0.027275063549713201
40
0.074848305281678601
40
0.074848305281678601
40
0.074848305281678601
40
0.074848305281678601
10
-5.8512356747023997
20
86.393253385629691
30
0
10
-5.9240240781223363
20
86.448197520424443
30
0
10
-6.1237702173095609
20
86.598975368001518
30
0
10
-6.3556367620074683
20
86.695068915588223
30
0
10
-6.5030100811355052
20
86.756145536508598
30
0
0
SPLINE
5
246
100
AcDbEntity
8
0
100
AcDbSpline
70
0
71
3
72
9
73
5
74
0
42
0.000000001
43
0.0000000001
44
0.0000000001
40
0
40
0
40
0
40
0
40
0.038168767232372766
40
0.062710609084243987
40
0.062710609084243987
40
0.062710609084243987
40
0.062710609084243987
10
-6.5030100811355052
20
86.756145536508598
30
0
10
-6.6199514530755721
20
86.806550703399026
30
0
10
-6.8120840576436459
20
86.889365500571955
30
0
10
-6.9949020624833782
20
86.99094801991879
30
8.8817841970012523e-15
10
-7.0664480198256898
20
87.030702411737479
30
0
0
SPLINE
5
247
100
AcDbEntity
8
0
100
AcDbSpline
70
0
71
3
72
9
73
5
74
0
42
0.000000001
43
0.0000000001
44
0.0000000001
40
0
40
0
40
0
40
0
40
0.026138095965042882
40
0.04874398613746235
40
0.04874398613746235
40
0.04874398613746235
40
0.04874398613746235
10
-7.0664480198256898
20
87.030702411737479
30
0
10
-7.1384358252069449
20
87.081003639106882
30
-8.8817841970012523e-15
10
-7.272683269713351
20
87.17480857168006
30
-8.8817841970012523e-15
10
-7.3699204919264822
20
87.306335025028289
30
0
10
-7.4150159824721733
20
87.367332756128349
30
0
0
SPLINE
5
248
100
AcDbEntity
8
0
100
AcDbSpline
70
0
71
3
72
9
73
5
74
0
42
0.000000001
43
0.0000000001
44
0.0000000001
40
0
40
0
40
0
40
0
40
0.021364127620774796
40
0.043684711353473009
40
0.043684711353473009
40
0.043684711353473009
40
0.043684711353473009
10
-7.4150159824721733
20
87.367332756128349
30
0
10
-7.4477393143796871
20
87.431518699692177
30
0
10
-7.5146509774383388
20
87.56276414379866
30
0
10
-7.5229731243484856
20
87.709938134309795
30
0
10
-7.5272253025405336
20
87.785136282053031
30
0
0
SPLINE
5
249
100
AcDbEntity
8
0
100
AcDbSpline
70
0
71
3
72
9
73
5
74
0
42
0.000000001
43
0.0000000001
44
0.0000000001
40
0
40
0
40
0
40
0
40
0.025930448999345958
40
0.051504606032504896
40
0.051504606032504896
40
0.051504606032504896
40
0.051504606032504896
10
-7.5272253025405336
20
87.785136282053031
30
0
10
-7.5212304560087597
20
87.872620728297122
30
8.8817841970012523e-15
10
-7.5093231338928916
20
88.046387558863231
30
0
10
-7.4223759724558462
20
88.197260664005313
30
8.8817841970012523e-15
10
-7.3792031277053276
20
88.272175371255912
30
0
0
SPLINE
5
250
100
AcDbEntity
8
0
100
AcDbSpline
70
0
71
3
72
9
73
5
74
0
42
0.000000001
43
0.0000000001
44
0.0000000001
40
0
40
0
40
0
40
0
40
0.026428635416052143
40
0.055102153618196321
40
0.055102153618196321
40
0.055102153618196321
40
0.055102153618196321
10
-7.3792031277053276
20
88.272175371255912
30
0
10
-7.3223966365793043
20
88.341020850179262
30
0
10
-7.2039584368289216
20
88.484559632860737
30
0
10
-7.0349968136030219
20
88.563140330803733
30
0
10
-6.9470742214553285
20
88.604031383600272
30
0
0
SPLINE
5
251
100
AcDbEntity
8
0
100
AcDbSpline
70
0
71
3
72
9
73
5
74
0
42
0.000000001
43
0.0000000001
44
0.0000000001
40
0
40
0
40
0
40
0
40
0.031630190596308033
40
0.065771509610304174
40
0.065771509610304174
40
0.065771509610304174
40
0.065771509610304174
10
-6.9470742214553285
20
88.604031383600272
30
0
10
-6.8464717136807165
20
88.637441978641434
30
0
10
-6.6372798409105718
20
88.706915643877338
30
0
10
-6.4168744704594829
20
88.714626064913375
30
8.8817841970012523e-15
10
-6.302464293324225
20
88.718628465738334
30
0
0
SPLINE
5
252
100
AcDbEntity
8
0
100
AcDbSpline
70
0
71
3
72
9
73
5
74
0
42
0.000000001
43
0.0000000001
44
0.0000000001
40
0
40
0
40
0
40
0
40
0.039555393005674046
40
0.07398258321870424
40
0.07398258321870424
40
0.07398258321870424
40
0.07398258321870424
10
-6.302464293324225
20
88.718628465738334
30
0
10
-6.169538984680675
20
88.714499626153795
30
0
10
-5.920921616445133
20
88.706777234971497
30
-1.7763568394002505e-14
10
-5.6892581948469925
20
88.617108450675275
30
0
10
-5.5814555157058168
20
88.575381815042533
30
0
0
SPLINE
5
253
100
AcDbEntity
8
0
100
AcDbSpline
70
0
71
3
72
9
73
5
74
0
42
0.000000001
43
0.0000000001
44
0.0000000001
40
0
40
0
40
0
40
0
40
0.030327190242175395
40
0.057844062635786259
40
0.057844062635786259
40
0.057844062635786259
40
0.057844062635786259
10
-5.5814555157058168
20
88.575381815042533
30
0
10
-5.4915401548604583
20
88.525764427638649
30
0
10
-5.3200415846623752
20
88.43112752781721
30
0
10
-5.2092114596784391
20
88.270026817829006
30
0
10
-5.1564887035720277
20
88.193389951791801
30
0
0
SPLINE
5
254
100
AcDbEntity
8
0
100
AcDbSpline
70
0
71
3
72
9
73
5
74
0
42
0.000000001
43
0.0000000001
44
0.0000000001
40
0
40
0
40
0
40
0
40
0.025400313518428082
40
0.047912864909851513
40
0.047912864909851513
40
0.047912864909851513
40
0.047912864909851513
10
-5.1564887035720277
20
88.193389951791801
30
0
10
-5.1175362151990891
20
88.117173251517784
30
0
10
-5.0440597475971742
20
87.973404929073524
30
0
10
-5.0295896848732271
20
87.812833707885446
30
0
10
-5.0227907169692445
20
87.737387001123466
30
0
0
SPLINE
5
255
100
AcDbEntity
8
0
100
AcDbSpline
70
0
71
3
72
9
73
5
74
0
42
0.000000001
43
0.0000000001
44
0.0000000001
40
0
40
0
40
0
40
0
40
0.002865457634374121
40
0.0071666908872625029
40
0.0071666908872625029
40
0.0071666908872625029
40
0.0071666908872625029
10
-5.0227907169692445
20
87.737387001123466
30
0
10
-5.0229495241655533
20
87.727836295838813
30
-8.8817841970012523e-15
10
-5.0233467110138088
20
87.703949377494808
30
-1.7763568394002505e-14
10
-5.0244921893422392
20
87.680085850217296
30
0
10
-5.0251796711318422
20
87.665763675775565
30
0
0
LINE
5
256
100
AcDbEntity
8
0
100
AcDbLine
10
-5.0251796711318413
20
87.665763675775565
30
7.7149254460669831e-31
11
-5.4764059055678773
21
87.629952013101615
31
-2.2703193491846463e-15
0
SPLINE
5
257
100
AcDbEntity
8
0
100
AcDbSpline
70
0
71
3
72
9
73
5
74
0
42
0.000000001
43
0.0000000001
44
0.0000000001
40
0
40
0
40
0
40
0
40
0.013206947415047561
40
0.023367288506910746
40
0.023367288506910746
40
0.023367288506910746
40
0.023367288506910746
10
-5.4764059055678773
20
87.629952013101615
30
0
10
-5.4768001622599085
20
87.674141438486146
30
0
10
-5.477497727683537
20
87.752326579947237
30
0
10
-5.4950401037352394
20
87.82843932358756
30
0
10
-5.5026677120559144
20
87.86153393944744
30
0
0
SPLINE
5
258
100
AcDbEntity
8
0
100
AcDbSpline
70
0
71
3
72
9
73
5
74
0
42
0.000000001
43
0.0000000001
44
0.0000000001
40
0
40
0
40
0
40
0
40
0.014745024395711499
40
0.028905121099149181
40
0.028905121099149181
40
0.028905121099149181
40
0.028905121099149181
10
-5.5026677120559144
20
87.86153393944744
30
0
10
-5.520423501665757
20
87.907834941340354
30
0
10
-5.5552307176533162
20
87.998600207698018
30
0
10
-5.619302351041803
20
88.071653673038099
30
0
10
-5.6506898868911195
20
88.107441246118583
30
0
0
SPLINE
5
259
100
AcDbEntity
8
0
100
AcDbSpline
70
0
71
3
72
9
73
5
74
0
42
0.000000001
43
0.0000000001
44
0.0000000001
40
0
40
0
40
0
40
0
40
0.014957599504300787
40
0.032192793002029305
40
0.032192793002029305
40
0.032192793002029305
40
0.032192793002029305
10
-5.6506898868911195
20
88.107441246118583
30
0
10
-5.6891357215467133
20
88.13976972440102
30
0
10
-5.7718815389154701
20
88.209349339038852
30
0
10
-5.8733245466011299
20
88.247158817015787
30
0
10
-5.9276345241897035
20
88.267401039209403
30
0
0
SPLINE
5
260
100
AcDbEntity
8
0
100
AcDbSpline
70
0
71
3
72
9
73
5
74
0
42
0.000000001
43
0.0000000001
44
0.0000000001
40
0
40
0
40
0
40
0
40
0.019079409273108309
40
0.039788975988586987
40
0.039788975988586987
40
0.039788975988586987
40
0.039788975988586987
10
-5.9276345241897035
20
88.267401039209403
30
0
10
-5.9888922112598877
20
88.285497314908454
30
0
10
-6.1166414830042184
20
88.323236024161247
30
0
10
-6.2498447460069642
20
88.327338980816847
30
0
10
-6.3191750515334535
20
88.329474508371391
30
0
0
SPLINE
5
261
100
AcDbEntity
8
0
100
AcDbSpline
70
0
71
3
72
9
73
5
74
0
42
0.000000001
43
0.0000000001
44
0.0000000001
40
0
40
0
40
0
40
0
40
0.034232342358208281
40
0.062793606747269498
40
0.062793606747269498
40
0.062793606747269498
40
0.062793606747269498
10
-6.3191750515334535
20
88.329474508371391
30
0
10
-6.4354830928621078
20
88.325285048780287
30
0
10
-6.6488310820915322
20
88.31760017360304
30
-1.7763568394002505e-14
10
-6.8308570094551948
20
88.207607666795994
30
-8.8817841970012523e-15
10
-6.9136503208510804
20
88.157578289117851
30
0
0
SPLINE
5
262
100
AcDbEntity
8
0
100
AcDbSpline
70
0
71
3
72
9
73
5
74
0
42
0.000000001
43
0.0000000001
44
0.0000000001
40
0
40
0
40
0
40
0
40
0.019537748031769591
40
0.039531168414412135
40
0.039531168414412135
40
0.039531168414412135
40
0.039531168414412135
10
-6.9136503208510804
20
88.157578289117851
30
0
10
-6.9609998620795368
20
88.109818550314969
30
0
10
-7.0568032620212042
20
88.01318518832386
30
0
10
-7.0695499001553355
20
87.877589613234733
30
0
10
-7.0759966839187074
20
87.809010326471366
30
0
0
SPLINE
5
263
100
AcDbEntity
8
0
100
AcDbSpline
70
0
71
3
72
9
73
5
74
0
42
0.000000001
43
0.0000000001
44
0.0000000001
40
0
40
0
40
0
40
0
40
0.012349259641850265
40
0.024367452679033608
40
0.024367452679033608
40
0.024367452679033608
40
0.024367452679033608
10
-7.0759966839187074
20
87.809010326471366
30
0
10
-7.0733652551700912
20
87.767369890078371
30
0
10
-7.0681729426453268
20
87.68520533991358
30
-8.8817841970012523e-15
10
-7.0286445528343924
20
87.613027165568155
30
0
10
-7.0091488827102113
20
87.577428400125541
30
0
0
SPLINE
5
264
100
AcDbEntity
8
0
100
AcDbSpline
70
0
71
3
72
9
73
5
74
0
42
0.000000001
43
0.0000000001
44
0.0000000001
40
0
40
0
40
0
40
0
40
0.013680801409315062
40
0.031410025202089457
40
0.031410025202089457
40
0.031410025202089457
40
0.031410025202089457
10
-7.0091488827102113
20
87.577428400125541
30
0
10
-6.9793684865301033
20
87.542484082881842
30
0
10
-6.9109950801367805
20
87.462254726979722
30
0
10
-6.81960292324192
20
87.409210761926772
30
0
10
-6.768017100178473
20
87.379270374383964
30
0
0
SPLINE
5
265
100
AcDbEntity
8
0
100
AcDbSpline
70
0
71
3
72
9
73
5
74
0
42
0.000000001
43
0.0000000001
44
0.0000000001
40
0
40
0
40
0
40
0
40
0.023356321343205921
40
0.065057208566313696
40
0.065057208566313696
40
0.065057208566313696
40
0.065057208566313696
10
-6.768017100178473
20
87.379270374383964
30
0
10
-6.6983906832568865
20
87.344413395354053
30
8.8817841970012523e-15
10
-6.504451737956737
20
87.247322003202868
30
8.8817841970012523e-15
10
-6.3057090345040958
20
87.160417950422939
30
-8.8817841970012523e-15
10
-6.1783173550002504
20
87.104713499155082
30
0
0
SPLINE
5
266
100
AcDbEntity
8
0
100
AcDbSpline
70
0
71
3
72
9
73
5
74
0
42
0.000000001
43
0.0000000001
44
0.0000000001
40
0
40
0
40
0
40
0
40
0.035192463486007297
40
0.058335401001994414
40
0.058335401001994414
40
0.058335401001994414
40
0.058335401001994414
10
-6.1783173550002504
20
87.104713499155082
30
0
10
-6.0708743827805058
20
87.057310984009916
30
0
10
-5.8927757716452724
20
86.978736071781981
30
-8.8817841970012523e-15
10
-5.7245792450463862
20
86.880905702773987
30
0
10
-5.6578519810073313
20
86.842094242181815
30
-8.8817841970012523e-15
0
SPLINE
5
267
100
AcDbEntity
8
0
100
AcDbSpline
70
0
71
3
72
9
73
5
74
0
42
0.000000001
43
0.0000000001
44
0.0000000001
40
0
40
0
40
0
40
0
40
0.021955392857772704
40
0.04285790756124596
40
0.04285790756124596
40
0.04285790756124596
40
0.04285790756124596
10
-5.6578519810073313
20
86.842094242181815
30
-8.8817841970012523e-15
10
-5.5983143273316083
20
86.798406109065212
30
0
10
-5.4820941679303203
20
86.713124921761207
30
-8.8817841970012523e-15
10
-5.4028468306317112
20
86.592797809321027
30
0
10
-5.3641965854995188
20
86.53411227425579
30
-8.8817841970012523e-15
0
SPLINE
5
268
100
AcDbEntity
8
0
100
AcDbSpline
70
0
71
3
72
9
73
5
74
0
42
0.000000001
43
0.0000000001
44
0.0000000001
40
0
40
0
40
0
40
0
40
0.020648413997695184
40
0.042465953573357855
40
0.042465953573357855
40
0.042465953573357855
40
0.042465953573357855
10
-5.3641965854995188
20
86.53411227425579
30
-8.8817841970012523e-15
10
-5.3342604974414609
20
86.471338941626811
30
0
10
-5.2726933220746997
20
86.342238012646803
30
8.8817841970012523e-15
10
-5.2653227003047798
20
86.199297627387921
30
0
10
-5.261535929524177
20
86.125859796609916
30
0
0
SPLINE
5
269
100
AcDbEntity
8
0
100
AcDbSpline
70
0
71
3
72
9
73
5
74
0
42
0.000000001
43
0.0000000001
44
0.0000000001
40
0
40
0
40
0
40
0
40
0.027681534613220142
40
0.056058789924294278
40
0.056058789924294278
40
0.056058789924294278
40
0.056058789924294278
10
-5.261535929524177
20
86.125859796609916
30
0
10
-5.2691516269482097
20
86.032461394332671
30
0
10
-5.2845744273090212
20
85.843317205411012
30
0
10
-5.3849893480344324
20
85.682185705964869
30
8.8817841970012523e-15
10
-5.4358199108474192
20
85.600620090570487
30
-8.8817841970012523e-15
0
SPLINE
5
270
100
AcDbEntity
8
0
100
AcDbSpline
70
0
71
3
72
9
73
5
74
0
42
0.000000001
43
0.0000000001
44
0.0000000001
40
0
40
0
40
0
40
0
40
0.029504761362790406
40
0.06098376861959437
40
0.06098376861959437
40
0.06098376861959437
40
0.06098376861959437
10
-5.4358199108474192
20
85.600620090570487
30
-8.8817841970012523e-15
10
-5.5002464415237906
20
85.52485931480274
30
0
10
-5.6334104617787073
20
85.368268398406144
30
0
10
-5.8180182566644811
20
85.277446761909033
30
-8.8817841970012523e-15
10
-5.9133103359572825
20
85.23056584557537
30
-8.8817841970012523e-15
0
SPLINE
5
271
100
AcDbEntity
8
0
100
AcDbSpline
70
0
71
3
72
9
73
5
74
0
42
0.000000001
43
0.0000000001
44
0.0000000001
40
0
40
0
40
0
40
0
40
0.034215674051713767
40
0.071544777963716999
40
0.071544777963716999
40
0.071544777963716999
40
0.071544777963716999
10
-5.9133103359572825
20
85.23056584557537
30
-8.8817841970012523e-15
10
-6.0214878306097752
20
85.192287525541843
30
0
10
-6.2476863507349778
20
85.112247778159244
30
8.8817841970012523e-15
10
-6.487636680611697
20
85.10371096756549
30
0
10
-6.6128328312270579
20
85.099256813135185
30
-8.8817841970012523e-15
0
LWPOLYLINE
5
272
100
AcDbEntity
8
0
100
AcDbPolyline
90
8
70
1
43
0.0
10
-30.052803965293631
20
95.833223640527791
10
-30.052803965293631
20
101.6490491028691
10
-27.980499478065237
20
101.6490491028691
10
-27.980499478065237
20
102.83322352131849
10
-33.5432543475263
20
102.83322352131849
10
-33.5432543475263
20
101.6490491028691
10
-31.466173144065607
20
101.6490491028691
10
-31.466173144065607
20
95.833223640527791
0
SPLINE
5
273
100
AcDbEntity
8
0
100
AcDbSpline
70
0
71
3
72
9
73
5
74
0
42
0.000000001
43
0.0000000001
44
0.0000000001
40
0
40
0
40
0
40
0
40
0.11833357674340036
40
0.21626847815175304
40
0.21626847815175304
40
0.21626847815175304
40
0.21626847815175304
10
-4.4402541834943179
20
95.709076702203802
30
0
10
-4.8430442659512565
20
95.723433915935232
30
-8.8817841970012523e-15
10
-5.5791903416882889
20
95.749673406447158
30
-8.8817841970012523e-15
10
-6.1986278360211351
20
96.142414199906881
30
0
10
-6.4791335780255661
20
96.320262729730658
30
0
0
SPLINE
5
274
100
AcDbEntity
8
0
100
AcDbSpline
70
0
71
3
72
9
73
5
74
0
42
0.000000001
43
0.0000000001
44
0.0000000001
40
0
40
0
40
0
40
0
40
0.094543150927525632
40
0.20180474991027281
40
0.20180474991027281
40
0.20180474991027281
40
0.20180474991027281
10
-6.4791335780255661
20
96.320262729730658
30
0
10
-6.6935161418387992
20
96.559910462926524
30
0
10
-7.1511211534235937
20
97.071444618385613
30
0
10
-7.2673109554459101
20
97.750123584159638
30
0
10
-7.3290672022931433
20
98.110849439706854
30
0
0
LINE
5
275
100
AcDbEntity
8
0
100
AcDbLine
10
-7.3290672022931433
20
98.110849439706854
30
0
11
-5.953897448264823
21
98.244546830263189
31
1.0408340855860843e-15
0
SPLINE
5
276
100
AcDbEntity
8
0
100
AcDbSpline
70
0
71
3
72
9
73
5
74
0
42
0.000000001
43
0.0000000001
44
0.0000000001
40
0
40
0
40
0
40
0
40
0.062901284672581048
40
0.11506721558061044
40
0.11506721558061044
40
0.11506721558061044
40
0.11506721558061044
10
-5.953897448264823
20
98.244546830263204
30
0
10
-5.9088399900360598
20
98.035461486534814
30
0
10
-5.8264150238924834
20
97.652975366469477
30
0
10
-5.5691591869618478
20
97.360216066579596
30
0
10
-5.4525317866437302
20
97.227493106927923
30
0
0
SPLINE
5
277
100
AcDbEntity
8
0
100
AcDbSpline
70
0
71
3
72
9
73
5
74
0
42
0.000000001
43
0.0000000001
44
0.0000000001
40
0
40
0
40
0
40
0
40
0.050959799541382557
40
0.10942150273633951
40
0.10942150273633951
40
0.10942150273633951
40
0.10942150273633951
10
-5.4525317866437302
20
97.227493106927923
30
0
10
-5.3077413788470569
20
97.132910084599914
30
0
10
-4.9968456503414176
20
96.929820266162324
30
-8.8817841970012523e-15
10
-4.6247390505897581
20
96.912209472727028
30
0
10
-4.425929995261896
20
96.902800380792669
30
8.8817841970012523e-15
0
SPLINE
5
278
100
AcDbEntity
8
0
100
AcDbSpline
70
0
71
3
72
9
73
5
74
0
42
0.000000001
43
0.0000000001
44
0.0000000001
40
0
40
0
40
0
40
0
40
0.060233222564563912
40
0.10817306888412792
40
0.10817306888412792
40
0.10817306888412792
40
0.10817306888412792
10
-4.425929995261896
20
96.902800380792669
30
8.8817841970012523e-15
10
-4.2210444237266778
20
96.908267378909869
30
0
10
-3.8530896622279478
20
96.918085581203258
30
0
10
-3.53866798074072
20
97.106010721819715
30
0
10
-3.3993234355084772
20
97.189294874277152
30
8.8817841970012523e-15
0
SPLINE
5
279
100
AcDbEntity
8
0
100
AcDbSpline
70
0
71
3
72
9
73
5
74
0
42
0.000000001
43
0.0000000001
44
0.0000000001
40
0
40
0
40
0
40
0
40
0.040945826915391975
40
0.078266657520563249
40
0.078266657520563249
40
0.078266657520563249
40
0.078266657520563249
10
-3.3993234355084772
20
97.189294874277152
30
8.8817841970012523e-15
10
-3.2977251225771935
20
97.287105720379145
30
0
10
-3.1035231498269256
20
97.474068069667652
30
0
10
-3.0677963028850486
20
97.740353712746654
30
8.8817841970012523e-15
10
-3.0507602412335744
20
97.867329895105399
30
0
0
SPLINE
5
280
100
AcDbEntity
8
0
100
AcDbSpline
70
0
71
3
72
9
73
5
74
0
42
0.000000001
43
0.0000000001
44
0.0000000001
40
0
40
0
40
0
40
0
40
0.02321630915648705
40
0.045307997780625789
40
0.045307997780625789
40
0.045307997780625789
40
0.045307997780625789
10
-3.0507602412335744
20
97.867329895105399
30
0
10
-3.056290790607223
20
97.946160283574415
30
0
10
-3.0670839841789306
20
98.100002440039759
30
0
10
-3.1556138358055215
20
98.226057904799148
30
0
10
-3.198780031882988
20
98.287521183099798
30
8.8817841970012523e-15
0
SPLINE
5
281
100
AcDbEntity
8
0
100
AcDbSpline
70
0
71
3
72
9
73
5
74
0
42
0.000000001
43
0.0000000001
44
0.0000000001
40
0
40
0
40
0
40
0
40
0.025769014575552987
40
0.059635342753113565
40
0.059635342753113565
40
0.059635342753113565
40
0.059635342753113565
10
-3.198780031882988
20
98.287521183099798
30
8.8817841970012523e-15
10
-3.2622272241162715
20
98.346577230275685
30
0
10
-3.4090584133517265
20
98.483246314172987
30
0
10
-3.5977581166242101
20
98.553320022766371
30
-1.7763568394002505e-14
10
-3.7049188334576955
20
98.593114196863212
30
0
0
SPLINE
5
282
100
AcDbEntity
8
0
100
AcDbSpline
70
0
71
3
72
9
73
5
74
0
42
0.000000001
43
0.0000000001
44
0.0000000001
40
0
40
0
40
0
40
0
40
0.042420389728478163
40
0.11723383912586355
40
0.11723383912586355
40
0.11723383912586355
40
0.11723383912586355
10
-3.7049188334576955
20
98.593114196863212
30
0
10
-3.8403774140672398
20
98.633736245977673
30
0
10
-4.2147334619263539
20
98.746000154945222
30
8.8817841970012523e-15
10
-4.5943276403588325
20
98.839219405337232
30
0
10
-4.8365678507916794
20
98.898707806673102
30
0
0
SPLINE
5
283
100
AcDbEntity
8
0
100
AcDbSpline
70
0
71
3
72
9
73
5
74
0
42
0.000000001
43
0.0000000001
44
0.0000000001
40
0
40
0
40
0
40
0
40
0.10166076214326659
40
0.1749722653631238
40
0.1749722653631238
40
0.1749722653631238
40
0.1749722653631238
10
-4.8365678507916794
20
98.898707806673102
30
0
10
-5.1681891630303998
20
98.982945762142492
30
0
10
-5.7389554156316711
20
99.127930961813348
30
0
10
-6.226931236337637
20
99.4543158450455
30
0
10
-6.4313878733746863
20
99.591067611780218
30
8.8817841970012523e-15
0
SPLINE
5
284
100
AcDbEntity
8
0
100
AcDbSpline
70
0
71
3
72
9
73
5
74
0
42
0.000000001
43
0.0000000001
44
0.0000000001
40
0
40
0
40
0
40
0
40
0.080290079840748485
40
0.15872002386511364
40
0.15872002386511364
40
0.15872002386511364
40
0.15872002386511364
10
-6.4313878733746863
20
99.591067611780218
30
8.8817841970012523e-15
10
-6.6193909415094598
20
99.79254159799072
30
0
10
-6.9910414806576604
20
100.19082188321342
30
0
10
-7.0478995564756008
20
100.73216410290875
30
0
10
-7.0759954173199979
20
100.99966305455212
30
8.8817841970012523e-15
0
SPLINE
5
285
100
AcDbEntity
8
0
100
AcDbSpline
70
0
71
3
72
9
73
5
74
0
42
0.000000001
43
0.0000000001
44
0.0000000001
40
0
40
0
40
0
40
0
40
0.052232451401779442
40
0.10536733093735567
40
0.10536733093735567
40
0.10536733093735567
40
0.10536733093735567
10
-7.0759954173199979
20
100.99966305455212
30
8.8817841970012523e-15
10
-7.0630386136804724
20
101.17559101327751
30
8.8817841970012523e-15
10
-7.0369011497028477
20
101.53048646525549
30
0
10
-6.8629157064405391
20
101.84101993729911
30
8.8817841970012523e-15
10
-6.7751779276959736
20
101.99761646946911
30
-8.8817841970012523e-15
0
SPLINE
5
286
100
AcDbEntity
8
0
100
AcDbSpline
70
0
71
3
72
9
73
5
74
0
42
0.000000001
43
0.0000000001
44
0.0000000001
40
0
40
0
40
0
40
0
40
0.055446885287243147
40
0.11395624565522573
40
0.11395624565522573
40
0.11395624565522573
40
0.11395624565522573
10
-6.7751779276959736
20
101.99761646946911
30
-8.8817841970012523e-15
10
-6.6599422026333635
20
102.14526626863159
30
0
10
-6.4231059849546925
20
102.44872094777432
30
0
10
-6.0783726877802984
20
102.62075032458168
30
0
10
-5.901373835288747
20
102.7090765829945
30
0
0
SPLINE
5
287
100
AcDbEntity
8
0
100
AcDbSpline
70
0
71
3
72
9
73
5
74
0
42
0.000000001
43
0.0000000001
44
0.0000000001
40
0
40
0
40
0
40
0
40
0.065736627742983555
40
0.14083008789031859
40
0.14083008789031859
40
0.14083008789031859
40
0.14083008789031859
10
-5.901373835288747
20
102.7090765829945
30
0
10
-5.6927239717903557
20
102.78001897335062
30
-8.8817841970012523e-15
10
-5.2457254015310708
20
102.93200156527891
30
0
10
-4.7733215115938101
20
102.94543379185879
30
-8.8817841970012523e-15
10
-4.5214261729352314
20
102.95259612759594
30
-8.8817841970012523e-15
0
SPLINE
5
288
100
AcDbEntity
8
0
100
AcDbSpline
70
0
71
3
72
9
73
5
74
0
42
0.000000001
43
0.0000000001
44
0.0000000001
40
0
40
0
40
0
40
0
40
0.11633339181032477
40
0.20972030091210292
40
0.20972030091210292
40
0.20972030091210292
40
0.20972030091210292
10
-4.5214261729352314
20
102.95259612759594
30
-8.8817841970012523e-15
10
-4.125201979016885
20
102.94100034153097
30
8.8817841970012523e-15
10
-3.4109078637667074
20
102.92009601040971
30
0
10
-2.8082172385477024
20
102.54282805378256
30
0
10
-2.5398435313336689
20
102.37483340462688
30
0
0
SPLINE
5
289
100
AcDbEntity
8
0
100
AcDbSpline
70
0
71
3
72
9
73
5
74
0
42
0.000000001
43
0.0000000001
44
0.0000000001
40
0
40
0
40
0
40
0
40
0.084540078473147401
40
0.17342646168531722
40
0.17342646168531722
40
0.17342646168531722
40
0.17342646168531722
10
-2.5398435313336689
20
102.37483340462688
30
0
10
-2.3433756735147067
20
102.16227922888343
30
0
10
-1.9403393145260048
20
101.72624321754552
30
0
10
-1.8726350031678489
20
101.13537821031525
30
0
10
-1.8379344660870864
20
100.83254176339153
30
1.7763568394002505e-14
0
LINE
5
290
100
AcDbEntity
8
0
100
AcDbLine
10
-1.8379344660870867
20
100.83254176339153
30
1.7763568394002501e-14
11
-3.2513036448590613
21
100.7704676981831
31
2.0651882981503888e-14
0
SPLINE
5
291
100
AcDbEntity
8
0
100
AcDbSpline
70
0
71
3
72
9
73
5
74
0
42
0.000000001
43
0.0000000001
44
0.0000000001
40
0
40
0
40
0
40
0
40
0.048481131771231346
40
0.088227591803922922
40
0.088227591803922922
40
0.088227591803922922
40
0.088227591803922922
10
-3.2513036448590613
20
100.7704676981831
30
1.7763568394002505e-14
10
-3.2844346877967916
20
100.93260341144024
30
1.7763568394002505e-14
10
-3.3447276724189661
20
101.22766342764592
30
0
10
-3.5502544997364538
20
101.44575238072571
30
0
10
-3.6428441722028104
20
101.54400128087048
30
8.8817841970012523e-15
0
SPLINE
5
292
100
AcDbEntity
8
0
100
AcDbSpline
70
0
71
3
72
9
73
5
74
0
42
0.000000001
43
0.0000000001
44
0.0000000001
40
0
40
0
40
0
40
0
40
0.04121722169658195
40
0.093723550363243147
40
0.093723550363243147
40
0.093723550363243147
40
0.093723550363243147
10
-3.6428441722028104
20
101.54400128087048
30
8.8817841970012523e-15
10
-3.7637890817539876
20
101.61337767962947
30
0
10
-4.0388048604724602
20
101.77113218455398
30
0
10
-4.3573136151208036
20
101.77857617800913
30
8.8817841970012523e-15
10
-4.5357503611676542
20
101.78274649342541
30
0
0
SPLINE
5
293
100
AcDbEntity
8
0
100
AcDbSpline
70
0
71
3
72
9
73
5
74
0
42
0.000000001
43
0.0000000001
44
0.0000000001
40
0
40
0
40
0
40
0
40
0.055274647763936091
40
0.10094709924095013
40
0.10094709924095013
40
0.10094709924095013
40
0.10094709924095013
10
-4.5357503611676542
20
101.78274649342541
30
0
10
-4.7230189048354365
20
101.77684665926753
30
8.8817841970012523e-15
10
-5.0650240921515968
20
101.76607189781116
30
1.7763568394002505e-14
10
-5.3646979706785327
20
101.60331440803468
30
0
10
-5.5002822596661893
20
101.52967649659161
30
1.7763568394002505e-14
0
SPLINE
5
294
100
AcDbEntity
8
0
100
AcDbSpline
70
0
71
3
72
9
73
5
74
0
42
0.000000001
43
0.0000000001
44
0.0000000001
40
0
40
0
40
0
40
0
40
0.025368171851026709
40
0.050474424770209941
40
0.050474424770209941
40
0.050474424770209941
40
0.050474424770209941
10
-5.5002822596661893
20
101.52967649659161
30
1.7763568394002505e-14
10
-5.5657371901656916
20
101.47122268959379
30
1.7763568394002505e-14
10
-5.6959712482104408
20
101.35491859400624
30
8.8817841970012523e-15
10
-5.7151575360595253
20
101.18144682172155
30
0
10
-5.7247008998029081
20
101.09516102036481
30
8.8817841970012523e-15
0
SPLINE
5
295
100
AcDbEntity
8
0
100
AcDbSpline
70
0
71
3
72
9
73
5
74
0
42
0.000000001
43
0.0000000001
44
0.0000000001
40
0
40
0
40
0
40
0
40
0.023629992802914519
40
0.048667764642341696
40
0.048667764642341696
40
0.048667764642341696
40
0.048667764642341696
10
-5.7247008998029081
20
101.09516102036481
30
8.8817841970012523e-15
10
-5.7149768006121571
20
101.01458154991896
30
0
10
-5.6949492798794576
20
100.8486220113202
30
8.8817841970012523e-15
10
-5.5758689106055925
20
100.73080652916447
30
8.8817841970012523e-15
10
-5.5146064478986112
20
100.67019480427746
30
1.7763568394002505e-14
0
SPLINE
5
296
100
AcDbEntity
8
0
100
AcDbSpline
70
0
71
3
72
9
73
5
74
0
42
0.000000001
43
0.0000000001
44
0.0000000001
40
0
40
0
40
0
40
0
40
0.051249826289143534
40
0.13861355735320807
40
0.13861355735320807
40
0.13861355735320807
40
0.13861355735320807
10
-5.5146064478986112
20
100.67019480427746
30
1.7763568394002505e-14
10
-5.3639406883217156
20
100.58830353088524
30
0
10
-4.9564404406437834
20
100.36681515632878
30
0
10
-4.5021534585934839
20
100.26587451668598
30
0
10
-4.2158307749860144
20
100.20225483139997
30
8.8817841970012523e-15
0
SPLINE
5
297
100
AcDbEntity
8
0
100
AcDbSpline
70
0
71
3
72
9
73
5
74
0
42
0.000000001
43
0.0000000001
44
0.0000000001
40
0
40
0
40
0
40
0
40
0.093023610633695256
40
0.16079084379130049
40
0.16079084379130049
40
0.16079084379130049
40
0.16079084379130049
10
-4.2158307749860144
20
100.20225483139997
30
8.8817841970012523e-15
10
-3.9135095131435187
20
100.12967710868142
30
0
10
-3.3909487303856705
20
100.0042268794668
30
0
10
-2.899688681027027
20
99.787470577714259
30
0
10
-2.6926412303082801
20
99.696116029825248
30
8.8817841970012523e-15
0
SPLINE
5
298
100
AcDbEntity
8
0
100
AcDbSpline
70
0
71
3
72
9
73
5
74
0
42
0.000000001
43
0.0000000001
44
0.0000000001
40
0
40
0
40
0
40
0
40
0.053776903462901614
40
0.10611147311894302
40
0.10611147311894302
40
0.10611147311894302
40
0.10611147311894302
10
-2.6926412303082801
20
99.696116029825248
30
8.8817841970012523e-15
10
-2.5369130052922637
20
99.603063530105914
30
0
10
-2.2296332941417965
20
99.419454263175339
30
0
10
-2.021673160135347
20
99.128269375950623
30
8.8817841970012523e-15
10
-1.9191064555280066
20
98.984655916299857
30
8.8817841970012523e-15
0
SPLINE
5
299
100
AcDbEntity
8
0
100
AcDbSpline
70
0
71
3
72
9
73
5
74
0
42
0.000000001
43
0.0000000001
44
0.0000000001
40
0
40
0
40
0
40
0
40
0.054516815355123024
40
0.11592138324596582
40
0.11592138324596582
40
0.11592138324596582
40
0.11592138324596582
10
-1.9191064555280066
20
98.984655916299857
30
8.8817841970012523e-15
10
-1.8370157357063652
20
98.820194546479755
30
0
10
-1.6624628068275551
20
98.470493461486342
30
-8.8817841970012523e-15
10
-1.6460698083697185
20
98.079315304965434
30
-8.8817841970012523e-15
10
-1.6373862940900195
20
97.87210482319837
30
8.8817841970012523e-15
0
SPLINE
5
300
100
AcDbEntity
8
0
100
AcDbSpline
70
0
71
3
72
9
73
5
74
0
42
0.000000001
43
0.0000000001
44
0.0000000001
40
0
40
0
40
0
40
0
40
0.058849966164995889
40
0.11877875609893387
40
0.11877875609893387
40
0.11877875609893387
40
0.11877875609893387
10
-1.6373862940900195
20
97.87210482319837
30
8.8817841970012523e-15
10
-1.6518122556602877
20
97.67396231082347
30
0
10
-1.6809286321428734
20
97.27404498403655
30
0
10
-1.8741446197923581
20
96.922565475635949
30
0
10
-1.9716300685040811
20
96.745229541864433
30
8.8817841970012523e-15
0
SPLINE
5
301
100
AcDbEntity
8
0
100
AcDbSpline
70
0
71
3
72
9
73
5
74
0
42
0.000000001
43
0.0000000001
44
0.0000000001
40
0
40
0
40
0
40
0
40
0.061067060142125394
40
0.1242441430120477
40
0.1242441430120477
40
0.1242441430120477
40
0.1242441430120477
10
-1.9716300685040811
20
96.745229541864433
30
8.8817841970012523e-15
10
-2.0962632265472445
20
96.580592011894566
30
-8.8817841970012523e-15
10
-2.3498359362195158
20
96.245628305255977
30
8.8817841970012523e-15
10
-2.7258565884809043
20
96.057704002051707
30
-8.8817841970012523e-15
10
-2.9170598704450006
20
95.962146102991156
30
0
0
SPLINE
5
302
100
AcDbEntity
8
0
100
AcDbSpline
70
0
71
3
72
9
73
5
74
0
42
0.000000001
43
0.0000000001
44
0.0000000001
40
0
40
0
40
0
40
0
40
0.071215173857861969
40
0.15513415150901205
40
0.15513415150901205
40
0.15513415150901205
40
0.15513415150901205
10
-2.9170598704450006
20
95.962146102991156
30
0
10
-3.1440417292556546
20
95.888464627323415
30
8.8817841970012523e-15
10
-3.6384958766935362
20
95.727957918002446
30
0
10
-4.1587990205085159
20
95.715704903776398
30
0
10
-4.4402541834943179
20
95.709076702203802
30
0
0
SPLINE
5
303
100
AcDbEntity
8
0
100
AcDbSpline
70
0
71
3
72
9
73
5
74
0
42
0.000000001
43
0.0000000001
44
0.0000000001
40
0
40
0
40
0
40
0
40
0.075208914575873004
40
0.17840478796930404
40
0.17840478796930404
40
0.17840478796930404
40
0.17840478796930404
10
-13.904098482810722
20
97.322991668787054
30
0
10
-13.944241120325549
20
97.570809845062286
30
0
10
-14.039464389731179
20
98.158665014128957
30
0
10
-14.041433175593497
20
98.754563849851166
30
0
10
-14.04257199355291
20
99.099253594484395
30
8.8817841970012523e-15
0
LINE
5
304
100
AcDbEntity
8
0
100
AcDbLine
10
-14.04257199355291
20
99.099253594484395
30
8.8817841970012507e-15
11
-14.042571993552908
21
102.83322411736495
31
1.1379786002407855e-14
0
LINE
5
305
100
AcDbEntity
8
0
100
AcDbLine
10
-14.042571993552908
20
102.83322411736495
30
1.1379786002407855e-14
11
-12.629202814780935
21
102.83322411736494
31
9.2887221409964923e-16
0
LINE
5
306
100
AcDbEntity
8
0
100
AcDbLine
10
-12.629202814780935
20
102.83322411736494
30
9.2887221409964923e-16
11
-12.629202814780937
21
99.04195505341535
31
-1.1102230246251565e-15
0
SPLINE
5
307
100
AcDbEntity
8
0
100
AcDbSpline
70
0
71
3
72
9
73
5
74
0
42
0.000000001
43
0.0000000001
44
0.0000000001
40
0
40
0
40
0
40
0
40
0.074380662132407391
40
0.11717830223768907
40
0.11717830223768907
40
0.11717830223768907
40
0.11717830223768907
10
-12.629202814780937
20
99.04195505341535
30
8.8817841970012523e-15
10
-12.630680403432494
20
98.793736337992769
30
8.8817841970012523e-15
10
-12.633008176870268
20
98.402695887115087
30
8.8817841970012523e-15
10
-12.59174863766529
20
98.014051450072444
30
-8.8817841970012523e-15
10
-12.576679201804863
20
97.87210482319837
30
8.8817841970012523e-15
0
SPLINE
5
308
100
AcDbEntity
8
0
100
AcDbSpline
70
0
71
3
72
9
73
5
74
0
42
0.000000001
43
0.0000000001
44
0.0000000001
40
0
40
0
40
0
40
0
40
0.041696541539981251
40
0.082849452304287918
40
0.082849452304287918
40
0.082849452304287918
40
0.082849452304287918
10
-12.576679201804863
20
97.87210482319837
30
8.8817841970012523e-15
10
-12.536466766126583
20
97.736113036823411
30
0
10
-12.456566176084307
20
97.465902496502025
30
8.8817841970012523e-15
10
-12.249695753349192
20
97.274712669369507
30
8.8817841970012523e-15
10
-12.146939249717461
20
97.179745018091268
30
0
0
SPLINE
5
309
100
AcDbEntity
8
0
100
AcDbSpline
70
0
71
3
72
9
73
5
74
0
42
0.000000001
43
0.0000000001
44
0.0000000001
40
0
40
0
40
0
40
0
40
0.04495835357932218
40
0.098350549470634666
40
0.098350549470634666
40
0.098350549470634666
40
0.098350549470634666
10
-12.146939249717461
20
97.179745018091268
30
0
10
-12.014730301222038
20
97.104685775371109
30
0
10
-11.725511019503472
20
96.940486751682343
30
8.8817841970012523e-15
10
-11.392071944654418
20
96.928439994035429
30
0
10
-11.211055727683771
20
96.921900093164481
30
8.8817841970012523e-15
0
SPLINE
5
310
100
AcDbEntity
8
0
100
AcDbSpline
70
0
71
3
72
9
73
5
74
0
42
0.000000001
43
0.0000000001
44
0.0000000001
40
0
40
0
40
0
40
0
40
0.053112580996419384
40
0.09523826373973876
40
0.09523826373973876
40
0.09523826373973876
40
0.09523826373973876
10
-11.211055727683771
20
96.921900093164481
30
8.8817841970012523e-15
10
-11.030624998734538
20
96.926448869537296
30
0
10
-10.707087542485176
20
96.93460545985468
30
0
10
-10.427494592652655
20
97.094635381195758
30
0
10
-10.303825350486505
20
97.165419637765922
30
0
0
SPLINE
5
311
100
AcDbEntity
8
0
100
AcDbSpline
70
0
71
3
72
9
73
5
74
0
42
0.000000001
43
0.0000000001
44
0.0000000001
40
0
40
0
40
0
40
0
40
0.036867671451520548
40
0.072145872509413456
40
0.072145872509413456
40
0.072145872509413456
40
0.072145872509413456
10
-10.303825350486505
20
97.165419637765922
30
0
10
-10.21235597355216
20
97.251390632604227
30
0
10
-10.033360725221979
20
97.419626167665569
30
0
10
-9.9680808806487295
20
97.656167513882579
30
0
10
-9.9361600596539841
20
97.771832525339164
30
1.7763568394002505e-14
0
SPLINE
5
312
100
AcDbEntity
8
0
100
AcDbSpline
70
0
71
3
72
9
73
5
74
0
42
0.000000001
43
0.0000000001
44
0.0000000001
40
0
40
0
40
0
40
0
40
0.047856563695683252
40
0.11913880337646396
40
0.11913880337646396
40
0.11913880337646396
40
0.11913880337646396
10
-9.9361600596539841
20
97.771832525339164
30
1.7763568394002505e-14
10
-9.9182231410103689
20
97.930453486322335
30
1.7763568394002505e-14
10
-9.8735692240043189
20
98.3253399976509
30
0
10
-9.8738921736045313
20
98.722910472508431
30
0
10
-9.8740853983990995
20
98.960781871881522
30
1.7763568394002505e-14
0
LINE
5
313
100
AcDbEntity
8
0
100
AcDbLine
10
-9.8740853983990995
20
98.960781871881537
30
1.7763568394002501e-14
11
-9.8740853983990977
21
102.83322411736492
31
1.7486012637846216e-14
0
LINE
5
314
100
AcDbEntity
8
0
100
AcDbLine
10
-9.8740853983990977
20
102.83322411736492
30
1.7486012637846216e-14
11
-8.4607162196271251
21
102.83322411736492
31
9.810656411100901e-15
0
LINE
5
315
100
AcDbEntity
8
0
100
AcDbLine
10
-8.4607162196271251
20
102.83322411736492
30
9.810656411100901e-15
11
-8.4607162196271268
21
99.156552135553397
31
5.2735593669694936e-15
0
SPLINE
5
316
100
AcDbEntity
8
0
100
AcDbSpline
70
0
71
3
72
9
73
5
74
0
42
0.000000001
43
0.0000000001
44
0.0000000001
40
0
40
0
40
0
40
0
40
0.10759270227541071
40
0.17866346739768924
40
0.17866346739768924
40
0.17866346739768924
40
0.17866346739768924
10
-8.4607162196271268
20
99.156552135553412
30
0
10
-8.4600813684207932
20
98.797282640147742
30
8.8817841970012523e-15
10
-8.4590271638566623
20
98.200696325073253
30
8.8817841970012523e-15
10
-8.5422207948732414
20
97.610349919852894
30
0
10
-8.5753144938580856
20
97.375515281763128
30
8.8817841970012523e-15
0
SPLINE
5
317
100
AcDbEntity
8
0
100
AcDbSpline
70
0
71
3
72
9
73
5
74
0
42
0.000000001
43
0.0000000001
44
0.0000000001
40
0
40
0
40
0
40
0
40
0.05069788327041163
40
0.098374740315504416
40
0.098374740315504416
40
0.098374740315504416
40
0.098374740315504416
10
-8.5753144938580856
20
97.375515281763128
30
8.8817841970012523e-15
10
-8.6199976916516281
20
97.210754082752715
30
0
10
-8.7067014689269069
20
96.891049607513253
30
0
10
-8.9044455590639533
20
96.62558880666856
30
0
10
-9.0002813059918747
20
96.496934473123602
30
8.8817841970012523e-15
0
SPLINE
5
318
100
AcDbEntity
8
0
100
AcDbSpline
70
0
71
3
72
9
73
5
74
0
42
0.000000001
43
0.0000000001
44
0.0000000001
40
0
40
0
40
0
40
0
40
0.048179487396724625
40
0.10084492622015032
40
0.10084492622015032
40
0.10084492622015032
40
0.10084492622015032
10
-9.0002813059918747
20
96.496934473123602
30
8.8817841970012523e-15
10
-9.1144292076402529
20
96.382096234853776
30
0
10
-9.3533532257629322
20
96.141727266827701
30
1.7763568394002505e-14
10
-9.6609315292941851
20
95.998661569724362
30
0
10
-9.821561785423027
20
95.923946678247503
30
0
0
SPLINE
5
319
100
AcDbEntity
8
0
100
AcDbSpline
70
0
71
3
72
9
73
5
74
0
42
0.000000001
43
0.0000000001
44
0.0000000001
40
0
40
0
40
0
40
0
40
0.061500389493919901
40
0.13688819214446732
40
0.13688819214446732
40
0.13688819214446732
40
0.13688819214446732
10
-9.821561785423027
20
95.923946678247503
30
0
10
-10.018294946931389
20
95.862832241521758
30
8.8817841970012523e-15
10
-10.456185617793061
20
95.726803106972284
30
0
10
-10.915259513773233
20
95.718450839815802
30
0
10
-11.168083162986504
20
95.713851034250297
30
0
0
SPLINE
5
320
100
AcDbEntity
8
0
100
AcDbSpline
70
0
71
3
72
9
73
5
74
0
42
0.000000001
43
0.0000000001
44
0.0000000001
40
0
40
0
40
0
40
0
40
0.088402196465995717
40
0.1547700646879708
40
0.1547700646879708
40
0.1547700646879708
40
0.1547700646879708
10
-11.168083162986504
20
95.713851034250297
30
0
10
-11.464832312019404
20
95.716608491002233
30
0
10
-11.984365613543064
20
95.721436105891144
30
0
10
-12.479119241954944
20
95.876536760272614
30
0
10
-12.69127747603582
20
95.94304639061933
30
0
0
SPLINE
5
321
100
AcDbEntity
8
0
100
AcDbSpline
70
0
71
3
72
9
73
5
74
0
42
0.000000001
43
0.0000000001
44
0.0000000001
40
0
40
0
40
0
40
0
40
0.053377433007844678
40
0.10210279278667544
40
0.10210279278667544
40
0.10210279278667544
40
0.10210279278667544
10
-12.69127747603582
20
95.94304639061933
30
0
10
-12.851678462670908
20
96.023572410915747
30
0
10
-13.158500798971236
20
96.177606261945073
30
0
10
-13.394947861128339
20
96.4260985790348
30
0
10
-13.507784815513359
20
96.544683754053167
30
8.8817841970012523e-15
0
SPLINE
5
322
100
AcDbEntity
8
0
100
AcDbSpline
70
0
71
3
72
9
73
5
74
0
42
0.000000001
43
0.0000000001
44
0.0000000001
40
0
40
0
40
0
40
0
40
0.045524838051332277
40
0.0879008091934744
40
0.0879008091934744
40
0.0879008091934744
40
0.0879008091934744
10
-13.507784815513359
20
96.544683754053167
30
8.8817841970012523e-15
10
-13.598867568725886
20
96.66762387032513
30
0
10
-13.774733053451445
20
96.905000567644905
30
8.8817841970012523e-15
10
-13.862018952696474
20
97.18702899919974
30
8.8817841970012523e-15
10
-13.904098482810722
20
97.322991668787054
30
0
0
LWPOLYLINE
5
323
100
AcDbEntity
8
0
100
AcDbPolyline
90
8
70
1
43
0.0
10
-17.017334910117853
20
95.833223640527763
10
-17.017334910117849
20
101.64904910286907
10
-14.945029230796562
20
101.64904910286909
10
-14.94502923079656
20
102.83322352131849
10
-20.507782908164724
20
102.83322352131849
10
-20.507782908164724
20
101.64904910286907
10
-18.430704088889822
20
101.64904910286909
10
-18.430704088889826
20
95.833223640527777
0
LWPOLYLINE
5
324
100
AcDbEntity
8
0
100
AcDbPolyline
90
8
70
1
43
0.0
10
-23.558944674216971
20
102.83322352131849
10
-25.053487034522757
20
102.83322352131849
10
-27.779953690253961
20
95.833223640527791
10
-26.280635805808767
20
95.833223640527791
10
-25.702872486793265
20
97.423264562692708
10
-22.904781313621271
20
97.423264562692708
10
-22.293595286094416
20
95.833223640527791
10
-20.756079168998468
20
95.833223640527777
0
SPLINE
5
325
100
AcDbEntity
8
0
100
AcDbSpline
70
0
71
3
72
9
73
5
74
0
42
0.000000001
43
0.0000000001
44
0.0000000001
40
0
40
0
40
0
40
0
40
0.11833375406039869
40
0.21626865546875138
40
0.21626865546875138
40
0.21626865546875138
40
0.21626865546875138
10
-37.033704729758966
20
95.709076702203816
30
0
10
-37.436495436336585
20
95.723433815431804
30
0
10
-38.172642153209836
20
95.749673104457017
30
0
10
-38.792080165746626
20
96.142414206145475
30
8.8817841970012523e-15
10
-39.07258591242956
20
96.320262729730672
30
0
0
SPLINE
5
326
100
AcDbEntity
8
0
100
AcDbSpline
70
0
71
3
72
9
73
5
74
0
42
0.000000001
43
0.0000000001
44
0.0000000001
40
0
40
0
40
0
40
0
40
0.094543115104570793
40
0.2018046827773296
40
0.2018046827773296
40
0.2018046827773296
40
0.2018046827773296
10
-39.07258591242956
20
96.320262729730672
30
0
10
-39.286968313595672
20
96.559910469689129
30
0
10
-39.744572999167097
20
97.071444663238054
30
0
10
-39.860761951051636
20
97.750123590125298
30
0
10
-39.922517748557794
20
98.110849439706868
30
0
0
LINE
5
327
100
AcDbEntity
8
0
100
AcDbLine
10
-39.922517748557794
20
98.110849439706868
30
0
11
-38.547346802436579
21
98.244546830263204
31
1.0408340855860843e-15
0
SPLINE
5
328
100
AcDbEntity
8
0
100
AcDbSpline
70
0
71
3
72
9
73
5
74
0
42
0.000000001
43
0.0000000001
44
0.0000000001
40
0
40
0
40
0
40
0
40
0.062901231394717941
40
0.11506716230274733
40
0.11506716230274733
40
0.11506716230274733
40
0.11506716230274733
10
-38.547346802436579
20
98.244546830263204
30
0
10
-38.502290067267971
20
98.035461451201172
30
0
10
-38.41986639219008
20
97.65297511962703
30
0
10
-38.162610436921824
20
97.360216031864184
30
0
10
-38.045982928954828
20
97.227493106927938
30
0
0
SPLINE
5
329
100
AcDbEntity
8
0
100
AcDbSpline
70
0
71
3
72
9
73
5
74
0
42
0.000000001
43
0.0000000001
44
0.0000000001
40
0
40
0
40
0
40
0
40
0.050959694824069639
40
0.10942163412820642
40
0.10942163412820642
40
0.10942163412820642
40
0.10942163412820642
10
-38.045982928954828
20
97.227493106927938
30
0
10
-37.90119291926046
20
97.132910094791384
30
-8.8817841970012523e-15
10
-37.590297033386484
20
96.929819637038889
30
0
10
-37.218189867490295
20
96.912209271051651
30
0
10
-37.019379945480097
20
96.902800380792684
30
0
0
SPLINE
5
330
100
AcDbEntity
8
0
100
AcDbSpline
70
0
71
3
72
9
73
5
74
0
42
0.000000001
43
0.0000000001
44
0.0000000001
40
0
40
0
40
0
40
0
40
0.060232926655814319
40
0.10817271969310625
40
0.10817271969310625
40
0.10817271969310625
40
0.10817271969310625
10
-37.019379945480097
20
96.902800380792684
30
0
10
-36.814495393805331
20
96.908267505158392
30
0
10
-36.446541844006809
20
96.918085950722485
30
0
10
-36.132121298665339
20
97.106010713144428
30
0
10
-35.992776962005365
20
97.189294874277181
30
0
0
SPLINE
5
331
100
AcDbEntity
8
0
100
AcDbSpline
70
0
71
3
72
9
73
5
74
0
42
0.000000001
43
0.0000000001
44
0.0000000001
40
0
40
0
40
0
40
0
40
0.040946093301369918
40
0.078266923906541191
40
0.078266923906541191
40
0.078266923906541191
40
0.078266923906541191
10
-35.992776962005365
20
97.189294874277181
30
0
10
-35.891176903882375
20
97.28710547207875
30
0
10
-35.696972197721898
20
97.474066766750809
30
0
10
-35.661245518904863
20
97.740353584694503
30
8.8817841970012523e-15
10
-35.644209595405329
20
97.867329895105428
30
0
0
SPLINE
5
332
100
AcDbEntity
8
0
100
AcDbSpline
70
0
71
3
72
9
73
5
74
0
42
0.000000001
43
0.0000000001
44
0.0000000001
40
0
40
0
40
0
40
0
40
0.023216347157254291
40
0.04530803578139303
40
0.04530803578139303
40
0.04530803578139303
40
0.04530803578139303
10
-35.644209595405329
20
97.867329895105428
30
0
10
-35.64974112138281
20
97.946160257457464
30
0
10
-35.660536212239087
20
98.100002240173978
30
8.8817841970012523e-15
10
-35.749065759011096
20
98.226057873942636
30
0
10
-35.792231770240534
20
98.287521183099813
30
0
0
SPLINE
5
333
100
AcDbEntity
8
0
100
AcDbSpline
70
0
71
3
72
9
73
5
74
0
42
0.000000001
43
0.0000000001
44
0.0000000001
40
0
40
0
40
0
40
0
40
0.025768922905805708
40
0.059635359492047242
40
0.059635359492047242
40
0.059635359492047242
40
0.059635359492047242
10
-35.792231770240534
20
98.287521183099813
30
0
10
-35.855678537995217
20
98.346577266535206
30
0
10
-36.002509308434853
20
98.483246958890419
30
8.8817841970012523e-15
10
-36.191209349947286
20
98.553320182162196
30
0
10
-36.298370571815241
20
98.59311419686324
30
0
0
SPLINE
5
334
100
AcDbEntity
8
0
100
AcDbSpline
70
0
71
3
72
9
73
5
74
0
42
0.000000001
43
0.0000000001
44
0.0000000001
40
0
40
0
40
0
40
0
40
0.042420218140546334
40
0.11723395618110249
40
0.11723395618110249
40
0.11723395618110249
40
0.11723395618110249
10
-36.298370571815241
20
98.59311419686324
30
0
10
-36.43382854360253
20
98.633736292111251
30
8.8817841970012523e-15
10
-36.808184796940921
20
98.746000894770958
30
-8.8817841970012523e-15
10
-37.187779526421295
20
98.839219589694878
30
0
10
-37.430020781242121
20
98.898707806673116
30
-8.8817841970012523e-15
0
SPLINE
5
335
100
AcDbEntity
8
0
100
AcDbSpline
70
0
71
3
72
9
73
5
74
0
42
0.000000001
43
0.0000000001
44
0.0000000001
40
0
40
0
40
0
40
0
40
0.10166087552564128
40
0.17497197034079592
40
0.17497197034079592
40
0.17497197034079592
40
0.17497197034079592
10
-37.430020781242121
20
98.898707806673116
30
-8.8817841970012523e-15
10
-37.761642708939192
20
98.982945365214221
30
0
10
-38.332408421877936
20
99.127929475555803
30
0
10
-38.820382228599073
20
99.454315780575243
30
0
10
-39.024837227546442
20
99.591067611780232
30
0
0
SPLINE
5
336
100
AcDbEntity
8
0
100
AcDbSpline
70
0
71
3
72
9
73
5
74
0
42
0.000000001
43
0.0000000001
44
0.0000000001
40
0
40
0
40
0
40
0
40
0.08029022340143796
40
0.15872019192010833
40
0.15872019192010833
40
0.15872019192010833
40
0.15872019192010833
10
-39.024837227546442
20
99.591067611780232
30
0
10
-39.212841187585823
20
99.792541491328635
30
0
10
-39.584493218867337
20
100.1908212752685
30
0
10
-39.641352106667156
20
100.73216403549843
30
0
10
-39.669448347770441
20
100.99966305455214
30
0
0
SPLINE
5
337
100
AcDbEntity
8
0
100
AcDbSpline
70
0
71
3
72
9
73
5
74
0
42
0.000000001
43
0.0000000001
44
0.0000000001
40
0
40
0
40
0
40
0
40
0.052232485728771608
40
0.10536731464711557
40
0.10536731464711557
40
0.10536731464711557
40
0.10536731464711557
10
-39.669448347770441
20
100.99966305455214
30
0
10
-39.656490494932996
20
101.1755909533305
30
0
10
-39.630350935652515
20
101.53048599627451
30
-8.8817841970012523e-15
10
-39.456366743746038
20
101.84101986315579
30
0
10
-39.368629666053522
20
101.99761646946912
30
0
0
SPLINE
5
338
100
AcDbEntity
8
0
100
AcDbSpline
70
0
71
3
72
9
73
5
74
0
42
0.000000001
43
0.0000000001
44
0.0000000001
40
0
40
0
40
0
40
0
40
0.055446725651577433
40
0.11395649558861766
40
0.11395649558861766
40
0.11395649558861766
40
0.11395649558861766
10
-39.368629666053522
20
101.99761646946912
30
0
10
-39.253394870777065
20
102.14526644349851
30
8.8817841970012523e-15
10
-39.016559362723882
20
102.44872302125694
30
8.8817841970012523e-15
10
-38.671823969134309
20
102.6207507474862
30
-8.8817841970012523e-15
10
-38.494823189460504
20
102.70907658299453
30
0
0
SPLINE
5
339
100
AcDbEntity
8
0
100
AcDbSpline
70
0
71
3
72
9
73
5
74
0
42
0.000000001
43
0.0000000001
44
0.0000000001
40
0
40
0
40
0
40
0
40
0.065736169679604828
40
0.14082986746069581
40
0.14082986746069581
40
0.14082986746069581
40
0.14082986746069581
10
-38.494823189460504
20
102.70907658299453
30
0
10
-38.286174922295679
20
102.7800189609938
30
0
10
-37.839177356816272
20
102.93200234760849
30
0
10
-37.366774102448417
20
102.94543404184208
30
0
10
-37.11487791129278
20
102.95259612759597
30
0
0
SPLINE
5
340
100
AcDbEntity
8
0
100
AcDbSpline
70
0
71
3
72
9
73
5
74
0
42
0.000000001
43
0.0000000001
44
0.0000000001
40
0
40
0
40
0
40
0
40
0.11633339181032477
40
0.20972030091210292
40
0.20972030091210292
40
0.20972030091210292
40
0.20972030091210292
10
-37.11487791129278
20
102.95259612759597
30
0
10
-36.718653717374437
20
102.94100034153098
30
1.7763568394002505e-14
10
-36.004359602124246
20
102.92009601040974
30
-8.8817841970012523e-15
10
-35.401668976905242
20
102.5428280537826
30
0
10
-35.133295269691217
20
102.37483340462691
30
8.8817841970012523e-15
0
SPLINE
5
341
100
AcDbEntity
8
0
100
AcDbSpline
70
0
71
3
72
9
73
5
74
0
42
0.000000001
43
0.0000000001
44
0.0000000001
40
0
40
0
40
0
40
0
40
0.084540150348389714
40
0.17342653356055954
40
0.17342653356055954
40
0.17342653356055954
40
0.17342653356055954
10
-35.133295269691217
20
102.37483340462691
30
8.8817841970012523e-15
10
-34.936826918708533
20
102.16227929124103
30
8.8817841970012523e-15
10
-34.5337897236613
20
101.72624359782628
30
0
10
-34.466085493457207
20
101.13537825619687
30
8.8817841970012523e-15
10
-34.43138501235174
20
100.83254176339155
30
8.8817841970012523e-15
0
LINE
5
342
100
AcDbEntity
8
0
100
AcDbLine
10
-34.43138501235174
20
100.83254176339155
30
8.8817841970012539e-15
11
-35.844755383216608
21
100.77046769818313
31
2.8883145875013838e-15
0
SPLINE
5
343
100
AcDbEntity
8
0
100
AcDbSpline
70
0
71
3
72
9
73
5
74
0
42
0.000000001
43
0.0000000001
44
0.0000000001
40
0
40
0
40
0
40
0
40
0.048481149382581641
40
0.088227646649983282
40
0.088227646649983282
40
0.088227646649983282
40
0.088227646649983282
10
-35.844755383216608
20
100.77046769818313
30
0
10
-35.877886632525538
20
100.93260342932396
30
0
10
-35.93818000828761
20
101.22766355431283
30
8.8817841970012523e-15
10
-36.143707225402586
20
101.44575239871884
30
0
10
-36.236297102653253
20
101.5440012808705
30
0
0
SPLINE
5
344
100
AcDbEntity
8
0
100
AcDbSpline
70
0
71
3
72
9
73
5
74
0
42
0.000000001
43
0.0000000001
44
0.0000000001
40
0
40
0
40
0
40
0
40
0.041217382755590108
40
0.093723474549097241
40
0.093723474549097241
40
0.093723474549097241
40
0.093723474549097241
10
-36.236297102653253
20
101.5440012808705
30
0
10
-36.357242610577963
20
101.61337769642057
30
0
10
-36.632258452826512
20
101.77113149548322
30
-8.8817841970012523e-15
10
-36.950766824643203
20
101.77857594048331
30
-1.7763568394002505e-14
10
-37.129202695571649
20
101.78274649342544
30
0
0
SPLINE
5
345
100
AcDbEntity
8
0
100
AcDbSpline
70
0
71
3
72
9
73
5
74
0
42
0.000000001
43
0.0000000001
44
0.0000000001
40
0
40
0
40
0
40
0
40
0.055274588551021804
40
0.10094682317224575
40
0.10094682317224575
40
0.10094682317224575
40
0.10094682317224575
10
-37.129202695571649
20
101.78274649342544
30
0
10
-37.316471087827409
20
101.77684676161337
30
0
10
-37.658475429684124
20
101.76607220499334
30
0
10
-37.958148130611541
20
101.60331440165021
30
-1.7763568394002505e-14
10
-38.093731613837946
20
101.52967649659163
30
8.8817841970012523e-15
0
SPLINE
5
346
100
AcDbEntity
8
0
100
AcDbSpline
70
0
71
3
72
9
73
5
74
0
42
0.000000001
43
0.0000000001
44
0.0000000001
40
0
40
0
40
0
40
0
40
0.025368250944742574
40
0.05047451718377572
40
0.05047451718377572
40
0.05047451718377572
40
0.05047451718377572
10
-38.093731613837946
20
101.52967649659163
30
8.8817841970012523e-15
10
-38.159186990856007
20
101.47122274937774
30
0
10
-38.289421769724484
20
101.35491892241589
30
8.8817841970012523e-15
10
-38.308608480443091
20
101.18144685588076
30
0
10
-38.318152042114008
20
101.09516102036481
30
0
0
SPLINE
5
347
100
AcDbEntity
8
0
100
AcDbSpline
70
0
71
3
72
9
73
5
74
0
42
0.000000001
43
0.0000000001
44
0.0000000001
40
0
40
0
40
0
40
0
40
0.023629992802914519
40
0.04866783966479496
40
0.04866783966479496
40
0.04866783966479496
40
0.04866783966479496
10
-38.318152042114008
20
101.09516102036481
30
0
10
-38.308427985908949
20
101.01458151122375
30
8.8817841970012523e-15
10
-38.288400522835801
20
100.84862163709874
30
-1.7763568394002505e-14
10
-38.169319358818214
20
100.73080646026705
30
0
10
-38.108056398116815
20
100.67019480427749
30
0
0
SPLINE
5
348
100
AcDbEntity
8
0
100
AcDbSpline
70
0
71
3
72
9
73
5
74
0
42
0.000000001
43
0.0000000001
44
0.0000000001
40
0
40
0
40
0
40
0
40
0.051249559728825923
40
0.1386131761212718
40
0.1386131761212718
40
0.1386131761212718
40
0.1386131761212718
10
-38.108056398116815
20
100.67019480427749
30
0
10
-37.957391649147837
20
100.58830351078765
30
0
10
-37.549893136095108
20
100.36681453903128
30
-8.8817841970012523e-15
10
-37.095607281927364
20
100.26587433414286
30
0
10
-36.809284897529352
20
100.20225483139998
30
0
0
SPLINE
5
349
100
AcDbEntity
8
0
100
AcDbSpline
70
0
71
3
72
9
73
5
74
0
42
0.000000001
43
0.0000000001
44
0.0000000001
40
0
40
0
40
0
40
0
40
0.093023610633695256
40
0.16079117452090691
40
0.16079117452090691
40
0.16079117452090691
40
0.16079117452090691
10
-36.809284897529352
20
100.20225483139998
30
0
10
-36.506963711396466
20
100.12967692117108
30
0
10
-35.984401984650802
20
100.00422610980735
30
0
10
-35.493140441474594
20
99.787470530969742
30
0
10
-35.286091776572931
20
99.696116029825276
30
0
0
SPLINE
5
350
100
AcDbEntity
8
0
100
AcDbSpline
70
0
71
3
72
9
73
5
74
0
42
0.000000001
43
0.0000000001
44
0.0000000001
40
0
40
0
40
0
40
0
40
0.053777099278681295
40
0.10611136656803763
40
0.10611136656803763
40
0.10611136656803763
40
0.10611136656803763
10
-35.286091776572931
20
99.696116029825276
30
0
10
-35.130362373369657
20
99.60306390371241
30
-8.8817841970012523e-15
10
-34.823081764888123
20
99.419456226906902
30
0
10
-34.615124289671606
20
99.128269565466667
30
0
10
-34.512559385978449
20
98.984655916299886
30
0
0
SPLINE
5
351
100
AcDbEntity
8
0
100
AcDbSpline
70
0
71
3
72
9
73
5
74
0
42
0.000000001
43
0.0000000001
44
0.0000000001
40
0
40
0
40
0
40
0
40
0.05451676915318187
40
0.11592135071701901
40
0.11592135071701901
40
0.11592135071701901
40
0.11592135071701901
10
-34.512559385978449
20
98.984655916299886
30
0
10
-34.430469241281777
20
98.820194499319228
30
0
10
-34.255917436367312
20
98.470493115811593
30
0
10
-34.239523330039241
20
98.079315253438324
30
0
10
-34.23083922454046
20
97.872104823198384
30
0
0
SPLINE
5
352
100
AcDbEntity
8
0
100
AcDbSpline
70
0
71
3
72
9
73
5
74
0
42
0.000000001
43
0.0000000001
44
0.0000000001
40
0
40
0
40
0
40
0
40
0.058849966164995889
40
0.11877875609893387
40
0.11877875609893387
40
0.11877875609893387
40
0.11877875609893387
10
-34.23083922454046
20
97.872104823198384
30
0
10
-34.245265186110728
20
97.673962310823498
30
0
10
-34.274381562593305
20
97.27404498403655
30
0
10
-34.4675975502428
20
96.922565475635949
30
0
10
-34.565082998954523
20
96.745229541864461
30
0
0
SPLINE
5
353
100
AcDbEntity
8
0
100
AcDbSpline
70
0
71
3
72
9
73
5
74
0
42
0.000000001
43
0.0000000001
44
0.0000000001
40
0
40
0
40
0
40
0
40
0.061066941996842643
40
0.12424417825802547
40
0.12424417825802547
40
0.12424417825802547
40
0.12424417825802547
10
-34.565082998954523
20
96.745229541864461
30
0
10
-34.689715481968413
20
96.580591925999073
30
0
10
-34.94328738077283
20
96.245627301528188
30
0
10
-35.319308746266117
20
96.057703799541059
30
-8.8817841970012523e-15
10
-35.510512800895441
20
95.96214610299117
30
0
0
SPLINE
5
354
100
AcDbEntity
8
0
100
AcDbSpline
70
0
71
3
72
9
73
5
74
0
42
0.000000001
43
0.0000000001
44
0.0000000001
40
0
40
0
40
0
40
0
40
0.071215058960450828
40
0.1551339177415692
40
0.1551339177415692
40
0.1551339177415692
40
0.1551339177415692
10
-35.510512800895441
20
95.96214610299117
30
0
10
-35.737494259425951
20
95.888464627623833
30
-8.8817841970012523e-15
10
-36.231947587563866
20
95.727957901861487
30
0
10
-36.752249959095643
20
95.71570489849897
30
0
10
-37.033704729758966
20
95.709076702203816
30
0
0
SPLINE
5
355
100
AcDbEntity
8
0
100
AcDbSpline
70
0
71
3
72
9
73
5
74
0
42
0.000000001
43
0.0000000001
44
0.0000000001
40
0
40
0
40
0
40
0
40
0.025127883098571901
40
0.064084784158135719
40
0.064084784158135719
40
0.064084784158135719
40
0.064084784158135719
10
-11.363854693257087
20
86.116309940424003
30
-1.7763568394002505e-14
10
-11.357192947601856
20
86.199887569529707
30
-8.8817841970012523e-15
10
-11.340203194395935
20
86.413039401726536
30
0
10
-11.294035021423877
20
86.621973303475102
30
-1.7763568394002505e-14
10
-11.26596956142115
20
86.748983442392387
30
0
0
LINE
5
356
100
AcDbEntity
8
0
100
AcDbLine
10
-11.26596956142115
20
86.748983442392387
30
2.2872505767565486e-30
11
-10.867264555775398
21
88.658942758646049
31
1.6653345369377348e-15
0
LINE
5
357
100
AcDbEntity
8
0
100
AcDbLine
10
-10.867264555775398
20
88.658942758646049
30
1.6653345369377348e-15
11
-10.399325178944343
21
88.658942758646049
31
-4.1333603569360166e-15
0
LINE
5
358
100
AcDbEntity
8
0
100
AcDbLine
10
-10.399325178944343
20
88.658942758646049
30
-4.1333603569360166e-15
11
-10.848164843403572
21
86.507851659860648
31
-7.6327832942979512e-15
0
SPLINE
5
359
100
AcDbEntity
8
0
100
AcDbSpline
70
0
71
3
72
9
73
5
74
0
42
0.000000001
43
0.0000000001
44
0.0000000001
40
0
40
0
40
0
40
0
40
0.023639164723865926
40
0.040050766800895587
40
0.040050766800895587
40
0.040050766800895587
40
0.040050766800895587
10
-10.848164843403572
20
86.507851659860648
30
0
10
-10.863999171750507
20
86.430533663361487
30
0
10
-10.890826557551989
20
86.299537281574189
30
0
10
-10.899516523381898
20
86.166180161331994
30
0
10
-10.903077410542243
20
86.111534416284599
30
0
0
SPLINE
5
360
100
AcDbEntity
8
0
100
AcDbSpline
70
0
71
3
72
9
73
5
74
0
42
0.000000001
43
0.0000000001
44
0.0000000001
40
0
40
0
40
0
40
0
40
0.026025191851565831
40
0.052000526446204919
40
0.052000526446204919
40
0.052000526446204919
40
0.052000526446204919
10
-10.903077410542243
20
86.111534416284599
30
0
10
-10.893862500124358
20
86.022231272569329
30
0
10
-10.875450332574648
20
85.843796065905678
30
0
10
-10.745805570685123
20
85.719838557613244
30
0
10
-10.681045340382331
20
85.657919227685966
30
0
0
SPLINE
5
361
100
AcDbEntity
8
0
100
AcDbSpline
70
0
71
3
72
9
73
5
74
0
42
0.000000001
43
0.0000000001
44
0.0000000001
40
0
40
0
40
0
40
0
40
0.028189482631164435
40
0.059285795164561172
40
0.059285795164561172
40
0.059285795164561172
40
0.059285795164561172
10
-10.681045340382331
20
85.657919227685966
30
0
10
-10.599742547450814
20
85.60781444399754
30
-8.8817841970012523e-15
10
-10.428753218164006
20
85.502438194940993
30
0
10
-10.227789241922395
20
85.491669934674675
30
-1.7763568394002505e-14
10
-10.122380541645759
20
85.48602181633953
30
0
0
SPLINE
5
362
100
AcDbEntity
8
0
100
AcDbSpline
70
0
71
3
72
9
73
5
74
0
42
0.000000001
43
0.0000000001
44
0.0000000001
40
0
40
0
40
0
40
0
40
0.025963566221340603
40
0.05152473075484422
40
0.05152473075484422
40
0.05152473075484422
40
0.05152473075484422
10
-10.122380541645759
20
85.48602181633953
30
0
10
-10.035143610647332
20
85.490935404044421
30
0
10
-9.8620218082241085
20
85.500686425201337
30
0
10
-9.7041247428793742
20
85.572269950979035
30
0
10
-9.6257927883498606
20
85.607782184686698
30
-8.8817841970012523e-15
0
SPLINE
5
363
100
AcDbEntity
8
0
100
AcDbSpline
70
0
71
3
72
9
73
5
74
0
42
0.000000001
43
0.0000000001
44
0.0000000001
40
0
40
0
40
0
40
0
40
0.025737608515112805
40
0.052035459655519332
40
0.052035459655519332
40
0.052035459655519332
40
0.052035459655519332
10
-9.6257927883498606
20
85.607782184686698
30
-8.8817841970012523e-15
10
-9.5524430980735531
20
85.654360300224369
30
-8.8817841970012523e-15
10
-9.404147080326748
20
85.748530419039696
30
8.8817841970012523e-15
10
-9.3087325774707743
20
85.896097561545886
30
0
10
-9.2605116833083549
20
85.9706755276585
30
-8.8817841970012523e-15
0
SPLINE
5
364
100
AcDbEntity
8
0
100
AcDbSpline
70
0
71
3
72
9
73
5
74
0
42
0.000000001
43
0.0000000001
44
0.0000000001
40
0
40
0
40
0
40
0
40
0.033484351807836411
40
0.080082853490269459
40
0.080082853490269459
40
0.080082853490269459
40
0.080082853490269459
10
-9.2605116833083549
20
85.9706755276585
30
-8.8817841970012523e-15
10
-9.2149845640523846
20
86.072894502168879
30
8.8817841970012523e-15
10
-9.1060996245399277
20
86.317366523207795
30
0
10
-9.0512789058683722
20
86.579652743544671
30
0
10
-9.0193799007766167
20
86.732271492090263
30
-8.8817841970012523e-15
0
LINE
5
365
100
AcDbEntity
8
0
100
AcDbLine
10
-9.0193799007766184
20
86.732271492090263
30
-8.8817841970012507e-15
11
-8.6159017551772514
21
88.658942758646049
31
-7.7715611723760958e-15
0
LINE
5
366
100
AcDbEntity
8
0
100
AcDbLine
10
-8.6159017551772514
20
88.658942758646049
30
-7.7715611723760958e-15
11
-8.1479599941604057
21
88.658942758646049
31
3.0753330846160501e-16
0
LINE
5
367
100
AcDbEntity
8
0
100
AcDbLine
10
-8.1479599941604057
20
88.658942758646049
30
3.0753330846160501e-16
11
-8.5753157604567924
21
86.605736791696572
31
3.7470027081099033e-15
0
SPLINE
5
368
100
AcDbEntity
8
0
100
AcDbSpline
70
0
71
3
72
9
73
5
74
0
42
0.000000001
43
0.0000000001
44
0.0000000001
40
0
40
0
40
0
40
0
40
0.048778127289733929
40
0.088454522314057593
40
0.088454522314057593
40
0.088454522314057593
40
0.088454522314057593
10
-8.5753157604567924
20
86.605736791696586
30
0
10
-8.6111000638014605
20
86.446417209195516
30
0
10
-8.6759915148383708
20
86.157506208539417
30
0
10
-8.8059172627485758
20
85.891731227387396
30
-8.8817841970012523e-15
10
-8.8641956318252024
20
85.772517501916923
30
-8.8817841970012523e-15
0
SPLINE
5
369
100
AcDbEntity
8
0
100
AcDbSpline
70
0
71
3
72
9
73
5
74
0
42
0.000000001
43
0.0000000001
44
0.0000000001
40
0
40
0
40
0
40
0
40
0.034885009474923671
40
0.070483210490742729
40
0.070483210490742729
40
0.070483210490742729
40
0.070483210490742729
10
-8.8641956318252024
20
85.772517501916923
30
-8.8817841970012523e-15
10
-8.9301779955628824
20
85.675320222683169
30
0
10
-9.0634916710355142
20
85.478938556331983
30
-8.8817841970012523e-15
10
-9.2610214946730949
20
85.347225694494284
30
0
10
-9.3607857693068919
20
85.280702888574638
30
0
0
SPLINE
5
370
100
AcDbEntity
8
0
100
AcDbSpline
70
0
71
3
72
9
73
5
74
0
42
0.000000001
43
0.0000000001
44
0.0000000001
40
0
40
0
40
0
40
0
40
0.036985578437751021
40
0.076704932556983518
40
0.076704932556983518
40
0.076704932556983518
40
0.076704932556983518
10
-9.3607857693068919
20
85.280702888574638
30
0
10
-9.473241782487726
20
85.22710371023598
30
8.8817841970012523e-15
10
-9.706465954476311
20
85.115943589636629
30
-8.8817841970012523e-15
10
-9.9647585812919139
20
85.103375742533302
30
0
10
-10.098507689320321
20
85.096867858972587
30
0
0
SPLINE
5
371
100
AcDbEntity
8
0
100
AcDbSpline
70
0
71
3
72
9
73
5
74
0
42
0.000000001
43
0.0000000001
44
0.0000000001
40
0
40
0
40
0
40
0
40
0.037150748612568528
40
0.07039600607090285
40
0.07039600607090285
40
0.07039600607090285
40
0.07039600607090285
10
-10.098507689320321
20
85.096867858972587
30
0
10
-10.223197949248355
20
85.101018023805125
30
0
10
-10.45947034274479
20
85.108882065302467
30
0
10
-10.681321169835732
20
85.189912022428331
30
8.8817841970012523e-15
10
-10.786092566334482
20
85.228179275598563
30
-8.8817841970012523e-15
0
SPLINE
5
372
100
AcDbEntity
8
0
100
AcDbSpline
70
0
71
3
72
9
73
5
74
0
42
0.000000001
43
0.0000000001
44
0.0000000001
40
0
40
0
40
0
40
0
40
0.029748686328245569
40
0.057238769026110747
40
0.057238769026110747
40
0.057238769026110747
40
0.057238769026110747
10
-10.786092566334482
20
85.228179275598563
30
-8.8817841970012523e-15
10
-10.875361829397104
20
85.274493046244999
30
0
10
-11.047122782912597
20
85.363604316285929
30
0
10
-11.164321145742008
20
85.517270241367811
30
0
10
-11.220608042561286
20
85.59107142647747
30
0
0
SPLINE
5
373
100
AcDbEntity
8
0
100
AcDbSpline
70
0
71
3
72
9
73
5
74
0
42
0.000000001
43
0.0000000001
44
0.0000000001
40
0
40
0
40
0
40
0
40
0.026944507058739693
40
0.054988001268852338
40
0.054988001268852338
40
0.054988001268852338
40
0.054988001268852338
10
-11.220608042561286
20
85.59107142647747
30
0
10
-11.262384229191094
20
85.671793117956014
30
0
10
-11.347640530165531
20
85.836528901162922
30
0
10
-11.358378436492632
20
86.021815219964537
30
0
10
-11.363854693257087
20
86.116309940424003
30
-1.7763568394002505e-14
0
LWPOLYLINE
5
374
100
AcDbEntity
8
0
100
AcDbPolyline
90
4
70
1
43
0.0
10
-17.048368738972421
20
85.15894252022747
10
-16.943321513020273
20
85.648370563592948
10
-17.432749556385751
20
85.648370563592948
10
-17.535410212361093
20
85.15894252022747
0
LINE
5
375
100
AcDbEntity
8
0
100
AcDbLine
10
-18.707647608601327
20
85.786841690149345
30
-1.7763568394002505e-14
11
-18.550076769673105
21
86.538887798395194
31
-1.5820678100908481e-14
0
LINE
5
376
100
AcDbEntity
8
0
100
AcDbLine
10
-18.550076769673105
20
86.538887798395194
30
-1.5820678100908481e-14
11
-19.614877985798593
21
86.538887798395194
31
-9.5815760688304117e-15
0
LINE
5
377
100
AcDbEntity
8
0
100
AcDbLine
10
-19.614877985798593
20
86.538887798395194
30
-9.5815760688304117e-15
11
-19.531317042195077
21
86.935203849878349
31
-1.0547118733938987e-14
0
LINE
5
378
100
AcDbEntity
8
0
100
AcDbLine
10
-19.531317042195077
20
86.935203849878349
30
-1.0547118733938987e-14
11
-17.998576449238534
21
86.935203849878363
31
-7.8744605836074929e-15
0
LINE
5
379
100
AcDbEntity
8
0
100
AcDbLine
10
-17.998576449238534
20
86.935203849878363
30
-7.8744605836074929e-15
11
-18.297007368885751
21
85.509897052850761
31
-8.5348395018058909e-15
0
SPLINE
5
380
100
AcDbEntity
8
0
100
AcDbSpline
70
0
71
3
72
9
73
5
74
0
42
0.000000001
43
0.0000000001
44
0.0000000001
40
0
40
0
40
0
40
0
40
0.035032205056818644
40
0.072392137120548622
40
0.072392137120548622
40
0.072392137120548622
40
0.072392137120548622
10
-18.297007368885751
20
85.509897052850761
30
-8.8817841970012523e-15
10
-18.398549398086466
20
85.451630640672263
30
0
10
-18.608380451811872
20
85.331226284363368
30
8.8817841970012523e-15
10
-18.837632244271653
20
85.253807020685869
30
0
10
-18.955943869435067
20
85.213852703180351
30
-8.8817841970012523e-15
0
SPLINE
5
381
100
AcDbEntity
8
0
100
AcDbSpline
70
0
71
3
72
9
73
5
74
0
42
0.000000001
43
0.0000000001
44
0.0000000001
40
0
40
0
40
0
40
0
40
0.037699708919810303
40
0.073923335843240248
40
0.073923335843240248
40
0.073923335843240248
40
0.073923335843240248
10
-18.955943869435067
20
85.213852703180351
30
-8.8817841970012523e-15
10
-19.07755681552916
20
85.180432484973423
30
0
10
-19.316021114447807
20
85.114900572784904
30
0
10
-19.56306114266501
20
85.104401518890114
30
0
10
-19.684114741169687
20
85.099256813135185
30
-8.8817841970012523e-15
0
SPLINE
5
382
100
AcDbEntity
8
0
100
AcDbSpline
70
0
71
3
72
9
73
5
74
0
42
0.000000001
43
0.0000000001
44
0.0000000001
40
0
40
0
40
0
40
0
40
0.067716068493549497
40
0.12636908906837335
40
0.12636908906837335
40
0.12636908906837335
40
0.12636908906837335
10
-19.684114741169687
20
85.099256813135185
30
-8.8817841970012523e-15
10
-19.917275820615078
20
85.112309838613214
30
0
10
-20.352391944028518
20
85.136668886265198
30
0
10
-20.675395673048115
20
85.425825009182887
30
0
10
-20.82531480678248
20
85.560034095850042
30
-1.7763568394002505e-14
0
SPLINE
5
383
100
AcDbEntity
8
0
100
AcDbSpline
70
0
71
3
72
9
73
5
74
0
42
0.000000001
43
0.0000000001
44
0.0000000001
40
0
40
0
40
0
40
0
40
0.050441811187705202
40
0.10657396184149047
40
0.10657396184149047
40
0.10657396184149047
40
0.10657396184149047
10
-20.82531480678248
20
85.560034095850042
30
-1.7763568394002505e-14
10
-20.917855719529662
20
85.703940636433558
30
0
10
-21.113377083090427
20
86.00798781086624
30
0
10
-21.132679120173862
20
86.369806548902091
30
0
10
-21.142845438801523
20
86.560375272836723
30
-8.8817841970012523e-15
0
SPLINE
5
384
100
AcDbEntity
8
0
100
AcDbSpline
70
0
71
3
72
9
73
5
74
0
42
0.000000001
43
0.0000000001
44
0.0000000001
40
0
40
0
40
0
40
0
40
0.060560816158134509
40
0.11882278303392274
40
0.11882278303392274
40
0.11882278303392274
40
0.11882278303392274
10
-21.142845438801523
20
86.560375272836723
30
-8.8817841970012523e-15
10
-21.132224995038115
20
86.763963906174723
30
0
10
-21.111387252664752
20
87.163413080441572
30
0
10
-20.946668946636429
20
87.527721008266582
30
8.8817841970012523e-15
10
-20.86590318568873
20
87.70635086258892
30
0
0
SPLINE
5
385
100
AcDbEntity
8
0
100
AcDbSpline
70
0
71
3
72
9
73
5
74
0
42
0.000000001
43
0.0000000001
44
0.0000000001
40
0
40
0
40
0
40
0
40
0.054940461904594111
40
0.10475545501367092
40
0.10475545501367092
40
0.10475545501367092
40
0.10475545501367092
10
-20.86590318568873
20
87.70635086258892
30
0
10
-20.770594273371465
20
87.865433417357252
30
0
10
-20.588867943986191
20
88.168757503682428
30
0
10
-20.300920920439509
20
88.373141461347416
30
0
10
-20.163991736256349
20
88.470333396997503
30
0
0
SPLINE
5
386
100
AcDbEntity
8
0
100
AcDbSpline
70
0
71
3
72
9
73
5
74
0
42
0.000000001
43
0.0000000001
44
0.0000000001
40
0
40
0
40
0
40
0
40
0.048538509232492859
40
0.098406311825095877
40
0.098406311825095877
40
0.098406311825095877
40
0.098406311825095877
10
-20.163991736256349
20
88.470333396997503
30
0
10
-20.01732116477784
20
88.542749214485227
30
0
10
-19.719963247925762
20
88.689564055514523
30
0
10
-19.388779574759084
20
88.708853473810692
30
0
10
-19.220950888478036
20
88.718628465738334
30
0
0
SPLINE
5
387
100
AcDbEntity
8
0
100
AcDbSpline
70
0
71
3
72
9
73
5
74
0
42
0.000000001
43
0.0000000001
44
0.0000000001
40
0
40
0
40
0
40
0
40
0.035497754515282504
40
0.068623684090002246
40
0.068623684090002246
40
0.068623684090002246
40
0.068623684090002246
10
-19.220950888478036
20
88.718628465738334
30
0
10
-19.101821774534748
20
88.713784281976558
30
0
10
-18.871523300932807
20
88.70441958438704
30
0
10
-18.656337520857093
20
88.622222143690294
30
0
10
-18.552463339649911
20
88.582543909158744
30
0
0
SPLINE
5
388
100
AcDbEntity
8
0
100
AcDbSpline
70
0
71
3
72
9
73
5
74
0
42
0.000000001
43
0.0000000001
44
0.0000000001
40
0
40
0
40
0
40
0
40
0.030493114546791836
40
0.058486398250821331
40
0.058486398250821331
40
0.058486398250821331
40
0.058486398250821331
10
-18.552463339649911
20
88.582543909158744
30
0
10
-18.460797593083569
20
88.535844335799283
30
0
10
-18.284980873823532
20
88.446273628239922
30
0
10
-18.159098905880459
20
88.294623610119601
30
0
10
-18.098848151051278
20
88.22203952034954
30
-8.8817841970012523e-15
0
SPLINE
5
389
100
AcDbEntity
8
0
100
AcDbSpline
70
0
71
3
72
9
73
5
74
0
42
0.000000001
43
0.0000000001
44
0.0000000001
40
0
40
0
40
0
40
0
40
0.029233188429214439
40
0.063307170874311647
40
0.063307170874311647
40
0.063307170874311647
40
0.063307170874311647
10
-18.098848151051278
20
88.22203952034954
30
-8.8817841970012523e-15
10
-18.049287528542536
20
88.137432748311937
30
0
10
-17.941959420785988
20
87.954208965265479
30
0
10
-17.896505394808063
20
87.746514353590442
30
-8.8817841970012523e-15
10
-17.872040556751958
20
87.634726345148124
30
0
0
LINE
5
390
100
AcDbEntity
8
0
100
AcDbLine
10
-17.872040556751962
20
87.634726345148124
30
1.911759124889203e-30
11
-18.330431269489996
21
87.584590494241752
31
-2.9099986309510939e-15
0
SPLINE
5
391
100
AcDbEntity
8
0
100
AcDbSpline
70
0
71
3
72
9
73
5
74
0
42
0.000000001
43
0.0000000001
44
0.0000000001
40
0
40
0
40
0
40
0
40
0.033793683783671591
40
0.064140308788710285
40
0.064140308788710285
40
0.064140308788710285
40
0.064140308788710285
10
-18.330431269489996
20
87.584590494241752
30
0
10
-18.359472947040999
20
87.695747874353458
30
0
10
-18.414593962488382
20
87.906724242900594
30
0
10
-18.566528593344973
20
88.062424530218806
30
0
10
-18.638413237416025
20
88.136090814676322
30
0
0
SPLINE
5
392
100
AcDbEntity
8
0
100
AcDbSpline
70
0
71
3
72
9
73
5
74
0
42
0.000000001
43
0.0000000001
44
0.0000000001
40
0
40
0
40
0
40
0
40
0.030210015234880455
40
0.06374581814296898
40
0.06374581814296898
40
0.06374581814296898
40
0.06374581814296898
10
-18.638413237416025
20
88.136090814676322
30
0
10
-18.724068348652459
20
88.192452413319529
30
0
10
-18.904808249027933
20
88.311380397612908
30
0
10
-19.121353554010852
20
88.323236942368311
30
0
10
-19.235275076710458
20
88.329474508371391
30
0
0
SPLINE
5
393
100
AcDbEntity
8
0
100
AcDbSpline
70
0
71
3
72
9
73
5
74
0
42
0.000000001
43
0.0000000001
44
0.0000000001
40
0
40
0
40
0
40
0
40
0.037072385752094608
40
0.07465338998630025
40
0.07465338998630025
40
0.07465338998630025
40
0.07465338998630025
10
-19.235275076710458
20
88.329474508371391
30
0
10
-19.360089294593273
20
88.320586849409636
30
0
10
-19.61143013210371
20
88.302689596317407
30
0
10
-19.832871303635571
20
88.182347582434318
30
8.8817841970012523e-15
10
-19.944346236073251
20
88.121766626443915
30
0
0
SPLINE
5
394
100
AcDbEntity
8
0
100
AcDbSpline
70
0
71
3
72
9
73
5
74
0
42
0.000000001
43
0.0000000001
44
0.0000000001
40
0
40
0
40
0
40
0
40
0.039343012123392695
40
0.082511212214776308
40
0.082511212214776308
40
0.082511212214776308
40
0.082511212214776308
10
-19.944346236073251
20
88.121766626443915
30
0
10
-20.050070436650014
20
88.041494680912081
30
0
10
-20.27179804415162
20
87.87314622015117
30
0
10
-20.403217630398537
20
87.627276080701336
30
0
10
-20.471973704182382
20
87.498641788568548
30
0
0
SPLINE
5
395
100
AcDbEntity
8
0
100
AcDbSpline
70
0
71
3
72
9
73
5
74
0
42
0.000000001
43
0.0000000001
44
0.0000000001
40
0
40
0
40
0
40
0
40
0.046770973079307609
40
0.097145739189328048
40
0.097145739189328048
40
0.097145739189328048
40
0.097145739189328048
10
-20.471973704182382
20
87.498641788568548
30
0
10
-20.529051716390754
20
87.352339732155315
30
0
10
-20.647605710938556
20
87.048462765749676
30
8.8817841970012523e-15
10
-20.66086722905829
20
86.722328423108479
30
8.8817841970012523e-15
10
-20.667743967854257
20
86.553211986627616
30
-8.8817841970012523e-15
0
SPLINE
5
396
100
AcDbEntity
8
0
100
AcDbSpline
70
0
71
3
72
9
73
5
74
0
42
0.000000001
43
0.0000000001
44
0.0000000001
40
0
40
0
40
0
40
0
40
0.046771059836103031
40
0.085476598949207644
40
0.085476598949207644
40
0.085476598949207644
40
0.085476598949207644
10
-20.667743967854257
20
86.553211986627616
30
-8.8817841970012523e-15
10
-20.661633464308153
20
86.393418827002677
30
-8.8817841970012523e-15
10
-20.650466194145388
20
86.101388330624147
30
0
10
-20.483237169796041
20
85.863517224826637
30
-8.8817841970012523e-15
10
-20.407512472950692
20
85.755804359521917
30
-8.8817841970012523e-15
0
SPLINE
5
397
100
AcDbEntity
8
0
100
AcDbSpline
70
0
71
3
72
9
73
5
74
0
42
0.000000001
43
0.0000000001
44
0.0000000001
40
0
40
0
40
0
40
0
40
0.036999792846019931
40
0.078437542853173142
40
0.078437542853173142
40
0.078437542853173142
40
0.078437542853173142
10
-20.407512472950692
20
85.755804359521917
30
-8.8817841970012523e-15
10
-20.308602909750604
20
85.677185038201912
30
0
10
-20.098920030325253
20
85.510516364926133
30
0
10
-19.830626819129471
20
85.494488940437037
30
0
10
-19.688890265309091
20
85.48602181633953
30
0
0
SPLINE
5
398
100
AcDbEntity
8
0
100
AcDbSpline
70
0
71
3
72
9
73
5
74
0
42
0.000000001
43
0.0000000001
44
0.0000000001
40
0
40
0
40
0
40
0
40
0.047925067292917074
40
0.10350335026154187
40
0.10350335026154187
40
0.10350335026154187
40
0.10350335026154187
10
-19.688890265309091
20
85.48602181633953
30
0
10
-19.528392942487621
20
85.501880018852248
30
0
10
-19.18176827280281
20
85.536128840646469
30
0
10
-18.873290944674807
20
85.699250247877814
30
0
10
-18.707647608601327
20
85.786841690149345
30
-1.7763568394002505e-14
0
LWPOLYLINE
5
399
100
AcDbEntity
8
0
100
AcDbPolyline
90
4
70
1
43
0.0
10
-25.76017169841456
20
85.15894252022747
10
-25.029613064610231
20
88.658942758646049
10
-25.495165871464479
20
88.658942758646063
10
-26.22811226733851
20
85.158942520227484
0
LINE
5
400
100
AcDbEntity
8
0
100
AcDbLine
10
-32.160921381794687
20
87.286159574594549
30
-1.7763568394002505e-14
11
-32.604986714207406
21
85.158942520227498
31
-5.6898930012039273e-15
0
LINE
5
401
100
AcDbEntity
8
0
100
AcDbLine
10
-32.604986714207406
20
85.158942520227498
30
-5.6898930012039273e-15
11
-33.060989664875741
21
85.158942520227498
31
-2.9968707170428984e-16
0
LINE
5
402
100
AcDbEntity
8
0
100
AcDbLine
10
-33.060989664875741
20
85.158942520227498
30
-2.9968707170428984e-16
11
-32.328043269001711
21
88.658942758646077
31
-1.3600232051658168e-14
0
LINE
5
403
100
AcDbEntity
8
0
100
AcDbLine
10
-32.328043269001711
20
88.658942758646077
30
-1.3600232051658168e-14
11
-31.874428080403078
21
88.658942758646063
31
-1.7465450569649677e-14
0
LINE
5
404
100
AcDbEntity
8
0
100
AcDbLine
10
-31.874428080403078
20
88.658942758646063
30
-1.7465450569649677e-14
11
-31.284728335224855
21
87.34584528168682
31
-1.3739009929736312e-14
0
SPLINE
5
405
100
AcDbEntity
8
0
100
AcDbSpline
70
0
71
3
72
9
73
5
74
0
42
0.000000001
43
0.0000000001
44
0.0000000001
40
0
40
0
40
0
40
0
40
0.060433889821621858
40
0.1098886078459502
40
0.1098886078459502
40
0.1098886078459502
40
0.1098886078459502
10
-31.284728335224862
20
87.34584528168682
30
0
10
-31.202786069940171
20
87.161790257377476
30
0
10
-31.053788190067539
20
86.827117932824009
30
-8.8817841970012523e-15
10
-30.918334903565388
20
86.486748795620727
30
0
10
-30.857374953114267
20
86.333567678537435
30
0
0
SPLINE
5
406
100
AcDbEntity
8
0
100
AcDbSpline
70
0
71
3
72
9
73
5
74
0
42
0.000000001
43
0.0000000001
44
0.0000000001
40
0
40
0
40
0
40
0
40
0.029711191459515427
40
0.067809783519974035
40
0.067809783519974035
40
0.067809783519974035
40
0.067809783519974035
10
-30.857374953114267
20
86.333567678537435
30
0
10
-30.823988732040036
20
86.240308423477529
30
-1.7763568394002505e-14
10
-30.747791436933984
20
86.02746304144496
30
0
10
-30.683436700200055
20
85.810728045601081
30
0
10
-30.647279309117074
20
85.688956558313436
30
0
0
SPLINE
5
407
100
AcDbEntity
8
0
100
AcDbSpline
70
0
71
3
72
9
73
5
74
0
42
0.000000001
43
0.0000000001
44
0.0000000001
40
0
40
0
40
0
40
0
40
0.045470910838833374
40
0.092644667427036601
40
0.092644667427036601
40
0.092644667427036601
40
0.092644667427036601
10
-30.647279309117074
20
85.688956558313436
30
0
10
-30.624109902868504
20
85.838766171699461
30
-1.7763568394002505e-14
10
-30.576903416418556
20
86.143995637164011
30
0
10
-30.515963138336708
20
86.446784265712324
30
-1.7763568394002505e-14
10
-30.484932946049447
20
86.60096126755721
30
0
0
LINE
5
408
100
AcDbEntity
8
0
100
AcDbLine
10
-30.484932946049447
20
86.60096126755721
30
-9.67220825980883e-30
11
-30.055191801869142
21
88.658942758646063
31
-1.27675647831893e-14
0
LINE
5
409
100
AcDbEntity
8
0
100
AcDbLine
10
-30.055191801869142
20
88.658942758646063
30
-1.27675647831893e-14
11
-29.599188851200807
21
88.658942758646063
31
-8.582097125296962e-15
0
LINE
5
410
100
AcDbEntity
8
0
100
AcDbLine
10
-29.599188851200807
20
88.658942758646063
30
-8.582097125296962e-15
11
-30.329748677098031
21
85.158942520227484
31
4.7184478546569153e-15
0
LINE
5
411
100
AcDbEntity
8
0
100
AcDbLine
10
-30.329748677098031
20
85.158942520227484
30
4.7184478546569153e-15
11
-30.792913721882577
21
85.158942520227498
31
8.5773901666910767e-15
0
LINE
5
412
100
AcDbEntity
8
0
100
AcDbLine
10
-30.792913721882577
20
85.158942520227498
30
8.5773901666910767e-15
11
-31.661944674336183
21
87.18111115654952
31
3.8857805861880479e-15
0
SPLINE
5
413
100
AcDbEntity
8
0
100
AcDbSpline
70
0
71
3
72
9
73
5
74
0
42
0.000000001
43
0.0000000001
44
0.0000000001
40
0
40
0
40
0
40
0
40
0.05436617561909602
40
0.10099214826220054
40
0.10099214826220054
40
0.10099214826220054
40
0.10099214826220054
10
-31.661944674336191
20
87.181111156549505
30
0
10
-31.732886597863462
20
87.347954677413512
30
0
10
-31.864670325103532
20
87.657887929179097
30
0
10
-31.972614620825809
20
87.976881634708064
30
0
10
-32.02245025523829
20
88.124154388513617
30
-1.7763568394002505e-14
0
SPLINE
5
414
100
AcDbEntity
8
0
100
AcDbSpline
70
0
71
3
72
9
73
5
74
0
42
0.000000001
43
0.0000000001
44
0.0000000001
40
0
40
0
40
0
40
0
40
0.038381335974438602
40
0.084960381547000363
40
0.084960381547000363
40
0.084960381547000363
40
0.084960381547000363
10
-32.02245025523829
20
88.124154388513617
30
-1.7763568394002505e-14
10
-32.038580458717959
20
87.997195861693598
30
-8.8817841970012523e-15
10
-32.074286048616557
20
87.716162265404606
30
-1.7763568394002505e-14
10
-32.1302431948764
20
87.438426582062675
30
1.7763568394002505e-14
10
-32.160921381794687
20
87.286159574594549
30
-1.7763568394002505e-14
0
LWPOLYLINE
5
415
100
AcDbEntity
8
0
100
AcDbPolyline
90
6
70
1
43
0.0
10
-34.896937893711801
20
85.158942520227484
10
-34.813376950108285
20
85.555258571710638
10
-36.630225466572519
20
85.555258571710652
10
-35.983227180325258
20
88.658942758646077
10
-36.451167153202761
20
88.658942758646077
10
-37.181726383053537
20
85.158942520227498
0
LINE
5
416
100
AcDbEntity
8
0
100
AcDbLine
10
-2.9361632336013259
20
86.476814329233207
30
0
11
-3.2107165325515217
21
85.15894252022747
31
1.8735013540549517e-15
0
LINE
5
417
100
AcDbEntity
8
0
100
AcDbLine
10
-3.2107165325515217
20
85.15894252022747
30
1.8735013540549517e-15
11
-3.6786606777541584
21
85.15894252022747
31
-3.0753487535861094e-16
0
LINE
5
418
100
AcDbEntity
8
0
100
AcDbLine
10
-3.6786606777541584
20
85.15894252022747
30
-3.0753487535861094e-16
11
-3.3969405163161697
21
86.512625991907157
31
1.3877787807814457e-16
0
LINE
5
419
100
AcDbEntity
8
0
100
AcDbLine
10
-3.3969405163161697
20
86.512625991907157
30
1.3877787807814457e-16
11
-4.4736769665114808
21
88.658942758646049
31
-8.3266726846886741e-15
0
LINE
5
420
100
AcDbEntity
8
0
100
AcDbLine
10
-4.4736769665114808
20
88.658942758646049
30
-8.3266726846886741e-15
11
-3.9723160732619691
21
88.658942758646049
31
3.2949650379406357e-16
0
LINE
5
421
100
AcDbEntity
8
0
100
AcDbLine
10
-3.9723160732619691
20
88.658942758646049
30
3.2949650379406357e-16
11
-3.4566262234084535
21
87.637114107217826
31
-5.5511151231257827e-16
0
SPLINE
5
422
100
AcDbEntity
8
0
100
AcDbSpline
70
0
71
3
72
9
73
5
74
0
42
0.000000001
43
0.0000000001
44
0.0000000001
40
0
40
0
40
0
40
0
40
0.038440923044981742
40
0.078850787152411284
40
0.078850787152411284
40
0.078850787152411284
40
0.078850787152411284
10
-3.4566262234084539
20
87.637114107217826
30
0
10
-3.399887996454511
20
87.522195499450532
30
0
10
-3.283505415013463
20
87.286472161842113
30
0
10
-3.1801357726685442
20
87.044755752339356
30
-1.7763568394002505e-14
10
-3.1271603573195872
20
86.920879661645927
30
0
0
SPLINE
5
423
100
AcDbEntity
8
0
100
AcDbSpline
70
0
71
3
72
9
73
5
74
0
42
0.000000001
43
0.0000000001
44
0.0000000001
40
0
40
0
40
0
40
0
40
0.039872392758726775
40
0.085831595166293628
40
0.085831595166293628
40
0.085831595166293628
40
0.085831595166293628
10
-3.1271603573195872
20
86.920879661645927
30
0
10
-3.0597118892487352
20
87.035562717961668
30
0
10
-2.9145184557601751
20
87.282436030072418
30
8.8817841970012523e-15
10
-2.7389184353269331
20
87.508763298123597
30
0
10
-2.6448920238845282
20
87.629952013101615
30
0
0
LINE
5
424
100
AcDbEntity
8
0
100
AcDbLine
10
-2.6448920238845286
20
87.629952013101629
30
2.7939070658469656e-30
11
-1.8236115444533736
21
88.658942758646049
31
1.7347234759768071e-15
0
LINE
5
425
100
AcDbEntity
8
0
100
AcDbLine
10
-1.8236115444533736
20
88.658942758646049
30
1.7347234759768071e-15
11
-1.2649491299025919
21
88.658942758646049
31
3.6715530643516438e-16
0
LINE
5
426
100
AcDbEntity
8
0
100
AcDbLine
10
-1.2649491299025919
20
88.658942758646049
30
3.6715530643516438e-16
11
-2.9361632336013259
21
86.476814329233207
31
0
0
SPLINE
5
427
100
AcDbEntity
8
0
100
AcDbSpline
70
0
71
3
72
9
73
5
74
0
42
0.000000001
43
0.0000000001
44
0.0000000001
40
0
40
0
40
0
40
0
40
0.026406118373879354
40
0.057890625058144282
40
0.057890625058144282
40
0.057890625058144282
40
0.057890625058144282
10
-6.3872173298232475
20
90.67633467873577
30
0
10
-6.4739340805505456
20
90.660351376117859
30
0
10
-6.6640448280498958
20
90.625310884140077
30
0
10
-6.8574222630500419
20
90.622792795966888
30
0
10
-6.9625928867690483
20
90.621423303689994
30
0
0
LINE
5
428
100
AcDbEntity
8
0
100
AcDbLine
10
-6.9625928867690483
20
90.621423303690008
30
0
11
-8.2231643665664098
21
90.621423303689994
31
-8.2845291878206222e-16
0
LINE
5
429
100
AcDbEntity
8
0
100
AcDbLine
10
-8.2231643665664098
20
90.621423303689994
30
-8.2845291878206222e-16
11
-7.4926069248549823
21
94.121423542108573
31
6.3837823915946501e-15
0
LINE
5
430
100
AcDbEntity
8
0
100
AcDbLine
10
-7.4926069248549823
20
94.121423542108573
30
6.3837823915946501e-15
11
-6.4373543728225116
21
94.121423542108573
31
6.9351644932031382e-16
0
SPLINE
5
431
100
AcDbEntity
8
0
100
AcDbSpline
70
0
71
3
72
9
73
5
74
0
42
0.000000001
43
0.0000000001
44
0.0000000001
40
0
40
0
40
0
40
0
40
0.033512112364283045
40
0.058386531572422559
40
0.058386531572422559
40
0.058386531572422559
40
0.058386531572422559
10
-6.4373543728225116
20
94.121423542108573
30
0
10
-6.3253255716071157
20
94.120841947932291
30
0
10
-6.1301432128204771
20
94.119828664544883
30
0
10
-5.9387447820999641
20
94.082440605263983
30
0
10
-5.8572032917373065
20
94.066512167062797
30
0
0
SPLINE
5
432
100
AcDbEntity
8
0
100
AcDbSpline
70
0
71
3
72
9
73
5
74
0
42
0.000000001
43
0.0000000001
44
0.0000000001
40
0
40
0
40
0
40
0
40
0.028496873719400288
40
0.056111966102171548
40
0.056111966102171548
40
0.056111966102171548
40
0.056111966102171548
10
-5.8572032917373065
20
94.066512167062797
30
0
10
-5.7657374518431173
20
94.037480902063578
30
0
10
-5.58563600779752
20
93.980316689119377
30
-8.8817841970012523e-15
10
-5.4396322906272312
20
93.860481270147162
30
0
10
-5.367777632557619
20
93.801505148019842
30
0
0
SPLINE
5
433
100
AcDbEntity
8
0
100
AcDbSpline
70
0
71
3
72
9
73
5
74
0
42
0.000000001
43
0.0000000001
44
0.0000000001
40
0
40
0
40
0
40
0
40
0.027710198070136745
40
0.056699073459010041
40
0.056699073459010041
40
0.056699073459010041
40
0.056699073459010041
10
-5.367777632557619
20
93.801505148019842
30
0
10
-5.3039455275354408
20
93.733632227095569
30
0
10
-5.1733358075133884
20
93.594754413244459
30
0
10
-5.0997863214992112
20
93.418767918068454
30
0
10
-5.0621822346084011
20
93.328790247049369
30
0
0
SPLINE
5
434
100
AcDbEntity
8
0
100
AcDbSpline
70
0
71
3
72
9
73
5
74
0
42
0.000000001
43
0.0000000001
44
0.0000000001
40
0
40
0
40
0
40
0
40
0.031109506285173571
40
0.064810672005010908
40
0.064810672005010908
40
0.064810672005010908
40
0.064810672005010908
10
-5.0621822346084011
20
93.328790247049369
30
0
10
-5.0322518261118399
20
93.229020349730007
30
-8.8817841970012523e-15
10
-4.9698975775337892
20
93.021168960773011
30
0
10
-4.9630712358776927
20
92.804176181447616
30
0
10
-4.9595215786330602
20
92.691341220941595
30
0
0
SPLINE
5
435
100
AcDbEntity
8
0
100
AcDbSpline
70
0
71
3
72
9
73
5
74
0
42
0.000000001
43
0.0000000001
44
0.0000000001
40
0
40
0
40
0
40
0
40
0.040535867057276825
40
0.078495088481778691
40
0.078495088481778691
40
0.078495088481778691
40
0.078495088481778691
10
-4.9595215786330602
20
92.691341220941595
30
0
10
-4.964151505171551
20
92.555608986937557
30
-8.8817841970012523e-15
10
-4.9731170588820213
20
92.292772282274939
30
0
10
-5.0508522812240875
20
92.041639839529381
30
0
10
-5.0884440410964382
20
91.920195400323905
30
0
0
SPLINE
5
436
100
AcDbEntity
8
0
100
AcDbSpline
70
0
71
3
72
9
73
5
74
0
42
0.000000001
43
0.0000000001
44
0.0000000001
40
0
40
0
40
0
40
0
40
0.035743648673298475
40
0.069878804327015764
40
0.069878804327015764
40
0.069878804327015764
40
0.069878804327015764
10
-5.0884440410964382
20
91.920195400323905
30
0
10
-5.1331735047919791
20
91.809252309615431
30
0
10
-5.2206195702399025
20
91.592358656762244
30
0
10
-5.3563733418930823
20
91.401997742937823
30
0
10
-5.4226878155105016
20
91.309008180704154
30
0
0
SPLINE
5
437
100
AcDbEntity
8
0
100
AcDbSpline
70
0
71
3
72
9
73
5
74
0
42
0.000000001
43
0.0000000001
44
0.0000000001
40
0
40
0
40
0
40
0
40
0.03152984839382663
40
0.059969656379572536
40
0.059969656379572536
40
0.059969656379572536
40
0.059969656379572536
10
-5.4226878155105016
20
91.309008180704154
30
0
10
-5.4898691213979731
20
91.227601909215039
30
0
10
-5.6176477195973593
20
91.072767478444376
30
0
10
-5.7785235224960028
20
90.952849620317693
30
0
10
-5.8548167217605016
20
90.895980178918876
30
0
0
SPLINE
5
438
100
AcDbEntity
8
0
100
AcDbSpline
70
0
71
3
72
9
73
5
74
0
42
0.000000001
43
0.0000000001
44
0.0000000001
40
0
40
0
40
0
40
0
40
0.027712352117864481
40
0.057820877849008051
40
0.057820877849008051
40
0.057820877849008051
40
0.057820877849008051
10
-5.8548167217605016
20
90.895980178918876
30
0
10
-5.9350738383001564
20
90.849377913932955
30
-8.8817841970012523e-15
10
-6.1025275756161506
20
90.752143876931072
30
-8.8817841970012523e-15
10
-6.2897347080729098
20
90.702293039666074
30
0
10
-6.3872173298232475
20
90.67633467873577
30
0
0
LWPOLYLINE
5
439
100
AcDbEntity
8
0
100
AcDbPolyline
90
12
70
1
43
0.0
10
-12.071733759724371
20
90.621423303689994
10
-11.988172816120855
20
91.017739355173148
10
-14.19178752788233
20
91.017739355173163
10
-13.938718127094976
20
92.23533827027326
10
-11.933262633167974
20
92.23533827027326
10
-11.849701689564458
20
92.634042083826117
10
-13.85515718349146
20
92.634042083826131
10
-13.625963019215334
20
93.722718536462835
10
-11.567981528126467
20
93.722718536462821
10
-11.484420584522951
20
94.121423542108587
10
-14.010341452442873
20
94.121423542108573
10
-14.743290232502691
20
90.621423303689994
0
LWPOLYLINE
5
440
100
AcDbEntity
8
0
100
AcDbPolyline
90
4
70
1
43
0.0
10
-20.444517420613046
20
90.621423303690008
10
-20.339470194660898
20
91.110850154962591
10
-20.828895853840585
20
91.110850154962591
10
-20.931556509815927
20
90.621423303690008
0
LINE
5
441
100
AcDbEntity
8
0
100
AcDbLine
10
-22.364025400959719
20
91.939295112695746
30
0
11
-22.638583468281496
21
90.621423303690008
31
-2.5673907444456745e-15
0
LINE
5
442
100
AcDbEntity
8
0
100
AcDbLine
10
-22.638583468281496
20
90.621423303690008
30
-2.5673907444456745e-15
11
-23.106522845112551
21
90.621423303690008
31
-3.0753174156459898e-16
0
LINE
5
443
100
AcDbEntity
8
0
100
AcDbLine
10
-23.106522845112551
20
90.621423303690008
30
-3.0753174156459898e-16
11
-22.824802683674562
21
91.975106775369696
31
1.3877787807814457e-16
0
LINE
5
444
100
AcDbEntity
8
0
100
AcDbLine
10
-22.824802683674562
20
91.975106775369696
30
1.3877787807814457e-16
11
-23.901543902241457
21
94.121423542108587
31
4.9960036108132044e-15
0
LINE
5
445
100
AcDbEntity
8
0
100
AcDbLine
10
-23.901543902241457
20
94.121423542108587
30
4.9960036108132044e-15
11
-23.400178240620363
21
94.121423542108587
31
3.2949963758807553e-16
0
LINE
5
446
100
AcDbEntity
8
0
100
AcDbLine
10
-23.400178240620363
20
94.121423542108587
30
3.2949963758807553e-16
11
-22.884488390766844
21
93.099594890680365
31
-5.5511151231257827e-16
0
SPLINE
5
447
100
AcDbEntity
8
0
100
AcDbSpline
70
0
71
3
72
9
73
5
74
0
42
0.000000001
43
0.0000000001
44
0.0000000001
40
0
40
0
40
0
40
0
40
0.038440923044981742
40
0.078850787152411284
40
0.078850787152411284
40
0.078850787152411284
40
0.078850787152411284
10
-22.884488390766844
20
93.099594890680351
30
0
10
-22.827750163812894
20
92.984676282913057
30
0
10
-22.711367582371853
20
92.748952945304637
30
8.8817841970012523e-15
10
-22.607997940026941
20
92.507236535801923
30
0
10
-22.555022524677977
20
92.383360445108465
30
0
0
SPLINE
5
448
100
AcDbEntity
8
0
100
AcDbSpline
70
0
71
3
72
9
73
5
74
0
42
0.000000001
43
0.0000000001
44
0.0000000001
40
0
40
0
40
0
40
0
40
0.039872041389308908
40
0.08583148143627066
40
0.08583148143627066
40
0.08583148143627066
40
0.08583148143627066
10
-22.555022524677977
20
92.383360445108465
30
0
10
-22.487575902264432
20
92.49804326763028
30
0
10
-22.34238535475513
20
92.744917924892746
30
-8.8817841970012523e-15
10
-22.1667842032723
20
92.971243956466083
30
-8.8817841970012523e-15
10
-22.072756575428713
20
93.092432796564154
30
0
0
LINE
5
449
100
AcDbEntity
8
0
100
AcDbLine
10
-22.072756575428709
20
93.092432796564154
30
-1.5237716978748762e-30
11
-21.251473711811769
21
94.121423542108587
31
6.1756155744774333e-15
0
LINE
5
450
100
AcDbEntity
8
0
100
AcDbLine
10
-21.251473711811769
20
94.121423542108587
30
6.1756155744774333e-15
11
-20.692811297260988
21
94.121423542108587
31
-4.0737367920654512e-15
0
LINE
5
451
100
AcDbEntity
8
0
100
AcDbLine
10
-20.692811297260988
20
94.121423542108587
30
-4.0737367920654512e-15
11
-22.364025400959719
21
91.939295112695746
31
0
0
LWPOLYLINE
5
452
100
AcDbEntity
8
0
100
AcDbPolyline
90
8
70
1
43
0.0
10
-30.84901838191675
20
90.621423303690023
10
-30.287967013203371
20
91.628926574792928
10
-28.872210072361696
20
91.628926574792928
10
-28.702701615177858
20
90.621423303690023
10
-28.249086426579225
20
90.621423303690023
10
-28.826848553501833
20
94.121423542108602
10
-29.378350066029299
20
94.121423542108602
10
-31.362319277607668
20
90.621423303690023
0
LWPOLYLINE
5
453
100
AcDbEntity
8
0
100
AcDbPolyline
90
8
70
1
43
0.0
10
-35.934283422314394
20
90.621423303690023
10
-35.28728513606714
20
93.72271853646285
10
-34.148471640431154
20
93.72271853646285
10
-34.064910696827639
20
94.121423542108602
10
-36.820026921116579
20
94.121423542108602
10
-36.903587864720095
20
93.72271853646285
10
-35.755225108944643
20
93.72271853646285
10
-36.402223395191896
20
90.621423303690023
0
LWPOLYLINE
5
454
100
AcDbEntity
8
0
100
AcDbPolyline
90
4
70
1
43
0.0
10
-44.35595283844399
20
79.698588504877165
10
-44.355952838443969
20
105.97058850487716
10
2.7960471615560261
20
105.97058850487713
10
2.7960471615560234
20
79.698588504877122
0
LINE
5
455
100
AcDbEntity
8
0
100
AcDbLine
10
-36.555192273878369
20
38.905825281229077
30
0
11
-36.555192273878376
21
35.983588361826001
31
-3.0531133177191805e-15
0
LINE
5
456
100
AcDbEntity
8
0
100
AcDbLine
10
-36.555192273878376
20
35.983588361826001
30
-3.0531133177191805e-15
11
-37.968561452650349
21
35.983588361825994
31
1.2915738351506587e-15
0
LINE
5
457
100
AcDbEntity
8
0
100
AcDbLine
10
-37.968561452650349
20
35.983588361825994
30
1.2915738351506587e-15
11
-37.968561452650341
21
42.983588242616705
31
-1.1102230246251565e-15
0
LINE
5
458
100
AcDbEntity
8
0
100
AcDbLine
10
-37.968561452650341
20
42.983588242616705
30
-1.1102230246251565e-15
11
-34.993800920271191
21
42.983588242616698
31
-2.6542082043634922e-16
0
SPLINE
5
459
100
AcDbEntity
8
0
100
AcDbSpline
70
0
71
3
72
9
73
5
74
0
42
0.000000001
43
0.0000000001
44
0.0000000001
40
0
40
0
40
0
40
0
40
0.096928736499855853
40
0.16447817627005576
40
0.16447817627005576
40
0.16447817627005576
40
0.16447817627005576
10
-34.993800920271191
20
42.983588242616698
30
-8.8817841970012523e-15
10
-34.669047715292642
20
42.983170994389496
30
-8.8817841970012523e-15
10
-34.117974660783091
20
42.982462966719467
30
0
10
-33.584607576795079
20
42.847868733005726
30
-8.8817841970012523e-15
10
-33.365559381269726
20
42.792592310991331
30
0
0
SPLINE
5
460
100
AcDbEntity
8
0
100
AcDbSpline
70
0
71
3
72
9
73
5
74
0
42
0.000000001
43
0.0000000001
44
0.0000000001
40
0
40
0
40
0
40
0
40
0.052814481090311921
40
0.10704237290376556
40
0.10704237290376556
40
0.10704237290376556
40
0.10704237290376556
10
-33.365559381269726
20
42.792592310991331
30
0
10
-33.203158205176436
20
42.717145656511839
30
-8.8817841970012523e-15
10
-32.874009704755458
20
42.564233259070583
30
0
10
-32.658320598038586
20
42.272101244731395
30
-8.8817841970012523e-15
10
-32.549052041792187
20
42.12410655030255
30
-8.8817841970012523e-15
0
SPLINE
5
461
100
AcDbEntity
8
0
100
AcDbSpline
70
0
71
3
72
9
73
5
74
0
42
0.000000001
43
0.0000000001
44
0.0000000001
40
0
40
0
40
0
40
0
40
0.056541800807003155
40
0.11564949171850847
40
0.11564949171850847
40
0.11564949171850847
40
0.11564949171850847
10
-32.549052041792187
20
42.12410655030255
30
-8.8817841970012523e-15
10
-32.459933303494964
20
41.955380777516595
30
-8.8817841970012523e-15
10
-32.277651582015153
20
41.610272387192907
30
0
10
-32.255023891241173
20
41.220377839812876
30
0
10
-32.243459028028767
20
41.021105313386954
30
0
0
SPLINE
5
462
100
AcDbEntity
8
0
100
AcDbSpline
70
0
71
3
72
9
73
5
74
0
42
0.000000001
43
0.0000000001
44
0.0000000001
40
0
40
0
40
0
40
0
40
0.07290698777921889
40
0.14083416526923387
40
0.14083416526923387
40
0.14083416526923387
40
0.14083416526923387
10
-32.243459028028767
20
41.021105313386954
30
0
10
-32.259878106289904
20
40.773117453231464
30
-8.8817841970012523e-15
10
-32.291594780532428
20
40.294080198425846
30
0
10
-32.571581023043173
20
39.905148124852637
30
-8.8817841970012523e-15
10
-32.706624072813305
20
39.717558288660101
30
0
0
SPLINE
5
463
100
AcDbEntity
8
0
100
AcDbSpline
70
0
71
3
72
9
73
5
74
0
42
0.000000001
43
0.0000000001
44
0.0000000001
40
0
40
0
40
0
40
0
40
0.071230131837525038
40
0.15508516774678421
40
0.15508516774678421
40
0.15508516774678421
40
0.15508516774678421
10
-32.706624072813305
20
39.717558288660101
30
0
10
-32.890966776119306
20
39.561622548595118
30
-8.8817841970012523e-15
10
-33.292325278870877
20
39.222112852602137
30
-8.8817841970012523e-15
10
-33.810932387349403
20
39.125296223181948
30
-8.8817841970012523e-15
10
-34.091344875120434
20
39.072947168436102
30
0
0
SPLINE
5
464
100
AcDbEntity
8
0
100
AcDbSpline
70
0
71
3
72
9
73
5
74
0
42
0.000000001
43
0.0000000001
44
0.0000000001
40
0
40
0
40
0
40
0
40
0.050324359056680083
40
0.095869781801838388
40
0.095869781801838388
40
0.095869781801838388
40
0.095869781801838388
10
-34.091344875120434
20
39.072947168436102
30
0
10
-33.948065595494626
20
38.984552672073029
30
-8.8817841970012523e-15
10
-33.675113221496566
20
38.816157858156643
30
-8.8817841970012523e-15
10
-33.445835380948992
20
38.592085816051757
30
-8.8817841970012523e-15
10
-33.336911004804882
20
38.485634589281133
30
0
0
SPLINE
5
465
100
AcDbEntity
8
0
100
AcDbSpline
70
0
71
3
72
9
73
5
74
0
42
0.000000001
43
0.0000000001
44
0.0000000001
40
0
40
0
40
0
40
0
40
0.056674769032325364
40
0.13951284947130077
40
0.13951284947130077
40
0.13951284947130077
40
0.13951284947130077
10
-33.336911004804882
20
38.485634589281133
30
0
10
-33.216753092270089
20
38.339618399213961
30
-8.8817841970012523e-15
10
-32.920967629876912
20
37.980179179733518
30
-8.8817841970012523e-15
10
-32.675627262847271
20
37.584280372963534
30
-8.8817841970012523e-15
10
-32.529952329420368
20
37.349208855714849
30
-8.8817841970012523e-15
0
LINE
5
466
100
AcDbEntity
8
0
100
AcDbLine
10
-32.529952329420368
20
37.349208855714849
30
-8.8817841970012523e-15
11
-31.675246757292072
21
35.983588361825994
31
-1.2559397966072083e-14
0
LINE
5
467
100
AcDbEntity
8
0
100
AcDbLine
10
-31.675246757292072
20
35.983588361825994
30
-1.2559397966072083e-14
11
-33.365559381269733
21
35.983588361825994
31
1.1095654292845397e-15
0
LINE
5
468
100
AcDbEntity
8
0
100
AcDbLine
10
-33.365559381269733
20
35.983588361825994
30
1.1095654292845397e-15
11
-34.387388032697956
21
37.506780886735967
31
1.3877787807814457e-15
0
SPLINE
5
469
100
AcDbEntity
8
0
100
AcDbSpline
70
0
71
3
72
9
73
5
74
0
42
0.000000001
43
0.0000000001
44
0.0000000001
40
0
40
0
40
0
40
0
40
0.080760109652287332
40
0.12690163651805567
40
0.12690163651805567
40
0.12690163651805567
40
0.12690163651805567
10
-34.387388032697956
20
37.506780886735967
30
-8.8817841970012523e-15
10
-34.535618794395248
20
37.731792183767567
30
-8.8817841970012523e-15
10
-34.768539803575329
20
38.085361562899173
30
-8.8817841970012523e-15
10
-35.035283753584572
20
38.413919405020053
30
0
10
-35.132272046827588
20
38.533383274164258
30
-8.8817841970012523e-15
0
SPLINE
5
470
100
AcDbEntity
8
0
100
AcDbSpline
70
0
71
3
72
9
73
5
74
0
42
0.000000001
43
0.0000000001
44
0.0000000001
40
0
40
0
40
0
40
0
40
0.027411557273220286
40
0.051915828404667248
40
0.051915828404667248
40
0.051915828404667248
40
0.051915828404667248
10
-35.132272046827588
20
38.533383274164258
30
-8.8817841970012523e-15
10
-35.197778946392923
20
38.598401289531971
30
0
10
-35.321845044617774
20
38.721541470711671
30
-8.8817841970012523e-15
10
-35.481759320406013
20
38.791589452244068
30
-8.8817841970012523e-15
10
-35.557238858961377
20
38.824652099695257
30
0
0
SPLINE
5
471
100
AcDbEntity
8
0
100
AcDbSpline
70
0
71
3
72
9
73
5
74
0
42
0.000000001
43
0.0000000001
44
0.0000000001
40
0
40
0
40
0
40
0
40
0.029639420448708431
40
0.071826712858834602
40
0.071826712858834602
40
0.071826712858834602
40
0.071826712858834602
10
-35.557238858961377
20
38.824652099695257
30
0
10
-35.653519255255553
20
38.848152003912226
30
-8.8817841970012523e-15
10
-35.886840429349498
20
38.905100515281489
30
-8.8817841970012523e-15
10
-36.127403492122333
20
38.905557104412658
30
-8.8817841970012523e-15
10
-36.268697780393872
20
38.905825281229077
30
0
0
LINE
5
472
100
AcDbEntity
8
0
100
AcDbLine
10
-36.268697780393872
20
38.905825281229085
30
-1.0844866377861454e-30
11
-36.555192273878369
21
38.905825281229077
31
0
0
LWPOLYLINE
5
473
100
AcDbEntity
8
0
100
AcDbPolyline
90
8
70
1
43
0.0
10
-8.3546493470900423
20
35.983588361825973
10
-8.3546493470900387
20
41.799413824167281
10
-6.2823436677687505
20
41.799413824167281
10
-6.2823436677687505
20
42.98358824261669
10
-11.845097345136914
20
42.983588242616683
10
-11.845097345136914
20
41.799413824167281
10
-9.7680185258620114
20
41.799413824167289
10
-9.7680185258620149
20
35.98358836182598
0
LWPOLYLINE
5
474
100
AcDbEntity
8
0
100
AcDbPolyline
90
12
70
1
43
0.0
10
-12.542233270429888
20
35.983588361825987
10
-12.542233270429886
20
37.162987852182432
10
-16.452874940656937
20
37.162987852182432
10
-16.452874940656937
20
39.068172240343138
10
-12.938546937727251
20
39.068172240343131
10
-12.938546937727249
20
40.247571730699576
10
-16.452874940656937
20
40.247571730699576
10
-16.452874940656937
20
41.799413824167289
10
-12.675928872846878
20
41.799413824167289
10
-12.675928872846875
20
42.983588242616683
10
-17.866244119428906
20
42.983588242616698
10
-17.866244119428913
20
35.983588361825987
0
SPLINE
5
475
100
AcDbEntity
8
0
100
AcDbSpline
70
0
71
3
72
9
73
5
74
0
42
0.000000001
43
0.0000000001
44
0.0000000001
40
0
40
0
40
0
40
0
40
0.11833357674340036
40
0.21626850605003856
40
0.21626850605003856
40
0.21626850605003856
40
0.21626850605003856
10
-21.858057779096882
20
35.859441423502012
30
0
10
-22.260847887216766
20
35.873798590662737
30
-8.8817841970012523e-15
10
-22.9969941048175
20
35.900037999446056
30
0
10
-23.616431453746621
20
36.292779272397823
30
-8.8817841970012523e-15
10
-23.896937173628132
20
36.470628047075323
30
0
0
SPLINE
5
476
100
AcDbEntity
8
0
100
AcDbSpline
70
0
71
3
72
9
73
5
74
0
42
0.000000001
43
0.0000000001
44
0.0000000001
40
0
40
0
40
0
40
0
40
0.094543055650509897
40
0.20180471214529061
40
0.20180471214529061
40
0.20180471214529061
40
0.20180471214529061
10
-23.896937173628132
20
36.470628047075323
30
0
10
-24.111319746878962
20
36.710275368813527
30
-1.7763568394002505e-14
10
-24.568925154131492
20
37.221809065783788
30
-8.8817841970012523e-15
10
-24.685114662473513
20
37.900488040032691
30
-1.7763568394002505e-14
10
-24.746870797895703
20
38.261214161005071
30
0
0
LINE
5
477
100
AcDbEntity
8
0
100
AcDbLine
10
-24.746870797895699
20
38.261214161005071
30
6.0255567708461067e-30
11
-23.371701043867382
21
38.3949115515614
31
-6.6526645303710552e-15
0
SPLINE
5
478
100
AcDbEntity
8
0
100
AcDbSpline
70
0
71
3
72
9
73
5
74
0
42
0.000000001
43
0.0000000001
44
0.0000000001
40
0
40
0
40
0
40
0
40
0.062901227775143925
40
0.11506715868317331
40
0.11506715868317331
40
0.11506715868317331
40
0.11506715868317331
10
-23.371701043867382
20
38.3949115515614
30
-8.8817841970012523e-15
10
-23.326643547299582
20
38.185826423085643
30
-8.8817841970012523e-15
10
-23.244218477220372
20
37.803340539938539
30
-8.8817841970012523e-15
10
-22.986962777863841
20
37.510581384200485
30
-8.8817841970012523e-15
10
-22.870335382246296
20
37.377858424272581
30
-8.8817841970012523e-15
0
SPLINE
5
479
100
AcDbEntity
8
0
100
AcDbSpline
70
0
71
3
72
9
73
5
74
0
42
0.000000001
43
0.0000000001
44
0.0000000001
40
0
40
0
40
0
40
0
40
0.050959618589996238
40
0.10942155789413302
40
0.10942155789413302
40
0.10942155789413302
40
0.10942155789413302
10
-22.870335382246296
20
37.377858424272581
30
-8.8817841970012523e-15
10
-22.725545800309504
20
37.283275169690981
30
-8.8817841970012523e-15
10
-22.414650584436096
20
37.080184029031486
30
0
10
-22.042543570301973
20
37.062573881948488
30
-8.8817841970012523e-15
10
-21.84373359086446
20
37.05316510209088
30
-8.8817841970012523e-15
0
SPLINE
5
480
100
AcDbEntity
8
0
100
AcDbSpline
70
0
71
3
72
9
73
5
74
0
42
0.000000001
43
0.0000000001
44
0.0000000001
40
0
40
0
40
0
40
0
40
0.060232985837562571
40
0.10817283215712659
40
0.10817283215712659
40
0.10817283215712659
40
0.10817283215712659
10
-21.84373359086446
20
37.05316510209088
30
-8.8817841970012523e-15
10
-21.638848848567321
20
37.058632230737366
30
-8.8817841970012523e-15
10
-21.270894935410279
20
37.06845068455025
30
0
10
-20.956473954841091
20
37.25637543414846
30
0
10
-20.817129415296833
20
37.339659595575377
30
-1.7763568394002505e-14
0
SPLINE
5
481
100
AcDbEntity
8
0
100
AcDbSpline
70
0
71
3
72
9
73
5
74
0
42
0.000000001
43
0.0000000001
44
0.0000000001
40
0
40
0
40
0
40
0
40
0.04094613135671521
40
0.078266961961886483
40
0.078266961961886483
40
0.078266961961886483
40
0.078266961961886483
10
-20.817129415296833
20
37.339659595575377
30
-1.7763568394002505e-14
10
-20.715529107860622
20
37.437470157905139
30
-8.8817841970012523e-15
10
-20.521324011214254
20
37.624431301917575
30
-8.8817841970012523e-15
10
-20.485597356414289
20
37.890718287699649
30
-8.8817841970012523e-15
10
-20.468561452650349
20
38.017694616403624
30
-8.8817841970012523e-15
0
SPLINE
5
482
100
AcDbEntity
8
0
100
AcDbSpline
70
0
71
3
72
9
73
5
74
0
42
0.000000001
43
0.0000000001
44
0.0000000001
40
0
40
0
40
0
40
0
40
0.023216347157254291
40
0.04530803578139303
40
0.04530803578139303
40
0.04530803578139303
40
0.04530803578139303
10
-20.468561452650349
20
38.017694616403624
30
-8.8817841970012523e-15
10
-20.474092978627823
20
38.096524978755667
30
-8.8817841970012523e-15
10
-20.4848880694841
20
38.250366961472146
30
-8.8817841970012523e-15
10
-20.573417616256108
20
38.37642259524084
30
-8.8817841970012523e-15
10
-20.616583627485554
20
38.437885904398009
30
-8.8817841970012523e-15
0
SPLINE
5
483
100
AcDbEntity
8
0
100
AcDbSpline
70
0
71
3
72
9
73
5
74
0
42
0.000000001
43
0.0000000001
44
0.0000000001
40
0
40
0
40
0
40
0
40
0.025768976472144142
40
0.059635329440978796
40
0.059635329440978796
40
0.059635329440978796
40
0.059635329440978796
10
-20.616583627485554
20
38.437885904398009
30
-8.8817841970012523e-15
10
-20.680030860299912
20
38.496941689163478
30
-8.8817841970012523e-15
10
-20.826862327785367
20
38.633610337361105
30
-8.8817841970012523e-15
10
-21.0155617624184
20
38.703684466963637
30
-8.8817841970012523e-15
10
-21.122722429060261
20
38.743478918161436
30
-8.8817841970012523e-15
0
SPLINE
5
484
100
AcDbEntity
8
0
100
AcDbSpline
70
0
71
3
72
9
73
5
74
0
42
0.000000001
43
0.0000000001
44
0.0000000001
40
0
40
0
40
0
40
0
40
0.042420160944582321
40
0.11723384125649844
40
0.11723384125649844
40
0.11723384125649844
40
0.11723384125649844
10
-21.122722429060261
20
38.743478918161436
30
-8.8817841970012523e-15
10
-21.258180200974088
20
38.784101016775736
30
-8.8817841970012523e-15
10
-21.632536039704906
20
38.896365670054095
30
-8.8817841970012523e-15
10
-22.012130385729918
20
38.989584324445673
30
0
10
-22.254371446394245
20
39.049072527971312
30
-8.8817841970012523e-15
0
SPLINE
5
485
100
AcDbEntity
8
0
100
AcDbSpline
70
0
71
3
72
9
73
5
74
0
42
0.000000001
43
0.0000000001
44
0.0000000001
40
0
40
0
40
0
40
0
40
0.10166097050093172
40
0.17497209608226144
40
0.17497209608226144
40
0.17497209608226144
40
0.17497209608226144
10
-22.254371446394245
20
39.049072527971312
30
-8.8817841970012523e-15
10
-22.585993845514647
20
39.1333097195253
30
-8.8817841970012523e-15
10
-23.156760246779669
20
39.278293166974777
30
-8.8817841970012523e-15
10
-23.644734119371371
20
39.604680226591505
30
-8.8817841970012523e-15
10
-23.849189084791462
20
39.741432333078436
30
0
0
SPLINE
5
486
100
AcDbEntity
8
0
100
AcDbSpline
70
0
71
3
72
9
73
5
74
0
42
0.000000001
43
0.0000000001
44
0.0000000001
40
0
40
0
40
0
40
0
40
0.08029022340143796
40
0.15872016742580308
40
0.15872016742580308
40
0.15872016742580308
40
0.15872016742580308
10
-23.849189084791462
20
39.741432333078436
30
0
10
-24.03719314752
20
39.942906190053719
30
-8.8817841970012523e-15
10
-24.408845324445842
20
40.341185867906326
30
-8.8817841970012523e-15
10
-24.465703251165802
20
40.882528742530511
30
0
10
-24.493799012922565
20
41.15002777585034
30
-8.8817841970012523e-15
0
SPLINE
5
487
100
AcDbEntity
8
0
100
AcDbSpline
70
0
71
3
72
9
73
5
74
0
42
0.000000001
43
0.0000000001
44
0.0000000001
40
0
40
0
40
0
40
0
40
0.052232485728771608
40
0.10536726403010252
40
0.10536726403010252
40
0.10536726403010252
40
0.10536726403010252
10
-24.493799012922565
20
41.15002777585034
30
-8.8817841970012523e-15
10
-24.480841086540217
20
41.325955639154671
30
-1.7763568394002505e-14
10
-24.454701391456556
20
41.680850440051131
30
-8.8817841970012523e-15
10
-24.280718103642091
20
41.991384540579446
30
0
10
-24.192981523298535
20
42.147981190767325
30
0
0
SPLINE
5
488
100
AcDbEntity
8
0
100
AcDbSpline
70
0
71
3
72
9
73
5
74
0
42
0.000000001
43
0.0000000001
44
0.0000000001
40
0
40
0
40
0
40
0
40
0.055446681379730405
40
0.11395648183995152
40
0.11395648183995152
40
0.11395648183995152
40
0.11395648183995152
10
-24.192981523298535
20
42.147981190767325
30
0
10
-24.077746671266368
20
42.29563089534112
30
0
10
-23.84091088603698
20
42.599087124988237
30
-8.8817841970012523e-15
10
-23.496175788213346
20
42.771115221785898
30
-8.8817841970012523e-15
10
-23.319175046705517
20
42.859441304292716
30
0
0
SPLINE
5
489
100
AcDbEntity
8
0
100
AcDbSpline
70
0
71
3
72
9
73
5
74
0
42
0.000000001
43
0.0000000001
44
0.0000000001
40
0
40
0
40
0
40
0
40
0.065736415271599999
40
0.14082987058665791
40
0.14082987058665791
40
0.14082987058665791
40
0.14082987058665791
10
-23.319175046705517
20
42.859441304292716
30
0
10
-23.110525998829235
20
42.930383976430576
30
0
10
-22.663528420865141
20
43.082367428752512
30
0
10
-22.1911251497161
20
43.09579890347333
30
0
10
-21.939229768537793
20
43.102960848894156
30
0
0
SPLINE
5
490
100
AcDbEntity
8
0
100
AcDbSpline
70
0
71
3
72
9
73
5
74
0
42
0.000000001
43
0.0000000001
44
0.0000000001
40
0
40
0
40
0
40
0
40
0.11633339181032477
40
0.20972030091210292
40
0.20972030091210292
40
0.20972030091210292
40
0.20972030091210292
10
-21.939229768537793
20
43.102960848894156
30
0
10
-21.543005574619457
20
43.091365062829176
30
-8.8817841970012523e-15
10
-20.82871145936927
20
43.070460731707925
30
0
10
-20.226020834150255
20
42.693192775080782
30
-8.8817841970012523e-15
10
-19.957647126936234
20
42.525198125925101
30
-8.8817841970012523e-15
0
SPLINE
5
491
100
AcDbEntity
8
0
100
AcDbSpline
70
0
71
3
72
9
73
5
74
0
42
0.000000001
43
0.0000000001
44
0.0000000001
40
0
40
0
40
0
40
0
40
0.084540102249203372
40
0.17342645636402804
40
0.17342645636402804
40
0.17342645636402804
40
0.17342645636402804
10
-19.957647126936234
20
42.525198125925101
30
-8.8817841970012523e-15
10
-19.761179269870375
20
42.312643848236348
30
-8.8817841970012523e-15
10
-19.358143038142995
20
41.876607763776519
30
0
10
-19.290438635342667
20
41.285742812891812
30
0
10
-19.255738061689652
20
40.98290648468975
30
0
0
LINE
5
492
100
AcDbEntity
8
0
100
AcDbLine
10
-19.255738061689652
20
40.98290648468975
30
-2.0391484578930274e-30
11
-20.669107240461628
21
40.920832419481314
31
-1.5525775109992423e-15
0
SPLINE
5
493
100
AcDbEntity
8
0
100
AcDbSpline
70
0
71
3
72
9
73
5
74
0
42
0.000000001
43
0.0000000001
44
0.0000000001
40
0
40
0
40
0
40
0
40
0.04848107482779597
40
0.088227581403947875
40
0.088227581403947875
40
0.088227581403947875
40
0.088227581403947875
10
-20.669107240461628
20
40.920832419481314
30
-8.8817841970012523e-15
10
-20.702238363903874
20
41.082967886021116
30
-1.7763568394002505e-14
10
-20.762531558741006
20
41.378027765023774
30
0
10
-20.968058103358015
20
41.596116895482936
30
0
10
-21.060647767805371
20
41.694366002168692
30
0
0
SPLINE
5
494
100
AcDbEntity
8
0
100
AcDbSpline
70
0
71
3
72
9
73
5
74
0
42
0.000000001
43
0.0000000001
44
0.0000000001
40
0
40
0
40
0
40
0
40
0.041217436441958695
40
0.093723528235465842
40
0.093723528235465842
40
0.093723528235465842
40
0.093723528235465842
10
-21.060647767805371
20
41.694366002168692
30
0
10
-21.181593476959183
20
41.763742420316525
30
-8.8817841970012523e-15
10
-21.456609576099606
20
41.921496110173237
30
-8.8817841970012523e-15
10
-21.775118101827907
20
41.928940625033292
30
-1.7763568394002505e-14
10
-21.953553956770214
20
41.933111214723624
30
0
0
SPLINE
5
495
100
AcDbEntity
8
0
100
AcDbSpline
70
0
71
3
72
9
73
5
74
0
42
0.000000001
43
0.0000000001
44
0.0000000001
40
0
40
0
40
0
40
0
40
0.055274884615601677
40
0.10094711923682562
40
0.10094711923682562
40
0.10094711923682562
40
0.10094711923682562
10
-21.953553956770214
20
41.933111214723624
30
0
10
-22.140823378913005
20
41.927211632005374
30
0
10
-22.482828772826103
20
41.916437373782145
30
-8.8817841970012523e-15
10
-22.782502366003637
20
41.753679113647586
30
-8.8817841970012523e-15
10
-22.91808585526875
20
41.68004121788983
30
-8.8817841970012523e-15
0
SPLINE
5
496
100
AcDbEntity
8
0
100
AcDbSpline
70
0
71
3
72
9
73
5
74
0
42
0.000000001
43
0.0000000001
44
0.0000000001
40
0
40
0
40
0
40
0
40
0.025368171851026709
40
0.050474424770209941
40
0.050474424770209941
40
0.050474424770209941
40
0.050474424770209941
10
-22.91808585526875
20
41.68004121788983
30
-8.8817841970012523e-15
10
-22.983540785768245
20
41.621587410892012
30
-8.8817841970012523e-15
10
-23.113774843813005
20
41.505283315304425
30
-8.8817841970012523e-15
10
-23.1329611316621
20
41.331811543019754
30
-8.8817841970012523e-15
10
-23.142504495405475
20
41.245525741663016
30
0
0
SPLINE
5
497
100
AcDbEntity
8
0
100
AcDbSpline
70
0
71
3
72
9
73
5
74
0
42
0.000000001
43
0.0000000001
44
0.0000000001
40
0
40
0
40
0
40
0
40
0.023629992802914519
40
0.048667764642341696
40
0.048667764642341696
40
0.048667764642341696
40
0.048667764642341696
10
-23.142504495405475
20
41.245525741663016
30
0
10
-23.13278039621472
20
41.164946271217161
30
-8.8817841970012523e-15
10
-23.112752875482023
20
40.998986732618405
30
0
10
-22.993672506208156
20
40.881171250462678
30
-8.8817841970012523e-15
10
-22.932410043501179
20
40.820559525575675
30
-8.8817841970012523e-15
0
SPLINE
5
498
100
AcDbEntity
8
0
100
AcDbSpline
70
0
71
3
72
9
73
5
74
0
42
0.000000001
43
0.0000000001
44
0.0000000001
40
0
40
0
40
0
40
0
40
0.051249639696841487
40
0.1386133544723307
40
0.1386133544723307
40
0.1386133544723307
40
0.1386133544723307
10
-22.932410043501179
20
40.820559525575675
30
-8.8817841970012523e-15
10
-22.781745115988254
20
40.738667977372074
30
-8.8817841970012523e-15
10
-22.37424623155837
20
40.517178377316732
30
-1.7763568394002505e-14
10
-21.919959589675933
20
40.416238707799259
30
0
10
-21.633636754774372
20
40.352619552698172
30
0
0
SPLINE
5
499
100
AcDbEntity
8
0
100
AcDbSpline
70
0
71
3
72
9
73
5
74
0
42
0.000000001
43
0.0000000001
44
0.0000000001
40
0
40
0
40
0
40
0
40
0.093023396774364248
40
0.16079104822626794
40
0.16079104822626794
40
0.16079104822626794
40
0.16079104822626794
10
-21.633636754774372
20
40.352619552698172
30
0
10
-21.331316458446707
20
40.28004116944885
30
-8.8817841970012523e-15
10
-20.808755478820153
20
40.154589350595884
30
-8.8817841970012523e-15
10
-20.317493925324442
20
39.937834946819294
30
-8.8817841970012523e-15
10
-20.110444825910847
20
39.846480751123472
30
-8.8817841970012523e-15
0
SPLINE
5
500
100
AcDbEntity
8
0
100
AcDbSpline
70
0
71
3
72
9
73
5
74
0
42
0.000000001
43
0.0000000001
44
0.0000000001
40
0
40
0
40
0
40
0
40
0.053776903462901614
40
0.10611147311894302
40
0.10611147311894302
40
0.10611147311894302
40
0.10611147311894302
10
-20.110444825910847
20
39.846480751123472
30
-8.8817841970012523e-15
10
-19.95471660089483
20
39.753428251404131
30
-1.7763568394002505e-14
10
-19.647436889744359
20
39.569818984473557
30
-8.8817841970012523e-15
10
-19.439476755737914
20
39.278634097248833
30
-8.8817841970012523e-15
10
-19.33691005113057
20
39.135020637598082
30
-8.8817841970012523e-15
0
SPLINE
5
501
100
AcDbEntity
8
0
100
AcDbSpline
70
0
71
3
72
9
73
5
74
0
42
0.000000001
43
0.0000000001
44
0.0000000001
40
0
40
0
40
0
40
0
40
0.054516777897499855
40
0.11592128657705386
40
0.11592128657705386
40
0.11592128657705386
40
0.11592128657705386
10
-19.33691005113057
20
39.135020637598082
30
-8.8817841970012523e-15
10
-19.254820312560966
20
38.970558993113677
30
-8.8817841970012523e-15
10
-19.080269495789398
20
38.620857375438213
30
-1.7763568394002505e-14
10
-19.063876032991175
20
38.22967972903642
30
0
10
-19.055192273878376
20
38.02246954449658
30
-1.7763568394002505e-14
0
SPLINE
5
502
100
AcDbEntity
8
0
100
AcDbSpline
70
0
71
3
72
9
73
5
74
0
42
0.000000001
43
0.0000000001
44
0.0000000001
40
0
40
0
40
0
40
0
40
0.058850025165734302
40
0.11877871536929244
40
0.11877871536929244
40
0.11877871536929244
40
0.11877871536929244
10
-19.055192273878376
20
38.02246954449658
30
-1.7763568394002505e-14
10
-19.069618356507725
20
37.824326896597199
30
-8.8817841970012523e-15
10
-19.098734938152326
20
37.4244098343516
30
-8.8817841970012523e-15
10
-19.291949209926134
20
37.072929688302885
30
-8.8817841970012523e-15
10
-19.389433664106644
20
36.895593667116209
30
-8.8817841970012523e-15
0
SPLINE
5
503
100
AcDbEntity
8
0
100
AcDbSpline
70
0
71
3
72
9
73
5
74
0
42
0.000000001
43
0.0000000001
44
0.0000000001
40
0
40
0
40
0
40
0
40
0.061067015400806945
40
0.12424409827072924
40
0.12424409827072924
40
0.12424409827072924
40
0.12424409827072924
10
-19.389433664106644
20
36.895593667116209
30
-8.8817841970012523e-15
10
-19.514066857263654
20
36.730956370230132
30
-8.8817841970012523e-15
10
-19.767639732845673
20
36.395993013021901
30
-8.8817841970012523e-15
10
-20.143660206201549
20
36.208068741600016
30
-8.8817841970012523e-15
10
-20.334863466047565
20
36.112510824289366
30
-8.8817841970012523e-15
0
SPLINE
5
504
100
AcDbEntity
8
0
100
AcDbSpline
70
0
71
3
72
9
73
5
74
0
42
0.000000001
43
0.0000000001
44
0.0000000001
40
0
40
0
40
0
40
0
40
0.071215142086300615
40
0.1551341287247569
40
0.1551341287247569
40
0.1551341287247569
40
0.1551341287247569
10
-20.334863466047565
20
36.112510824289366
30
-8.8817841970012523e-15
10
-20.561845355459187
20
36.038829915435159
30
0
10
-21.056299717531513
20
35.878324392818982
30
-8.8817841970012523e-15
10
-21.576602655813705
20
35.866070241735137
30
-8.8817841970012523e-15
10
-21.858057779096882
20
35.859441423502012
30
0
0
LWPOLYLINE
5
505
100
AcDbEntity
8
0
100
AcDbPolyline
90
12
70
1
43
0.0
10
-25.587253373884479
20
35.983588361825994
10
-25.587253373884479
20
37.162987852182439
10
-29.497892659925732
20
37.162987852182439
10
-29.497892659925739
20
39.068172240343145
10
-25.983567041181843
20
39.068172240343145
10
-25.983567041181843
20
40.247571730699576
10
-29.497892659925732
20
40.247571730699583
10
-29.497892659925732
20
41.799413824167296
10
-25.720948976301464
20
41.799413824167296
10
-25.720948976301464
20
42.983588242616698
10
-30.9112630307906
20
42.983588242616705
10
-30.911263030790607
20
35.983588361825994
0
LWPOLYLINE
5
506
100
AcDbEntity
8
0
100
AcDbPolyline
90
4
70
1
43
0.0
10
1.8390471615559889
20
62.065588504877113
10
-46.089952838444013
20
62.065588504877141
10
-46.08995283844402
20
49.217588504877142
10
1.8390471615559802
20
49.217588504877121
0
LWPOLYLINE
5
507
100
AcDbEntity
8
0
100
AcDbPolyline
90
4
70
1
43
0.0
10
-66.203952838444025
20
30.426588504877166
10
-66.20395283844401
20
64.698588504877165
10
5.796047161555987
20
64.698588504877122
10
5.7960471615559683
20
30.42658850487712
0
LWPOLYLINE
5
508
100
AcDbEntity
8
0
100
AcDbPolyline
90
10
70
1
43
0.0
10
-45.089952838444027
20
34.059588504877148
10
-45.089952838444027
20
44.907588504877147
10
0.83904716155597692
20
44.907588504877118
10
0.83904716155597159
20
34.383588504877117
10
1.8390471615559725
20
34.38358850487711
10
1.83904716155598
20
45.907588504877111
10
-46.089952838444013
20
45.907588504877154
10
-46.089952838444042
20
33.059588504877141
10
1.8390471615559709
20
33.059588504877119
10
1.83904716155598
20
34.059588504877119
0
LWPOLYLINE
5
509
100
AcDbEntity
8
0
100
AcDbPolyline
90
4
70
1
43
0.0
10
-56.296952838444028
20
33.544101995085256
42
14.046454717402204
10
-57.996952838444031
20
33.544101995085256
10
-57.996952838444017
20
33.283588504877159
10
-56.296952838444021
20
33.283588504877159
0
LWPOLYLINE
5
510
100
AcDbEntity
8
0
100
AcDbPolyline
90
4
70
1
43
0.0
10
-56.296952838444021
20
49.702101995085251
42
14.046454717402248
10
-57.99695283844401
20
49.702101995085251
10
-57.99695283844401
20
49.441588504877146
10
-56.296952838444014
20
49.441588504877146
0
LWPOLYLINE
5
511
100
AcDbEntity
8
0
100
AcDbPolyline
90
4
70
1
43
0.0
10
-45.08995283844402
20
50.217588504877149
10
-45.089952838444006
20
61.065588504877155
10
0.83904716155598646
20
61.065588504877113
10
0.83904716155598358
20
50.217588504877114
0
SPLINE
5
512
100
AcDbEntity
8
0
100
AcDbSpline
70
0
71
3
72
9
73
5
74
0
42
0.000000001
43
0.0000000001
44
0.0000000001
40
0
40
0
40
0
40
0
40
0.11833381316606578
40
0.21626868980014818
40
0.21626868980014818
40
0.21626868980014818
40
0.21626868980014818
10
-35.256420139991548
20
52.017441423502014
30
-8.8817841970012523e-15
10
-35.659211097497405
20
52.031798420584565
30
0
10
-36.395358022137536
20
52.058037488399869
30
-1.7763568394002505e-14
10
-37.01479579844176
20
52.450779282955232
30
0
10
-37.295301322662141
20
52.628628047075324
30
0
0
SPLINE
5
513
100
AcDbEntity
8
0
100
AcDbSpline
70
0
71
3
72
9
73
5
74
0
42
0.000000001
43
0.0000000001
44
0.0000000001
40
0
40
0
40
0
40
0
40
0.094543019827518948
40
0.20180464501232809
40
0.20180464501232809
40
0.20180464501232809
40
0.20180464501232809
10
-37.295301322662141
20
52.628628047075324
30
0
10
-37.509683733265703
20
52.868275375576196
30
-8.8817841970012523e-15
10
-37.967288814504542
20
53.379809110636728
30
-8.8817841970012523e-15
10
-38.083477472709298
20
54.058488045998423
30
-8.8817841970012523e-15
10
-38.145233158790376
20
54.419214161005073
30
-8.8817841970012523e-15
0
LINE
5
514
100
AcDbEntity
8
0
100
AcDbLine
10
-38.145233158790376
20
54.419214161005073
30
-8.8817841970012523e-15
11
-36.77006221266916
21
54.552911551561408
31
-7.8409501114151681e-15
0
SPLINE
5
515
100
AcDbEntity
8
0
100
AcDbSpline
70
0
71
3
72
9
73
5
74
0
42
0.000000001
43
0.0000000001
44
0.0000000001
40
0
40
0
40
0
40
0
40
0.062901192256484911
40
0.1150671231645143
40
0.1150671231645143
40
0.1150671231645143
40
0.1150671231645143
10
-36.77006221266916
20
54.552911551561408
30
-8.8817841970012523e-15
10
-36.725005198141389
20
54.343826399529831
30
-8.8817841970012523e-15
10
-36.642580988772636
20
53.961340375376487
30
0
10
-36.385325210524478
20
53.668581361056781
30
-1.7763568394002505e-14
10
-36.268697743140962
20
53.53585842427259
30
0
0
SPLINE
5
516
100
AcDbEntity
8
0
100
AcDbSpline
70
0
71
3
72
9
73
5
74
0
42
0.000000001
43
0.0000000001
44
0.0000000001
40
0
40
0
40
0
40
0
40
0.050959723307186948
40
0.10942166261132373
40
0.10942166261132373
40
0.10942166261132373
40
0.10942166261132373
10
-36.268697743140962
20
53.53585842427259
30
0
10
-36.123907756662547
20
53.441275166254059
30
-8.8817841970012523e-15
10
-35.813012013480503
20
53.238184241187689
30
-8.8817841970012523e-15
10
-35.440904705720293
20
53.220573949958727
30
0
10
-35.24209475966623
20
53.211165102090881
30
-8.8817841970012523e-15
0
SPLINE
5
517
100
AcDbEntity
8
0
100
AcDbSpline
70
0
71
3
72
9
73
5
74
0
42
0.000000001
43
0.0000000001
44
0.0000000001
40
0
40
0
40
0
40
0
40
0.060232867474066906
40
0.10817260722910166
40
0.10817260722910166
40
0.10817260722910166
40
0.10817260722910166
10
-35.24209475966623
20
53.211165102090881
30
-8.8817841970012523e-15
10
-35.037210398613837
20
53.216632222175789
30
-8.8817841970012523e-15
10
-34.669257212173747
20
53.22645065949115
30
0
10
-34.354837102060088
20
53.414375434736783
30
0
10
-34.215492968284394
20
53.497659595575378
30
0
0
SPLINE
5
518
100
AcDbEntity
8
0
100
AcDbSpline
70
0
71
3
72
9
73
5
74
0
42
0.000000001
43
0.0000000001
44
0.0000000001
40
0
40
0
40
0
40
0
40
0.04094613135671521
40
0.078266961961886483
40
0.078266961961886483
40
0.078266961961886483
40
0.078266961961886483
10
-34.215492968284394
20
53.497659595575378
30
0
10
-34.113892660848187
20
53.595470157905147
30
-8.8817841970012523e-15
10
-33.919687564201809
20
53.782431301917569
30
-8.8817841970012523e-15
10
-33.88396090940185
20
54.048718287699643
30
-8.8817841970012523e-15
10
-33.86692500563791
20
54.175694616403625
30
0
0
SPLINE
5
519
100
AcDbEntity
8
0
100
AcDbSpline
70
0
71
3
72
9
73
5
74
0
42
0.000000001
43
0.0000000001
44
0.0000000001
40
0
40
0
40
0
40
0
40
0.023216347157254291
40
0.04530803578139303
40
0.04530803578139303
40
0.04530803578139303
40
0.04530803578139303
10
-33.86692500563791
20
54.175694616403625
30
0
10
-33.872456531615384
20
54.254524978755668
30
-8.8817841970012523e-15
10
-33.883251622471661
20
54.408366961472154
30
-8.8817841970012523e-15
10
-33.971781169243677
20
54.534422595240827
30
-8.8817841970012523e-15
10
-34.014947180473115
20
54.595885904398017
30
0
0
SPLINE
5
520
100
AcDbEntity
8
0
100
AcDbSpline
70
0
71
3
72
9
73
5
74
0
42
0.000000001
43
0.0000000001
44
0.0000000001
40
0
40
0
40
0
40
0
40
0.025768884802261312
40
0.059635346179697568
40
0.059635346179697568
40
0.059635346179697568
40
0.059635346179697568
10
-34.014947180473115
20
54.595885904398017
30
0
10
-34.078393988808784
20
54.654941725423299
30
0
10
-34.225225037499044
20
54.791610982078893
30
-8.8817841970012523e-15
10
-34.413924810371753
20
54.861684626359292
30
0
10
-34.521085982047822
20
54.901478918161445
30
0
0
SPLINE
5
521
100
AcDbEntity
8
0
100
AcDbSpline
70
0
71
3
72
9
73
5
74
0
42
0.000000001
43
0.0000000001
44
0.0000000001
40
0
40
0
40
0
40
0
40
0.042420160944582321
40
0.11723395671378145
40
0.11723395671378145
40
0.11723395671378145
40
0.11723395671378145
10
-34.521085982047822
20
54.901478918161445
30
0
10
-34.656543751661218
20
54.942101025784268
30
0
10
-35.030899952717341
20
55.054365814522264
30
-8.8817841970012523e-15
10
-35.410494724095884
20
55.147584360446025
30
0
10
-35.652736191474702
20
55.20707252797132
30
0
0
SPLINE
5
522
100
AcDbEntity
8
0
100
AcDbSpline
70
0
71
3
72
9
73
5
74
0
42
0.000000001
43
0.0000000001
44
0.0000000001
40
0
40
0
40
0
40
0
40
0.10166085711852317
40
0.1749719826998529
40
0.1749719826998529
40
0.1749719826998529
40
0.1749719826998529
10
-35.652736191474702
20
55.20707252797132
30
0
10
-35.984358167477808
20
55.291309785736615
30
-8.8817841970012523e-15
10
-36.555124107218589
20
55.436293414894962
30
0
10
-37.043097669773218
20
55.762680237345457
30
0
10
-37.247552637779023
20
55.899432333078437
30
0
0
SPLINE
5
523
100
AcDbEntity
8
0
100
AcDbSpline
70
0
71
3
72
9
73
5
74
0
42
0.000000001
43
0.0000000001
44
0.0000000001
40
0
40
0
40
0
40
0
40
0.08029022340143796
40
0.15872019192010833
40
0.15872019192010833
40
0.15872019192010833
40
0.15872019192010833
10
-37.247552637779023
20
55.899432333078437
30
0
10
-37.435556597818405
20
56.100906212626825
30
-8.8817841970012523e-15
10
-37.807208629099925
20
56.499185996566709
30
0
10
-37.864067516899745
20
57.040528756796647
30
0
10
-37.892163758003015
20
57.308027775850348
30
0
0
SPLINE
5
524
100
AcDbEntity
8
0
100
AcDbSpline
70
0
71
3
72
9
73
5
74
0
42
0.000000001
43
0.0000000001
44
0.0000000001
40
0
40
0
40
0
40
0
40
0.052232494310686169
40
0.10536729792049621
40
0.10536729792049621
40
0.10536729792049621
40
0.10536729792049621
10
-37.892163758003015
20
57.308027775850348
30
0
10
-37.879205624479823
20
57.483955650773304
30
-8.8817841970012523e-15
10
-37.853065507423374
20
57.838850530946289
30
0
10
-37.679081854378566
20
58.149384554949449
30
0
10
-37.591345076286103
20
58.305981190767341
30
0
0
SPLINE
5
525
100
AcDbEntity
8
0
100
AcDbSpline
70
0
71
3
72
9
73
5
74
0
42
0.000000001
43
0.0000000001
44
0.0000000001
40
0
40
0
40
0
40
0
40
0.055446681379730405
40
0.11395648183995152
40
0.11395648183995152
40
0.11395648183995152
40
0.11395648183995152
10
-37.591345076286103
20
58.305981190767341
30
0
10
-37.476110224253944
20
58.453630895341121
30
0
10
-37.239274439024548
20
58.757087124988246
30
0
10
-36.894539341200918
20
58.929115221785899
30
0
10
-36.717538599693086
20
59.017441304292724
30
-8.8817841970012523e-15
0
SPLINE
5
526
100
AcDbEntity
8
0
100
AcDbSpline
70
0
71
3
72
9
73
5
74
0
42
0.000000001
43
0.0000000001
44
0.0000000001
40
0
40
0
40
0
40
0
40
0.065736186240001701
40
0.14082987918883086
40
0.14082987918883086
40
0.14082987918883086
40
0.14082987918883086
10
-36.717538599693086
20
59.017441304292724
30
-8.8817841970012523e-15
10
-36.508890348960421
20
59.088383968321935
30
-8.8817841970012523e-15
10
-36.06189289406759
20
59.240367942081676
30
-8.8817841970012523e-15
10
-35.589489532601284
20
59.253799067501838
30
0
10
-35.337593321525361
20
59.260960848894165
30
0
0
SPLINE
5
527
100
AcDbEntity
8
0
100
AcDbSpline
70
0
71
3
72
9
73
5
74
0
42
0.000000001
43
0.0000000001
44
0.0000000001
40
0
40
0
40
0
40
0
40
0.11633339181032477
40
0.20972030091210292
40
0.20972030091210292
40
0.20972030091210292
40
0.20972030091210292
10
-35.337593321525361
20
59.260960848894165
30
0
10
-34.941369127607025
20
59.249365062829177
30
0
10
-34.227075012356835
20
59.228460731707941
30
0
10
-33.624384387137823
20
58.85119277508079
30
0
10
-33.356010679923799
20
58.683198125925109
30
-8.8817841970012523e-15
0
SPLINE
5
528
100
AcDbEntity
8
0
100
AcDbSpline
70
0
71
3
72
9
73
5
74
0
42
0.000000001
43
0.0000000001
44
0.0000000001
40
0
40
0
40
0
40
0
40
0.084540102249203372
40
0.17342648213942172
40
0.17342648213942172
40
0.17342648213942172
40
0.17342648213942172
10
-33.356010679923799
20
58.683198125925109
30
-8.8817841970012523e-15
10
-33.159542914614825
20
58.470643826967567
30
-8.8817841970012523e-15
10
-32.756506811217513
20
58.034607634071151
30
0
10
-32.688801478006468
20
57.443742797242592
30
-8.8817841970012523e-15
10
-32.654100422584321
20
57.140906484689751
30
-8.8817841970012523e-15
0
LINE
5
529
100
AcDbEntity
8
0
100
AcDbLine
10
-32.654100422584321
20
57.140906484689744
30
-8.8817841970012492e-15
11
-34.067470793449189
21
57.078832419481316
31
-5.2041704279304213e-16
0
SPLINE
5
530
100
AcDbEntity
8
0
100
AcDbSpline
70
0
71
3
72
9
73
5
74
0
42
0.000000001
43
0.0000000001
44
0.0000000001
40
0
40
0
40
0
40
0
40
0.04848107482779597
40
0.088227655873335281
40
0.088227655873335281
40
0.088227655873335281
40
0.088227655873335281
10
-34.067470793449189
20
57.078832419481323
30
0
10
-34.100601848029733
20
57.240967944441991
30
0
10
-34.16089496844085
20
57.53602817880936
30
0
10
-34.366422367973378
20
57.754116954261569
30
-8.8817841970012523e-15
10
-34.459012512885835
20
57.852366002168694
30
-8.8817841970012523e-15
0
SPLINE
5
531
100
AcDbEntity
8
0
100
AcDbSpline
70
0
71
3
72
9
73
5
74
0
42
0.000000001
43
0.0000000001
44
0.0000000001
40
0
40
0
40
0
40
0
40
0.041217329069237786
40
0.093723420862744933
40
0.093723420862744933
40
0.093723420862744933
40
0.093723420862744933
10
-34.459012512885835
20
57.852366002168694
30
-8.8817841970012523e-15
10
-34.579957819581445
20
57.921742415120988
30
-8.8817841970012523e-15
10
-34.854973404937901
20
58.079496323389819
30
0
10
-35.173481622843134
20
58.08694069852983
30
0
10
-35.351917509757783
20
58.091111214723632
30
-8.8817841970012523e-15
0
SPLINE
5
532
100
AcDbEntity
8
0
100
AcDbSpline
70
0
71
3
72
9
73
5
74
0
42
0.000000001
43
0.0000000001
44
0.0000000001
40
0
40
0
40
0
40
0
40
0.055274647763936091
40
0.10094688238516003
40
0.10094688238516003
40
0.10094688238516003
40
0.10094688238516003
10
-35.351917509757783
20
58.091111214723632
30
-8.8817841970012523e-15
10
-35.53918610799095
20
58.085211512730325
30
0
10
-35.881190660258959
20
58.074437015789698
30
-8.8817841970012523e-15
10
-36.180863539636384
20
57.911679121088255
30
0
10
-36.316447024070527
20
57.838041217889838
30
0
0
SPLINE
5
533
100
AcDbEntity
8
0
100
AcDbSpline
70
0
71
3
72
9
73
5
74
0
42
0.000000001
43
0.0000000001
44
0.0000000001
40
0
40
0
40
0
40
0
40
0.025368290491718102
40
0.050474543410901337
40
0.050474543410901337
40
0.050474543410901337
40
0.050474543410901337
10
-36.316447024070527
20
57.838041217889838
30
0
10
-36.381902699944163
20
57.779587518956745
30
0
10
-36.512137938083399
20
57.663283908932655
30
0
10
-36.531324149201339
20
57.489811604765251
30
-8.8817841970012523e-15
10
-36.540867452346582
20
57.403525741663024
30
0
0
SPLINE
5
534
100
AcDbEntity
8
0
100
AcDbSpline
70
0
71
3
72
9
73
5
74
0
42
0.000000001
43
0.0000000001
44
0.0000000001
40
0
40
0
40
0
40
0
40
0.023630006051620116
40
0.048667777891047301
40
0.048667777891047301
40
0.048667777891047301
40
0.048667777891047301
10
-36.540867452346582
20
57.403525741663024
30
0
10
-36.531143115232332
20
57.322946278457756
30
0
10
-36.511115110255105
20
57.156986802641839
30
0
10
-36.392034813247292
20
57.039171263354582
30
-8.8817841970012523e-15
10
-36.330772404395844
20
56.97855952557569
30
0
0
SPLINE
5
535
100
AcDbEntity
8
0
100
AcDbSpline
70
0
71
3
72
9
73
5
74
0
42
0.000000001
43
0.0000000001
44
0.0000000001
40
0
40
0
40
0
40
0
40
0.051249639696841487
40
0.13861323980069065
40
0.13861323980069065
40
0.13861323980069065
40
0.13861323980069065
10
-36.330772404395844
20
56.97855952557569
30
0
10
-36.180107475428478
20
56.896667984155783
30
-8.8817841970012523e-15
10
-35.772608924179259
20
56.675178585681323
30
-1.7763568394002505e-14
10
-35.3183227248091
20
56.574238769415651
30
0
10
-35.032000307761933
20
56.510619552698181
30
0
0
SPLINE
5
536
100
AcDbEntity
8
0
100
AcDbSpline
70
0
71
3
72
9
73
5
74
0
42
0.000000001
43
0.0000000001
44
0.0000000001
40
0
40
0
40
0
40
0
40
0.093023626543080745
40
0.16079116775168467
40
0.16079116775168467
40
0.16079116775168467
40
0.16079116775168467
10
-35.032000307761933
20
56.510619552698181
30
0
10
-34.729679162830664
20
56.438041326851696
30
0
10
-34.207117618672704
20
56.312589996680245
30
0
10
-33.715855875447609
20
56.095834986059444
30
0
10
-33.508807186805512
20
56.004480751123481
30
0
0
SPLINE
5
537
100
AcDbEntity
8
0
100
AcDbSpline
70
0
71
3
72
9
73
5
74
0
42
0.000000001
43
0.0000000001
44
0.0000000001
40
0
40
0
40
0
40
0
40
0.05377719718670014
40
0.10611146447605646
40
0.10611146447605646
40
0.10611146447605646
40
0.10611146447605646
10
-33.508807186805512
20
56.004480751123481
30
0
10
-33.353077330350629
20
55.911428697227983
30
0
10
-33.045796103445035
20
55.727821327787041
30
-8.8817841970012523e-15
10
-32.837838484207126
20
55.436634323397051
30
0
10
-32.735273604118134
20
55.293020637598083
30
0
0
SPLINE
5
538
100
AcDbEntity
8
0
100
AcDbSpline
70
0
71
3
72
9
73
5
74
0
42
0.000000001
43
0.0000000001
44
0.0000000001
40
0
40
0
40
0
40
0
40
0.054516731696048294
40
0.11592125404860981
40
0.11592125404860981
40
0.11592125404860981
40
0.11592125404860981
10
-32.735273604118134
20
55.293020637598083
30
0
10
-32.653184440673442
20
55.128558945953557
30
-8.8817841970012523e-15
10
-32.478634747867844
20
54.778857029766009
30
0
10
-32.462240177198382
20
54.387679677509588
30
0
10
-32.453555826865937
20
54.180469544496589
30
0
0
SPLINE
5
539
100
AcDbEntity
8
0
100
AcDbSpline
70
0
71
3
72
9
73
5
74
0
42
0.000000001
43
0.0000000001
44
0.0000000001
40
0
40
0
40
0
40
0
40
0.058850025165734302
40
0.11877871536929244
40
0.11877871536929244
40
0.11877871536929244
40
0.11877871536929244
10
-32.453555826865937
20
54.180469544496589
30
0
10
-32.467981909495286
20
53.982326896597201
30
0
10
-32.497098491139894
20
53.582409834351594
30
-1.7763568394002505e-14
10
-32.690312762913699
20
53.230929688302886
30
0
10
-32.787797217094209
20
53.05359366711621
30
0
0
SPLINE
5
540
100
AcDbEntity
8
0
100
AcDbSpline
70
0
71
3
72
9
73
5
74
0
42
0.000000001
43
0.0000000001
44
0.0000000001
40
0
40
0
40
0
40
0
40
0.061067015400806945
40
0.12424420053155474
40
0.12424420053155474
40
0.12424420053155474
40
0.12424420053155474
10
-32.787797217094209
20
53.05359366711621
30
0
10
-32.912430393434633
20
52.88895633836087
30
0
10
-33.166003443509055
20
52.553992640616649
30
0
10
-33.542024501754227
20
52.366068666464216
30
-8.8817841970012523e-15
10
-33.733228211128022
20
52.270510824289367
30
0
0
SPLINE
5
541
100
AcDbEntity
8
0
100
AcDbSpline
70
0
71
3
72
9
73
5
74
0
42
0.000000001
43
0.0000000001
44
0.0000000001
40
0
40
0
40
0
40
0
40
0.071215027188838223
40
0.1551338949572755
40
0.1551338949572755
40
0.1551338949572755
40
0.1551338949572755
10
-33.733228211128022
20
52.270510824289367
30
0
10
-33.960209700259547
20
52.19682991573552
30
-8.8817841970012523e-15
10
-34.45466324303225
20
52.036324376677882
30
0
10
-34.974965409030922
20
52.024070236457682
30
0
10
-35.256420139991548
20
52.017441423502014
30
-8.8817841970012523e-15
0
LWPOLYLINE
5
542
100
AcDbEntity
8
0
100
AcDbPolyline
90
8
70
1
43
0.0
10
-8.1779763743512905
20
52.141588361825967
10
-8.1779763743512852
20
57.957413824167276
10
-6.1056706950299979
20
57.957413824167283
10
-6.1056706950299988
20
59.141588242616685
10
-11.668424372398164
20
59.141588242616685
10
-11.66842437239816
20
57.957413824167283
10
-9.5913455531232579
20
57.95741382416729
10
-9.5913455531232632
20
52.141588361825974
0
LINE
5
543
100
AcDbEntity
8
0
100
AcDbLine
10
-16.810991530143525
20
55.063825281229057
30
-8.8817841970012523e-15
11
-16.810991530143525
21
52.141588361825981
31
-1.1934897514720433e-14
0
LINE
5
544
100
AcDbEntity
8
0
100
AcDbLine
10
-16.810991530143525
20
52.141588361825981
30
-1.1934897514720433e-14
11
-18.224360708915501
21
52.141588361825988
31
-2.1188056655666414e-15
0
LINE
5
545
100
AcDbEntity
8
0
100
AcDbLine
10
-18.224360708915501
20
52.141588361825988
30
-2.1188056655666414e-15
11
-18.224360708915498
21
59.141588242616692
31
-1.1102230246251565e-15
0
LINE
5
546
100
AcDbEntity
8
0
100
AcDbLine
10
-18.224360708915498
20
59.141588242616692
30
-1.1102230246251565e-15
11
-15.249600176536347
21
59.141588242616692
31
-2.6542082043634922e-16
0
SPLINE
5
547
100
AcDbEntity
8
0
100
AcDbSpline
70
0
71
3
72
9
73
5
74
0
42
0.000000001
43
0.0000000001
44
0.0000000001
40
0
40
0
40
0
40
0
40
0.09692897462897368
40
0.16447818140319692
40
0.16447818140319692
40
0.16447818140319692
40
0.16447818140319692
10
-15.249600176536347
20
59.141588242616692
30
-8.8817841970012523e-15
10
-14.924846151142646
20
59.14117115121865
30
0
10
-14.373773041119712
20
59.14046339138843
30
0
10
-13.84040603761505
20
59.005868720258938
30
0
10
-13.621358637534883
20
58.950592310991325
30
0
0
SPLINE
5
548
100
AcDbEntity
8
0
100
AcDbSpline
70
0
71
3
72
9
73
5
74
0
42
0.000000001
43
0.0000000001
44
0.0000000001
40
0
40
0
40
0
40
0
40
0.052814688558313574
40
0.10704242344647237
40
0.10704242344647237
40
0.10704242344647237
40
0.10704242344647237
10
-13.621358637534883
20
58.950592310991325
30
0
10
-13.458956442899531
20
58.875145918617413
30
0
10
-13.129807015698042
20
58.722234580873177
30
0
10
-12.914118956057939
20
58.430101358549123
30
-8.8817841970012523e-15
10
-12.80485129805734
20
58.282106550302544
30
-8.8817841970012523e-15
0
SPLINE
5
549
100
AcDbEntity
8
0
100
AcDbSpline
70
0
71
3
72
9
73
5
74
0
42
0.000000001
43
0.0000000001
44
0.0000000001
40
0
40
0
40
0
40
0
40
0.056541800807003155
40
0.11564949171850847
40
0.11564949171850847
40
0.11564949171850847
40
0.11564949171850847
10
-12.80485129805734
20
58.282106550302544
30
-8.8817841970012523e-15
10
-12.71573255976012
20
58.113380777516582
30
0
10
-12.533450838280316
20
57.768272387192887
30
-8.8817841970012523e-15
10
-12.510823147506329
20
57.378377839812856
30
-1.7763568394002505e-14
10
-12.499258284293916
20
57.179105313386955
30
-8.8817841970012523e-15
0
SPLINE
5
550
100
AcDbEntity
8
0
100
AcDbSpline
70
0
71
3
72
9
73
5
74
0
42
0.000000001
43
0.0000000001
44
0.0000000001
40
0
40
0
40
0
40
0
40
0.072906968846383147
40
0.14083426826182738
40
0.14083426826182738
40
0.14083426826182738
40
0.14083426826182738
10
-12.499258284293916
20
57.179105313386955
30
-8.8817841970012523e-15
10
-12.515676729622317
20
56.931117350142316
30
0
10
-12.547392212660643
20
56.452079421478913
30
-8.8817841970012523e-15
10
-12.827380393073639
20
56.063148006652895
30
0
10
-12.962424521171359
20
55.875558288660088
30
0
0
SPLINE
5
551
100
AcDbEntity
8
0
100
AcDbSpline
70
0
71
3
72
9
73
5
74
0
42
0.000000001
43
0.0000000001
44
0.0000000001
40
0
40
0
40
0
40
0
40
0.071230131837525038
40
0.15508493831045084
40
0.15508493831045084
40
0.15508493831045084
40
0.15508493831045084
10
-12.962424521171359
20
55.875558288660088
30
0
10
-13.1467672237413
20
55.719622563912452
30
-8.8817841970012523e-15
10
-13.548125131111906
20
55.380113403546943
30
-8.8817841970012523e-15
10
-14.066731307757035
20
55.283296373834538
30
0
10
-14.347142939292697
20
55.230947168436089
30
0
0
SPLINE
5
552
100
AcDbEntity
8
0
100
AcDbSpline
70
0
71
3
72
9
73
5
74
0
42
0.000000001
43
0.0000000001
44
0.0000000001
40
0
40
0
40
0
40
0
40
0.050324458026810071
40
0.095869704554920429
40
0.095869704554920429
40
0.095869704554920429
40
0.095869704554920429
10
-14.347142939292697
20
55.230947168436089
30
0
10
-14.203863106314365
20
55.14255285931641
30
-8.8817841970012523e-15
10
-13.930910434891787
20
54.974158868960373
30
-8.8817841970012523e-15
10
-13.701633753067128
20
54.750085920531653
30
0
10
-13.592710261070039
20
54.64363458928112
30
0
0
SPLINE
5
553
100
AcDbEntity
8
0
100
AcDbSpline
70
0
71
3
72
9
73
5
74
0
42
0.000000001
43
0.0000000001
44
0.0000000001
40
0
40
0
40
0
40
0
40
0.056674769032325364
40
0.13951284947130077
40
0.13951284947130077
40
0.13951284947130077
40
0.13951284947130077
10
-13.592710261070039
20
54.64363458928112
30
0
10
-13.472552348535242
20
54.497618399213948
30
-8.8817841970012523e-15
10
-13.176766886142069
20
54.138179179733505
30
-8.8817841970012523e-15
10
-12.931426519112417
20
53.742280372963521
30
0
10
-12.785751585685519
20
53.507208855714836
30
0
0
LINE
5
554
100
AcDbEntity
8
0
100
AcDbLine
10
-12.785751585685517
20
53.507208855714836
30
2.127257100793155e-30
11
-11.931044821464329
21
52.141588361825981
31
-1.457167719820518e-15
0
LINE
5
555
100
AcDbEntity
8
0
100
AcDbLine
10
-11.931044821464329
20
52.141588361825981
30
-1.457167719820518e-15
11
-13.621358637534886
21
52.141588361825974
31
-9.9926656004155245e-15
0
LINE
5
556
100
AcDbEntity
8
0
100
AcDbLine
10
-13.621358637534886
20
52.141588361825974
30
-9.9926656004155245e-15
11
-14.643187288963107
21
53.664780886735954
31
-7.4940054162198066e-15
0
SPLINE
5
557
100
AcDbEntity
8
0
100
AcDbSpline
70
0
71
3
72
9
73
5
74
0
42
0.000000001
43
0.0000000001
44
0.0000000001
40
0
40
0
40
0
40
0
40
0.080760109652287332
40
0.12690163651805567
40
0.12690163651805567
40
0.12690163651805567
40
0.12690163651805567
10
-14.643187288963107
20
53.664780886735954
30
0
10
-14.791418050660406
20
53.889792183767547
30
0
10
-15.024339059840493
20
54.243361562899167
30
-8.8817841970012523e-15
10
-15.29108300984972
20
54.571919405020033
30
-8.8817841970012523e-15
10
-15.388071303092744
20
54.691383274164238
30
-8.8817841970012523e-15
0
SPLINE
5
558
100
AcDbEntity
8
0
100
AcDbSpline
70
0
71
3
72
9
73
5
74
0
42
0.000000001
43
0.0000000001
44
0.0000000001
40
0
40
0
40
0
40
0
40
0.027411647083838715
40
0.051915811941899086
40
0.051915811941899086
40
0.051915811941899086
40
0.051915811941899086
10
-15.388071303092744
20
54.691383274164238
30
-8.8817841970012523e-15
10
-15.453578646585321
20
54.756401224058635
30
0
10
-15.577645139750512
20
54.879540838735593
30
-8.8817841970012523e-15
10
-15.737559051779645
20
54.949589339889755
30
-8.8817841970012523e-15
10
-15.813038115226533
20
54.982652099695244
30
-8.8817841970012523e-15
0
SPLINE
5
559
100
AcDbEntity
8
0
100
AcDbSpline
70
0
71
3
72
9
73
5
74
0
42
0.000000001
43
0.0000000001
44
0.0000000001
40
0
40
0
40
0
40
0
40
0.029639187113842391
40
0.071826598595264371
40
0.071826598595264371
40
0.071826598595264371
40
0.071826598595264371
10
-15.813038115226533
20
54.982652099695244
30
-8.8817841970012523e-15
10
-15.909317715558849
20
55.006151994256783
30
0
10
-16.142638426394125
20
55.063100839959596
30
0
10
-16.383201138618851
20
55.063557223804281
30
-8.8817841970012523e-15
10
-16.524495844566133
20
55.063825281229057
30
-8.8817841970012523e-15
0
LINE
5
560
100
AcDbEntity
8
0
100
AcDbLine
10
-16.524495844566133
20
55.063825281229057
30
-8.8817841970012523e-15
11
-16.810991530143525
21
55.063825281229057
31
-8.8817841970012523e-15
0
LWPOLYLINE
5
561
100
AcDbEntity
8
0
100
AcDbPolyline
90
8
70
1
43
0.0
10
-21.78165889235666
20
59.141588242616692
10
-23.276202444755342
20
59.141588242616692
10
-26.002669100486546
20
52.141588361825988
10
-24.503350023948457
20
52.141588361825981
10
-23.925587897025849
20
53.731629283990898
10
-21.127497915946751
20
53.731629283990905
10
-20.516311888419896
20
52.141588361825981
10
-18.978795771323949
20
52.141588361825981
0
LWPOLYLINE
5
562
100
AcDbEntity
8
0
100
AcDbPolyline
90
8
70
1
43
0.0
10
-28.275519375526216
20
52.141588361825981
10
-28.275519375526216
20
57.95741382416729
10
-26.203214888297822
20
57.95741382416729
10
-26.203214888297822
20
59.141588242616692
10
-31.765969757758882
20
59.141588242616692
10
-31.765969757758882
20
57.957413824167297
10
-29.688889746391087
20
57.957413824167297
10
-29.688889746391087
20
52.141588361825981
0
LWPOLYLINE
5
563
100
AcDbEntity
8
0
100
AcDbPolyline
90
3
70
1
43
0.0
10
-25.268357010566461
20
98.602664053049139
10
-24.322928400718435
20
101.20020824631695
10
-23.358396502219904
20
98.602664053049153
0
LINE
5
564
100
AcDbEntity
8
0
100
AcDbLine
10
-26.05024604686426
20
93.722718536462835
30
0
11
-26.668594168507326
21
93.722718536462835
31
-4.0638100608221927e-16
0
LINE
5
565
100
AcDbEntity
8
0
100
AcDbLine
10
-26.668594168507326
20
93.722718536462835
30
-4.0638100608221927e-16
11
-27.234419869267214
21
91.017739355173163
31
-5.9674487573602164e-15
0
LINE
5
566
100
AcDbEntity
8
0
100
AcDbLine
10
-27.234419869267214
20
91.017739355173163
30
-5.9674487573602164e-15
11
-26.680531786762941
21
91.017739355173163
31
-8.5177666018205105e-15
0
SPLINE
5
567
100
AcDbEntity
8
0
100
AcDbSpline
70
0
71
3
72
9
73
5
74
0
42
0.000000001
43
0.0000000001
44
0.0000000001
40
0
40
0
40
0
40
0
40
0.035436252793437907
40
0.067081000786716444
40
0.067081000786716444
40
0.067081000786716444
40
0.067081000786716444
10
-26.680531786762941
20
91.017739355173163
30
-8.8817841970012523e-15
10
-26.562166261531196
20
91.01991338524023
30
0
10
-26.338099740235211
20
91.024028834847428
30
0
10
-26.11817944313152
20
91.066799503115021
30
-8.8817841970012523e-15
10
-26.014434384190309
20
91.086976110544256
30
-8.8817841970012523e-15
0
SPLINE
5
568
100
AcDbEntity
8
0
100
AcDbSpline
70
0
71
3
72
9
73
5
74
0
42
0.000000001
43
0.0000000001
44
0.0000000001
40
0
40
0
40
0
40
0
40
0.017649992451302533
40
0.033640118540715566
40
0.033640118540715566
40
0.033640118540715566
40
0.033640118540715566
10
-26.014434384190309
20
91.086976110544256
30
-8.8817841970012523e-15
10
-25.957321704274982
20
91.102242136738226
30
-8.8817841970012523e-15
10
-25.848467418482489
20
91.131338519199986
30
-8.8817841970012523e-15
10
-25.750589883477218
20
91.18703612164839
30
-8.8817841970012523e-15
10
-25.704065846287477
20
91.213510810937919
30
-8.8817841970012523e-15
0
SPLINE
5
569
100
AcDbEntity
8
0
100
AcDbSpline
70
0
71
3
72
9
73
5
74
0
42
0.000000001
43
0.0000000001
44
0.0000000001
40
0
40
0
40
0
40
0
40
0.020426520650434273
40
0.042055152367321998
40
0.042055152367321998
40
0.042055152367321998
40
0.042055152367321998
10
-25.704065846287477
20
91.213510810937919
30
-8.8817841970012523e-15
10
-25.648234794708635
20
91.253006810764461
30
8.8817841970012523e-15
10
-25.533287005941375
20
91.334323169973572
30
-8.8817841970012523e-15
10
-25.44268233498827
20
91.442158623062397
30
0
10
-25.396085070454347
20
91.497617542352728
30
-8.8817841970012523e-15
0
SPLINE
5
570
100
AcDbEntity
8
0
100
AcDbSpline
70
0
71
3
72
9
73
5
74
0
42
0.000000001
43
0.0000000001
44
0.0000000001
40
0
40
0
40
0
40
0
40
0.02984842115036699
40
0.060761684613271791
40
0.060761684613271791
40
0.060761684613271791
40
0.060761684613271791
10
-25.396085070454347
20
91.497617542352728
30
-8.8817841970012523e-15
10
-25.338385660391673
20
91.579136286413558
30
0
10
-25.220928414028844
20
91.745081955423714
30
1.7763568394002505e-14
10
-25.14555167118116
20
91.933936201630758
30
0
10
-25.107202814900148
20
92.030018150415458
30
0
0
SPLINE
5
571
100
AcDbEntity
8
0
100
AcDbSpline
70
0
71
3
72
9
73
5
74
0
42
0.000000001
43
0.0000000001
44
0.0000000001
40
0
40
0
40
0
40
0
40
0.033150708174502247
40
0.069424654347191514
40
0.069424654347191514
40
0.069424654347191514
40
0.069424654347191514
10
-25.107202814900148
20
92.030018150415458
30
0
10
-25.075189193782052
20
92.136303749775294
30
8.8817841970012523e-15
10
-25.008145842284797
20
92.358888466783384
30
0
10
-25.001074694924394
20
92.59136248166385
30
0
10
-24.997380064808592
20
92.712828695383124
30
0
0
SPLINE
5
572
100
AcDbEntity
8
0
100
AcDbSpline
70
0
71
3
72
9
73
5
74
0
42
0.000000001
43
0.0000000001
44
0.0000000001
40
0
40
0
40
0
40
0
40
0.037724527483482373
40
0.067505804293778962
40
0.067505804293778962
40
0.067505804293778962
40
0.067505804293778962
10
-24.997380064808592
20
92.712828695383124
30
0
10
-25.000064379797799
20
92.840333676298314
30
0
10
-25.004867802250299
20
93.068496276662543
30
0
10
-25.102382190795613
20
93.273958797367669
30
0
10
-25.145402239643801
20
93.364601909723334
30
0
0
SPLINE
5
573
100
AcDbEntity
8
0
100
AcDbSpline
70
0
71
3
72
9
73
5
74
0
42
0.000000001
43
0.0000000001
44
0.0000000001
40
0
40
0
40
0
40
0
40
0.025412921815396783
40
0.049154401174918587
40
0.049154401174918587
40
0.049154401174918587
40
0.049154401174918587
10
-25.145402239643801
20
93.364601909723334
30
0
10
-25.196742754728753
20
93.434069592208715
30
0
10
-25.296047049344878
20
93.568435973153896
30
1.7763568394002505e-14
10
-25.448827238930445
20
93.635443735649062
30
0
10
-25.522619770848024
20
93.667808353509955
30
0
0
SPLINE
5
574
100
AcDbEntity
8
0
100
AcDbSpline
70
0
71
3
72
9
73
5
74
0
42
0.000000001
43
0.0000000001
44
0.0000000001
40
0
40
0
40
0
40
0
40
0.022054081062288976
40
0.053180827534927685
40
0.053180827534927685
40
0.053180827534927685
40
0.053180827534927685
10
-25.522619770848024
20
93.667808353509955
30
0
10
-25.594587055380316
20
93.683709785816248
30
0
10
-25.768127713731019
20
93.72205422314056
30
-1.7763568394002505e-14
10
-25.946086652716183
20
93.722473268910022
30
-1.7763568394002505e-14
10
-26.05024604686426
20
93.722718536462835
30
0
0
SPLINE
5
575
100
AcDbEntity
8
0
100
AcDbSpline
70
0
71
3
72
9
73
5
74
0
42
0.000000001
43
0.0000000001
44
0.0000000001
40
0
40
0
40
0
40
0
40
0.036015949973948316
40
0.079479249342771119
40
0.079479249342771119
40
0.079479249342771119
40
0.079479249342771119
10
-29.163478897892702
20
93.739431678857869
30
0
10
-29.210885489645655
20
93.629063396456132
30
0
10
-29.315501370363766
20
93.385504966291549
30
0
10
-29.4425630604341
20
93.152825034405566
30
0
10
-29.512046860539183
20
93.025583803262762
30
0
0
LINE
5
576
100
AcDbEntity
8
0
100
AcDbLine
10
-29.512046860539179
20
93.025583803262762
30
0
11
-30.087422417484984
21
91.989430963602118
31
-1.8735013540549517e-15
0
LINE
5
577
100
AcDbEntity
8
0
100
AcDbLine
10
-30.087422417484984
20
91.989430963602118
30
-1.8735013540549517e-15
11
-28.929509209477175
21
91.989430963602118
31
7.6098546749969135e-16
0
LINE
5
578
100
AcDbEntity
8
0
100
AcDbLine
10
-28.929509209477175
20
91.989430963602118
30
7.6098546749969135e-16
11
-29.065593766056764
21
92.86801296433454
31
1.8041124150158794e-15
0
SPLINE
5
579
100
AcDbEntity
8
0
100
AcDbSpline
70
0
71
3
72
9
73
5
74
0
42
0.000000001
43
0.0000000001
44
0.0000000001
40
0
40
0
40
0
40
0
40
0.048351597139831268
40
0.087712796343137445
40
0.087712796343137445
40
0.087712796343137445
40
0.087712796343137445
10
-29.065593766056761
20
92.86801296433454
30
0
10
-29.088909640442118
20
93.027549927871448
30
0
10
-29.131206082803907
20
93.316959875415577
30
1.7763568394002505e-14
10
-29.153482386032827
20
93.608570941052591
30
0
10
-29.163478897892702
20
93.739431678857869
30
0
0
LINE
5
580
100
AcDbEntity
8
0
100
AcDbLine
10
-16.003861712300051
20
93.737043916788139
30
0
11
-17.145061777912844
21
93.737043916788139
31
-7.5000151948795303e-16
0
LINE
5
581
100
AcDbEntity
8
0
100
AcDbLine
10
-17.145061777912844
20
93.737043916788139
30
-7.5000151948795303e-16
11
-17.393355654560796
21
92.555256664361991
31
6.2450045135165055e-16
0
LINE
5
582
100
AcDbEntity
8
0
100
AcDbLine
10
-17.393355654560796
20
92.555256664361991
30
6.2450045135165055e-16
11
-16.746356772267095
21
92.555256664361991
31
4.2521040740276968e-16
0
SPLINE
5
583
100
AcDbEntity
8
0
100
AcDbSpline
70
0
71
3
72
9
73
5
74
0
42
0.000000001
43
0.0000000001
44
0.0000000001
40
0
40
0
40
0
40
0
40
0.037066231097230409
40
0.058512318448351419
40
0.058512318448351419
40
0.058512318448351419
40
0.058512318448351419
10
-16.746356772267095
20
92.555256664361991
30
0
10
-16.622773831006523
20
92.554933164931001
30
0
10
-16.427687246809327
20
92.55442249251665
30
0
10
-16.232846199386771
20
92.563768689981103
30
1.7763568394002505e-14
10
-16.161432551228277
20
92.567194282617606
30
0
0
SPLINE
5
584
100
AcDbEntity
8
0
100
AcDbSpline
70
0
71
3
72
9
73
5
74
0
42
0.000000001
43
0.0000000001
44
0.0000000001
40
0
40
0
40
0
40
0
40
0.024493117465850166
40
0.045285913619838657
40
0.045285913619838657
40
0.045285913619838657
40
0.045285913619838657
10
-16.161432551228277
20
92.567194282617606
30
0
10
-16.07985340232625
20
92.577280262341588
30
0
10
-15.929019753016085
20
92.595928472688357
30
0
10
-15.79051213913811
20
92.658045961074947
30
0
10
-15.72691707500147
20
92.686566888895086
30
0
0
SPLINE
5
585
100
AcDbEntity
8
0
100
AcDbSpline
70
0
71
3
72
9
73
5
74
0
42
0.000000001
43
0.0000000001
44
0.0000000001
40
0
40
0
40
0
40
0
40
0.01858843804344017
40
0.036644268814865807
40
0.036644268814865807
40
0.036644268814865807
40
0.036644268814865807
10
-15.72691707500147
20
92.686566888895086
30
0
10
-15.673831317644497
20
92.719897695713271
30
8.8817841970012523e-15
10
-15.569180848450507
20
92.785604294729694
30
0
10
-15.498917619071523
20
92.887192629595958
30
0
10
-15.464296625935308
20
92.937248527612738
30
0
0
SPLINE
5
586
100
AcDbEntity
8
0
100
AcDbSpline
70
0
71
3
72
9
73
5
74
0
42
0.000000001
43
0.0000000001
44
0.0000000001
40
0
40
0
40
0
40
0
40
0.0177826394572029
40
0.035484074620509745
40
0.035484074620509745
40
0.035484074620509745
40
0.035484074620509745
10
-15.464296625935308
20
92.937248527612738
30
0
10
-15.437139399273454
20
92.990697926313644
30
0
10
-15.382948959228012
20
93.0973526474246
30
0
10
-15.375101679142878
20
93.21671969455268
30
0
10
-15.371187018238771
20
93.276266634073309
30
0
0
SPLINE
5
587
100
AcDbEntity
8
0
100
AcDbSpline
70
0
71
3
72
9
73
5
74
0
42
0.000000001
43
0.0000000001
44
0.0000000001
40
0
40
0
40
0
40
0
40
0.014369572995258085
40
0.027661512058848509
40
0.027661512058848509
40
0.027661512058848509
40
0.027661512058848509
10
-15.371187018238771
20
93.276266634073309
30
0
10
-15.373594994779868
20
93.324714534386885
30
0
10
-15.378230363704963
20
93.417977025846653
30
0
10
-15.420238148419418
20
93.501255432756636
30
0
10
-15.440423773609865
20
93.541272461023382
30
0
0
SPLINE
5
588
100
AcDbEntity
8
0
100
AcDbSpline
70
0
71
3
72
9
73
5
74
0
42
0.000000001
43
0.0000000001
44
0.0000000001
40
0
40
0
40
0
40
0
40
0.01250238281171558
40
0.024244177161151188
40
0.024244177161151188
40
0.024244177161151188
40
0.024244177161151188
10
-15.440423773609865
20
93.541272461023382
30
0
10
-15.464672144468651
20
93.576155512597424
30
0
10
-15.51169372490039
20
93.643799488551338
30
-1.7763568394002505e-14
10
-15.585920690594781
20
93.679275298604495
30
0
10
-15.621869849049318
20
93.696456729974798
30
0
0
SPLINE
5
589
100
AcDbEntity
8
0
100
AcDbSpline
70
0
71
3
72
9
73
5
74
0
42
0.000000001
43
0.0000000001
44
0.0000000001
40
0
40
0
40
0
40
0
40
0.015462902733537688
40
0.038524101661153873
40
0.038524101661153873
40
0.038524101661153873
40
0.038524101661153873
10
-15.621869849049318
20
93.696456729974798
30
0
10
-15.672211857154137
20
93.708184627308967
30
0
10
-15.797633368980005
20
93.737403378597733
30
0
10
-15.926637556464986
20
93.737178520666333
30
0
10
-16.003861712300051
20
93.737043916788139
30
0
0
LINE
5
590
100
AcDbEntity
8
0
100
AcDbLine
10
-6.487489031635989
20
93.722718536462835
30
0
11
-7.1058395374648464
21
93.722718536462835
31
-4.0638257297922525e-16
0
LINE
5
591
100
AcDbEntity
8
0
100
AcDbLine
10
-7.1058395374648464
20
93.722718536462835
30
-4.0638257297922525e-16
11
-7.6716640461318395
21
91.017739355173163
31
-1.5265566588595902e-15
0
LINE
5
592
100
AcDbEntity
8
0
100
AcDbLine
10
-7.6716640461318395
20
91.017739355173163
30
-1.5265566588595902e-15
11
-7.1177771557204625
21
91.017739355173148
31
3.640168117322376e-16
0
SPLINE
5
593
100
AcDbEntity
8
0
100
AcDbSpline
70
0
71
3
72
9
73
5
74
0
42
0.000000001
43
0.0000000001
44
0.0000000001
40
0
40
0
40
0
40
0
40
0.035436014659455693
40
0.067081115432825064
40
0.067081115432825064
40
0.067081115432825064
40
0.067081115432825064
10
-7.1177771557204625
20
91.017739355173148
30
0
10
-6.9994124410549627
20
91.01991350702616
30
0
10
-6.7753455654778314
20
91.024029221866584
30
0
10
-6.5554248137279334
20
91.066799497764777
30
0
10
-6.4516785610549352
20
91.086976110544256
30
0
0
SPLINE
5
594
100
AcDbEntity
8
0
100
AcDbSpline
70
0
71
3
72
9
73
5
74
0
42
0.000000001
43
0.0000000001
44
0.0000000001
40
0
40
0
40
0
40
0
40
0.017649992451302533
40
0.033640118540715566
40
0.033640118540715566
40
0.033640118540715566
40
0.033640118540715566
10
-6.4516785610549352
20
91.086976110544256
30
0
10
-6.394565881139612
20
91.102242136738226
30
0
10
-6.285711595347113
20
91.131338519199986
30
0
10
-6.1878340603418422
20
91.18703612164839
30
0
10
-6.1413100231521032
20
91.213510810937919
30
0
0
SPLINE
5
595
100
AcDbEntity
8
0
100
AcDbSpline
70
0
71
3
72
9
73
5
74
0
42
0.000000001
43
0.0000000001
44
0.0000000001
40
0
40
0
40
0
40
0
40
0.020426520650434273
40
0.042055232964504273
40
0.042055232964504273
40
0.042055232964504273
40
0.042055232964504273
10
-6.1413100231521032
20
91.213510810937919
30
0
10
-6.0854790247197208
20
91.253006860161861
30
0
10
-5.970531125080015
20
91.334323476912957
30
-8.8817841970012523e-15
10
-5.8799257607152153
20
91.442158661020187
30
-8.8817841970012523e-15
10
-5.8333280552260778
20
91.497617542352714
30
0
0
SPLINE
5
596
100
AcDbEntity
8
0
100
AcDbSpline
70
0
71
3
72
9
73
5
74
0
42
0.000000001
43
0.0000000001
44
0.0000000001
40
0
40
0
40
0
40
0
40
0.029848356073755373
40
0.060761570971751395
40
0.060761570971751395
40
0.060761570971751395
40
0.060761570971751395
10
-5.8333280552260778
20
91.497617542352714
30
0
10
-5.7756290408734721
20
91.579136300581467
30
0
10
-5.6581725636416023
20
91.745082049868472
30
0
10
-5.5827966365761439
20
91.933936214419205
30
0
10
-5.5444481838576687
20
92.030018150415458
30
0
0
SPLINE
5
597
100
AcDbEntity
8
0
100
AcDbSpline
70
0
71
3
72
9
73
5
74
0
42
0.000000001
43
0.0000000001
44
0.0000000001
40
0
40
0
40
0
40
0
40
0.033150708174502247
40
0.069424654347191514
40
0.069424654347191514
40
0.069424654347191514
40
0.069424654347191514
10
-5.5444481838576687
20
92.030018150415458
30
0
10
-5.5124345627395677
20
92.13630374977528
30
0
10
-5.4453912112423195
20
92.358888466783384
30
8.8817841970012523e-15
10
-5.4383200638819194
20
92.59136248166385
30
8.8817841970012523e-15
10
-5.4346254337661168
20
92.712828695383124
30
0
0
SPLINE
5
598
100
AcDbEntity
8
0
100
AcDbSpline
70
0
71
3
72
9
73
5
74
0
42
0.000000001
43
0.0000000001
44
0.0000000001
40
0
40
0
40
0
40
0
40
0.037724515789750064
40
0.067505837038046856
40
0.067505837038046856
40
0.067505837038046856
40
0.067505837038046856
10
-5.4346254337661168
20
92.712828695383124
30
0
10
-5.437309130993575
20
92.840333733175399
30
0
10
-5.4421114518161096
20
93.068496616715279
30
8.8817841970012523e-15
10
-5.5396270033545036
20
93.273958838122468
30
-8.8817841970012523e-15
10
-5.582647608601321
20
93.364601909723334
30
0
0
SPLINE
5
599
100
AcDbEntity
8
0
100
AcDbSpline
70
0
71
3
72
9
73
5
74
0
42
0.000000001
43
0.0000000001
44
0.0000000001
40
0
40
0
40
0
40
0
40
0.025413000770395065
40
0.049154270344592695
40
0.049154270344592695
40
0.049154270344592695
40
0.049154270344592695
10
-5.582647608601321
20
93.364601909723334
30
0
10
-5.6339885860706262
20
93.434069502562608
30
0
10
-5.733293202203229
20
93.568434935022196
30
0
10
-5.8860723665986647
20
93.635443532295156
30
0
10
-5.9598639477126492
20
93.66780835350994
30
0
0
SPLINE
5
600
100
AcDbEntity
8
0
100
AcDbSpline
70
0
71
3
72
9
73
5
74
0
42
0.000000001
43
0.0000000001
44
0.0000000001
40
0
40
0
40
0
40
0
40
0.022053963949797251
40
0.053180710422435953
40
0.053180710422435953
40
0.053180710422435953
40
0.053180710422435953
10
-5.9598639477126492
20
93.66780835350994
30
0
10
-6.0318308341398685
20
93.68370978262891
30
0
10
-6.2053710718859012
20
93.722054331445833
30
-8.8817841970012523e-15
10
-6.3833296306538401
20
93.722473308556175
30
0
10
-6.487489031635989
20
93.722718536462835
30
0
0
SPLINE
5
601
100
AcDbEntity
8
0
100
AcDbSpline
70
0
71
3
72
9
73
5
74
0
42
0.000000001
43
0.0000000001
44
0.0000000001
40
0
40
0
40
0
40
0
40
0.0360159985730465
40
0.079479242609862416
40
0.079479242609862416
40
0.079479242609862416
40
0.079479242609862416
10
-9.600725458943117
20
93.739431678857841
30
8.8817841970012523e-15
10
-9.648132577385752
20
93.629063458572006
30
0
10
-9.7527494703616533
20
93.385505514767502
30
8.8817841970012523e-15
10
-9.8798102189215964
20
93.152825130552941
30
8.8817841970012523e-15
10
-9.9492934215896014
20
93.025583803262748
30
8.8817841970012523e-15
0
LINE
5
602
100
AcDbEntity
8
0
100
AcDbLine
10
-9.9492934215896014
20
93.025583803262748
30
8.8817841970012523e-15
11
-10.524668978535406
21
91.989430963602103
31
7.0082828429463007e-15
0
LINE
5
603
100
AcDbEntity
8
0
100
AcDbLine
10
-10.524668978535406
20
91.989430963602103
30
7.0082828429463007e-15
11
-9.3667557705275915
21
91.989430963602103
31
7.6098546749969204e-16
0
LINE
5
604
100
AcDbEntity
8
0
100
AcDbLine
10
-9.3667557705275915
20
91.989430963602103
30
7.6098546749969204e-16
11
-9.5028403271071795
21
92.868012964334525
31
1.0685896612017132e-14
0
SPLINE
5
605
100
AcDbEntity
8
0
100
AcDbSpline
70
0
71
3
72
9
73
5
74
0
42
0.000000001
43
0.0000000001
44
0.0000000001
40
0
40
0
40
0
40
0
40
0.048351612885435262
40
0.087712801785281735
40
0.087712801785281735
40
0.087712801785281735
40
0.087712801785281735
10
-9.5028403271071795
20
92.868012964334525
30
8.8817841970012523e-15
10
-9.5261568411987554
20
93.027549901815576
30
8.8817841970012523e-15
10
-9.5684544328775125
20
93.3169597258035
30
0
10
-9.5907295034677897
20
93.60857092395905
30
0
10
-9.600725458943117
20
93.739431678857841
30
8.8817841970012523e-15
0
LINE
5
606
100
AcDbEntity
8
0
100
AcDbLine
10
-13.023131178700202
20
88.260238945093192
30
0
11
-13.768015192829839
21
88.260238945093192
31
3.9513511676213962e-15
0
LINE
5
607
100
AcDbEntity
8
0
100
AcDbLine
10
-13.768015192829839
20
88.260238945093192
30
3.9513511676213962e-15
11
-13.997211741291755
21
87.164399206247367
31
-3.677613769070831e-15
0
LINE
5
608
100
AcDbEntity
8
0
100
AcDbLine
10
-13.997211741291755
20
87.164399206247367
30
-3.677613769070831e-15
11
-13.288138197743171
21
87.164399206247367
31
-1.2856670157652077e-14
0
SPLINE
5
609
100
AcDbEntity
8
0
100
AcDbSpline
70
0
71
3
72
9
73
5
74
0
42
0.000000001
43
0.0000000001
44
0.0000000001
40
0
40
0
40
0
40
0
40
0.043878559801720014
40
0.075668304738250841
40
0.075668304738250841
40
0.075668304738250841
40
0.075668304738250841
10
-13.288138197743171
20
87.164399206247381
30
-1.7763568394002505e-14
10
-13.139451331611451
20
87.165608339900899
30
0
10
-12.883041751445852
20
87.16769348340101
30
0
10
-12.653861506101368
20
87.279692554132495
30
-8.8817841970012523e-15
10
-12.557578371845954
20
87.326745569314994
30
0
0
SPLINE
5
610
100
AcDbEntity
8
0
100
AcDbSpline
70
0
71
3
72
9
73
5
74
0
42
0.000000001
43
0.0000000001
44
0.0000000001
40
0
40
0
40
0
40
0
40
0.026090422817521122
40
0.05399646761045955
40
0.05399646761045955
40
0.05399646761045955
40
0.05399646761045955
10
-12.557578371845954
20
87.326745569314994
30
0
10
-12.492143391807993
20
87.388668581424653
30
-8.8817841970012523e-15
10
-12.356719837926835
20
87.516823803020969
30
0
10
-12.341187194605567
20
87.703159743172705
30
8.8817841970012523e-15
10
-12.333159731709234
20
87.799460470285453
30
0
0
SPLINE
5
611
100
AcDbEntity
8
0
100
AcDbSpline
70
0
71
3
72
9
73
5
74
0
42
0.000000001
43
0.0000000001
44
0.0000000001
40
0
40
0
40
0
40
0
40
0.013895823805599858
40
0.026749515109228524
40
0.026749515109228524
40
0.026749515109228524
40
0.026749515109228524
10
-12.333159731709234
20
87.799460470285453
30
0
10
-12.335566693502045
20
87.846351029487209
30
-8.8817841970012523e-15
10
-12.340200104355894
20
87.936615539126564
30
8.8817841970012523e-15
10
-12.382208301527342
20
88.016521282574303
30
8.8817841970012523e-15
10
-12.402394102894538
20
88.054917633142509
30
0
0
SPLINE
5
612
100
AcDbEntity
8
0
100
AcDbSpline
70
0
71
3
72
9
73
5
74
0
42
0.000000001
43
0.0000000001
44
0.0000000001
40
0
40
0
40
0
40
0
40
0.012307736570393512
40
0.024539881633378606
40
0.024539881633378606
40
0.024539881633378606
40
0.024539881633378606
10
-12.402394102894538
20
88.054917633142509
30
0
10
-12.427402431302053
20
88.088217678413372
30
0
10
-12.477265492268561
20
88.154613247140333
30
0
10
-12.551575265859274
20
88.19164370607588
30
0
10
-12.588615702473396
20
88.210101902093925
30
0
0
SPLINE
5
613
100
AcDbEntity
8
0
100
AcDbSpline
70
0
71
3
72
9
73
5
74
0
42
0.000000001
43
0.0000000001
44
0.0000000001
40
0
40
0
40
0
40
0
40
0.017013500371851013
40
0.043901535257801952
40
0.043901535257801952
40
0.043901535257801952
40
0.043901535257801952
10
-12.588615702473396
20
88.210101902093925
30
0
10
-12.643665017714088
20
88.22455290711315
30
0
10
-12.785713943633858
20
88.261842194590514
30
8.8817841970012523e-15
10
-12.932952881445026
20
88.260847908084884
30
-8.8817841970012523e-15
10
-13.023131178700202
20
88.260238945093192
30
0
0
LINE
5
614
100
AcDbEntity
8
0
100
AcDbLine
10
-13.19263963588404
20
86.765695392694511
30
-8.8817841970012523e-15
11
-14.080772684895271
21
86.765695392694511
31
-9.4654690006892133e-15
0
LINE
5
615
100
AcDbEntity
8
0
100
AcDbLine
10
-14.080772684895271
20
86.765695392694511
30
-9.4654690006892133e-15
11
-14.333842085682626
21
85.555258571710624
31
-9.9920072216264089e-15
0
LINE
5
616
100
AcDbEntity
8
0
100
AcDbLine
10
-14.333842085682626
20
85.555258571710624
30
-9.9920072216264089e-15
11
-13.536434458576911
21
85.555258571710624
31
5.2405967192039001e-16
0
SPLINE
5
617
100
AcDbEntity
8
0
100
AcDbSpline
70
0
71
3
72
9
73
5
74
0
42
0.000000001
43
0.0000000001
44
0.0000000001
40
0
40
0
40
0
40
0
40
0.026566214479974086
40
0.042821083775620786
40
0.042821083775620786
40
0.042821083775620786
40
0.042821083775620786
10
-13.536434458576911
20
85.555258571710624
30
0
10
-13.447768807333471
20
85.554881253444108
30
0
10
-13.304851972766132
20
85.554273068295501
30
0
10
-13.162946110755085
20
85.570561696252412
30
0
10
-13.109078692280525
20
85.576744854059257
30
0
0
SPLINE
5
618
100
AcDbEntity
8
0
100
AcDbSpline
70
0
71
3
72
9
73
5
74
0
42
0.000000001
43
0.0000000001
44
0.0000000001
40
0
40
0
40
0
40
0
40
0.020758844486837406
40
0.038483516044892307
40
0.038483516044892307
40
0.038483516044892307
40
0.038483516044892307
10
-13.109078692280525
20
85.576744854059257
30
0
10
-13.04072777380628
20
85.59030041711037
30
0
10
-12.914016305378727
20
85.615430222794203
30
0
10
-12.800745546606866
20
85.677211980798447
30
0
10
-12.748575495564216
20
85.705667316522636
30
0
0
SPLINE
5
619
100
AcDbEntity
8
0
100
AcDbSpline
70
0
71
3
72
9
73
5
74
0
42
0.000000001
43
0.0000000001
44
0.0000000001
40
0
40
0
40
0
40
0
40
0.016372951988281693
40
0.032895725056727249
40
0.032895725056727249
40
0.032895725056727249
40
0.032895725056727249
10
-12.748575495564216
20
85.705667316522636
30
0
10
-12.704845800854834
20
85.739205246064074
30
0
10
-12.616986261841712
20
85.806587994755688
30
0
10
-12.559959705225484
20
85.901510594474004
30
0
10
-12.531316565357917
20
85.949188053216972
30
-8.8817841970012523e-15
0
SPLINE
5
620
100
AcDbEntity
8
0
100
AcDbSpline
70
0
71
3
72
9
73
5
74
0
42
0.000000001
43
0.0000000001
44
0.0000000001
40
0
40
0
40
0
40
0
40
0.016493684318403094
40
0.032728933442536787
40
0.032728933442536787
40
0.032728933442536787
40
0.032728933442536787
10
-12.531316565357917
20
85.949188053216972
30
-8.8817841970012523e-15
10
-12.508338796111529
20
85.999700870128237
30
0
10
-12.462743290231515
20
86.099935031930357
30
0
10
-12.455917227284804
20
86.209821522431085
30
0
10
-12.452531145893806
20
86.264330923166312
30
-8.8817841970012523e-15
0
SPLINE
5
621
100
AcDbEntity
8
0
100
AcDbSpline
70
0
71
3
72
9
73
5
74
0
42
0.000000001
43
0.0000000001
44
0.0000000001
40
0
40
0
40
0
40
0
40
0.021952020746636342
40
0.041445541885945729
40
0.041445541885945729
40
0.041445541885945729
40
0.041445541885945729
10
-12.452531145893806
20
86.264330923166312
30
-8.8817841970012523e-15
10
-12.457318743908679
20
86.339880358339016
30
0
10
-12.466357756596786
20
86.48251812804817
30
-1.7763568394002505e-14
10
-12.562497153151124
20
86.587429059519707
30
0
10
-12.607715414845222
20
86.636772930231146
30
-1.7763568394002505e-14
0
SPLINE
5
622
100
AcDbEntity
8
0
100
AcDbSpline
70
0
71
3
72
9
73
5
74
0
42
0.000000001
43
0.0000000001
44
0.0000000001
40
0
40
0
40
0
40
0
40
0.02427191618951078
40
0.060644609225491052
40
0.060644609225491052
40
0.060644609225491052
40
0.060644609225491052
10
-12.607715414845222
20
86.636772930231146
30
-1.7763568394002505e-14
10
-12.680648297711601
20
86.674018719339756
30
0
10
-12.862874791350842
20
86.767079205712179
30
0
10
-13.069007714724886
20
86.766214197123617
30
0
10
-13.19263963588404
20
86.765695392694511
30
-8.8817841970012523e-15
0
LINE
5
623
100
AcDbEntity
8
0
100
AcDbLine
10
-38.733568476521249
20
86.765695392694539
30
0
11
-39.621699141346689
21
86.765695392694539
31
3.85720886170966e-15
0
LINE
5
624
100
AcDbEntity
8
0
100
AcDbLine
10
-39.621699141346689
20
86.765695392694539
30
3.85720886170966e-15
11
-39.874768542134042
21
85.555258571710652
31
-5.5511151231257827e-15
0
LINE
5
625
100
AcDbEntity
8
0
100
AcDbLine
10
-39.874768542134042
20
85.555258571710652
30
-5.5511151231257827e-15
11
-39.077360915028329
21
85.555258571710652
31
5.2405967192039001e-16
0
SPLINE
5
626
100
AcDbEntity
8
0
100
AcDbSpline
70
0
71
3
72
9
73
5
74
0
42
0.000000001
43
0.0000000001
44
0.0000000001
40
0
40
0
40
0
40
0
40
0.026565797332759392
40
0.042820844561462415
40
0.042820844561462415
40
0.042820844561462415
40
0.042820844561462415
10
-39.077360915028329
20
85.555258571710652
30
0
10
-38.988696661054874
20
85.554881347943336
30
-1.7763568394002505e-14
10
-38.845780632975654
20
85.554273308963673
30
0
10
-38.70387554728228
20
85.570561688375918
30
-1.7763568394002505e-14
10
-38.650007532917733
20
85.576744854059285
30
0
0
SPLINE
5
627
100
AcDbEntity
8
0
100
AcDbSpline
70
0
71
3
72
9
73
5
74
0
42
0.000000001
43
0.0000000001
44
0.0000000001
40
0
40
0
40
0
40
0
40
0.020758902240479108
40
0.038483680978903215
40
0.038483680978903215
40
0.038483680978903215
40
0.038483680978903215
10
-38.650007532917733
20
85.576744854059285
30
0
10
-38.581656434871491
20
85.590300449128947
30
0
10
-38.454944443009019
20
85.615430351957968
30
0
10
-38.341673004195322
20
85.677211987218485
30
-8.8817841970012523e-15
10
-38.289502548062082
20
85.705667316522664
30
0
0
SPLINE
5
628
100
AcDbEntity
8
0
100
AcDbSpline
70
0
71
3
72
9
73
5
74
0
42
0.000000001
43
0.0000000001
44
0.0000000001
40
0
40
0
40
0
40
0
40
0.016372907010446427
40
0.032895646274504156
40
0.032895646274504156
40
0.032895646274504156
40
0.032895646274504156
10
-38.289502548062082
20
85.705667316522664
30
0
10
-38.245773047978908
20
85.739205254708367
30
-8.8817841970012523e-15
10
-38.15791386905736
20
85.806588044498142
30
0
10
-38.100887743367565
20
85.901510600029553
30
0
10
-38.072244809948678
20
85.949188053217
30
0
0
SPLINE
5
629
100
AcDbEntity
8
0
100
AcDbSpline
70
0
71
3
72
9
73
5
74
0
42
0.000000001
43
0.0000000001
44
0.0000000001
40
0
40
0
40
0
40
0
40
0.016493748377878963
40
0.032728983038843001
40
0.032728983038843001
40
0.032728983038843001
40
0.032728983038843001
10
-38.072244809948678
20
85.949188053217
30
0
10
-38.049266192999177
20
85.99970080253577
30
0
10
-38.00366911299249
20
86.099934592807273
30
0
10
-37.996844265001741
20
86.209821464501147
30
-8.8817841970012523e-15
10
-37.993458794438119
20
86.264330923166341
30
0
0
SPLINE
5
630
100
AcDbEntity
8
0
100
AcDbSpline
70
0
71
3
72
9
73
5
74
0
42
0.000000001
43
0.0000000001
44
0.0000000001
40
0
40
0
40
0
40
0
40
0.021951978609949619
40
0.041445642098432628
40
0.041445642098432628
40
0.041445642098432628
40
0.041445642098432628
10
-37.993458794438119
20
86.264330923166341
30
0
10
-37.998245292272898
20
86.339880486393639
30
0
10
-38.007282267011725
20
86.482519116552965
30
0
10
-38.10342364763622
20
86.58742921181009
30
0
10
-38.148643063389535
20
86.63677293023116
30
0
0
SPLINE
5
631
100
AcDbEntity
8
0
100
AcDbSpline
70
0
71
3
72
9
73
5
74
0
42
0.000000001
43
0.0000000001
44
0.0000000001
40
0
40
0
40
0
40
0
40
0.02427208020225078
40
0.060644713868058905
40
0.060644713868058905
40
0.060644713868058905
40
0.060644713868058905
10
-38.148643063389535
20
86.63677293023116
30
0
10
-38.221576546391283
20
86.674018732538542
30
-8.8817841970012523e-15
10
-38.403803622570443
20
86.767078783630055
30
0
10
-38.609936811324218
20
86.766214037792494
30
0
10
-38.733568476521249
20
86.765695392694539
30
0
0
LINE
5
632
100
AcDbEntity
8
0
100
AcDbLine
10
-38.564059423290963
20
88.260238945093221
30
8.8817841970012523e-15
11
-39.308943437420602
21
88.260238945093221
31
8.3922432661220303e-15
0
LINE
5
633
100
AcDbEntity
8
0
100
AcDbLine
10
-39.308943437420602
20
88.260238945093221
30
8.3922432661220303e-15
11
-39.538138197743173
21
87.164399206247396
31
5.2041704279304213e-15
0
LINE
5
634
100
AcDbEntity
8
0
100
AcDbLine
10
-39.538138197743173
20
87.164399206247396
30
5.2041704279304213e-15
11
-38.829065846287484
21
87.164399206247396
31
4.6600535440128761e-16
0
SPLINE
5
635
100
AcDbEntity
8
0
100
AcDbSpline
70
0
71
3
72
9
73
5
74
0
42
0.000000001
43
0.0000000001
44
0.0000000001
40
0
40
0
40
0
40
0
40
0.043878441103507547
40
0.075668186040038388
40
0.075668186040038388
40
0.075668186040038388
40
0.075668186040038388
10
-38.829065846287484
20
87.164399206247396
30
0
10
-38.680379390230726
20
87.165608397840913
30
-1.7763568394002505e-14
10
-38.423970225830452
20
87.167693643628041
30
0
10
-38.194790344742998
20
87.279692549558348
30
0
10
-38.098507212483163
20
87.326745569315023
30
8.8817841970012523e-15
0
SPLINE
5
636
100
AcDbEntity
8
0
100
AcDbSpline
70
0
71
3
72
9
73
5
74
0
42
0.000000001
43
0.0000000001
44
0.0000000001
40
0
40
0
40
0
40
0
40
0.026090538173943408
40
0.053996582966881833
40
0.053996582966881833
40
0.053996582966881833
40
0.053996582966881833
10
-38.098507212483163
20
87.326745569315023
30
8.8817841970012523e-15
10
-38.033071489754235
20
87.388668480077101
30
0
10
-37.897646708257817
20
87.516823199087668
30
8.8817841970012523e-15
10
-37.882114173728787
20
87.703159673034747
30
0
10
-37.874086784207101
20
87.799460470285482
30
8.8817841970012523e-15
0
SPLINE
5
637
100
AcDbEntity
8
0
100
AcDbSpline
70
0
71
3
72
9
73
5
74
0
42
0.000000001
43
0.0000000001
44
0.0000000001
40
0
40
0
40
0
40
0
40
0.013895853501885883
40
0.02674952072597802
40
0.02674952072597802
40
0.02674952072597802
40
0.02674952072597802
10
-37.874086784207101
20
87.799460470285482
30
8.8817841970012523e-15
10
-37.876494776970354
20
87.846350987145968
30
-8.8817841970012523e-15
10
-37.881130163513539
20
87.936615241330969
30
0
10
-37.923137566053974
20
88.016521239951231
30
0
10
-37.943322943531747
20
88.054917633142537
30
8.8817841970012523e-15
0
SPLINE
5
638
100
AcDbEntity
8
0
100
AcDbSpline
70
0
71
3
72
9
73
5
74
0
42
0.000000001
43
0.0000000001
44
0.0000000001
40
0
40
0
40
0
40
0
40
0.012307657947494752
40
0.024539803010479845
40
0.024539803010479845
40
0.024539803010479845
40
0.024539803010479845
10
-37.943322943531747
20
88.054917633142537
30
8.8817841970012523e-15
10
-37.968330837894818
20
88.088217704244869
30
0
10
-38.01819319221071
20
88.154613535894725
30
0
10
-38.092502852304058
20
88.191643762663858
30
0
10
-38.129543351017709
20
88.210101902093953
30
0
0
SPLINE
5
639
100
AcDbEntity
8
0
100
AcDbSpline
70
0
71
3
72
9
73
5
74
0
42
0.000000001
43
0.0000000001
44
0.0000000001
40
0
40
0
40
0
40
0
40
0.01701355850242374
40
0.043901593388374682
40
0.043901593388374682
40
0.043901593388374682
40
0.043901593388374682
10
-38.129543351017709
20
88.210101902093953
30
0
10
-38.184592865389753
20
88.224552909373557
30
-8.8817841970012523e-15
10
-38.326642007892467
20
88.261842124651594
30
-8.8817841970012523e-15
10
-38.473881131592229
20
88.260847881019913
30
0
10
-38.564059423290963
20
88.260238945093221
30
8.8817841970012523e-15
0
LINE
5
640
100
AcDbEntity
8
0
100
AcDbLine
10
-15.707988505088593
20
57.95741382416729
30
0
11
-16.810991530143525
21
57.95741382416729
31
-7.2489826255556245e-16
0
LINE
5
641
100
AcDbEntity
8
0
100
AcDbLine
10
-16.810991530143525
20
57.95741382416729
30
-7.2489826255556245e-16
11
-16.810991530143525
21
56.181151302423515
31
-1.5265566588595902e-15
0
LINE
5
642
100
AcDbEntity
8
0
100
AcDbLine
10
-16.810991530143525
20
56.181151302423515
30
-1.5265566588595902e-15
11
-15.765287642204074
21
56.181151302423515
31
-8.1945431701897844e-15
0
SPLINE
5
643
100
AcDbEntity
8
0
100
AcDbSpline
70
0
71
3
72
9
73
5
74
0
42
0.000000001
43
0.0000000001
44
0.0000000001
40
0
40
0
40
0
40
0
40
0.082633542377949329
40
0.1275056192764395
40
0.1275056192764395
40
0.1275056192764395
40
0.1275056192764395
10
-15.765287642204074
20
56.181151302423515
30
-8.8817841970012523e-15
10
-15.489040047570322
20
56.177812754109517
30
0
10
-15.062783111055371
20
56.172661290696354
30
0
10
-14.642923199844788
20
56.242516425165654
30
0
10
-14.4951651141279
20
56.267100008096733
30
0
0
SPLINE
5
644
100
AcDbEntity
8
0
100
AcDbSpline
70
0
71
3
72
9
73
5
74
0
42
0.000000001
43
0.0000000001
44
0.0000000001
40
0
40
0
40
0
40
0
40
0.025413919893465014
40
0.050152830814026481
40
0.050152830814026481
40
0.050152830814026481
40
0.050152830814026481
10
-14.4951651141279
20
56.267100008096733
30
0
10
-14.415716670882759
20
56.300439928060356
30
0
10
-14.258929982752214
20
56.366234239693412
30
-8.8817841970012523e-15
10
-14.151728425988367
20
56.498098445569234
30
0
10
-14.098849062644746
20
56.563143165674248
30
0
0
SPLINE
5
645
100
AcDbEntity
8
0
100
AcDbSpline
70
0
71
3
72
9
73
5
74
0
42
0.000000001
43
0.0000000001
44
0.0000000001
40
0
40
0
40
0
40
0
40
0.025962930727775297
40
0.05507220811543799
40
0.05507220811543799
40
0.05507220811543799
40
0.05507220811543799
10
-14.098849062644746
20
56.563143165674248
30
0
10
-14.057105072164141
20
56.640255411291953
30
0
10
-13.968558299250816
20
56.803824835847074
30
-8.8817841970012523e-15
10
-13.960082453076982
20
56.989984612583186
30
-8.8817841970012523e-15
10
-13.955602411948945
20
57.088382275667229
30
0
0
SPLINE
5
646
100
AcDbEntity
8
0
100
AcDbSpline
70
0
71
3
72
9
73
5
74
0
42
0.000000001
43
0.0000000001
44
0.0000000001
40
0
40
0
40
0
40
0
40
0.03222815894451786
40
0.060996780485099378
40
0.060996780485099378
40
0.060996780485099378
40
0.060996780485099378
10
-13.955602411948945
20
57.088382275667229
30
0
10
-13.961593190774298
20
57.198078735160166
30
0
10
-13.972931667215796
20
57.405696268361567
30
0
10
-14.09093966564885
20
57.576185378880723
30
-8.8817841970012523e-15
10
-14.146597151481416
20
57.656595142450371
30
0
0
SPLINE
5
647
100
AcDbEntity
8
0
100
AcDbSpline
70
0
71
3
72
9
73
5
74
0
42
0.000000001
43
0.0000000001
44
0.0000000001
40
0
40
0
40
0
40
0
40
0.028803512643514835
40
0.060778516139571838
40
0.060778516139571838
40
0.060778516139571838
40
0.060778516139571838
10
-14.146597151481416
20
57.656595142450371
30
0
10
-14.217964379655177
20
57.723459516480553
30
0
10
-14.368556923109153
20
57.86455055237095
30
0
10
-14.570415367719608
20
57.909756671333376
30
-8.8817841970012523e-15
10
-14.676611189567353
20
57.933539183702507
30
0
0
SPLINE
5
648
100
AcDbEntity
8
0
100
AcDbSpline
70
0
71
3
72
9
73
5
74
0
42
0.000000001
43
0.0000000001
44
0.0000000001
40
0
40
0
40
0
40
0
40
0.034425843525367483
40
0.10318692163089047
40
0.10318692163089047
40
0.10318692163089047
40
0.10318692163089047
10
-14.676611189567353
20
57.933539183702507
30
0
10
-14.791183478766129
20
57.940337395759514
30
0
10
-15.134598791681096
20
57.960714139011728
30
0
10
-15.478693049898911
20
57.958733602281242
30
0
10
-15.707988505088593
20
57.95741382416729
30
0
0
LWPOLYLINE
5
649
100
AcDbEntity
8
0
100
AcDbPolyline
90
3
70
1
43
0.0
10
-23.491072420799043
20
54.911028774347344
10
-22.545642618858125
20
57.508572967615166
10
-21.581113104545384
20
54.911028774347344
0
LINE
5
650
100
AcDbEntity
8
0
100
AcDbLine
10
-35.452190440916333
20
41.799413824167296
30
0
11
-36.555192273878369
21
41.799413824167296
31
-7.2489747910705951e-16
0
LINE
5
651
100
AcDbEntity
8
0
100
AcDbLine
10
-36.555192273878369
20
41.799413824167296
30
-7.2489747910705951e-16
11
-36.555192273878362
21
40.023151302423521
31
-1.0408340855860843e-14
0
LINE
5
652
100
AcDbEntity
8
0
100
AcDbLine
10
-36.555192273878362
20
40.023151302423521
30
-1.0408340855860843e-14
11
-35.509489578031811
21
40.023151302423521
31
-8.1945439536382881e-15
0
SPLINE
5
653
100
AcDbEntity
8
0
100
AcDbSpline
70
0
71
3
72
9
73
5
74
0
42
0.000000001
43
0.0000000001
44
0.0000000001
40
0
40
0
40
0
40
0
40
0.082633661546929055
40
0.12750562047260161
40
0.12750562047260161
40
0.12750562047260161
40
0.12750562047260161
10
-35.509489578031811
20
40.023151302423521
30
-8.8817841970012523e-15
10
-35.23324157847852
20
40.019812686862714
30
-8.8817841970012523e-15
10
-34.806984627885164
20
40.014661127066958
30
0
10
-34.387124738230725
20
40.084516430549435
30
0
10
-34.239367049955639
20
40.109100008096746
30
-8.8817841970012523e-15
0
SPLINE
5
654
100
AcDbEntity
8
0
100
AcDbSpline
70
0
71
3
72
9
73
5
74
0
42
0.000000001
43
0.0000000001
44
0.0000000001
40
0
40
0
40
0
40
0
40
0.025414025722060467
40
0.05015293664262193
40
0.05015293664262193
40
0.05015293664262193
40
0.05015293664262193
10
-34.239367049955639
20
40.109100008096746
30
-8.8817841970012523e-15
10
-34.159918161622436
20
40.142439851753693
30
-8.8817841970012523e-15
10
-34.0031309171898
20
40.208233877654521
30
-8.8817841970012523e-15
10
-33.895929157994694
20
40.340098417891241
30
-8.8817841970012523e-15
10
-33.843049806379589
20
40.405143165674254
30
-8.8817841970012523e-15
0
SPLINE
5
655
100
AcDbEntity
8
0
100
AcDbSpline
70
0
71
3
72
9
73
5
74
0
42
0.000000001
43
0.0000000001
44
0.0000000001
40
0
40
0
40
0
40
0
40
0.025962881398475957
40
0.055072173451603125
40
0.055072173451603125
40
0.055072173451603125
40
0.055072173451603125
10
-33.843049806379589
20
40.405143165674254
30
-8.8817841970012523e-15
10
-33.801306391974343
20
40.482255462082506
30
0
10
-33.712760728521026
20
40.645825202199845
30
-8.8817841970012523e-15
10
-33.704283782978138
20
40.831984666316039
30
0
10
-33.699803155683796
20
40.930382275667235
30
-8.8817841970012523e-15
0
SPLINE
5
656
100
AcDbEntity
8
0
100
AcDbSpline
70
0
71
3
72
9
73
5
74
0
42
0.000000001
43
0.0000000001
44
0.0000000001
40
0
40
0
40
0
40
0
40
0.032228141282229172
40
0.060996881536556469
40
0.060996881536556469
40
0.060996881536556469
40
0.060996881536556469
10
-33.699803155683796
20
40.930382275667235
30
-8.8817841970012523e-15
10
-33.705793284912403
20
41.040078842591321
30
-8.8817841970012523e-15
10
-33.717130556886829
20
41.247697036859464
30
-8.8817841970012523e-15
10
-33.835140531813273
20
41.418185490224459
30
-8.8817841970012523e-15
10
-33.890799087309162
20
41.498595142450377
30
-8.8817841970012523e-15
0
SPLINE
5
657
100
AcDbEntity
8
0
100
AcDbSpline
70
0
71
3
72
9
73
5
74
0
42
0.000000001
43
0.0000000001
44
0.0000000001
40
0
40
0
40
0
40
0
40
0.028803419267972388
40
0.060778536249990259
40
0.060778536249990259
40
0.060778536249990259
40
0.060778536249990259
10
-33.890799087309162
20
41.498595142450377
30
-8.8817841970012523e-15
10
-33.962165899935989
20
41.565459538131464
30
-8.8817841970012523e-15
10
-34.112758104560427
20
41.706551123784116
30
-8.8817841970012523e-15
10
-34.314616819536951
20
41.751756818163386
30
-8.8817841970012523e-15
10
-34.420813125395092
20
41.775539183702513
30
0
0
SPLINE
5
658
100
AcDbEntity
8
0
100
AcDbSpline
70
0
71
3
72
9
73
5
74
0
42
0.000000001
43
0.0000000001
44
0.0000000001
40
0
40
0
40
0
40
0
40
0.034425843525367483
40
0.10318692163089047
40
0.10318692163089047
40
0.10318692163089047
40
0.10318692163089047
10
-34.420813125395092
20
41.775539183702513
30
0
10
-34.535385414593868
20
41.782337395759527
30
-8.8817841970012523e-15
10
-34.878800727508839
20
41.802714139011734
30
-8.8817841970012523e-15
10
-35.222894985726654
20
41.800733602281248
30
0
10
-35.452190440916333
20
41.799413824167296
30
0
0
ENDSEC
0
SECTION
2
OBJECTS
0
DICTIONARY
5
C
100
AcDbDictionary
3
ACAD_GROUP
350
D
3
ACAD_MLINESTYLE
350
17
0
DICTIONARY
5
D
100
AcDbDictionary
0
DICTIONARY
5
1A
330
C
100
AcDbDictionary
0
DICTIONARY
5
17
100
AcDbDictionary
0
ENDSEC
0
EOF
