  0
SECTION
  2
HEADER
  9
$ACADVER
  1
AC1014
  9
$HANDSEED
  5
FFFF
  9
$MEASUREMENT
 70
     1
  0
ENDSEC
  0
SECTION
  2
TABLES
  0
TABLE
  2
VPORT
  5
8
330
0
100
AcDbSymbolTable
 70
     4
  0
VPORT
  5
2E
330
8
100
AcDbSymbolTableRecord
100
AcDbViewportTableRecord
  2
*ACTIVE
 70
     0
 10
0.0
 20
0.0
 11
1.0
 21
1.0
 12
210.0
 22
148.5
 13
0.0
 23
0.0
 14
10.0
 24
10.0
 15
10.0
 25
10.0
 16
0.0
 26
0.0
 36
1.0
 17
0.0
 27
0.0
 37
0.0
 40
341.0
 41
1.24
 42
50.0
 43
0.0
 44
0.0
 50
0.0
 51
0.0
 71
     0
 72
   100
 73
     1
 74
     3
 75
     0
 76
     0
 77
     0
 78
     0
  0
ENDTAB
  0
TABLE
  2
LTYPE
  5
5
330
0
100
AcDbSymbolTable
 70
     1
  0
LTYPE
  5
14
330
5
100
AcDbSymbolTableRecord
100
AcDbLinetypeTableRecord
  2
BYBLOCK
 70
     0
  3

 72
    65
 73
     0
 40
0.0
  0
LTYPE
  5
15
330
5
100
AcDbSymbolTableRecord
100
AcDbLinetypeTableRecord
  2
BYLAYER
 70
     0
  3

 72
    65
 73
     0
 40
0.0
  0
LTYPE
  5
16
330
5
100
AcDbSymbolTableRecord
100
AcDbLinetypeTableRecord
  2
CONTINUOUS
 70
     0
  3
Solid line
 72
    65
 73
     0
 40
0.0
  0
ENDTAB
  0
TABLE
  2
LAYER
  5
2
100
AcDbSymbolTable
 70
2
  0
LAYER
  5
50
100
AcDbSymbolTableRecord
100
AcDbLayerTableRecord
  2
0
 70
0
  6
CONTINUOUS
  0
LAYER
  5
51
100
AcDbSymbolTableRecord
100
AcDbLayerTableRecord
  2
Layer_1
 70
0
  6
CONTINUOUS
  0
ENDTAB
  0
TABLE
  2
STYLE
  5
3
330
0
100
AcDbSymbolTable
 70
     1
  0
STYLE
  5
11
330
3
100
AcDbSymbolTableRecord
100
AcDbTextStyleTableRecord
  2
STANDARD
 70
     0
 40
0.0
 41
1.0
 50
0.0
 71
     0
 42
2.5
  3
txt
  4

  0
ENDTAB
  0
TABLE
  2
VIEW
  5
6
330
0
100
AcDbSymbolTable
 70
     0
  0
ENDTAB
  0
TABLE
  2
UCS
  5
7
330
0
100
AcDbSymbolTable
 70
     0
  0
ENDTAB
  0
TABLE
  2
APPID
  5
9
330
0
100
AcDbSymbolTable
 70
     2
  0
APPID
  5
12
330
9
100
AcDbSymbolTableRecord
100
AcDbRegAppTableRecord
  2
ACAD
 70
     0
  0
ENDTAB
  0
TABLE
  2
DIMSTYLE
  5
A
330
0
100
AcDbSymbolTable
 70
     1
  0
DIMSTYLE
105
27
330
A
100
AcDbSymbolTableRecord
100
AcDbDimStyleTableRecord
  2
ISO-25
 70
     0
  3

  4

  5

  6

  7

 40
1.0
 41
2.5
 42
0.625
 43
3.75
 44
1.25
 45
0.0
 46
0.0
 47
0.0
 48
0.0
140
2.5
141
2.5
142
0.0
143
0.03937007874016
144
1.0
145
0.0
146
1.0
147
0.625
 71
     0
 72
     0
 73
     0
 74
     0
 75
     0
 76
     0
 77
     1
 78
     8
170
     0
171
     3
172
     1
173
     0
174
     0
175
     0
176
     0
177
     0
178
     0
270
     2
271
     2
272
     2
273
     2
274
     3
340
11
275
     0
280
     0
281
     0
282
     0
283
     0
284
     8
285
     0
286
     0
287
     3
288
     0
  0
ENDTAB
  0
TABLE
  2
BLOCK_RECORD
  5
1
330
0
100
AcDbSymbolTable
 70
     1
  0
BLOCK_RECORD
  5
1F
330
1
100
AcDbSymbolTableRecord
100
AcDbBlockTableRecord
  2
*MODEL_SPACE
  0
BLOCK_RECORD
  5
1B
330
1
100
AcDbSymbolTableRecord
100
AcDbBlockTableRecord
  2
*PAPER_SPACE
  0
ENDTAB
  0
ENDSEC
  0
SECTION
  2
BLOCKS
  0
BLOCK
  5
20
330
1F
100
AcDbEntity
  8
0
100
AcDbBlockBegin
  2
*MODEL_SPACE
 70
     0
 10
0.0
 20
0.0
 30
0.0
  3
*MODEL_SPACE
  1

  0
ENDBLK
  5
21
330
1F
100
AcDbEntity
  8
0
100
AcDbBlockEnd
  0
BLOCK
  5
1C
330
1B
100
AcDbEntity
 67
     1
  8
0
100
AcDbBlockBegin
  2
*PAPER_SPACE
  1

  0
ENDBLK
  5
1D
330
1B
100
AcDbEntity
 67
     1
  8
0
100
AcDbBlockEnd
  0
ENDSEC
  0
SECTION
  2
ENTITIES
  0
LINE
  5
100
100
AcDbEntity
  8
Layer_1
 62
5
100
AcDbLine
 10
15.794815
 20
297.524213
 30
0.0
 11
15.791215
 21
272.802209
 31
0.0
  0
LINE
  5
101
100
AcDbEntity
  8
Layer_1
 62
5
100
AcDbLine
 10
15.791215
 20
272.802209
 30
0.0
 11
12.787265
 21
272.799609
 31
0.0
  0
LINE
  5
102
100
AcDbEntity
  8
Layer_1
 62
5
100
AcDbLine
 10
12.787265
 20
272.799609
 30
0.0
 11
12.787265
 21
262.799682
 31
0.0
  0
LINE
  5
103
100
AcDbEntity
  8
Layer_1
 62
5
100
AcDbLine
 10
12.787265
 20
262.799682
 30
0.0
 11
15.787598
 21
262.799682
 31
0.0
  0
LINE
  5
104
100
AcDbEntity
  8
Layer_1
 62
5
100
AcDbLine
 10
15.787598
 20
262.799682
 30
0.0
 11
15.787598
 21
259.399390
 31
0.0
  0
LINE
  5
105
100
AcDbEntity
  8
Layer_1
 62
5
100
AcDbLine
 10
15.787598
 20
259.399390
 30
0.0
 11
18.787415
 21
259.399390
 31
0.0
  0
LINE
  5
106
100
AcDbEntity
  8
Layer_1
 62
5
100
AcDbLine
 10
18.787415
 20
259.399390
 30
0.0
 11
18.787415
 21
260.999299
 31
0.0
  0
LINE
  5
107
100
AcDbEntity
  8
Layer_1
 62
5
100
AcDbLine
 10
18.787415
 20
260.999299
 30
0.0
 11
21.787231
 21
260.999299
 31
0.0
  0
LINE
  5
108
100
AcDbEntity
  8
Layer_1
 62
5
100
AcDbLine
 10
21.787231
 20
260.999299
 30
0.0
 11
21.787231
 21
259.399390
 31
0.0
  0
LINE
  5
109
100
AcDbEntity
  8
Layer_1
 62
5
100
AcDbLine
 10
21.787231
 20
259.399390
 30
0.0
 11
23.787111
 21
259.399390
 31
0.0
  0
LINE
  5
10a
100
AcDbEntity
  8
Layer_1
 62
5
100
AcDbLine
 10
23.787111
 20
259.399390
 30
0.0
 11
23.787111
 21
256.199069
 31
0.0
  0
LINE
  5
10b
100
AcDbEntity
  8
Layer_1
 62
5
100
AcDbLine
 10
23.787111
 20
256.199069
 30
0.0
 11
21.787231
 21
256.199069
 31
0.0
  0
LINE
  5
10c
100
AcDbEntity
  8
Layer_1
 62
5
100
AcDbLine
 10
21.787231
 20
256.199069
 30
0.0
 11
21.787231
 21
254.599689
 31
0.0
  0
LINE
  5
10d
100
AcDbEntity
  8
Layer_1
 62
5
100
AcDbLine
 10
21.787231
 20
254.599689
 30
0.0
 11
18.787390
 21
254.599689
 31
0.0
  0
LINE
  5
10e
100
AcDbEntity
  8
Layer_1
 62
5
100
AcDbLine
 10
18.787390
 20
254.599689
 30
0.0
 11
18.787390
 21
256.199069
 31
0.0
  0
LINE
  5
10f
100
AcDbEntity
  8
Layer_1
 62
5
100
AcDbLine
 10
18.787390
 20
256.199069
 30
0.0
 11
15.787573
 21
256.199069
 31
0.0
  0
LINE
  5
110
100
AcDbEntity
  8
Layer_1
 62
5
100
AcDbLine
 10
15.787573
 20
256.199069
 30
0.0
 11
15.787573
 21
252.799279
 31
0.0
  0
LINE
  5
111
100
AcDbEntity
  8
Layer_1
 62
5
100
AcDbLine
 10
15.787573
 20
252.799279
 30
0.0
 11
12.787240
 21
252.799279
 31
0.0
  0
LINE
  5
112
100
AcDbEntity
  8
Layer_1
 62
5
100
AcDbLine
 10
12.787240
 20
252.799279
 30
0.0
 11
12.787240
 21
242.799379
 31
0.0
  0
LINE
  5
113
100
AcDbEntity
  8
Layer_1
 62
5
100
AcDbLine
 10
12.787240
 20
242.799379
 30
0.0
 11
15.791190
 21
242.844329
 31
0.0
  0
LINE
  5
114
100
AcDbEntity
  8
Layer_1
 62
5
100
AcDbLine
 10
15.791190
 20
242.844329
 30
0.0
 11
15.819610
 21
164.951930
 31
0.0
  0
LINE
  5
115
100
AcDbEntity
  8
Layer_1
 62
5
100
AcDbLine
 10
15.819610
 20
164.951930
 30
0.0
 11
12.846667
 21
164.939530
 31
0.0
  0
LINE
  5
116
100
AcDbEntity
  8
Layer_1
 62
5
100
AcDbLine
 10
12.846667
 20
164.939530
 30
0.0
 11
12.846667
 21
154.939630
 31
0.0
  0
LINE
  5
117
100
AcDbEntity
  8
Layer_1
 62
5
100
AcDbLine
 10
12.846667
 20
154.939630
 30
0.0
 11
15.847000
 21
154.939630
 31
0.0
  0
LINE
  5
118
100
AcDbEntity
  8
Layer_1
 62
5
100
AcDbLine
 10
15.847000
 20
154.939630
 30
0.0
 11
15.847000
 21
151.539310
 31
0.0
  0
LINE
  5
119
100
AcDbEntity
  8
Layer_1
 62
5
100
AcDbLine
 10
15.847000
 20
151.539310
 30
0.0
 11
18.846817
 21
151.539310
 31
0.0
  0
LINE
  5
11a
100
AcDbEntity
  8
Layer_1
 62
5
100
AcDbLine
 10
18.846817
 20
151.539310
 30
0.0
 11
18.846817
 21
153.139750
 31
0.0
  0
LINE
  5
11b
100
AcDbEntity
  8
Layer_1
 62
5
100
AcDbLine
 10
18.846817
 20
153.139750
 30
0.0
 11
21.846633
 21
153.139750
 31
0.0
  0
LINE
  5
11c
100
AcDbEntity
  8
Layer_1
 62
5
100
AcDbLine
 10
21.846633
 20
153.139750
 30
0.0
 11
21.846633
 21
151.539310
 31
0.0
  0
LINE
  5
11d
100
AcDbEntity
  8
Layer_1
 62
5
100
AcDbLine
 10
21.846633
 20
151.539310
 30
0.0
 11
23.847029
 21
151.539310
 31
0.0
  0
LINE
  5
11e
100
AcDbEntity
  8
Layer_1
 62
5
100
AcDbLine
 10
23.847029
 20
151.539310
 30
0.0
 11
23.847029
 21
148.339520
 31
0.0
  0
LINE
  5
11f
100
AcDbEntity
  8
Layer_1
 62
5
100
AcDbLine
 10
23.847029
 20
148.339520
 30
0.0
 11
21.846633
 21
148.339520
 31
0.0
  0
LINE
  5
120
100
AcDbEntity
  8
Layer_1
 62
5
100
AcDbLine
 10
21.846633
 20
148.339520
 30
0.0
 11
21.846633
 21
146.739610
 31
0.0
  0
LINE
  5
121
100
AcDbEntity
  8
Layer_1
 62
5
100
AcDbLine
 10
21.846633
 20
146.739610
 30
0.0
 11
18.846817
 21
146.739610
 31
0.0
  0
LINE
  5
122
100
AcDbEntity
  8
Layer_1
 62
5
100
AcDbLine
 10
18.846817
 20
146.739610
 30
0.0
 11
18.846817
 21
148.339520
 31
0.0
  0
LINE
  5
123
100
AcDbEntity
  8
Layer_1
 62
5
100
AcDbLine
 10
18.846817
 20
148.339520
 30
0.0
 11
15.847000
 21
148.339520
 31
0.0
  0
LINE
  5
124
100
AcDbEntity
  8
Layer_1
 62
5
100
AcDbLine
 10
15.847000
 20
148.339520
 30
0.0
 11
15.847000
 21
144.939730
 31
0.0
  0
LINE
  5
125
100
AcDbEntity
  8
Layer_1
 62
5
100
AcDbLine
 10
15.847000
 20
144.939730
 30
0.0
 11
12.846673
 21
144.939730
 31
0.0
  0
LINE
  5
126
100
AcDbEntity
  8
Layer_1
 62
5
100
AcDbLine
 10
12.846673
 20
144.939730
 30
0.0
 11
12.846673
 21
134.939300
 31
0.0
  0
LINE
  5
127
100
AcDbEntity
  8
Layer_1
 62
5
100
AcDbLine
 10
12.846673
 20
134.939300
 30
0.0
 11
15.819616
 21
134.875700
 31
0.0
  0
LINE
  5
128
100
AcDbEntity
  8
Layer_1
 62
5
100
AcDbLine
 10
15.819616
 20
134.875700
 30
0.0
 11
15.796356
 21
57.043220
 31
0.0
  0
LINE
  5
129
100
AcDbEntity
  8
Layer_1
 62
5
100
AcDbLine
 10
15.796356
 20
57.043220
 30
0.0
 11
12.787239
 21
57.079920
 31
0.0
  0
LINE
  5
12a
100
AcDbEntity
  8
Layer_1
 62
5
100
AcDbLine
 10
12.787239
 20
57.079920
 30
0.0
 11
12.787239
 21
47.080020
 31
0.0
  0
LINE
  5
12b
100
AcDbEntity
  8
Layer_1
 62
5
100
AcDbLine
 10
12.787239
 20
47.080020
 30
0.0
 11
15.787056
 21
47.080020
 31
0.0
  0
LINE
  5
12c
100
AcDbEntity
  8
Layer_1
 62
5
100
AcDbLine
 10
15.787056
 20
47.080020
 30
0.0
 11
15.787056
 21
43.679710
 31
0.0
  0
LINE
  5
12d
100
AcDbEntity
  8
Layer_1
 62
5
100
AcDbLine
 10
15.787056
 20
43.679710
 30
0.0
 11
18.787388
 21
43.679710
 31
0.0
  0
LINE
  5
12e
100
AcDbEntity
  8
Layer_1
 62
5
100
AcDbLine
 10
18.787388
 20
43.679710
 30
0.0
 11
18.787388
 21
45.280140
 31
0.0
  0
LINE
  5
12f
100
AcDbEntity
  8
Layer_1
 62
5
100
AcDbLine
 10
18.787388
 20
45.280140
 30
0.0
 11
21.787205
 21
45.280140
 31
0.0
  0
LINE
  5
130
100
AcDbEntity
  8
Layer_1
 62
5
100
AcDbLine
 10
21.787205
 20
45.280140
 30
0.0
 11
21.787205
 21
43.679710
 31
0.0
  0
LINE
  5
131
100
AcDbEntity
  8
Layer_1
 62
5
100
AcDbLine
 10
21.787205
 20
43.679710
 30
0.0
 11
23.787085
 21
43.679710
 31
0.0
  0
LINE
  5
132
100
AcDbEntity
  8
Layer_1
 62
5
100
AcDbLine
 10
23.787085
 20
43.679710
 30
0.0
 11
23.787085
 21
40.479910
 31
0.0
  0
LINE
  5
133
100
AcDbEntity
  8
Layer_1
 62
5
100
AcDbLine
 10
23.787085
 20
40.479910
 30
0.0
 11
21.787205
 21
40.479910
 31
0.0
  0
LINE
  5
134
100
AcDbEntity
  8
Layer_1
 62
5
100
AcDbLine
 10
21.787205
 20
40.479910
 30
0.0
 11
21.787205
 21
38.880530
 31
0.0
  0
LINE
  5
135
100
AcDbEntity
  8
Layer_1
 62
5
100
AcDbLine
 10
21.787205
 20
38.880530
 30
0.0
 11
18.787388
 21
38.880530
 31
0.0
  0
LINE
  5
136
100
AcDbEntity
  8
Layer_1
 62
5
100
AcDbLine
 10
18.787388
 20
38.880530
 30
0.0
 11
18.787388
 21
40.479910
 31
0.0
  0
LINE
  5
137
100
AcDbEntity
  8
Layer_1
 62
5
100
AcDbLine
 10
18.787388
 20
40.479910
 30
0.0
 11
15.787060
 21
40.479910
 31
0.0
  0
LINE
  5
138
100
AcDbEntity
  8
Layer_1
 62
5
100
AcDbLine
 10
15.787060
 20
40.479910
 30
0.0
 11
15.787060
 21
37.080120
 31
0.0
  0
LINE
  5
139
100
AcDbEntity
  8
Layer_1
 62
5
100
AcDbLine
 10
15.787060
 20
37.080120
 30
0.0
 11
12.787243
 21
37.080120
 31
0.0
  0
LINE
  5
13a
100
AcDbEntity
  8
Layer_1
 62
5
100
AcDbLine
 10
12.787243
 20
37.080120
 30
0.0
 11
12.787243
 21
27.080200
 31
0.0
  0
LINE
  5
13b
100
AcDbEntity
  8
Layer_1
 62
5
100
AcDbLine
 10
12.787243
 20
27.080200
 30
0.0
 11
15.793262
 21
27.203700
 31
0.0
  0
LINE
  5
13c
100
AcDbEntity
  8
Layer_1
 62
5
100
AcDbLine
 10
15.793262
 20
27.203700
 30
0.0
 11
15.796362
 21
2.620710
 31
0.0
  0
LINE
  5
13d
100
AcDbEntity
  8
Layer_1
 62
5
100
AcDbLine
 10
15.796362
 20
2.620710
 30
0.0
 11
94.031896
 21
2.605110
 31
0.0
  0
LINE
  5
13e
100
AcDbEntity
  8
Layer_1
 62
5
100
AcDbLine
 10
94.031896
 20
2.605110
 30
0.0
 11
94.031896
 21
5.572350
 31
0.0
  0
LINE
  5
13f
100
AcDbEntity
  8
Layer_1
 62
5
100
AcDbLine
 10
94.031896
 20
5.572350
 30
0.0
 11
92.431990
 21
5.572350
 31
0.0
  0
LINE
  5
140
100
AcDbEntity
  8
Layer_1
 62
5
100
AcDbLine
 10
92.431990
 20
5.572350
 30
0.0
 11
92.431990
 21
8.572170
 31
0.0
  0
LINE
  5
141
100
AcDbEntity
  8
Layer_1
 62
5
100
AcDbLine
 10
92.431990
 20
8.572170
 30
0.0
 11
94.031891
 21
8.572170
 31
0.0
  0
LINE
  5
142
100
AcDbEntity
  8
Layer_1
 62
5
100
AcDbLine
 10
94.031891
 20
8.572170
 30
0.0
 11
94.031891
 21
10.572050
 31
0.0
  0
LINE
  5
143
100
AcDbEntity
  8
Layer_1
 62
5
100
AcDbLine
 10
94.031891
 20
10.572050
 30
0.0
 11
97.232214
 21
10.572050
 31
0.0
  0
LINE
  5
144
100
AcDbEntity
  8
Layer_1
 62
5
100
AcDbLine
 10
97.232214
 20
10.572050
 30
0.0
 11
97.232214
 21
8.572170
 31
0.0
  0
LINE
  5
145
100
AcDbEntity
  8
Layer_1
 62
5
100
AcDbLine
 10
97.232214
 20
8.572170
 30
0.0
 11
98.832115
 21
8.572170
 31
0.0
  0
LINE
  5
146
100
AcDbEntity
  8
Layer_1
 62
5
100
AcDbLine
 10
98.832115
 20
8.572170
 30
0.0
 11
98.832115
 21
5.572350
 31
0.0
  0
LINE
  5
147
100
AcDbEntity
  8
Layer_1
 62
5
100
AcDbLine
 10
98.832115
 20
5.572350
 30
0.0
 11
97.232214
 21
5.572350
 31
0.0
  0
LINE
  5
148
100
AcDbEntity
  8
Layer_1
 62
5
100
AcDbLine
 10
97.232214
 20
5.572350
 30
0.0
 11
97.232214
 21
2.604570
 31
0.0
  0
LINE
  5
149
100
AcDbEntity
  8
Layer_1
 62
5
100
AcDbLine
 10
97.232214
 20
2.604570
 30
0.0
 11
175.373180
 21
2.588970
 31
0.0
  0
SPLINE
  5
14a
100
AcDbEntity
  8
Layer_1
 62
5
100
AcDbSpline
 70
8
 71
3
 72
8
 73
4
 74
0
 40
0
 40
0
 40
0
 40
0
 40
1
 40
1
 40
1
 40
1
 10
175.373180
 20
2.588970
 30
0.0
 10
214.505840
 20
2.557370
 30
0.0
 10
252.026460
 20
18.099190
 30
0.0
 10
279.690840
 20
45.763600
 30
0.0
  0
LINE
  5
14b
100
AcDbEntity
  8
Layer_1
 62
5
100
AcDbLine
 10
279.690840
 20
45.763600
 30
0.0
 11
279.690840
 21
45.763600
 31
0.0
  0
SPLINE
  5
14c
100
AcDbEntity
  8
Layer_1
 62
5
100
AcDbSpline
 70
8
 71
3
 72
8
 73
4
 74
0
 40
0
 40
0
 40
0
 40
0
 40
1
 40
1
 40
1
 40
1
 10
279.690840
 20
45.763600
 30
0.0
 10
307.355230
 20
73.427980
 30
0.0
 10
322.896880
 20
110.948650
 30
0.0
 10
322.998290
 20
150.000640
 30
0.0
  0
LINE
  5
14d
100
AcDbEntity
  8
Layer_1
 62
5
100
AcDbLine
 10
322.998290
 20
150.000640
 30
0.0
 11
323.032890
 21
208.863197
 31
0.0
  0
LINE
  5
14e
100
AcDbEntity
  8
Layer_1
 62
5
100
AcDbLine
 10
323.032890
 20
208.863197
 30
0.0
 11
326.025990
 21
208.823907
 31
0.0
  0
LINE
  5
14f
100
AcDbEntity
  8
Layer_1
 62
5
100
AcDbLine
 10
326.025990
 20
208.823907
 30
0.0
 11
326.025990
 21
218.823834
 31
0.0
  0
LINE
  5
150
100
AcDbEntity
  8
Layer_1
 62
5
100
AcDbLine
 10
326.025990
 20
218.823834
 30
0.0
 11
323.025670
 21
218.823834
 31
0.0
  0
LINE
  5
151
100
AcDbEntity
  8
Layer_1
 62
5
100
AcDbLine
 10
323.025670
 20
218.823834
 30
0.0
 11
323.025670
 21
222.224127
 31
0.0
  0
LINE
  5
152
100
AcDbEntity
  8
Layer_1
 62
5
100
AcDbLine
 10
323.025670
 20
222.224127
 30
0.0
 11
320.025850
 21
222.224127
 31
0.0
  0
LINE
  5
153
100
AcDbEntity
  8
Layer_1
 62
5
100
AcDbLine
 10
320.025850
 20
222.224127
 30
0.0
 11
320.025850
 21
220.623715
 31
0.0
  0
LINE
  5
154
100
AcDbEntity
  8
Layer_1
 62
5
100
AcDbLine
 10
320.025850
 20
220.623715
 30
0.0
 11
317.026030
 21
220.623715
 31
0.0
  0
LINE
  5
155
100
AcDbEntity
  8
Layer_1
 62
5
100
AcDbLine
 10
317.026030
 20
220.623715
 30
0.0
 11
317.026030
 21
222.224127
 31
0.0
  0
LINE
  5
156
100
AcDbEntity
  8
Layer_1
 62
5
100
AcDbLine
 10
317.026030
 20
222.224127
 30
0.0
 11
315.025620
 21
222.224127
 31
0.0
  0
LINE
  5
157
100
AcDbEntity
  8
Layer_1
 62
5
100
AcDbLine
 10
315.025620
 20
222.224127
 30
0.0
 11
315.025620
 21
225.423945
 31
0.0
  0
LINE
  5
158
100
AcDbEntity
  8
Layer_1
 62
5
100
AcDbLine
 10
315.025620
 20
225.423945
 30
0.0
 11
317.026030
 21
225.423945
 31
0.0
  0
LINE
  5
159
100
AcDbEntity
  8
Layer_1
 62
5
100
AcDbLine
 10
317.026030
 20
225.423945
 30
0.0
 11
317.026030
 21
227.023854
 31
0.0
  0
LINE
  5
15a
100
AcDbEntity
  8
Layer_1
 62
5
100
AcDbLine
 10
317.026030
 20
227.023854
 30
0.0
 11
320.025850
 21
227.023854
 31
0.0
  0
LINE
  5
15b
100
AcDbEntity
  8
Layer_1
 62
5
100
AcDbLine
 10
320.025850
 20
227.023854
 30
0.0
 11
320.025850
 21
225.423945
 31
0.0
  0
LINE
  5
15c
100
AcDbEntity
  8
Layer_1
 62
5
100
AcDbLine
 10
320.025850
 20
225.423945
 30
0.0
 11
323.025670
 21
225.423945
 31
0.0
  0
LINE
  5
15d
100
AcDbEntity
  8
Layer_1
 62
5
100
AcDbLine
 10
323.025670
 20
225.423945
 30
0.0
 11
323.025670
 21
228.823735
 31
0.0
  0
LINE
  5
15e
100
AcDbEntity
  8
Layer_1
 62
5
100
AcDbLine
 10
323.025670
 20
228.823735
 30
0.0
 11
326.026000
 21
228.823735
 31
0.0
  0
LINE
  5
15f
100
AcDbEntity
  8
Layer_1
 62
5
100
AcDbLine
 10
326.026000
 20
228.823735
 30
0.0
 11
326.026000
 21
238.824153
 31
0.0
  0
LINE
  5
160
100
AcDbEntity
  8
Layer_1
 62
5
100
AcDbLine
 10
326.026000
 20
238.824153
 30
0.0
 11
323.042210
 21
238.787963
 31
0.0
  0
LINE
  5
161
100
AcDbEntity
  8
Layer_1
 62
5
100
AcDbLine
 10
323.042210
 20
238.787963
 30
0.0
 11
323.098510
 21
297.523397
 31
0.0
  0
LINE
  5
162
100
AcDbEntity
  8
Layer_1
 62
5
100
AcDbLine
 10
323.098510
 20
297.523397
 30
0.0
 11
235.439250
 21
297.523397
 31
0.0
  0
LINE
  5
163
100
AcDbEntity
  8
Layer_1
 62
5
100
AcDbLine
 10
235.439250
 20
297.523397
 30
0.0
 11
235.439250
 21
294.571124
 31
0.0
  0
LINE
  5
164
100
AcDbEntity
  8
Layer_1
 62
5
100
AcDbLine
 10
235.439250
 20
294.571124
 30
0.0
 11
237.039160
 21
294.571124
 31
0.0
  0
LINE
  5
165
100
AcDbEntity
  8
Layer_1
 62
5
100
AcDbLine
 10
237.039160
 20
294.571124
 30
0.0
 11
237.039160
 21
291.571304
 31
0.0
  0
LINE
  5
166
100
AcDbEntity
  8
Layer_1
 62
5
100
AcDbLine
 10
237.039160
 20
291.571304
 30
0.0
 11
235.439250
 21
291.571304
 31
0.0
  0
LINE
  5
167
100
AcDbEntity
  8
Layer_1
 62
5
100
AcDbLine
 10
235.439250
 20
291.571304
 30
0.0
 11
235.439250
 21
289.571425
 31
0.0
  0
LINE
  5
168
100
AcDbEntity
  8
Layer_1
 62
5
100
AcDbLine
 10
235.439250
 20
289.571425
 30
0.0
 11
232.238930
 21
289.571425
 31
0.0
  0
LINE
  5
169
100
AcDbEntity
  8
Layer_1
 62
5
100
AcDbLine
 10
232.238930
 20
289.571425
 30
0.0
 11
232.238930
 21
291.571299
 31
0.0
  0
LINE
  5
16a
100
AcDbEntity
  8
Layer_1
 62
5
100
AcDbLine
 10
232.238930
 20
291.571299
 30
0.0
 11
230.639020
 21
291.571299
 31
0.0
  0
LINE
  5
16b
100
AcDbEntity
  8
Layer_1
 62
5
100
AcDbLine
 10
230.639020
 20
291.571299
 30
0.0
 11
230.639020
 21
294.571119
 31
0.0
  0
LINE
  5
16c
100
AcDbEntity
  8
Layer_1
 62
5
100
AcDbLine
 10
230.639020
 20
294.571119
 30
0.0
 11
232.238930
 21
294.571119
 31
0.0
  0
LINE
  5
16d
100
AcDbEntity
  8
Layer_1
 62
5
100
AcDbLine
 10
232.238930
 20
294.571119
 30
0.0
 11
232.238930
 21
297.523392
 31
0.0
  0
LINE
  5
16e
100
AcDbEntity
  8
Layer_1
 62
5
100
AcDbLine
 10
232.238930
 20
297.523392
 30
0.0
 11
106.342230
 21
297.523392
 31
0.0
  0
LINE
  5
16f
100
AcDbEntity
  8
Layer_1
 62
5
100
AcDbLine
 10
106.342230
 20
297.523392
 30
0.0
 11
106.342230
 21
294.595937
 31
0.0
  0
LINE
  5
170
100
AcDbEntity
  8
Layer_1
 62
5
100
AcDbLine
 10
106.342230
 20
294.595937
 30
0.0
 11
107.942130
 21
294.595937
 31
0.0
  0
LINE
  5
171
100
AcDbEntity
  8
Layer_1
 62
5
100
AcDbLine
 10
107.942130
 20
294.595937
 30
0.0
 11
107.942130
 21
291.596117
 31
0.0
  0
LINE
  5
172
100
AcDbEntity
  8
Layer_1
 62
5
100
AcDbLine
 10
107.942130
 20
291.596117
 30
0.0
 11
106.342230
 21
291.596117
 31
0.0
  0
LINE
  5
173
100
AcDbEntity
  8
Layer_1
 62
5
100
AcDbLine
 10
106.342230
 20
291.596117
 30
0.0
 11
106.342230
 21
289.596238
 31
0.0
  0
LINE
  5
174
100
AcDbEntity
  8
Layer_1
 62
5
100
AcDbLine
 10
106.342230
 20
289.596238
 30
0.0
 11
103.141900
 21
289.596238
 31
0.0
  0
LINE
  5
175
100
AcDbEntity
  8
Layer_1
 62
5
100
AcDbLine
 10
103.141900
 20
289.596238
 30
0.0
 11
103.141900
 21
291.596117
 31
0.0
  0
LINE
  5
176
100
AcDbEntity
  8
Layer_1
 62
5
100
AcDbLine
 10
103.141900
 20
291.596117
 30
0.0
 11
101.542000
 21
291.596117
 31
0.0
  0
LINE
  5
177
100
AcDbEntity
  8
Layer_1
 62
5
100
AcDbLine
 10
101.542000
 20
291.596117
 30
0.0
 11
101.542000
 21
294.595937
 31
0.0
  0
LINE
  5
178
100
AcDbEntity
  8
Layer_1
 62
5
100
AcDbLine
 10
101.542000
 20
294.595937
 30
0.0
 11
103.141900
 21
294.595937
 31
0.0
  0
LINE
  5
179
100
AcDbEntity
  8
Layer_1
 62
5
100
AcDbLine
 10
103.141900
 20
294.595937
 30
0.0
 11
103.141900
 21
297.523392
 31
0.0
  0
LINE
  5
17a
100
AcDbEntity
  8
Layer_1
 62
5
100
AcDbLine
 10
103.141900
 20
297.523392
 30
0.0
 11
15.794815
 21
297.524213
 31
0.0
  0
SPLINE
  5
17b
100
AcDbEntity
  8
Layer_1
 62
3
100
AcDbSpline
 70
8
 71
3
 72
8
 73
4
 74
0
 40
0
 40
0
 40
0
 40
0
 40
1
 40
1
 40
1
 40
1
 10
175.380960
 20
11.636690
 30
0.0
 10
212.096520
 20
11.636690
 30
0.0
 10
247.308290
 20
26.221880
 30
0.0
 10
273.270110
 20
52.183700
 30
0.0
  0
SPLINE
  5
17c
100
AcDbEntity
  8
Layer_1
 62
3
100
AcDbSpline
 70
8
 71
3
 72
8
 73
4
 74
0
 40
0
 40
0
 40
0
 40
0
 40
1
 40
1
 40
1
 40
1
 10
273.270110
 20
52.183700
 30
0.0
 10
299.231900
 20
78.145520
 30
0.0
 10
313.817120
 20
113.357320
 30
0.0
 10
313.817120
 20
150.072850
 30
0.0
  0
SPLINE
  5
17d
100
AcDbEntity
  8
Layer_1
 62
3
100
AcDbSpline
 70
8
 71
3
 72
8
 73
4
 74
0
 40
0
 40
0
 40
0
 40
0
 40
1
 40
1
 40
1
 40
1
 10
313.817120
 20
150.072850
 30
0.0
 10
313.817120
 20
186.788410
 30
0.0
 10
299.231930
 20
222.000215
 30
0.0
 10
273.270140
 20
247.962007
 30
0.0
  0
SPLINE
  5
17e
100
AcDbEntity
  8
Layer_1
 62
3
100
AcDbSpline
 70
8
 71
3
 72
8
 73
4
 74
0
 40
0
 40
0
 40
0
 40
0
 40
1
 40
1
 40
1
 40
1
 10
273.270140
 20
247.962007
 30
0.0
 10
247.308290
 20
273.923828
 30
0.0
 10
212.096520
 20
288.509043
 30
0.0
 10
175.380960
 20
288.509043
 30
0.0
  0
LINE
  5
17f
100
AcDbEntity
  8
Layer_1
 62
3
100
AcDbLine
 10
175.380960
 20
288.509043
 30
0.0
 11
175.425260
 21
283.831155
 31
0.0
  0
SPLINE
  5
180
100
AcDbEntity
  8
Layer_1
 62
3
100
AcDbSpline
 70
8
 71
3
 72
8
 73
4
 74
0
 40
0
 40
0
 40
0
 40
0
 40
1
 40
1
 40
1
 40
1
 10
175.425260
 20
283.831155
 30
0.0
 10
210.900180
 20
283.831155
 30
0.0
 10
244.922080
 20
269.738811
 30
0.0
 10
270.006700
 20
244.654278
 30
0.0
  0
SPLINE
  5
181
100
AcDbEntity
  8
Layer_1
 62
3
100
AcDbSpline
 70
8
 71
3
 72
8
 73
4
 74
0
 40
0
 40
0
 40
0
 40
0
 40
1
 40
1
 40
1
 40
1
 10
270.006700
 20
244.654278
 30
0.0
 10
295.091210
 20
219.569774
 30
0.0
 10
309.183550
 20
185.547760
 30
0.0
 10
309.183550
 20
150.072870
 30
0.0
  0
SPLINE
  5
182
100
AcDbEntity
  8
Layer_1
 62
3
100
AcDbSpline
 70
8
 71
3
 72
8
 73
4
 74
0
 40
0
 40
0
 40
0
 40
0
 40
1
 40
1
 40
1
 40
1
 10
309.183550
 20
150.072870
 30
0.0
 10
309.183550
 20
114.597940
 30
0.0
 10
295.091180
 20
80.575990
 30
0.0
 10
270.006670
 20
55.491490
 30
0.0
  0
SPLINE
  5
183
100
AcDbEntity
  8
Layer_1
 62
3
100
AcDbSpline
 70
8
 71
3
 72
8
 73
4
 74
0
 40
0
 40
0
 40
0
 40
0
 40
1
 40
1
 40
1
 40
1
 10
270.006670
 20
55.491490
 30
0.0
 10
244.922080
 20
30.406900
 30
0.0
 10
210.900180
 20
16.314580
 30
0.0
 10
175.425260
 20
16.314580
 30
0.0
  0
LINE
  5
184
100
AcDbEntity
  8
Layer_1
 62
3
100
AcDbLine
 10
175.425260
 20
16.314580
 30
0.0
 11
175.380960
 21
11.636690
 31
0.0
  0
LINE
  5
185
100
AcDbEntity
  8
Layer_1
 62
5
100
AcDbLine
 10
72.685320
 20
191.484020
 30
0.0
 11
82.685325
 21
191.484020
 31
0.0
  0
LINE
  5
186
100
AcDbEntity
  8
Layer_1
 62
5
100
AcDbLine
 10
82.685325
 20
191.484020
 30
0.0
 11
82.685325
 21
188.484030
 31
0.0
  0
LINE
  5
187
100
AcDbEntity
  8
Layer_1
 62
5
100
AcDbLine
 10
82.685325
 20
188.484030
 30
0.0
 11
72.685320
 21
188.484030
 31
0.0
  0
LINE
  5
188
100
AcDbEntity
  8
Layer_1
 62
5
100
AcDbLine
 10
72.685320
 20
188.484030
 30
0.0
 11
72.685320
 21
191.484020
 31
0.0
  0
LINE
  5
189
100
AcDbEntity
  8
Layer_1
 62
5
100
AcDbLine
 10
92.685280
 20
191.484020
 30
0.0
 11
102.685290
 21
191.484020
 31
0.0
  0
LINE
  5
18a
100
AcDbEntity
  8
Layer_1
 62
5
100
AcDbLine
 10
102.685290
 20
191.484020
 30
0.0
 11
102.685290
 21
188.484030
 31
0.0
  0
LINE
  5
18b
100
AcDbEntity
  8
Layer_1
 62
5
100
AcDbLine
 10
102.685290
 20
188.484030
 30
0.0
 11
92.685280
 21
188.484030
 31
0.0
  0
LINE
  5
18c
100
AcDbEntity
  8
Layer_1
 62
5
100
AcDbLine
 10
92.685280
 20
188.484030
 30
0.0
 11
92.685280
 21
191.484020
 31
0.0
  0
SPLINE
  5
18d
100
AcDbEntity
  8
Layer_1
 62
5
100
AcDbSpline
 70
8
 71
3
 72
8
 73
4
 74
0
 40
0
 40
0
 40
0
 40
0
 40
1
 40
1
 40
1
 40
1
 10
89.235292
 20
189.982880
 30
0.0
 10
89.235295
 20
189.571792
 30
0.0
 10
89.071993
 20
189.177541
 30
0.0
 10
88.781310
 20
188.886857
 30
0.0
  0
SPLINE
  5
18e
100
AcDbEntity
  8
Layer_1
 62
5
100
AcDbSpline
 70
8
 71
3
 72
8
 73
4
 74
0
 40
0
 40
0
 40
0
 40
0
 40
1
 40
1
 40
1
 40
1
 10
88.781310
 20
188.886857
 30
0.0
 10
88.490628
 20
188.596174
 30
0.0
 10
88.096378
 20
188.432869
 30
0.0
 10
87.685290
 20
188.432870
 30
0.0
  0
SPLINE
  5
18f
100
AcDbEntity
  8
Layer_1
 62
5
100
AcDbSpline
 70
8
 71
3
 72
8
 73
4
 74
0
 40
0
 40
0
 40
0
 40
0
 40
1
 40
1
 40
1
 40
1
 10
87.685290
 20
188.432870
 30
0.0
 10
87.274203
 20
188.432870
 30
0.0
 10
86.879953
 20
188.596175
 30
0.0
 10
86.589271
 20
188.886858
 30
0.0
  0
SPLINE
  5
190
100
AcDbEntity
  8
Layer_1
 62
5
100
AcDbSpline
 70
8
 71
3
 72
8
 73
4
 74
0
 40
0
 40
0
 40
0
 40
0
 40
1
 40
1
 40
1
 40
1
 10
86.589271
 20
188.886858
 30
0.0
 10
86.298590
 20
189.177542
 30
0.0
 10
86.135288
 20
189.571793
 30
0.0
 10
86.135291
 20
189.982880
 30
0.0
  0
SPLINE
  5
191
100
AcDbEntity
  8
Layer_1
 62
5
100
AcDbSpline
 70
8
 71
3
 72
8
 73
4
 74
0
 40
0
 40
0
 40
0
 40
0
 40
1
 40
1
 40
1
 40
1
 10
86.135291
 20
189.982880
 30
0.0
 10
86.135288
 20
190.393967
 30
0.0
 10
86.298590
 20
190.788218
 30
0.0
 10
86.589271
 20
191.078902
 30
0.0
  0
SPLINE
  5
192
100
AcDbEntity
  8
Layer_1
 62
5
100
AcDbSpline
 70
8
 71
3
 72
8
 73
4
 74
0
 40
0
 40
0
 40
0
 40
0
 40
1
 40
1
 40
1
 40
1
 10
86.589271
 20
191.078902
 30
0.0
 10
86.879953
 20
191.369585
 30
0.0
 10
87.274203
 20
191.532890
 30
0.0
 10
87.685290
 20
191.532890
 30
0.0
  0
SPLINE
  5
193
100
AcDbEntity
  8
Layer_1
 62
5
100
AcDbSpline
 70
8
 71
3
 72
8
 73
4
 74
0
 40
0
 40
0
 40
0
 40
0
 40
1
 40
1
 40
1
 40
1
 10
87.685290
 20
191.532890
 30
0.0
 10
88.096378
 20
191.532891
 30
0.0
 10
88.490628
 20
191.369586
 30
0.0
 10
88.781310
 20
191.078903
 30
0.0
  0
SPLINE
  5
194
100
AcDbEntity
  8
Layer_1
 62
5
100
AcDbSpline
 70
8
 71
3
 72
8
 73
4
 74
0
 40
0
 40
0
 40
0
 40
0
 40
1
 40
1
 40
1
 40
1
 10
88.781310
 20
191.078903
 30
0.0
 10
89.071993
 20
190.788219
 30
0.0
 10
89.235295
 20
190.393968
 30
0.0
 10
89.235292
 20
189.982880
 30
0.0
  0
LINE
  5
195
100
AcDbEntity
  8
Layer_1
 62
5
100
AcDbLine
 10
89.235292
 20
189.982880
 30
0.0
 11
89.235292
 21
189.982880
 31
0.0
  0
LINE
  5
196
100
AcDbEntity
  8
Layer_1
 62
5
100
AcDbLine
 10
158.753160
 20
191.484020
 30
0.0
 11
168.753170
 21
191.484020
 31
0.0
  0
LINE
  5
197
100
AcDbEntity
  8
Layer_1
 62
5
100
AcDbLine
 10
168.753170
 20
191.484020
 30
0.0
 11
168.753170
 21
188.484030
 31
0.0
  0
LINE
  5
198
100
AcDbEntity
  8
Layer_1
 62
5
100
AcDbLine
 10
168.753170
 20
188.484030
 30
0.0
 11
158.753160
 21
188.484030
 31
0.0
  0
LINE
  5
199
100
AcDbEntity
  8
Layer_1
 62
5
100
AcDbLine
 10
158.753160
 20
188.484030
 30
0.0
 11
158.753160
 21
191.484020
 31
0.0
  0
LINE
  5
19a
100
AcDbEntity
  8
Layer_1
 62
5
100
AcDbLine
 10
178.753120
 20
191.484020
 30
0.0
 11
188.753130
 21
191.484020
 31
0.0
  0
LINE
  5
19b
100
AcDbEntity
  8
Layer_1
 62
5
100
AcDbLine
 10
188.753130
 20
191.484020
 30
0.0
 11
188.753130
 21
188.484030
 31
0.0
  0
LINE
  5
19c
100
AcDbEntity
  8
Layer_1
 62
5
100
AcDbLine
 10
188.753130
 20
188.484030
 30
0.0
 11
178.753120
 21
188.484030
 31
0.0
  0
LINE
  5
19d
100
AcDbEntity
  8
Layer_1
 62
5
100
AcDbLine
 10
178.753120
 20
188.484030
 30
0.0
 11
178.753120
 21
191.484020
 31
0.0
  0
SPLINE
  5
19e
100
AcDbEntity
  8
Layer_1
 62
5
100
AcDbSpline
 70
8
 71
3
 72
8
 73
4
 74
0
 40
0
 40
0
 40
0
 40
0
 40
1
 40
1
 40
1
 40
1
 10
175.303130
 20
189.982880
 30
0.0
 10
175.303133
 20
189.571793
 30
0.0
 10
175.139831
 20
189.177541
 30
0.0
 10
174.849149
 20
188.886858
 30
0.0
  0
SPLINE
  5
19f
100
AcDbEntity
  8
Layer_1
 62
5
100
AcDbSpline
 70
8
 71
3
 72
8
 73
4
 74
0
 40
0
 40
0
 40
0
 40
0
 40
1
 40
1
 40
1
 40
1
 10
174.849149
 20
188.886858
 30
0.0
 10
174.558467
 20
188.596174
 30
0.0
 10
174.164217
 20
188.432870
 30
0.0
 10
173.753130
 20
188.432870
 30
0.0
  0
SPLINE
  5
1a0
100
AcDbEntity
  8
Layer_1
 62
5
100
AcDbSpline
 70
8
 71
3
 72
8
 73
4
 74
0
 40
0
 40
0
 40
0
 40
0
 40
1
 40
1
 40
1
 40
1
 10
173.753130
 20
188.432870
 30
0.0
 10
173.342043
 20
188.432870
 30
0.0
 10
172.947793
 20
188.596174
 30
0.0
 10
172.657111
 20
188.886858
 30
0.0
  0
SPLINE
  5
1a1
100
AcDbEntity
  8
Layer_1
 62
5
100
AcDbSpline
 70
8
 71
3
 72
8
 73
4
 74
0
 40
0
 40
0
 40
0
 40
0
 40
1
 40
1
 40
1
 40
1
 10
172.657111
 20
188.886858
 30
0.0
 10
172.366429
 20
189.177541
 30
0.0
 10
172.203127
 20
189.571793
 30
0.0
 10
172.203130
 20
189.982880
 30
0.0
  0
SPLINE
  5
1a2
100
AcDbEntity
  8
Layer_1
 62
5
100
AcDbSpline
 70
8
 71
3
 72
8
 73
4
 74
0
 40
0
 40
0
 40
0
 40
0
 40
1
 40
1
 40
1
 40
1
 10
172.203130
 20
189.982880
 30
0.0
 10
172.203127
 20
190.393967
 30
0.0
 10
172.366429
 20
190.788219
 30
0.0
 10
172.657111
 20
191.078902
 30
0.0
  0
SPLINE
  5
1a3
100
AcDbEntity
  8
Layer_1
 62
5
100
AcDbSpline
 70
8
 71
3
 72
8
 73
4
 74
0
 40
0
 40
0
 40
0
 40
0
 40
1
 40
1
 40
1
 40
1
 10
172.657111
 20
191.078902
 30
0.0
 10
172.947793
 20
191.369586
 30
0.0
 10
173.342043
 20
191.532890
 30
0.0
 10
173.753130
 20
191.532890
 30
0.0
  0
SPLINE
  5
1a4
100
AcDbEntity
  8
Layer_1
 62
5
100
AcDbSpline
 70
8
 71
3
 72
8
 73
4
 74
0
 40
0
 40
0
 40
0
 40
0
 40
1
 40
1
 40
1
 40
1
 10
173.753130
 20
191.532890
 30
0.0
 10
174.164217
 20
191.532890
 30
0.0
 10
174.558467
 20
191.369586
 30
0.0
 10
174.849149
 20
191.078902
 30
0.0
  0
SPLINE
  5
1a5
100
AcDbEntity
  8
Layer_1
 62
5
100
AcDbSpline
 70
8
 71
3
 72
8
 73
4
 74
0
 40
0
 40
0
 40
0
 40
0
 40
1
 40
1
 40
1
 40
1
 10
174.849149
 20
191.078902
 30
0.0
 10
175.139831
 20
190.788219
 30
0.0
 10
175.303133
 20
190.393967
 30
0.0
 10
175.303130
 20
189.982880
 30
0.0
  0
LINE
  5
1a6
100
AcDbEntity
  8
Layer_1
 62
5
100
AcDbLine
 10
175.303130
 20
189.982880
 30
0.0
 11
175.303130
 21
189.982880
 31
0.0
  0
LINE
  5
1a7
100
AcDbEntity
  8
Layer_1
 62
5
100
AcDbLine
 10
72.685320
 20
111.631710
 30
0.0
 11
82.685325
 21
111.631710
 31
0.0
  0
LINE
  5
1a8
100
AcDbEntity
  8
Layer_1
 62
5
100
AcDbLine
 10
82.685325
 20
111.631710
 30
0.0
 11
82.685325
 21
108.631720
 31
0.0
  0
LINE
  5
1a9
100
AcDbEntity
  8
Layer_1
 62
5
100
AcDbLine
 10
82.685325
 20
108.631720
 30
0.0
 11
72.685320
 21
108.631720
 31
0.0
  0
LINE
  5
1aa
100
AcDbEntity
  8
Layer_1
 62
5
100
AcDbLine
 10
72.685320
 20
108.631720
 30
0.0
 11
72.685320
 21
111.631710
 31
0.0
  0
LINE
  5
1ab
100
AcDbEntity
  8
Layer_1
 62
5
100
AcDbLine
 10
92.685280
 20
111.631710
 30
0.0
 11
102.685290
 21
111.631710
 31
0.0
  0
LINE
  5
1ac
100
AcDbEntity
  8
Layer_1
 62
5
100
AcDbLine
 10
102.685290
 20
111.631710
 30
0.0
 11
102.685290
 21
108.631720
 31
0.0
  0
LINE
  5
1ad
100
AcDbEntity
  8
Layer_1
 62
5
100
AcDbLine
 10
102.685290
 20
108.631720
 30
0.0
 11
92.685280
 21
108.631720
 31
0.0
  0
LINE
  5
1ae
100
AcDbEntity
  8
Layer_1
 62
5
100
AcDbLine
 10
92.685280
 20
108.631720
 30
0.0
 11
92.685280
 21
111.631710
 31
0.0
  0
SPLINE
  5
1af
100
AcDbEntity
  8
Layer_1
 62
5
100
AcDbSpline
 70
8
 71
3
 72
8
 73
4
 74
0
 40
0
 40
0
 40
0
 40
0
 40
1
 40
1
 40
1
 40
1
 10
89.235292
 20
110.130570
 30
0.0
 10
89.235295
 20
109.719482
 30
0.0
 10
89.071993
 20
109.325231
 30
0.0
 10
88.781310
 20
109.034547
 30
0.0
  0
SPLINE
  5
1b0
100
AcDbEntity
  8
Layer_1
 62
5
100
AcDbSpline
 70
8
 71
3
 72
8
 73
4
 74
0
 40
0
 40
0
 40
0
 40
0
 40
1
 40
1
 40
1
 40
1
 10
88.781310
 20
109.034547
 30
0.0
 10
88.490628
 20
108.743864
 30
0.0
 10
88.096378
 20
108.580559
 30
0.0
 10
87.685290
 20
108.580560
 30
0.0
  0
SPLINE
  5
1b1
100
AcDbEntity
  8
Layer_1
 62
5
100
AcDbSpline
 70
8
 71
3
 72
8
 73
4
 74
0
 40
0
 40
0
 40
0
 40
0
 40
1
 40
1
 40
1
 40
1
 10
87.685290
 20
108.580560
 30
0.0
 10
87.274203
 20
108.580560
 30
0.0
 10
86.879953
 20
108.743865
 30
0.0
 10
86.589271
 20
109.034548
 30
0.0
  0
SPLINE
  5
1b2
100
AcDbEntity
  8
Layer_1
 62
5
100
AcDbSpline
 70
8
 71
3
 72
8
 73
4
 74
0
 40
0
 40
0
 40
0
 40
0
 40
1
 40
1
 40
1
 40
1
 10
86.589271
 20
109.034548
 30
0.0
 10
86.298590
 20
109.325232
 30
0.0
 10
86.135288
 20
109.719483
 30
0.0
 10
86.135291
 20
110.130570
 30
0.0
  0
SPLINE
  5
1b3
100
AcDbEntity
  8
Layer_1
 62
5
100
AcDbSpline
 70
8
 71
3
 72
8
 73
4
 74
0
 40
0
 40
0
 40
0
 40
0
 40
1
 40
1
 40
1
 40
1
 10
86.135291
 20
110.130570
 30
0.0
 10
86.135288
 20
110.541657
 30
0.0
 10
86.298590
 20
110.935908
 30
0.0
 10
86.589271
 20
111.226592
 30
0.0
  0
SPLINE
  5
1b4
100
AcDbEntity
  8
Layer_1
 62
5
100
AcDbSpline
 70
8
 71
3
 72
8
 73
4
 74
0
 40
0
 40
0
 40
0
 40
0
 40
1
 40
1
 40
1
 40
1
 10
86.589271
 20
111.226592
 30
0.0
 10
86.879953
 20
111.517275
 30
0.0
 10
87.274203
 20
111.680580
 30
0.0
 10
87.685290
 20
111.680580
 30
0.0
  0
SPLINE
  5
1b5
100
AcDbEntity
  8
Layer_1
 62
5
100
AcDbSpline
 70
8
 71
3
 72
8
 73
4
 74
0
 40
0
 40
0
 40
0
 40
0
 40
1
 40
1
 40
1
 40
1
 10
87.685290
 20
111.680580
 30
0.0
 10
88.096378
 20
111.680581
 30
0.0
 10
88.490628
 20
111.517276
 30
0.0
 10
88.781310
 20
111.226593
 30
0.0
  0
SPLINE
  5
1b6
100
AcDbEntity
  8
Layer_1
 62
5
100
AcDbSpline
 70
8
 71
3
 72
8
 73
4
 74
0
 40
0
 40
0
 40
0
 40
0
 40
1
 40
1
 40
1
 40
1
 10
88.781310
 20
111.226593
 30
0.0
 10
89.071993
 20
110.935909
 30
0.0
 10
89.235295
 20
110.541658
 30
0.0
 10
89.235292
 20
110.130570
 30
0.0
  0
LINE
  5
1b7
100
AcDbEntity
  8
Layer_1
 62
5
100
AcDbLine
 10
89.235292
 20
110.130570
 30
0.0
 11
89.235292
 21
110.130570
 31
0.0
  0
LINE
  5
1b8
100
AcDbEntity
  8
Layer_1
 62
5
100
AcDbLine
 10
158.753160
 20
111.631710
 30
0.0
 11
168.753170
 21
111.631710
 31
0.0
  0
LINE
  5
1b9
100
AcDbEntity
  8
Layer_1
 62
5
100
AcDbLine
 10
168.753170
 20
111.631710
 30
0.0
 11
168.753170
 21
108.631720
 31
0.0
  0
LINE
  5
1ba
100
AcDbEntity
  8
Layer_1
 62
5
100
AcDbLine
 10
168.753170
 20
108.631720
 30
0.0
 11
158.753160
 21
108.631720
 31
0.0
  0
LINE
  5
1bb
100
AcDbEntity
  8
Layer_1
 62
5
100
AcDbLine
 10
158.753160
 20
108.631720
 30
0.0
 11
158.753160
 21
111.631710
 31
0.0
  0
LINE
  5
1bc
100
AcDbEntity
  8
Layer_1
 62
5
100
AcDbLine
 10
178.753120
 20
111.631710
 30
0.0
 11
188.753130
 21
111.631710
 31
0.0
  0
LINE
  5
1bd
100
AcDbEntity
  8
Layer_1
 62
5
100
AcDbLine
 10
188.753130
 20
111.631710
 30
0.0
 11
188.753130
 21
108.631720
 31
0.0
  0
LINE
  5
1be
100
AcDbEntity
  8
Layer_1
 62
5
100
AcDbLine
 10
188.753130
 20
108.631720
 30
0.0
 11
178.753120
 21
108.631720
 31
0.0
  0
LINE
  5
1bf
100
AcDbEntity
  8
Layer_1
 62
5
100
AcDbLine
 10
178.753120
 20
108.631720
 30
0.0
 11
178.753120
 21
111.631710
 31
0.0
  0
SPLINE
  5
1c0
100
AcDbEntity
  8
Layer_1
 62
5
100
AcDbSpline
 70
8
 71
3
 72
8
 73
4
 74
0
 40
0
 40
0
 40
0
 40
0
 40
1
 40
1
 40
1
 40
1
 10
175.303130
 20
110.130570
 30
0.0
 10
175.303133
 20
109.719483
 30
0.0
 10
175.139831
 20
109.325231
 30
0.0
 10
174.849149
 20
109.034548
 30
0.0
  0
SPLINE
  5
1c1
100
AcDbEntity
  8
Layer_1
 62
5
100
AcDbSpline
 70
8
 71
3
 72
8
 73
4
 74
0
 40
0
 40
0
 40
0
 40
0
 40
1
 40
1
 40
1
 40
1
 10
174.849149
 20
109.034548
 30
0.0
 10
174.558467
 20
108.743864
 30
0.0
 10
174.164217
 20
108.580560
 30
0.0
 10
173.753130
 20
108.580560
 30
0.0
  0
SPLINE
  5
1c2
100
AcDbEntity
  8
Layer_1
 62
5
100
AcDbSpline
 70
8
 71
3
 72
8
 73
4
 74
0
 40
0
 40
0
 40
0
 40
0
 40
1
 40
1
 40
1
 40
1
 10
173.753130
 20
108.580560
 30
0.0
 10
173.342043
 20
108.580560
 30
0.0
 10
172.947793
 20
108.743864
 30
0.0
 10
172.657111
 20
109.034548
 30
0.0
  0
SPLINE
  5
1c3
100
AcDbEntity
  8
Layer_1
 62
5
100
AcDbSpline
 70
8
 71
3
 72
8
 73
4
 74
0
 40
0
 40
0
 40
0
 40
0
 40
1
 40
1
 40
1
 40
1
 10
172.657111
 20
109.034548
 30
0.0
 10
172.366429
 20
109.325231
 30
0.0
 10
172.203127
 20
109.719483
 30
0.0
 10
172.203130
 20
110.130570
 30
0.0
  0
SPLINE
  5
1c4
100
AcDbEntity
  8
Layer_1
 62
5
100
AcDbSpline
 70
8
 71
3
 72
8
 73
4
 74
0
 40
0
 40
0
 40
0
 40
0
 40
1
 40
1
 40
1
 40
1
 10
172.203130
 20
110.130570
 30
0.0
 10
172.203127
 20
110.541657
 30
0.0
 10
172.366429
 20
110.935909
 30
0.0
 10
172.657111
 20
111.226592
 30
0.0
  0
SPLINE
  5
1c5
100
AcDbEntity
  8
Layer_1
 62
5
100
AcDbSpline
 70
8
 71
3
 72
8
 73
4
 74
0
 40
0
 40
0
 40
0
 40
0
 40
1
 40
1
 40
1
 40
1
 10
172.657111
 20
111.226592
 30
0.0
 10
172.947793
 20
111.517276
 30
0.0
 10
173.342043
 20
111.680580
 30
0.0
 10
173.753130
 20
111.680580
 30
0.0
  0
SPLINE
  5
1c6
100
AcDbEntity
  8
Layer_1
 62
5
100
AcDbSpline
 70
8
 71
3
 72
8
 73
4
 74
0
 40
0
 40
0
 40
0
 40
0
 40
1
 40
1
 40
1
 40
1
 10
173.753130
 20
111.680580
 30
0.0
 10
174.164217
 20
111.680580
 30
0.0
 10
174.558467
 20
111.517276
 30
0.0
 10
174.849149
 20
111.226592
 30
0.0
  0
SPLINE
  5
1c7
100
AcDbEntity
  8
Layer_1
 62
5
100
AcDbSpline
 70
8
 71
3
 72
8
 73
4
 74
0
 40
0
 40
0
 40
0
 40
0
 40
1
 40
1
 40
1
 40
1
 10
174.849149
 20
111.226592
 30
0.0
 10
175.139831
 20
110.935909
 30
0.0
 10
175.303133
 20
110.541657
 30
0.0
 10
175.303130
 20
110.130570
 30
0.0
  0
LINE
  5
1c8
100
AcDbEntity
  8
Layer_1
 62
5
100
AcDbLine
 10
175.303130
 20
110.130570
 30
0.0
 11
175.303130
 21
110.130570
 31
0.0
  0
LINE
  5
1c9
100
AcDbEntity
  8
Layer_1
 62
5
100
AcDbLine
 10
136.831790
 20
165.072840
 30
0.0
 11
136.831790
 21
155.072830
 31
0.0
  0
LINE
  5
1ca
100
AcDbEntity
  8
Layer_1
 62
5
100
AcDbLine
 10
136.831790
 20
155.072830
 30
0.0
 11
133.831800
 21
155.072830
 31
0.0
  0
LINE
  5
1cb
100
AcDbEntity
  8
Layer_1
 62
5
100
AcDbLine
 10
133.831800
 20
155.072830
 30
0.0
 11
133.831800
 21
165.072840
 31
0.0
  0
LINE
  5
1cc
100
AcDbEntity
  8
Layer_1
 62
5
100
AcDbLine
 10
133.831800
 20
165.072840
 30
0.0
 11
136.831790
 21
165.072840
 31
0.0
  0
LINE
  5
1cd
100
AcDbEntity
  8
Layer_1
 62
5
100
AcDbLine
 10
136.831790
 20
145.072880
 30
0.0
 11
136.831790
 21
135.072870
 31
0.0
  0
LINE
  5
1ce
100
AcDbEntity
  8
Layer_1
 62
5
100
AcDbLine
 10
136.831790
 20
135.072870
 30
0.0
 11
133.831800
 21
135.072870
 31
0.0
  0
LINE
  5
1cf
100
AcDbEntity
  8
Layer_1
 62
5
100
AcDbLine
 10
133.831800
 20
135.072870
 30
0.0
 11
133.831800
 21
145.072880
 31
0.0
  0
LINE
  5
1d0
100
AcDbEntity
  8
Layer_1
 62
5
100
AcDbLine
 10
133.831800
 20
145.072880
 30
0.0
 11
136.831790
 21
145.072880
 31
0.0
  0
SPLINE
  5
1d1
100
AcDbEntity
  8
Layer_1
 62
5
100
AcDbSpline
 70
8
 71
3
 72
8
 73
4
 74
0
 40
0
 40
0
 40
0
 40
0
 40
1
 40
1
 40
1
 40
1
 10
135.330650
 20
148.522870
 30
0.0
 10
134.919563
 20
148.522867
 30
0.0
 10
134.525311
 20
148.686169
 30
0.0
 10
134.234628
 20
148.976851
 30
0.0
  0
SPLINE
  5
1d2
100
AcDbEntity
  8
Layer_1
 62
5
100
AcDbSpline
 70
8
 71
3
 72
8
 73
4
 74
0
 40
0
 40
0
 40
0
 40
0
 40
1
 40
1
 40
1
 40
1
 10
134.234628
 20
148.976851
 30
0.0
 10
133.943944
 20
149.267533
 30
0.0
 10
133.780640
 20
149.661783
 30
0.0
 10
133.780640
 20
150.072870
 30
0.0
  0
SPLINE
  5
1d3
100
AcDbEntity
  8
Layer_1
 62
5
100
AcDbSpline
 70
8
 71
3
 72
8
 73
4
 74
0
 40
0
 40
0
 40
0
 40
0
 40
1
 40
1
 40
1
 40
1
 10
133.780640
 20
150.072870
 30
0.0
 10
133.780640
 20
150.483957
 30
0.0
 10
133.943944
 20
150.878207
 30
0.0
 10
134.234628
 20
151.168889
 30
0.0
  0
SPLINE
  5
1d4
100
AcDbEntity
  8
Layer_1
 62
5
100
AcDbSpline
 70
8
 71
3
 72
8
 73
4
 74
0
 40
0
 40
0
 40
0
 40
0
 40
1
 40
1
 40
1
 40
1
 10
134.234628
 20
151.168889
 30
0.0
 10
134.525311
 20
151.459571
 30
0.0
 10
134.919563
 20
151.622873
 30
0.0
 10
135.330650
 20
151.622870
 30
0.0
  0
SPLINE
  5
1d5
100
AcDbEntity
  8
Layer_1
 62
5
100
AcDbSpline
 70
8
 71
3
 72
8
 73
4
 74
0
 40
0
 40
0
 40
0
 40
0
 40
1
 40
1
 40
1
 40
1
 10
135.330650
 20
151.622870
 30
0.0
 10
135.741737
 20
151.622873
 30
0.0
 10
136.135989
 20
151.459571
 30
0.0
 10
136.426672
 20
151.168889
 30
0.0
  0
SPLINE
  5
1d6
100
AcDbEntity
  8
Layer_1
 62
5
100
AcDbSpline
 70
8
 71
3
 72
8
 73
4
 74
0
 40
0
 40
0
 40
0
 40
0
 40
1
 40
1
 40
1
 40
1
 10
136.426672
 20
151.168889
 30
0.0
 10
136.717356
 20
150.878207
 30
0.0
 10
136.880660
 20
150.483957
 30
0.0
 10
136.880660
 20
150.072870
 30
0.0
  0
SPLINE
  5
1d7
100
AcDbEntity
  8
Layer_1
 62
5
100
AcDbSpline
 70
8
 71
3
 72
8
 73
4
 74
0
 40
0
 40
0
 40
0
 40
0
 40
1
 40
1
 40
1
 40
1
 10
136.880660
 20
150.072870
 30
0.0
 10
136.880660
 20
149.661783
 30
0.0
 10
136.717356
 20
149.267533
 30
0.0
 10
136.426672
 20
148.976851
 30
0.0
  0
SPLINE
  5
1d8
100
AcDbEntity
  8
Layer_1
 62
5
100
AcDbSpline
 70
8
 71
3
 72
8
 73
4
 74
0
 40
0
 40
0
 40
0
 40
0
 40
1
 40
1
 40
1
 40
1
 10
136.426672
 20
148.976851
 30
0.0
 10
136.135989
 20
148.686169
 30
0.0
 10
135.741737
 20
148.522867
 30
0.0
 10
135.330650
 20
148.522870
 30
0.0
  0
LINE
  5
1d9
100
AcDbEntity
  8
Layer_1
 62
5
100
AcDbLine
 10
135.330650
 20
148.522870
 30
0.0
 11
135.330650
 21
148.522870
 31
0.0
  0
LINE
  5
1da
100
AcDbEntity
  8
Layer_1
 62
5
100
AcDbLine
 10
216.861430
 20
165.072840
 30
0.0
 11
216.861430
 21
155.072830
 31
0.0
  0
LINE
  5
1db
100
AcDbEntity
  8
Layer_1
 62
5
100
AcDbLine
 10
216.861430
 20
155.072830
 30
0.0
 11
213.861440
 21
155.072830
 31
0.0
  0
LINE
  5
1dc
100
AcDbEntity
  8
Layer_1
 62
5
100
AcDbLine
 10
213.861440
 20
155.072830
 30
0.0
 11
213.861440
 21
165.072840
 31
0.0
  0
LINE
  5
1dd
100
AcDbEntity
  8
Layer_1
 62
5
100
AcDbLine
 10
213.861440
 20
165.072840
 30
0.0
 11
216.861430
 21
165.072840
 31
0.0
  0
LINE
  5
1de
100
AcDbEntity
  8
Layer_1
 62
5
100
AcDbLine
 10
216.861430
 20
145.072880
 30
0.0
 11
216.861430
 21
135.072870
 31
0.0
  0
LINE
  5
1df
100
AcDbEntity
  8
Layer_1
 62
5
100
AcDbLine
 10
216.861430
 20
135.072870
 30
0.0
 11
213.861440
 21
135.072870
 31
0.0
  0
LINE
  5
1e0
100
AcDbEntity
  8
Layer_1
 62
5
100
AcDbLine
 10
213.861440
 20
135.072870
 30
0.0
 11
213.861440
 21
145.072880
 31
0.0
  0
LINE
  5
1e1
100
AcDbEntity
  8
Layer_1
 62
5
100
AcDbLine
 10
213.861440
 20
145.072880
 30
0.0
 11
216.861430
 21
145.072880
 31
0.0
  0
SPLINE
  5
1e2
100
AcDbEntity
  8
Layer_1
 62
5
100
AcDbSpline
 70
8
 71
3
 72
8
 73
4
 74
0
 40
0
 40
0
 40
0
 40
0
 40
1
 40
1
 40
1
 40
1
 10
215.360290
 20
148.522870
 30
0.0
 10
214.949203
 20
148.522867
 30
0.0
 10
214.554951
 20
148.686169
 30
0.0
 10
214.264268
 20
148.976851
 30
0.0
  0
SPLINE
  5
1e3
100
AcDbEntity
  8
Layer_1
 62
5
100
AcDbSpline
 70
8
 71
3
 72
8
 73
4
 74
0
 40
0
 40
0
 40
0
 40
0
 40
1
 40
1
 40
1
 40
1
 10
214.264268
 20
148.976851
 30
0.0
 10
213.973584
 20
149.267533
 30
0.0
 10
213.810280
 20
149.661783
 30
0.0
 10
213.810280
 20
150.072870
 30
0.0
  0
SPLINE
  5
1e4
100
AcDbEntity
  8
Layer_1
 62
5
100
AcDbSpline
 70
8
 71
3
 72
8
 73
4
 74
0
 40
0
 40
0
 40
0
 40
0
 40
1
 40
1
 40
1
 40
1
 10
213.810280
 20
150.072870
 30
0.0
 10
213.810280
 20
150.483957
 30
0.0
 10
213.973584
 20
150.878207
 30
0.0
 10
214.264268
 20
151.168889
 30
0.0
  0
SPLINE
  5
1e5
100
AcDbEntity
  8
Layer_1
 62
5
100
AcDbSpline
 70
8
 71
3
 72
8
 73
4
 74
0
 40
0
 40
0
 40
0
 40
0
 40
1
 40
1
 40
1
 40
1
 10
214.264268
 20
151.168889
 30
0.0
 10
214.554951
 20
151.459571
 30
0.0
 10
214.949203
 20
151.622873
 30
0.0
 10
215.360290
 20
151.622870
 30
0.0
  0
SPLINE
  5
1e6
100
AcDbEntity
  8
Layer_1
 62
5
100
AcDbSpline
 70
8
 71
3
 72
8
 73
4
 74
0
 40
0
 40
0
 40
0
 40
0
 40
1
 40
1
 40
1
 40
1
 10
215.360290
 20
151.622870
 30
0.0
 10
215.771377
 20
151.622873
 30
0.0
 10
216.165629
 20
151.459571
 30
0.0
 10
216.456312
 20
151.168889
 30
0.0
  0
SPLINE
  5
1e7
100
AcDbEntity
  8
Layer_1
 62
5
100
AcDbSpline
 70
8
 71
3
 72
8
 73
4
 74
0
 40
0
 40
0
 40
0
 40
0
 40
1
 40
1
 40
1
 40
1
 10
216.456312
 20
151.168889
 30
0.0
 10
216.746996
 20
150.878207
 30
0.0
 10
216.910300
 20
150.483957
 30
0.0
 10
216.910300
 20
150.072870
 30
0.0
  0
SPLINE
  5
1e8
100
AcDbEntity
  8
Layer_1
 62
5
100
AcDbSpline
 70
8
 71
3
 72
8
 73
4
 74
0
 40
0
 40
0
 40
0
 40
0
 40
1
 40
1
 40
1
 40
1
 10
216.910300
 20
150.072870
 30
0.0
 10
216.910300
 20
149.661783
 30
0.0
 10
216.746996
 20
149.267533
 30
0.0
 10
216.456312
 20
148.976851
 30
0.0
  0
SPLINE
  5
1e9
100
AcDbEntity
  8
Layer_1
 62
5
100
AcDbSpline
 70
8
 71
3
 72
8
 73
4
 74
0
 40
0
 40
0
 40
0
 40
0
 40
1
 40
1
 40
1
 40
1
 10
216.456312
 20
148.976851
 30
0.0
 10
216.165629
 20
148.686169
 30
0.0
 10
215.771377
 20
148.522867
 30
0.0
 10
215.360290
 20
148.522870
 30
0.0
  0
LINE
  5
1ea
100
AcDbEntity
  8
Layer_1
 62
5
100
AcDbLine
 10
215.360290
 20
148.522870
 30
0.0
 11
215.360290
 21
148.522870
 31
0.0
  0
LINE
  5
1eb
100
AcDbEntity
  8
Layer_1
 62
5
100
AcDbLine
 10
57.060735
 20
165.841410
 30
0.0
 11
57.060735
 21
134.674740
 31
0.0
  0
LINE
  5
1ec
100
AcDbEntity
  8
Layer_1
 62
5
100
AcDbLine
 10
57.060735
 20
134.674740
 30
0.0
 11
54.060741
 21
134.674740
 31
0.0
  0
LINE
  5
1ed
100
AcDbEntity
  8
Layer_1
 62
5
100
AcDbLine
 10
54.060741
 20
134.674740
 30
0.0
 11
54.060741
 21
165.841410
 31
0.0
  0
LINE
  5
1ee
100
AcDbEntity
  8
Layer_1
 62
5
100
AcDbLine
 10
54.060741
 20
165.841410
 30
0.0
 11
57.060735
 21
165.841410
 31
0.0
  0
SPLINE
  5
1ef
100
AcDbEntity
  8
Layer_1
 62
5
100
AcDbSpline
 70
8
 71
3
 72
8
 73
4
 74
0
 40
0
 40
0
 40
0
 40
0
 40
1
 40
1
 40
1
 40
1
 10
55.560738
 20
127.889070
 30
0.0
 10
54.704700
 20
127.889069
 30
0.0
 10
54.010742
 20
128.583022
 30
0.0
 10
54.010737
 20
129.439060
 30
0.0
  0
SPLINE
  5
1f0
100
AcDbEntity
  8
Layer_1
 62
5
100
AcDbSpline
 70
8
 71
3
 72
8
 73
4
 74
0
 40
0
 40
0
 40
0
 40
0
 40
1
 40
1
 40
1
 40
1
 10
54.010737
 20
129.439060
 30
0.0
 10
54.010737
 20
129.850146
 30
0.0
 10
54.174040
 20
130.244395
 30
0.0
 10
54.464722
 20
130.535076
 30
0.0
  0
SPLINE
  5
1f1
100
AcDbEntity
  8
Layer_1
 62
5
100
AcDbSpline
 70
8
 71
3
 72
8
 73
4
 74
0
 40
0
 40
0
 40
0
 40
0
 40
1
 40
1
 40
1
 40
1
 10
54.464722
 20
130.535076
 30
0.0
 10
54.755403
 20
130.825757
 30
0.0
 10
55.149652
 20
130.989060
 30
0.0
 10
55.560738
 20
130.989060
 30
0.0
  0
SPLINE
  5
1f2
100
AcDbEntity
  8
Layer_1
 62
5
100
AcDbSpline
 70
8
 71
3
 72
8
 73
4
 74
0
 40
0
 40
0
 40
0
 40
0
 40
1
 40
1
 40
1
 40
1
 10
55.560738
 20
130.989060
 30
0.0
 10
56.416779
 20
130.989059
 30
0.0
 10
57.110736
 20
130.295101
 30
0.0
 10
57.110736
 20
129.439060
 30
0.0
  0
SPLINE
  5
1f3
100
AcDbEntity
  8
Layer_1
 62
5
100
AcDbSpline
 70
8
 71
3
 72
8
 73
4
 74
0
 40
0
 40
0
 40
0
 40
0
 40
1
 40
1
 40
1
 40
1
 10
57.110736
 20
129.439060
 30
0.0
 10
57.110731
 20
128.583023
 30
0.0
 10
56.416775
 20
127.889071
 30
0.0
 10
55.560738
 20
127.889070
 30
0.0
  0
LINE
  5
1f4
100
AcDbEntity
  8
Layer_1
 62
5
100
AcDbLine
 10
55.560738
 20
127.889070
 30
0.0
 11
55.560738
 21
127.889070
 31
0.0
  0
SPLINE
  5
1f5
100
AcDbEntity
  8
Layer_1
 62
5
100
AcDbSpline
 70
8
 71
3
 72
8
 73
4
 74
0
 40
0
 40
0
 40
0
 40
0
 40
1
 40
1
 40
1
 40
1
 10
55.560738
 20
169.156650
 30
0.0
 10
54.704700
 20
169.156649
 30
0.0
 10
54.010742
 20
169.850602
 30
0.0
 10
54.010737
 20
170.706640
 30
0.0
  0
SPLINE
  5
1f6
100
AcDbEntity
  8
Layer_1
 62
5
100
AcDbSpline
 70
8
 71
3
 72
8
 73
4
 74
0
 40
0
 40
0
 40
0
 40
0
 40
1
 40
1
 40
1
 40
1
 10
54.010737
 20
170.706640
 30
0.0
 10
54.010732
 20
171.117729
 30
0.0
 10
54.174032
 20
171.511983
 30
0.0
 10
54.464715
 20
171.802669
 30
0.0
  0
SPLINE
  5
1f7
100
AcDbEntity
  8
Layer_1
 62
5
100
AcDbSpline
 70
8
 71
3
 72
8
 73
4
 74
0
 40
0
 40
0
 40
0
 40
0
 40
1
 40
1
 40
1
 40
1
 10
54.464715
 20
171.802669
 30
0.0
 10
54.755397
 20
172.093355
 30
0.0
 10
55.149649
 20
172.256660
 30
0.0
 10
55.560738
 20
172.256660
 30
0.0
  0
SPLINE
  5
1f8
100
AcDbEntity
  8
Layer_1
 62
5
100
AcDbSpline
 70
8
 71
3
 72
8
 73
4
 74
0
 40
0
 40
0
 40
0
 40
0
 40
1
 40
1
 40
1
 40
1
 10
55.560738
 20
172.256660
 30
0.0
 10
55.971827
 20
172.256660
 30
0.0
 10
56.366078
 20
172.093354
 30
0.0
 10
56.656759
 20
171.802668
 30
0.0
  0
SPLINE
  5
1f9
100
AcDbEntity
  8
Layer_1
 62
5
100
AcDbSpline
 70
8
 71
3
 72
8
 73
4
 74
0
 40
0
 40
0
 40
0
 40
0
 40
1
 40
1
 40
1
 40
1
 10
56.656759
 20
171.802668
 30
0.0
 10
56.947441
 20
171.511982
 30
0.0
 10
57.110741
 20
171.117729
 30
0.0
 10
57.110736
 20
170.706640
 30
0.0
  0
SPLINE
  5
1fa
100
AcDbEntity
  8
Layer_1
 62
5
100
AcDbSpline
 70
8
 71
3
 72
8
 73
4
 74
0
 40
0
 40
0
 40
0
 40
0
 40
1
 40
1
 40
1
 40
1
 10
57.110736
 20
170.706640
 30
0.0
 10
57.110731
 20
169.850603
 30
0.0
 10
56.416775
 20
169.156651
 30
0.0
 10
55.560738
 20
169.156650
 30
0.0
  0
LINE
  5
1fb
100
AcDbEntity
  8
Layer_1
 62
5
100
AcDbLine
 10
55.560738
 20
169.156650
 30
0.0
 11
55.560738
 21
169.156650
 31
0.0
  0
LINE
  5
1fc
100
AcDbEntity
  8
Layer_1
 62
5
100
AcDbLine
 10
175.389210
 20
45.671840
 30
0.0
 11
175.389210
 21
35.671830
 31
0.0
  0
LINE
  5
1fd
100
AcDbEntity
  8
Layer_1
 62
5
100
AcDbLine
 10
175.389210
 20
35.671830
 30
0.0
 11
172.389220
 21
35.671830
 31
0.0
  0
LINE
  5
1fe
100
AcDbEntity
  8
Layer_1
 62
5
100
AcDbLine
 10
172.389220
 20
35.671830
 30
0.0
 11
172.389220
 21
45.671840
 31
0.0
  0
LINE
  5
1ff
100
AcDbEntity
  8
Layer_1
 62
5
100
AcDbLine
 10
172.389220
 20
45.671840
 30
0.0
 11
175.389210
 21
45.671840
 31
0.0
  0
LINE
  5
200
100
AcDbEntity
  8
Layer_1
 62
5
100
AcDbLine
 10
175.389210
 20
25.671880
 30
0.0
 11
175.389210
 21
15.671870
 31
0.0
  0
LINE
  5
201
100
AcDbEntity
  8
Layer_1
 62
5
100
AcDbLine
 10
175.389210
 20
15.671870
 30
0.0
 11
172.389220
 21
15.671870
 31
0.0
  0
LINE
  5
202
100
AcDbEntity
  8
Layer_1
 62
5
100
AcDbLine
 10
172.389220
 20
15.671870
 30
0.0
 11
172.389220
 21
25.671880
 31
0.0
  0
LINE
  5
203
100
AcDbEntity
  8
Layer_1
 62
5
100
AcDbLine
 10
172.389220
 20
25.671880
 30
0.0
 11
175.389210
 21
25.671880
 31
0.0
  0
SPLINE
  5
204
100
AcDbEntity
  8
Layer_1
 62
5
100
AcDbSpline
 70
8
 71
3
 72
8
 73
4
 74
0
 40
0
 40
0
 40
0
 40
0
 40
1
 40
1
 40
1
 40
1
 10
173.888070
 20
29.121870
 30
0.0
 10
173.476983
 20
29.121867
 30
0.0
 10
173.082731
 20
29.285169
 30
0.0
 10
172.792048
 20
29.575851
 30
0.0
  0
SPLINE
  5
205
100
AcDbEntity
  8
Layer_1
 62
5
100
AcDbSpline
 70
8
 71
3
 72
8
 73
4
 74
0
 40
0
 40
0
 40
0
 40
0
 40
1
 40
1
 40
1
 40
1
 10
172.792048
 20
29.575851
 30
0.0
 10
172.501364
 20
29.866533
 30
0.0
 10
172.338060
 20
30.260783
 30
0.0
 10
172.338060
 20
30.671870
 30
0.0
  0
SPLINE
  5
206
100
AcDbEntity
  8
Layer_1
 62
5
100
AcDbSpline
 70
8
 71
3
 72
8
 73
4
 74
0
 40
0
 40
0
 40
0
 40
0
 40
1
 40
1
 40
1
 40
1
 10
172.338060
 20
30.671870
 30
0.0
 10
172.338060
 20
31.082957
 30
0.0
 10
172.501364
 20
31.477207
 30
0.0
 10
172.792048
 20
31.767889
 30
0.0
  0
SPLINE
  5
207
100
AcDbEntity
  8
Layer_1
 62
5
100
AcDbSpline
 70
8
 71
3
 72
8
 73
4
 74
0
 40
0
 40
0
 40
0
 40
0
 40
1
 40
1
 40
1
 40
1
 10
172.792048
 20
31.767889
 30
0.0
 10
173.082731
 20
32.058571
 30
0.0
 10
173.476983
 20
32.221873
 30
0.0
 10
173.888070
 20
32.221870
 30
0.0
  0
SPLINE
  5
208
100
AcDbEntity
  8
Layer_1
 62
5
100
AcDbSpline
 70
8
 71
3
 72
8
 73
4
 74
0
 40
0
 40
0
 40
0
 40
0
 40
1
 40
1
 40
1
 40
1
 10
173.888070
 20
32.221870
 30
0.0
 10
174.299157
 20
32.221873
 30
0.0
 10
174.693409
 20
32.058571
 30
0.0
 10
174.984092
 20
31.767889
 30
0.0
  0
SPLINE
  5
209
100
AcDbEntity
  8
Layer_1
 62
5
100
AcDbSpline
 70
8
 71
3
 72
8
 73
4
 74
0
 40
0
 40
0
 40
0
 40
0
 40
1
 40
1
 40
1
 40
1
 10
174.984092
 20
31.767889
 30
0.0
 10
175.274776
 20
31.477207
 30
0.0
 10
175.438080
 20
31.082957
 30
0.0
 10
175.438080
 20
30.671870
 30
0.0
  0
SPLINE
  5
20a
100
AcDbEntity
  8
Layer_1
 62
5
100
AcDbSpline
 70
8
 71
3
 72
8
 73
4
 74
0
 40
0
 40
0
 40
0
 40
0
 40
1
 40
1
 40
1
 40
1
 10
175.438080
 20
30.671870
 30
0.0
 10
175.438080
 20
30.260783
 30
0.0
 10
175.274776
 20
29.866533
 30
0.0
 10
174.984092
 20
29.575851
 30
0.0
  0
SPLINE
  5
20b
100
AcDbEntity
  8
Layer_1
 62
5
100
AcDbSpline
 70
8
 71
3
 72
8
 73
4
 74
0
 40
0
 40
0
 40
0
 40
0
 40
1
 40
1
 40
1
 40
1
 10
174.984092
 20
29.575851
 30
0.0
 10
174.693409
 20
29.285169
 30
0.0
 10
174.299157
 20
29.121867
 30
0.0
 10
173.888070
 20
29.121870
 30
0.0
  0
LINE
  5
20c
100
AcDbEntity
  8
Layer_1
 62
5
100
AcDbLine
 10
173.888070
 20
29.121870
 30
0.0
 11
173.888070
 21
29.121870
 31
0.0
  0
LINE
  5
20d
100
AcDbEntity
  8
Layer_1
 62
5
100
AcDbLine
 10
178.255620
 20
58.391450
 30
0.0
 11
188.063480
 21
60.342350
 31
0.0
  0
LINE
  5
20e
100
AcDbEntity
  8
Layer_1
 62
5
100
AcDbLine
 10
188.063480
 20
60.342350
 30
0.0
 11
188.648750
 21
57.400000
 31
0.0
  0
LINE
  5
20f
100
AcDbEntity
  8
Layer_1
 62
5
100
AcDbLine
 10
188.648750
 20
57.400000
 30
0.0
 11
178.840890
 21
55.449090
 31
0.0
  0
LINE
  5
210
100
AcDbEntity
  8
Layer_1
 62
5
100
AcDbLine
 10
178.840890
 20
55.449090
 30
0.0
 11
178.255620
 21
58.391450
 31
0.0
  0
LINE
  5
211
100
AcDbEntity
  8
Layer_1
 62
5
100
AcDbLine
 10
197.871290
 20
62.293240
 30
0.0
 11
207.679150
 21
64.244140
 31
0.0
  0
LINE
  5
212
100
AcDbEntity
  8
Layer_1
 62
5
100
AcDbLine
 10
207.679150
 20
64.244140
 30
0.0
 11
208.264420
 21
61.301790
 31
0.0
  0
LINE
  5
213
100
AcDbEntity
  8
Layer_1
 62
5
100
AcDbLine
 10
208.264420
 20
61.301790
 30
0.0
 11
198.456560
 21
59.350890
 31
0.0
  0
LINE
  5
214
100
AcDbEntity
  8
Layer_1
 62
5
100
AcDbLine
 10
198.456560
 20
59.350890
 30
0.0
 11
197.871290
 21
62.293240
 31
0.0
  0
SPLINE
  5
215
100
AcDbEntity
  8
Layer_1
 62
5
100
AcDbSpline
 70
8
 71
3
 72
8
 73
4
 74
0
 40
0
 40
0
 40
0
 40
0
 40
1
 40
1
 40
1
 40
1
 10
194.780450
 20
60.147890
 30
0.0
 10
194.860653
 20
59.744701
 30
0.0
 10
194.777403
 20
59.326165
 30
0.0
 10
194.549015
 20
58.984357
 30
0.0
  0
SPLINE
  5
216
100
AcDbEntity
  8
Layer_1
 62
5
100
AcDbSpline
 70
8
 71
3
 72
8
 73
4
 74
0
 40
0
 40
0
 40
0
 40
0
 40
1
 40
1
 40
1
 40
1
 10
194.549015
 20
58.984357
 30
0.0
 10
194.320627
 20
58.642549
 30
0.0
 10
193.965810
 20
58.405468
 30
0.0
 10
193.562620
 20
58.325270
 30
0.0
  0
SPLINE
  5
217
100
AcDbEntity
  8
Layer_1
 62
5
100
AcDbSpline
 70
8
 71
3
 72
8
 73
4
 74
0
 40
0
 40
0
 40
0
 40
0
 40
1
 40
1
 40
1
 40
1
 10
193.562620
 20
58.325270
 30
0.0
 10
193.159431
 20
58.245071
 30
0.0
 10
192.740897
 20
58.328323
 30
0.0
 10
192.399090
 20
58.556713
 30
0.0
  0
SPLINE
  5
218
100
AcDbEntity
  8
Layer_1
 62
5
100
AcDbSpline
 70
8
 71
3
 72
8
 73
4
 74
0
 40
0
 40
0
 40
0
 40
0
 40
1
 40
1
 40
1
 40
1
 10
192.399090
 20
58.556713
 30
0.0
 10
192.057284
 20
58.785102
 30
0.0
 10
191.820206
 20
59.139920
 30
0.0
 10
191.740010
 20
59.543110
 30
0.0
  0
SPLINE
  5
219
100
AcDbEntity
  8
Layer_1
 62
5
100
AcDbSpline
 70
8
 71
3
 72
8
 73
4
 74
0
 40
0
 40
0
 40
0
 40
0
 40
1
 40
1
 40
1
 40
1
 10
191.740010
 20
59.543110
 30
0.0
 10
191.659810
 20
59.946297
 30
0.0
 10
191.743061
 20
60.364831
 30
0.0
 10
191.971449
 20
60.706637
 30
0.0
  0
SPLINE
  5
21a
100
AcDbEntity
  8
Layer_1
 62
5
100
AcDbSpline
 70
8
 71
3
 72
8
 73
4
 74
0
 40
0
 40
0
 40
0
 40
0
 40
1
 40
1
 40
1
 40
1
 10
191.971449
 20
60.706637
 30
0.0
 10
192.199837
 20
61.048442
 30
0.0
 10
192.554652
 20
61.285522
 30
0.0
 10
192.957840
 20
61.365720
 30
0.0
  0
SPLINE
  5
21b
100
AcDbEntity
  8
Layer_1
 62
5
100
AcDbSpline
 70
8
 71
3
 72
8
 73
4
 74
0
 40
0
 40
0
 40
0
 40
0
 40
1
 40
1
 40
1
 40
1
 10
192.957840
 20
61.365720
 30
0.0
 10
193.361028
 20
61.445920
 30
0.0
 10
193.779561
 20
61.362669
 30
0.0
 10
194.121367
 20
61.134281
 30
0.0
  0
SPLINE
  5
21c
100
AcDbEntity
  8
Layer_1
 62
5
100
AcDbSpline
 70
8
 71
3
 72
8
 73
4
 74
0
 40
0
 40
0
 40
0
 40
0
 40
1
 40
1
 40
1
 40
1
 10
194.121367
 20
61.134281
 30
0.0
 10
194.463172
 20
60.905893
 30
0.0
 10
194.700252
 20
60.551078
 30
0.0
 10
194.780450
 20
60.147890
 30
0.0
  0
LINE
  5
21d
100
AcDbEntity
  8
Layer_1
 62
5
100
AcDbLine
 10
194.780450
 20
60.147890
 30
0.0
 11
194.780450
 21
60.147890
 31
0.0
  0
LINE
  5
21e
100
AcDbEntity
  8
Layer_1
 62
5
100
AcDbLine
 10
213.063530
 20
66.593880
 30
0.0
 11
221.378230
 21
72.149590
 31
0.0
  0
LINE
  5
21f
100
AcDbEntity
  8
Layer_1
 62
5
100
AcDbLine
 10
221.378230
 20
72.149590
 30
0.0
 11
223.044940
 21
69.655180
 31
0.0
  0
LINE
  5
220
100
AcDbEntity
  8
Layer_1
 62
5
100
AcDbLine
 10
223.044940
 20
69.655180
 30
0.0
 11
214.730240
 21
64.099480
 31
0.0
  0
LINE
  5
221
100
AcDbEntity
  8
Layer_1
 62
5
100
AcDbLine
 10
214.730240
 20
64.099480
 30
0.0
 11
213.063530
 21
66.593880
 31
0.0
  0
LINE
  5
222
100
AcDbEntity
  8
Layer_1
 62
5
100
AcDbLine
 10
229.692890
 20
77.705260
 30
0.0
 11
238.007590
 21
83.260970
 31
0.0
  0
LINE
  5
223
100
AcDbEntity
  8
Layer_1
 62
5
100
AcDbLine
 10
238.007590
 20
83.260970
 30
0.0
 11
239.674300
 21
80.766560
 31
0.0
  0
LINE
  5
224
100
AcDbEntity
  8
Layer_1
 62
5
100
AcDbLine
 10
239.674300
 20
80.766560
 30
0.0
 11
231.359600
 21
75.210860
 31
0.0
  0
LINE
  5
225
100
AcDbEntity
  8
Layer_1
 62
5
100
AcDbLine
 10
231.359600
 20
75.210860
 30
0.0
 11
229.692890
 21
77.705260
 31
0.0
  0
SPLINE
  5
226
100
AcDbEntity
  8
Layer_1
 62
5
100
AcDbSpline
 70
8
 71
3
 72
8
 73
4
 74
0
 40
0
 40
0
 40
0
 40
0
 40
1
 40
1
 40
1
 40
1
 10
227.658320
 20
74.540400
 30
0.0
 10
227.886710
 20
74.198595
 30
0.0
 10
227.969963
 20
73.780061
 30
0.0
 10
227.889765
 20
73.376872
 30
0.0
  0
SPLINE
  5
227
100
AcDbEntity
  8
Layer_1
 62
5
100
AcDbSpline
 70
8
 71
3
 72
8
 73
4
 74
0
 40
0
 40
0
 40
0
 40
0
 40
1
 40
1
 40
1
 40
1
 10
227.889765
 20
73.376872
 30
0.0
 10
227.809567
 20
72.973684
 30
0.0
 10
227.572487
 20
72.618868
 30
0.0
 10
227.230680
 20
72.390480
 30
0.0
  0
SPLINE
  5
228
100
AcDbEntity
  8
Layer_1
 62
5
100
AcDbSpline
 70
8
 71
3
 72
8
 73
4
 74
0
 40
0
 40
0
 40
0
 40
0
 40
1
 40
1
 40
1
 40
1
 10
227.230680
 20
72.390480
 30
0.0
 10
226.888874
 20
72.162091
 30
0.0
 10
226.470339
 20
72.078839
 30
0.0
 10
226.067150
 20
72.159039
 30
0.0
  0
SPLINE
  5
229
100
AcDbEntity
  8
Layer_1
 62
5
100
AcDbSpline
 70
8
 71
3
 72
8
 73
4
 74
0
 40
0
 40
0
 40
0
 40
0
 40
1
 40
1
 40
1
 40
1
 10
226.067150
 20
72.159039
 30
0.0
 10
225.663961
 20
72.239239
 30
0.0
 10
225.309146
 20
72.476321
 30
0.0
 10
225.080760
 20
72.818130
 30
0.0
  0
SPLINE
  5
22a
100
AcDbEntity
  8
Layer_1
 62
5
100
AcDbSpline
 70
8
 71
3
 72
8
 73
4
 74
0
 40
0
 40
0
 40
0
 40
0
 40
1
 40
1
 40
1
 40
1
 10
225.080760
 20
72.818130
 30
0.0
 10
224.852370
 20
73.159935
 30
0.0
 10
224.769117
 20
73.578469
 30
0.0
 10
224.849315
 20
73.981658
 30
0.0
  0
SPLINE
  5
22b
100
AcDbEntity
  8
Layer_1
 62
5
100
AcDbSpline
 70
8
 71
3
 72
8
 73
4
 74
0
 40
0
 40
0
 40
0
 40
0
 40
1
 40
1
 40
1
 40
1
 10
224.849315
 20
73.981658
 30
0.0
 10
224.929513
 20
74.384846
 30
0.0
 10
225.166593
 20
74.739662
 30
0.0
 10
225.508400
 20
74.968050
 30
0.0
  0
SPLINE
  5
22c
100
AcDbEntity
  8
Layer_1
 62
5
100
AcDbSpline
 70
8
 71
3
 72
8
 73
4
 74
0
 40
0
 40
0
 40
0
 40
0
 40
1
 40
1
 40
1
 40
1
 10
225.508400
 20
74.968050
 30
0.0
 10
225.850206
 20
75.196439
 30
0.0
 10
226.268741
 20
75.279691
 30
0.0
 10
226.671930
 20
75.199491
 30
0.0
  0
SPLINE
  5
22d
100
AcDbEntity
  8
Layer_1
 62
5
100
AcDbSpline
 70
8
 71
3
 72
8
 73
4
 74
0
 40
0
 40
0
 40
0
 40
0
 40
1
 40
1
 40
1
 40
1
 10
226.671930
 20
75.199491
 30
0.0
 10
227.075119
 20
75.119291
 30
0.0
 10
227.429934
 20
74.882209
 30
0.0
 10
227.658320
 20
74.540400
 30
0.0
  0
LINE
  5
22e
100
AcDbEntity
  8
Layer_1
 62
5
100
AcDbLine
 10
227.658320
 20
74.540400
 30
0.0
 11
227.658320
 21
74.540400
 31
0.0
  0
LINE
  5
22f
100
AcDbEntity
  8
Layer_1
 62
5
100
AcDbLine
 10
241.856220
 20
87.700690
 30
0.0
 11
247.411930
 21
96.015390
 31
0.0
  0
LINE
  5
230
100
AcDbEntity
  8
Layer_1
 62
5
100
AcDbLine
 10
247.411930
 20
96.015390
 30
0.0
 11
249.906330
 21
94.348690
 31
0.0
  0
LINE
  5
231
100
AcDbEntity
  8
Layer_1
 62
5
100
AcDbLine
 10
249.906330
 20
94.348690
 30
0.0
 11
244.350620
 21
86.033980
 31
0.0
  0
LINE
  5
232
100
AcDbEntity
  8
Layer_1
 62
5
100
AcDbLine
 10
244.350620
 20
86.033980
 30
0.0
 11
241.856220
 21
87.700690
 31
0.0
  0
LINE
  5
233
100
AcDbEntity
  8
Layer_1
 62
5
100
AcDbLine
 10
252.967610
 20
104.330050
 30
0.0
 11
258.523320
 21
112.644750
 31
0.0
  0
LINE
  5
234
100
AcDbEntity
  8
Layer_1
 62
5
100
AcDbLine
 10
258.523320
 20
112.644750
 30
0.0
 11
261.017720
 21
110.978050
 31
0.0
  0
LINE
  5
235
100
AcDbEntity
  8
Layer_1
 62
5
100
AcDbLine
 10
261.017720
 20
110.978050
 30
0.0
 11
255.462010
 21
102.663350
 31
0.0
  0
LINE
  5
236
100
AcDbEntity
  8
Layer_1
 62
5
100
AcDbLine
 10
255.462010
 20
102.663350
 30
0.0
 11
252.967610
 21
104.330050
 31
0.0
  0
SPLINE
  5
237
100
AcDbEntity
  8
Layer_1
 62
5
100
AcDbSpline
 70
8
 71
3
 72
8
 73
4
 74
0
 40
0
 40
0
 40
0
 40
0
 40
1
 40
1
 40
1
 40
1
 10
252.299050
 20
100.627500
 30
0.0
 10
252.640858
 20
100.399114
 30
0.0
 10
252.877941
 20
100.044299
 30
0.0
 10
252.958141
 20
99.641110
 30
0.0
  0
SPLINE
  5
238
100
AcDbEntity
  8
Layer_1
 62
5
100
AcDbSpline
 70
8
 71
3
 72
8
 73
4
 74
0
 40
0
 40
0
 40
0
 40
0
 40
1
 40
1
 40
1
 40
1
 10
252.958141
 20
99.641110
 30
0.0
 10
253.038341
 20
99.237921
 30
0.0
 10
252.955089
 20
98.819386
 30
0.0
 10
252.726700
 20
98.477580
 30
0.0
  0
SPLINE
  5
239
100
AcDbEntity
  8
Layer_1
 62
5
100
AcDbSpline
 70
8
 71
3
 72
8
 73
4
 74
0
 40
0
 40
0
 40
0
 40
0
 40
1
 40
1
 40
1
 40
1
 10
252.726700
 20
98.477580
 30
0.0
 10
252.498311
 20
98.135775
 30
0.0
 10
252.143494
 20
97.898697
 30
0.0
 10
251.740305
 20
97.818500
 30
0.0
  0
SPLINE
  5
23a
100
AcDbEntity
  8
Layer_1
 62
5
100
AcDbSpline
 70
8
 71
3
 72
8
 73
4
 74
0
 40
0
 40
0
 40
0
 40
0
 40
1
 40
1
 40
1
 40
1
 10
251.740305
 20
97.818500
 30
0.0
 10
251.337117
 20
97.738304
 30
0.0
 10
250.918584
 20
97.821559
 30
0.0
 10
250.576780
 20
98.049950
 30
0.0
  0
SPLINE
  5
23b
100
AcDbEntity
  8
Layer_1
 62
5
100
AcDbSpline
 70
8
 71
3
 72
8
 73
4
 74
0
 40
0
 40
0
 40
0
 40
0
 40
1
 40
1
 40
1
 40
1
 10
250.576780
 20
98.049950
 30
0.0
 10
249.865007
 20
98.525539
 30
0.0
 10
249.673541
 20
99.488086
 30
0.0
 10
250.149130
 20
100.199860
 30
0.0
  0
SPLINE
  5
23c
100
AcDbEntity
  8
Layer_1
 62
5
100
AcDbSpline
 70
8
 71
3
 72
8
 73
4
 74
0
 40
0
 40
0
 40
0
 40
0
 40
1
 40
1
 40
1
 40
1
 10
250.149130
 20
100.199860
 30
0.0
 10
250.377518
 20
100.541667
 30
0.0
 10
250.732334
 20
100.778747
 30
0.0
 10
251.135522
 20
100.858945
 30
0.0
  0
SPLINE
  5
23d
100
AcDbEntity
  8
Layer_1
 62
5
100
AcDbSpline
 70
8
 71
3
 72
8
 73
4
 74
0
 40
0
 40
0
 40
0
 40
0
 40
1
 40
1
 40
1
 40
1
 10
251.135522
 20
100.858945
 30
0.0
 10
251.538711
 20
100.939143
 30
0.0
 10
251.957245
 20
100.855890
 30
0.0
 10
252.299050
 20
100.627500
 30
0.0
  0
LINE
  5
23e
100
AcDbEntity
  8
Layer_1
 62
5
100
AcDbLine
 10
252.299050
 20
100.627500
 30
0.0
 11
252.299050
 21
100.627500
 31
0.0
  0
LINE
  5
23f
100
AcDbEntity
  8
Layer_1
 62
5
100
AcDbLine
 10
260.763870
 20
117.968090
 30
0.0
 11
262.714780
 21
127.775940
 31
0.0
  0
LINE
  5
240
100
AcDbEntity
  8
Layer_1
 62
5
100
AcDbLine
 10
262.714780
 20
127.775940
 30
0.0
 11
265.657130
 21
127.190670
 31
0.0
  0
LINE
  5
241
100
AcDbEntity
  8
Layer_1
 62
5
100
AcDbLine
 10
265.657130
 20
127.190670
 30
0.0
 11
263.706220
 21
117.382810
 31
0.0
  0
LINE
  5
242
100
AcDbEntity
  8
Layer_1
 62
5
100
AcDbLine
 10
263.706220
 20
117.382810
 30
0.0
 11
260.763870
 21
117.968090
 31
0.0
  0
LINE
  5
243
100
AcDbEntity
  8
Layer_1
 62
5
100
AcDbLine
 10
264.665670
 20
137.583750
 30
0.0
 11
266.616580
 21
147.391610
 31
0.0
  0
LINE
  5
244
100
AcDbEntity
  8
Layer_1
 62
5
100
AcDbLine
 10
266.616580
 20
147.391610
 30
0.0
 11
269.558930
 21
146.806340
 31
0.0
  0
LINE
  5
245
100
AcDbEntity
  8
Layer_1
 62
5
100
AcDbLine
 10
269.558930
 20
146.806340
 30
0.0
 11
267.608020
 21
136.998480
 31
0.0
  0
LINE
  5
246
100
AcDbEntity
  8
Layer_1
 62
5
100
AcDbLine
 10
267.608020
 20
136.998480
 30
0.0
 11
264.665670
 21
137.583750
 31
0.0
  0
SPLINE
  5
247
100
AcDbEntity
  8
Layer_1
 62
5
100
AcDbSpline
 70
8
 71
3
 72
8
 73
4
 74
0
 40
0
 40
0
 40
0
 40
0
 40
1
 40
1
 40
1
 40
1
 10
265.464910
 20
133.907200
 30
0.0
 10
265.868100
 20
133.827004
 30
0.0
 10
266.222918
 20
133.589926
 30
0.0
 10
266.451307
 20
133.248120
 30
0.0
  0
SPLINE
  5
248
100
AcDbEntity
  8
Layer_1
 62
5
100
AcDbSpline
 70
8
 71
3
 72
8
 73
4
 74
0
 40
0
 40
0
 40
0
 40
0
 40
1
 40
1
 40
1
 40
1
 10
266.451307
 20
133.248120
 30
0.0
 10
266.679697
 20
132.906313
 30
0.0
 10
266.762949
 20
132.487779
 30
0.0
 10
266.682750
 20
132.084590
 30
0.0
  0
SPLINE
  5
249
100
AcDbEntity
  8
Layer_1
 62
5
100
AcDbSpline
 70
8
 71
3
 72
8
 73
4
 74
0
 40
0
 40
0
 40
0
 40
0
 40
1
 40
1
 40
1
 40
1
 10
266.682750
 20
132.084590
 30
0.0
 10
266.602552
 20
131.681400
 30
0.0
 10
266.365471
 20
131.326583
 30
0.0
 10
266.023663
 20
131.098195
 30
0.0
  0
SPLINE
  5
24a
100
AcDbEntity
  8
Layer_1
 62
5
100
AcDbSpline
 70
8
 71
3
 72
8
 73
4
 74
0
 40
0
 40
0
 40
0
 40
0
 40
1
 40
1
 40
1
 40
1
 10
266.023663
 20
131.098195
 30
0.0
 10
265.681855
 20
130.869807
 30
0.0
 10
265.263319
 20
130.786557
 30
0.0
 10
264.860130
 20
130.866760
 30
0.0
  0
SPLINE
  5
24b
100
AcDbEntity
  8
Layer_1
 62
5
100
AcDbSpline
 70
8
 71
3
 72
8
 73
4
 74
0
 40
0
 40
0
 40
0
 40
0
 40
1
 40
1
 40
1
 40
1
 10
264.860130
 20
130.866760
 30
0.0
 10
264.456940
 20
130.946956
 30
0.0
 10
264.102122
 20
131.184034
 30
0.0
 10
263.873733
 20
131.525840
 30
0.0
  0
SPLINE
  5
24c
100
AcDbEntity
  8
Layer_1
 62
5
100
AcDbSpline
 70
8
 71
3
 72
8
 73
4
 74
0
 40
0
 40
0
 40
0
 40
0
 40
1
 40
1
 40
1
 40
1
 10
263.873733
 20
131.525840
 30
0.0
 10
263.645343
 20
131.867647
 30
0.0
 10
263.562091
 20
132.286181
 30
0.0
 10
263.642290
 20
132.689370
 30
0.0
  0
SPLINE
  5
24d
100
AcDbEntity
  8
Layer_1
 62
5
100
AcDbSpline
 70
8
 71
3
 72
8
 73
4
 74
0
 40
0
 40
0
 40
0
 40
0
 40
1
 40
1
 40
1
 40
1
 10
263.642290
 20
132.689370
 30
0.0
 10
263.722488
 20
133.092560
 30
0.0
 10
263.959569
 20
133.447377
 30
0.0
 10
264.301377
 20
133.675765
 30
0.0
  0
SPLINE
  5
24e
100
AcDbEntity
  8
Layer_1
 62
5
100
AcDbSpline
 70
8
 71
3
 72
8
 73
4
 74
0
 40
0
 40
0
 40
0
 40
0
 40
1
 40
1
 40
1
 40
1
 10
264.301377
 20
133.675765
 30
0.0
 10
264.643185
 20
133.904153
 30
0.0
 10
265.061721
 20
133.987403
 30
0.0
 10
265.464910
 20
133.907200
 30
0.0
  0
LINE
  5
24f
100
AcDbEntity
  8
Layer_1
 62
5
100
AcDbLine
 10
265.464910
 20
133.907200
 30
0.0
 11
265.464910
 21
133.907200
 31
0.0
  0
LINE
  5
250
100
AcDbEntity
  8
Layer_1
 62
5
100
AcDbLine
 10
219.492850
 20
39.341520
 30
0.0
 11
216.891580
 21
45.934490
 31
0.0
  0
LINE
  5
251
100
AcDbEntity
  8
Layer_1
 62
5
100
AcDbLine
 10
216.891580
 20
45.934490
 30
0.0
 11
219.663210
 21
47.082540
 31
0.0
  0
LINE
  5
252
100
AcDbEntity
  8
Layer_1
 62
5
100
AcDbLine
 10
219.663210
 20
47.082540
 30
0.0
 11
222.264480
 21
40.489570
 31
0.0
  0
LINE
  5
253
100
AcDbEntity
  8
Layer_1
 62
5
100
AcDbLine
 10
222.264480
 20
40.489570
 30
0.0
 11
219.492850
 21
39.341520
 31
0.0
  0
SPLINE
  5
254
100
AcDbEntity
  8
Layer_1
 62
5
100
AcDbSpline
 70
8
 71
3
 72
8
 73
4
 74
0
 40
0
 40
0
 40
0
 40
0
 40
1
 40
1
 40
1
 40
1
 10
215.771890
 20
52.560330
 30
0.0
 10
216.151684
 20
52.717648
 30
0.0
 10
216.578417
 20
52.717650
 30
0.0
 10
216.958212
 20
52.560335
 30
0.0
  0
SPLINE
  5
255
100
AcDbEntity
  8
Layer_1
 62
5
100
AcDbSpline
 70
8
 71
3
 72
8
 73
4
 74
0
 40
0
 40
0
 40
0
 40
0
 40
1
 40
1
 40
1
 40
1
 10
216.958212
 20
52.560335
 30
0.0
 10
217.338007
 20
52.403020
 30
0.0
 10
217.639754
 20
52.101275
 30
0.0
 10
217.797070
 20
51.721480
 30
0.0
  0
SPLINE
  5
256
100
AcDbEntity
  8
Layer_1
 62
5
100
AcDbSpline
 70
8
 71
3
 72
8
 73
4
 74
0
 40
0
 40
0
 40
0
 40
0
 40
1
 40
1
 40
1
 40
1
 10
217.797070
 20
51.721480
 30
0.0
 10
217.954388
 20
51.341685
 30
0.0
 10
217.954388
 20
50.914951
 30
0.0
 10
217.797071
 20
50.535155
 30
0.0
  0
SPLINE
  5
257
100
AcDbEntity
  8
Layer_1
 62
5
100
AcDbSpline
 70
8
 71
3
 72
8
 73
4
 74
0
 40
0
 40
0
 40
0
 40
0
 40
1
 40
1
 40
1
 40
1
 10
217.797071
 20
50.535155
 30
0.0
 10
217.639754
 20
50.155360
 30
0.0
 10
217.338007
 20
49.853614
 30
0.0
 10
216.958210
 20
49.696300
 30
0.0
  0
SPLINE
  5
258
100
AcDbEntity
  8
Layer_1
 62
5
100
AcDbSpline
 70
8
 71
3
 72
8
 73
4
 74
0
 40
0
 40
0
 40
0
 40
0
 40
1
 40
1
 40
1
 40
1
 10
216.958210
 20
49.696300
 30
0.0
 10
216.578416
 20
49.538982
 30
0.0
 10
216.151683
 20
49.538980
 30
0.0
 10
215.771888
 20
49.696295
 30
0.0
  0
SPLINE
  5
259
100
AcDbEntity
  8
Layer_1
 62
5
100
AcDbSpline
 70
8
 71
3
 72
8
 73
4
 74
0
 40
0
 40
0
 40
0
 40
0
 40
1
 40
1
 40
1
 40
1
 10
215.771888
 20
49.696295
 30
0.0
 10
215.392093
 20
49.853610
 30
0.0
 10
215.090346
 20
50.155355
 30
0.0
 10
214.933030
 20
50.535150
 30
0.0
  0
SPLINE
  5
25a
100
AcDbEntity
  8
Layer_1
 62
5
100
AcDbSpline
 70
8
 71
3
 72
8
 73
4
 74
0
 40
0
 40
0
 40
0
 40
0
 40
1
 40
1
 40
1
 40
1
 10
214.933030
 20
50.535150
 30
0.0
 10
214.775712
 20
50.914945
 30
0.0
 10
214.775712
 20
51.341679
 30
0.0
 10
214.933029
 20
51.721475
 30
0.0
  0
SPLINE
  5
25b
100
AcDbEntity
  8
Layer_1
 62
5
100
AcDbSpline
 70
8
 71
3
 72
8
 73
4
 74
0
 40
0
 40
0
 40
0
 40
0
 40
1
 40
1
 40
1
 40
1
 10
214.933029
 20
51.721475
 30
0.0
 10
215.090346
 20
52.101270
 30
0.0
 10
215.392093
 20
52.403016
 30
0.0
 10
215.771890
 20
52.560330
 30
0.0
  0
LINE
  5
25c
100
AcDbEntity
  8
Layer_1
 62
5
100
AcDbLine
 10
215.771890
 20
52.560330
 30
0.0
 11
215.771890
 21
52.560330
 31
0.0
  0
LINE
  5
25d
100
AcDbEntity
  8
Layer_1
 62
5
100
AcDbLine
 10
258.409260
 20
64.961830
 30
0.0
 11
253.482980
 21
70.057480
 31
0.0
  0
LINE
  5
25e
100
AcDbEntity
  8
Layer_1
 62
5
100
AcDbLine
 10
253.482980
 20
70.057480
 30
0.0
 11
255.604300
 21
72.178790
 31
0.0
  0
LINE
  5
25f
100
AcDbEntity
  8
Layer_1
 62
5
100
AcDbLine
 10
255.604300
 20
72.178790
 30
0.0
 11
260.530580
 21
67.083140
 31
0.0
  0
LINE
  5
260
100
AcDbEntity
  8
Layer_1
 62
5
100
AcDbLine
 10
260.530580
 20
67.083140
 30
0.0
 11
258.409260
 21
64.961830
 31
0.0
  0
SPLINE
  5
261
100
AcDbEntity
  8
Layer_1
 62
5
100
AcDbSpline
 70
8
 71
3
 72
8
 73
4
 74
0
 40
0
 40
0
 40
0
 40
0
 40
1
 40
1
 40
1
 40
1
 10
249.912930
 20
75.750470
 30
0.0
 10
250.518240
 20
76.355785
 30
0.0
 10
251.499645
 20
76.355789
 30
0.0
 10
252.104960
 20
75.750480
 30
0.0
  0
SPLINE
  5
262
100
AcDbEntity
  8
Layer_1
 62
5
100
AcDbSpline
 70
8
 71
3
 72
8
 73
4
 74
0
 40
0
 40
0
 40
0
 40
0
 40
1
 40
1
 40
1
 40
1
 10
252.104960
 20
75.750480
 30
0.0
 10
252.395644
 20
75.459798
 30
0.0
 10
252.558949
 20
75.065548
 30
0.0
 10
252.558949
 20
74.654460
 30
0.0
  0
SPLINE
  5
263
100
AcDbEntity
  8
Layer_1
 62
5
100
AcDbSpline
 70
8
 71
3
 72
8
 73
4
 74
0
 40
0
 40
0
 40
0
 40
0
 40
1
 40
1
 40
1
 40
1
 10
252.558949
 20
74.654460
 30
0.0
 10
252.558949
 20
74.243372
 30
0.0
 10
252.395644
 20
73.849122
 30
0.0
 10
252.104960
 20
73.558440
 30
0.0
  0
SPLINE
  5
264
100
AcDbEntity
  8
Layer_1
 62
5
100
AcDbSpline
 70
8
 71
3
 72
8
 73
4
 74
0
 40
0
 40
0
 40
0
 40
0
 40
1
 40
1
 40
1
 40
1
 10
252.104960
 20
73.558440
 30
0.0
 10
251.814280
 20
73.267754
 30
0.0
 10
251.420030
 20
73.104448
 30
0.0
 10
251.008942
 20
73.104446
 30
0.0
  0
SPLINE
  5
265
100
AcDbEntity
  8
Layer_1
 62
5
100
AcDbSpline
 70
8
 71
3
 72
8
 73
4
 74
0
 40
0
 40
0
 40
0
 40
0
 40
1
 40
1
 40
1
 40
1
 10
251.008942
 20
73.104446
 30
0.0
 10
250.597854
 20
73.104444
 30
0.0
 10
250.203603
 20
73.267747
 30
0.0
 10
249.912920
 20
73.558430
 30
0.0
  0
SPLINE
  5
266
100
AcDbEntity
  8
Layer_1
 62
5
100
AcDbSpline
 70
8
 71
3
 72
8
 73
4
 74
0
 40
0
 40
0
 40
0
 40
0
 40
1
 40
1
 40
1
 40
1
 10
249.912920
 20
73.558430
 30
0.0
 10
249.622237
 20
73.849113
 30
0.0
 10
249.458934
 20
74.243364
 30
0.0
 10
249.458936
 20
74.654452
 30
0.0
  0
SPLINE
  5
267
100
AcDbEntity
  8
Layer_1
 62
5
100
AcDbSpline
 70
8
 71
3
 72
8
 73
4
 74
0
 40
0
 40
0
 40
0
 40
0
 40
1
 40
1
 40
1
 40
1
 10
249.458936
 20
74.654452
 30
0.0
 10
249.458938
 20
75.065540
 30
0.0
 10
249.622244
 20
75.459790
 30
0.0
 10
249.912930
 20
75.750470
 30
0.0
  0
LINE
  5
268
100
AcDbEntity
  8
Layer_1
 62
5
100
AcDbLine
 10
249.912930
 20
75.750470
 30
0.0
 11
249.912930
 21
75.750470
 31
0.0
  0
LINE
  5
269
100
AcDbEntity
  8
Layer_1
 62
5
100
AcDbLine
 10
284.628770
 20
103.274870
 30
0.0
 11
278.127460
 21
106.097430
 31
0.0
  0
LINE
  5
26a
100
AcDbEntity
  8
Layer_1
 62
5
100
AcDbLine
 10
278.127460
 20
106.097430
 30
0.0
 11
279.275500
 21
108.869060
 31
0.0
  0
LINE
  5
26b
100
AcDbEntity
  8
Layer_1
 62
5
100
AcDbLine
 10
279.275500
 20
108.869060
 30
0.0
 11
285.776820
 21
106.046500
 31
0.0
  0
LINE
  5
26c
100
AcDbEntity
  8
Layer_1
 62
5
100
AcDbLine
 10
285.776820
 20
106.046500
 30
0.0
 11
284.628770
 21
103.274870
 31
0.0
  0
SPLINE
  5
26d
100
AcDbEntity
  8
Layer_1
 62
5
100
AcDbSpline
 70
8
 71
3
 72
8
 73
4
 74
0
 40
0
 40
0
 40
0
 40
0
 40
1
 40
1
 40
1
 40
1
 10
272.650540
 20
109.990870
 30
0.0
 10
272.807854
 20
110.370667
 30
0.0
 10
273.109600
 20
110.672414
 30
0.0
 10
273.489395
 20
110.829731
 30
0.0
  0
SPLINE
  5
26e
100
AcDbEntity
  8
Layer_1
 62
5
100
AcDbSpline
 70
8
 71
3
 72
8
 73
4
 74
0
 40
0
 40
0
 40
0
 40
0
 40
1
 40
1
 40
1
 40
1
 10
273.489395
 20
110.829731
 30
0.0
 10
273.869191
 20
110.987048
 30
0.0
 10
274.295925
 20
110.987048
 30
0.0
 10
274.675720
 20
110.829730
 30
0.0
  0
SPLINE
  5
26f
100
AcDbEntity
  8
Layer_1
 62
5
100
AcDbSpline
 70
8
 71
3
 72
8
 73
4
 74
0
 40
0
 40
0
 40
0
 40
0
 40
1
 40
1
 40
1
 40
1
 10
274.675720
 20
110.829730
 30
0.0
 10
275.055515
 20
110.672414
 30
0.0
 10
275.357260
 20
110.370667
 30
0.0
 10
275.514575
 20
109.990872
 30
0.0
  0
SPLINE
  5
270
100
AcDbEntity
  8
Layer_1
 62
5
100
AcDbSpline
 70
8
 71
3
 72
8
 73
4
 74
0
 40
0
 40
0
 40
0
 40
0
 40
1
 40
1
 40
1
 40
1
 10
275.514575
 20
109.990872
 30
0.0
 10
275.671890
 20
109.611077
 30
0.0
 10
275.671888
 20
109.184344
 30
0.0
 10
275.514570
 20
108.804550
 30
0.0
  0
SPLINE
  5
271
100
AcDbEntity
  8
Layer_1
 62
5
100
AcDbSpline
 70
8
 71
3
 72
8
 73
4
 74
0
 40
0
 40
0
 40
0
 40
0
 40
1
 40
1
 40
1
 40
1
 10
275.514570
 20
108.804550
 30
0.0
 10
275.357256
 20
108.424753
 30
0.0
 10
275.055510
 20
108.123006
 30
0.0
 10
274.675715
 20
107.965689
 30
0.0
  0
SPLINE
  5
272
100
AcDbEntity
  8
Layer_1
 62
5
100
AcDbSpline
 70
8
 71
3
 72
8
 73
4
 74
0
 40
0
 40
0
 40
0
 40
0
 40
1
 40
1
 40
1
 40
1
 10
274.675715
 20
107.965689
 30
0.0
 10
274.295919
 20
107.808372
 30
0.0
 10
273.869185
 20
107.808372
 30
0.0
 10
273.489390
 20
107.965690
 30
0.0
  0
SPLINE
  5
273
100
AcDbEntity
  8
Layer_1
 62
5
100
AcDbSpline
 70
8
 71
3
 72
8
 73
4
 74
0
 40
0
 40
0
 40
0
 40
0
 40
1
 40
1
 40
1
 40
1
 10
273.489390
 20
107.965690
 30
0.0
 10
273.109595
 20
108.123006
 30
0.0
 10
272.807850
 20
108.424753
 30
0.0
 10
272.650535
 20
108.804548
 30
0.0
  0
SPLINE
  5
274
100
AcDbEntity
  8
Layer_1
 62
5
100
AcDbSpline
 70
8
 71
3
 72
8
 73
4
 74
0
 40
0
 40
0
 40
0
 40
0
 40
1
 40
1
 40
1
 40
1
 10
272.650535
 20
108.804548
 30
0.0
 10
272.493220
 20
109.184343
 30
0.0
 10
272.493222
 20
109.611076
 30
0.0
 10
272.650540
 20
109.990870
 30
0.0
  0
LINE
  5
275
100
AcDbEntity
  8
Layer_1
 62
5
100
AcDbLine
 10
272.650540
 20
109.990870
 30
0.0
 11
272.650540
 21
109.990870
 31
0.0
  0
LINE
  5
276
100
AcDbEntity
  8
Layer_1
 62
5
100
AcDbLine
 10
299.792310
 20
152.819580
 30
0.0
 11
308.733980
 21
152.819580
 31
0.0
  0
LINE
  5
277
100
AcDbEntity
  8
Layer_1
 62
5
100
AcDbLine
 10
308.733980
 20
152.819580
 30
0.0
 11
308.733980
 21
149.819590
 31
0.0
  0
LINE
  5
278
100
AcDbEntity
  8
Layer_1
 62
5
100
AcDbLine
 10
308.733980
 20
149.819590
 30
0.0
 11
299.792310
 21
149.819590
 31
0.0
  0
LINE
  5
279
100
AcDbEntity
  8
Layer_1
 62
5
100
AcDbLine
 10
299.792310
 20
149.819590
 30
0.0
 11
299.792310
 21
152.819580
 31
0.0
  0
SPLINE
  5
27a
100
AcDbEntity
  8
Layer_1
 62
5
100
AcDbSpline
 70
8
 71
3
 72
8
 73
4
 74
0
 40
0
 40
0
 40
0
 40
0
 40
1
 40
1
 40
1
 40
1
 10
296.342320
 20
151.318440
 30
0.0
 10
296.342323
 20
150.907353
 30
0.0
 10
296.179021
 20
150.513101
 30
0.0
 10
295.888339
 20
150.222418
 30
0.0
  0
SPLINE
  5
27b
100
AcDbEntity
  8
Layer_1
 62
5
100
AcDbSpline
 70
8
 71
3
 72
8
 73
4
 74
0
 40
0
 40
0
 40
0
 40
0
 40
1
 40
1
 40
1
 40
1
 10
295.888339
 20
150.222418
 30
0.0
 10
295.597657
 20
149.931734
 30
0.0
 10
295.203407
 20
149.768430
 30
0.0
 10
294.792320
 20
149.768430
 30
0.0
  0
SPLINE
  5
27c
100
AcDbEntity
  8
Layer_1
 62
5
100
AcDbSpline
 70
8
 71
3
 72
8
 73
4
 74
0
 40
0
 40
0
 40
0
 40
0
 40
1
 40
1
 40
1
 40
1
 10
294.792320
 20
149.768430
 30
0.0
 10
294.381233
 20
149.768430
 30
0.0
 10
293.986983
 20
149.931734
 30
0.0
 10
293.696301
 20
150.222418
 30
0.0
  0
SPLINE
  5
27d
100
AcDbEntity
  8
Layer_1
 62
5
100
AcDbSpline
 70
8
 71
3
 72
8
 73
4
 74
0
 40
0
 40
0
 40
0
 40
0
 40
1
 40
1
 40
1
 40
1
 10
293.696301
 20
150.222418
 30
0.0
 10
293.405619
 20
150.513101
 30
0.0
 10
293.242317
 20
150.907353
 30
0.0
 10
293.242320
 20
151.318440
 30
0.0
  0
SPLINE
  5
27e
100
AcDbEntity
  8
Layer_1
 62
5
100
AcDbSpline
 70
8
 71
3
 72
8
 73
4
 74
0
 40
0
 40
0
 40
0
 40
0
 40
1
 40
1
 40
1
 40
1
 10
293.242320
 20
151.318440
 30
0.0
 10
293.242317
 20
151.729527
 30
0.0
 10
293.405619
 20
152.123779
 30
0.0
 10
293.696301
 20
152.414462
 30
0.0
  0
SPLINE
  5
27f
100
AcDbEntity
  8
Layer_1
 62
5
100
AcDbSpline
 70
8
 71
3
 72
8
 73
4
 74
0
 40
0
 40
0
 40
0
 40
0
 40
1
 40
1
 40
1
 40
1
 10
293.696301
 20
152.414462
 30
0.0
 10
293.986983
 20
152.705146
 30
0.0
 10
294.381233
 20
152.868450
 30
0.0
 10
294.792320
 20
152.868450
 30
0.0
  0
SPLINE
  5
280
100
AcDbEntity
  8
Layer_1
 62
5
100
AcDbSpline
 70
8
 71
3
 72
8
 73
4
 74
0
 40
0
 40
0
 40
0
 40
0
 40
1
 40
1
 40
1
 40
1
 10
294.792320
 20
152.868450
 30
0.0
 10
295.203407
 20
152.868450
 30
0.0
 10
295.597657
 20
152.705146
 30
0.0
 10
295.888339
 20
152.414462
 30
0.0
  0
SPLINE
  5
281
100
AcDbEntity
  8
Layer_1
 62
5
100
AcDbSpline
 70
8
 71
3
 72
8
 73
4
 74
0
 40
0
 40
0
 40
0
 40
0
 40
1
 40
1
 40
1
 40
1
 10
295.888339
 20
152.414462
 30
0.0
 10
296.179021
 20
152.123779
 30
0.0
 10
296.342323
 20
151.729527
 30
0.0
 10
296.342320
 20
151.318440
 30
0.0
  0
LINE
  5
282
100
AcDbEntity
  8
Layer_1
 62
5
100
AcDbLine
 10
296.342320
 20
151.318440
 30
0.0
 11
296.342320
 21
151.318440
 31
0.0
  0
SPLINE
  5
283
100
AcDbEntity
  8
Layer_1
 62
3
100
AcDbSpline
 70
8
 71
3
 72
8
 73
4
 74
0
 40
0
 40
0
 40
0
 40
0
 40
1
 40
1
 40
1
 40
1
 10
175.425250
 20
2.558080
 30
0.0
 10
214.548600
 20
2.558080
 30
0.0
 10
252.069580
 20
18.099760
 30
0.0
 10
279.733970
 20
45.764150
 30
0.0
  0
SPLINE
  5
284
100
AcDbEntity
  8
Layer_1
 62
3
100
AcDbSpline
 70
8
 71
3
 72
8
 73
4
 74
0
 40
0
 40
0
 40
0
 40
0
 40
1
 40
1
 40
1
 40
1
 10
279.733970
 20
45.764150
 30
0.0
 10
307.398350
 20
73.428530
 30
0.0
 10
322.940050
 20
110.949500
 30
0.0
 10
322.940050
 20
150.072870
 30
0.0
  0
SPLINE
  5
285
100
AcDbEntity
  8
Layer_1
 62
3
100
AcDbSpline
 70
8
 71
3
 72
8
 73
4
 74
0
 40
0
 40
0
 40
0
 40
0
 40
1
 40
1
 40
1
 40
1
 10
322.940050
 20
150.072870
 30
0.0
 10
322.940050
 20
189.196230
 30
0.0
 10
307.398350
 20
226.717180
 30
0.0
 10
279.733970
 20
254.381561
 30
0.0
  0
SPLINE
  5
286
100
AcDbEntity
  8
Layer_1
 62
3
100
AcDbSpline
 70
8
 71
3
 72
8
 73
4
 74
0
 40
0
 40
0
 40
0
 40
0
 40
1
 40
1
 40
1
 40
1
 10
279.733970
 20
254.381561
 30
0.0
 10
252.069580
 20
282.045944
 30
0.0
 10
214.548600
 20
297.587639
 30
0.0
 10
175.425250
 20
297.587639
 30
0.0
  0
LINE
  5
287
100
AcDbEntity
  8
Layer_1
 62
3
100
AcDbLine
 10
175.425250
 20
297.587639
 30
0.0
 11
175.380950
 21
292.914842
 31
0.0
  0
SPLINE
  5
288
100
AcDbEntity
  8
Layer_1
 62
3
100
AcDbSpline
 70
8
 71
3
 72
8
 73
4
 74
0
 40
0
 40
0
 40
0
 40
0
 40
1
 40
1
 40
1
 40
1
 10
175.380950
 20
292.914842
 30
0.0
 10
213.265000
 20
292.914842
 30
0.0
 10
249.597410
 20
277.865456
 30
0.0
 10
276.385500
 20
251.077402
 30
0.0
  0
SPLINE
  5
289
100
AcDbEntity
  8
Layer_1
 62
3
100
AcDbSpline
 70
8
 71
3
 72
8
 73
4
 74
0
 40
0
 40
0
 40
0
 40
0
 40
1
 40
1
 40
1
 40
1
 10
276.385500
 20
251.077402
 30
0.0
 10
303.173550
 20
224.289320
 30
0.0
 10
318.222940
 20
187.956920
 30
0.0
 10
318.222940
 20
150.072870
 30
0.0
  0
SPLINE
  5
28a
100
AcDbEntity
  8
Layer_1
 62
3
100
AcDbSpline
 70
8
 71
3
 72
8
 73
4
 74
0
 40
0
 40
0
 40
0
 40
0
 40
1
 40
1
 40
1
 40
1
 10
318.222940
 20
150.072870
 30
0.0
 10
318.222940
 20
112.188830
 30
0.0
 10
303.173550
 20
75.856420
 30
0.0
 10
276.385500
 20
49.068330
 30
0.0
  0
SPLINE
  5
28b
100
AcDbEntity
  8
Layer_1
 62
3
100
AcDbSpline
 70
8
 71
3
 72
8
 73
4
 74
0
 40
0
 40
0
 40
0
 40
0
 40
1
 40
1
 40
1
 40
1
 10
276.385500
 20
49.068330
 30
0.0
 10
249.597410
 20
22.280280
 30
0.0
 10
213.265000
 20
7.230890
 30
0.0
 10
175.380950
 20
7.230890
 30
0.0
  0
LINE
  5
28c
100
AcDbEntity
  8
Layer_1
 62
3
100
AcDbLine
 10
175.380950
 20
7.230890
 30
0.0
 11
175.425250
 21
2.558080
 31
0.0
  0
LINE
  5
28d
100
AcDbEntity
  8
Layer_1
 62
5
100
AcDbLine
 10
279.792360
 20
152.819530
 30
0.0
 11
289.792365
 21
152.819530
 31
0.0
  0
LINE
  5
28e
100
AcDbEntity
  8
Layer_1
 62
5
100
AcDbLine
 10
289.792365
 20
152.819530
 30
0.0
 11
289.792365
 21
149.819536
 31
0.0
  0
LINE
  5
28f
100
AcDbEntity
  8
Layer_1
 62
5
100
AcDbLine
 10
289.792365
 20
149.819536
 30
0.0
 11
279.792360
 21
149.819536
 31
0.0
  0
LINE
  5
290
100
AcDbEntity
  8
Layer_1
 62
5
100
AcDbLine
 10
279.792360
 20
149.819536
 30
0.0
 11
279.792360
 21
152.819530
 31
0.0
  0
ENDSEC
  0
SECTION
  2
OBJECTS
  0
DICTIONARY
  5
C
330
0
100
AcDbDictionary
  3
ACAD_GROUP
350
D
  3
ACAD_MLINESTYLE
350
17
  0
DICTIONARY
  5
D
330
C
100
AcDbDictionary
  0
DICTIONARY
  5
1A
330
C
100
AcDbDictionary
  0
DICTIONARY
  5
17
330
C
100
AcDbDictionary
  3
STANDARD
350
18
  0
DICTIONARY
  5
19
330
C
100
AcDbDictionary
  0
ENDSEC
  0
EOF
