  0
SECTION
  2
HEADER
  9
$ACADVER
  1
AC1009
  9
$INSBASE
 10
0.0
 20
0.0
 30
0.0
  9
$EXTMIN
 10
-0.0624999999999991
 20
49.5814629588013318
 30
0.0
  9
$EXTMAX
 10
95.9375
 20
241.581462958801211
 30
0.0
  9
$LIMMIN
 10
0.0
 20
0.0
  9
$LIMMAX
 10
12.0
 20
9.0
  9
$ORTHOMODE
 70
     0
  9
$REGENMODE
 70
     1
  9
$FILLMODE
 70
     1
  9
$QTEXTMODE
 70
     0
  9
$MIRRTEXT
 70
     0
  9
$DRAGMODE
 70
     2
  9
$LTSCALE
 40
1.0
  9
$OSMODE
 70
  2223
  9
$ATTMODE
 70
     1
  9
$TEXTSIZE
 40
0.2
  9
$TRACEWID
 40
0.05
  9
$TEXTSTYLE
  7
STANDARD
  9
$CLAYER
  8
0
  9
$CELTYPE
  6
CONTINUOUS
  9
$CECOLOR
 62
   256
  9
$DIMSCALE
 40
1.0
  9
$DIMASZ
 40
0.18
  9
$DIMEXO
 40
0.0625
  9
$DIMDLI
 40
0.38
  9
$DIMRND
 40
0.0
  9
$DIMDLE
 40
0.0
  9
$DIMEXE
 40
0.18
  9
$DIMTP
 40
0.0
  9
$DIMTM
 40
0.0
  9
$DIMTXT
 40
0.18
  9
$DIMCEN
 40
0.09
  9
$DIMTSZ
 40
0.0
  9
$DIMTOL
 70
     0
  9
$DIMLIM
 70
     0
  9
$DIMTIH
 70
     1
  9
$DIMTOH
 70
     1
  9
$DIMSE1
 70
     0
  9
$DIMSE2
 70
     0
  9
$DIMTAD
 70
     0
  9
$DIMZIN
 70
     0
  9
$DIMBLK
  1

  9
$DIMASO
 70
     1
  9
$DIMSHO
 70
     1
  9
$DIMPOST
  1

  9
$DIMAPOST
  1

  9
$DIMALT
 70
     0
  9
$DIMALTD
 70
     2
  9
$DIMALTF
 40
25.3999999999999986
  9
$DIMLFAC
 40
1.0
  9
$DIMTOFL
 70
     0
  9
$DIMTVP
 40
0.0
  9
$DIMTIX
 70
     0
  9
$DIMSOXD
 70
     0
  9
$DIMSAH
 70
     0
  9
$DIMBLK1
  1

  9
$DIMBLK2
  1

  9
$DIMSTYLE
  2
STANDARD
  9
$DIMCLRD
 70
     0
  9
$DIMCLRE
 70
     0
  9
$DIMCLRT
 70
     0
  9
$DIMTFAC
 40
1.0
  9
$DIMGAP
 40
0.09
  9
$LUNITS
 70
     2
  9
$LUPREC
 70
     4
  9
$SKETCHINC
 40
0.1
  9
$FILLETRAD
 40
0.0
  9
$AUNITS
 70
     0
  9
$AUPREC
 70
     0
  9
$MENU
  1
.
  9
$ELEVATION
 40
0.0
  9
$PELEVATION
 40
0.0
  9
$THICKNESS
 40
0.0
  9
$LIMCHECK
 70
     0
  9
$BLIPMODE
 70
     0
  9
$CHAMFERA
 40
0.0
  9
$CHAMFERB
 40
0.0
  9
$SKPOLY
 70
     0
  9
$TDCREATE
 40
2457310.5982427662238479
  9
$TDUPDATE
 40
2457310.6015766551718116
  9
$TDINDWG
 40
0.0033378588
  9
$TDUSRTIMER
 40
0.0033378588
  9
$USRTIMER
 70
     1
  9
$ANGBASE
 50
0.0
  9
$ANGDIR
 70
     0
  9
$PDMODE
 70
     0
  9
$PDSIZE
 40
0.0
  9
$PLINEWID
 40
0.0
  9
$COORDS
 70
     1
  9
$SPLFRAME
 70
     0
  9
$SPLINETYPE
 70
     6
  9
$SPLINESEGS
 70
     8
  9
$ATTDIA
 70
     1
  9
$ATTREQ
 70
     1
  9
$HANDLING
 70
     1
  9
$HANDSEED
  5
102B6
  9
$SURFTAB1
 70
     6
  9
$SURFTAB2
 70
     6
  9
$SURFTYPE
 70
     6
  9
$SURFU
 70
     6
  9
$SURFV
 70
     6
  9
$UCSNAME
  2

  9
$UCSORG
 10
0.0
 20
0.0
 30
0.0
  9
$UCSXDIR
 10
1.0
 20
0.0
 30
0.0
  9
$UCSYDIR
 10
0.0
 20
1.0
 30
0.0
  9
$PUCSNAME
  2

  9
$PUCSORG
 10
0.0
 20
0.0
 30
0.0
  9
$PUCSXDIR
 10
1.0
 20
0.0
 30
0.0
  9
$PUCSYDIR
 10
0.0
 20
1.0
 30
0.0
  9
$USERI1
 70
     0
  9
$USERI2
 70
     0
  9
$USERI3
 70
     0
  9
$USERI4
 70
     0
  9
$USERI5
 70
     0
  9
$USERR1
 40
0.0
  9
$USERR2
 40
0.0
  9
$USERR3
 40
0.0
  9
$USERR4
 40
0.0
  9
$USERR5
 40
0.0
  9
$WORLDVIEW
 70
     1
  9
$SHADEDGE
 70
     3
  9
$SHADEDIF
 70
    70
  9
$TILEMODE
 70
     1
  9
$MAXACTVP
 70
    64
  9
$PLIMCHECK
 70
     0
  9
$PEXTMIN
 10
1.0000000000000000E+20
 20
1.0000000000000000E+20
 30
1.0000000000000000E+20
  9
$PEXTMAX
 10
-1.0000000000000000E+20
 20
-1.0000000000000000E+20
 30
-1.0000000000000000E+20
  9
$PLIMMIN
 10
0.0
 20
0.0
  9
$PLIMMAX
 10
12.0
 20
9.0
  9
$UNITMODE
 70
     0
  9
$VISRETAIN
 70
     1
  9
$PLINEGEN
 70
     0
  9
$PSLTSCALE
 70
     1
  0
ENDSEC
  0
SECTION
  2
TABLES
  0
TABLE
  2
VPORT
 70
     1
  0
VPORT
  2
*ACTIVE
 70
     0
 10
0.0
 20
0.0
 11
1.0
 21
1.0
 12
27.5778946196483083
 22
108.0009003673525996
 13
0.0
 23
0.0
 14
1.0
 24
1.0
 15
0.0
 25
0.0
 16
0.0
 26
0.0
 36
1.0
 17
0.0
 27
0.0
 37
0.0
 40
318.1027609196585217
 41
1.3164705882352941
 42
50.0
 43
0.0
 44
0.0
 50
0.0
 51
0.0
 71
     0
 72
  1000
 73
     1
 74
     3
 75
     0
 76
     0
 77
     0
 78
     0
  0
ENDTAB
  0
TABLE
  2
LTYPE
 70
     1
  0
LTYPE
  2
CONTINUOUS
 70
     0
  3
Solid line
 72
    65
 73
     0
 40
0.0
  0
ENDTAB
  0
TABLE
  2
LAYER
 70
     5
  0
LAYER
  2
0
 70
     0
 62
     7
  6
CONTINUOUS
  0
LAYER
  2
LAYER3
 70
     0
 62
     3
  6
CONTINUOUS
  0
ENDTAB
  0
TABLE
  2
STYLE
 70
     1
  0
STYLE
  2
STANDARD
 70
     0
 40
0.0
 41
1.0
 50
0.0
 71
     0
 42
0.2
  3
txt
  4

  0
ENDTAB
  0
TABLE
  2
VIEW
 70
     0
  0
ENDTAB
  0
TABLE
  2
UCS
 70
     0
  0
ENDTAB
  0
TABLE
  2
APPID
 70
     5
  0
APPID
  2
ACAD
 70
     0
  0
APPID
  2
ACAD_NAV_VCDISPLAY
 70
     0
  0
APPID
  2
ACAECLAYERSTANDARD
 70
     0
  0
APPID
  2
ACCMTRANSPARENCY
 70
     0
  0
APPID
  2
ACAD_MLEADERVER
 70
     0
  0
ENDTAB
  0
TABLE
  2
DIMSTYLE
 70
     1
  0
DIMSTYLE
  2
STANDARD
 70
     0
  3

  4

  5

  6

  7

 40
1.0
 41
0.18
 42
0.0625
 43
0.38
 44
0.18
 45
0.0
 46
0.0
 47
0.0
 48
0.0
140
0.18
141
0.09
142
0.0
143
25.3999999999999986
144
1.0
145
0.0
146
1.0
147
0.09
 71
     0
 72
     0
 73
     1
 74
     1
 75
     0
 76
     0
 77
     0
 78
     0
170
     0
171
     2
172
     0
173
     0
174
     0
175
     0
176
     0
177
     0
178
     0
  0
ENDTAB
  0
ENDSEC
  0
SECTION
  2
BLOCKS
  0
BLOCK
  8
0
  2
$MODEL_SPACE
 70
     0
 10
0.0
 20
0.0
 30
0.0
  3
$MODEL_SPACE
  1

  0
ENDBLK
  5
21
  8
0
  0
BLOCK
 67
     1
  8
0
  2
$PAPER_SPACE
 70
     0
 10
0.0
 20
0.0
 30
0.0
  3
$PAPER_SPACE
  1

  0
ENDBLK
  5
1D
 67
     1
  8
0
  0
ENDSEC
  0
SECTION
  2
ENTITIES
  0
LINE
  5
102
  8
LAYER3
 10
95.9375
 20
49.5814629588013318
 30
0.0
 11
-0.0624999999999991
 21
49.5814629588013318
 31
0.0
  0
CIRCLE
  5
129
  8
LAYER3
 10
23.4306226540196114
 20
60.0375065740024567
 30
0.0
 40
0.6562500000000063
  0
CIRCLE
  5
130
  8
LAYER3
 10
24.2224476370876616
 20
57.0072635665306109
 30
0.0
 40
0.4062500000000053
  0
POLYLINE
  5
131
  8
LAYER3
 66
     1
 10
0.0
 20
0.0
 30
0.0
 70
     1
  0
VERTEX
  5
10256
  8
LAYER3
 10
25.3073024075224993
 20
56.2685170761397728
 30
0.0
 42
-0.4138084609201223
  0
VERTEX
  5
10257
  8
LAYER3
 10
23.4852025336486996
 20
55.9213879256511674
 30
0.0
  0
VERTEX
  5
10258
  8
LAYER3
 10
5.7554590277384348
 20
67.9588313426291677
 30
0.0
 42
-0.2485237880064353
  0
VERTEX
  5
10259
  8
LAYER3
 10
5.1802041312538849
 20
69.0447211556007403
 30
0.0
  0
VERTEX
  5
1025A
  8
LAYER3
 10
5.1802041312539489
 20
69.7747211556005595
 30
0.0
  0
VERTEX
  5
1025B
  8
LAYER3
 10
5.910204131253959
 20
69.7747211556005595
 30
0.0
  0
VERTEX
  5
1025C
  8
LAYER3
 10
5.9102041312539644
 20
71.1046911241599275
 30
0.0
  0
VERTEX
  5
1025D
  8
LAYER3
 10
22.5338512217455182
 20
71.1046911241599275
 30
0.0
  0
VERTEX
  5
1025E
  8
LAYER3
 10
22.5338512217455182
 20
69.7747211556005311
 30
0.0
  0
VERTEX
  5
1025F
  8
LAYER3
 10
23.2638512217455293
 20
69.7747211556005311
 30
0.0
  0
VERTEX
  5
10260
  8
LAYER3
 10
23.2638512217455293
 20
71.1046911241599275
 30
0.0
  0
VERTEX
  5
10261
  8
LAYER3
 10
33.4256198709930885
 20
71.1046911241599275
 30
0.0
  0
VERTEX
  5
10262
  8
LAYER3
 10
33.4256198709930317
 20
71.8346911241598889
 30
0.0
 42
-0.602366671146279
  0
VERTEX
  5
10263
  8
LAYER3
 10
34.5104746414278694
 20
69.7834446337690508
 30
0.0
  0
SEQEND
  5
10264
  8
LAYER3
  0
CIRCLE
  5
132
  8
LAYER3
 10
4.626236502310392
 20
54.0157680695320721
 30
0.0
 40
0.6562499999999925
  0
CIRCLE
  5
133
  8
LAYER3
 10
2.2680842152370211
 20
51.9545846038713321
 30
0.0
 40
0.4062499999999966
  0
POLYLINE
  5
134
  8
LAYER3
 66
     1
 10
0.0
 20
0.0
 30
0.0
 70
     1
  0
VERTEX
  5
10265
  8
LAYER3
 10
2.2674926706175649
 20
50.6420847371761624
 30
0.0
 42
-0.4138084609201198
  0
VERTEX
  5
10266
  8
LAYER3
 10
0.955584786006004
 20
51.95336056620053
 30
0.0
  0
VERTEX
  5
10267
  8
LAYER3
 10
0.9403359426588831
 20
68.3042447480319197
 30
0.0
 42
-0.6023666711462859
  0
VERTEX
  5
10268
  8
LAYER3
 10
2.9905698053207499
 20
69.3910120394380385
 30
0.0
  0
VERTEX
  5
10269
  8
LAYER3
 10
2.5802489394886758
 20
68.7872432202176469
 30
0.0
  0
VERTEX
  5
1026A
  8
LAYER3
 10
10.9848503895534506
 20
63.075481972896938
 30
0.0
  0
VERTEX
  5
1026B
  8
LAYER3
 10
10.2372963771837107
 20
61.9754896475329176
 30
0.0
  0
VERTEX
  5
1026C
  8
LAYER3
 10
10.8410651964041502
 20
61.5651687817008622
 30
0.0
  0
VERTEX
  5
1026D
  8
LAYER3
 10
11.5886192087738795
 20
62.6651611070648968
 30
0.0
  0
VERTEX
  5
1026E
  8
LAYER3
 10
25.3377147909150509
 20
53.3212853982200485
 30
0.0
  0
VERTEX
  5
1026F
  8
LAYER3
 10
24.5901607785453216
 20
52.2212930728560423
 30
0.0
  0
VERTEX
  5
10270
  8
LAYER3
 10
25.1939295977657487
 20
51.8109722070239727
 30
0.0
  0
VERTEX
  5
10271
  8
LAYER3
 10
24.7836087319338603
 20
51.2072033878036734
 30
0.0
 42
-0.2485237880064237
  0
VERTEX
  5
10272
  8
LAYER3
 10
23.6974659677449289
 20
50.6324262330342734
 30
0.0
  0
SEQEND
  5
10273
  8
LAYER3
  0
CIRCLE
  5
135
  8
LAYER3
 10
4.6262365023103804
 20
54.0157680695320721
 30
0.0
 40
0.2187499999999713
  0
CIRCLE
  5
136
  8
LAYER3
 10
23.4306226540196114
 20
60.0375065740024567
 30
0.0
 40
0.218749999999976
  0
POLYLINE
  5
10061
  8
0
  6
CONTINUOUS
 66
     1
 10
0.0
 20
0.0
 30
0.0
 70
     1
  0
VERTEX
  5
102B1
  8
0
  6
CONTINUOUS
 10
-0.0624999999999991
 20
97.5814629588013105
 30
0.0
  0
VERTEX
  5
102B2
  8
0
  6
CONTINUOUS
 10
95.9375
 20
97.5814629588013105
 30
0.0
  0
VERTEX
  5
102B3
  8
0
  6
CONTINUOUS
 10
95.9375
 20
49.5814629588013318
 30
0.0
  0
VERTEX
  5
102B4
  8
0
  6
CONTINUOUS
 10
-0.0624999999999991
 20
49.5814629588013318
 30
0.0
  0
SEQEND
  5
102B5
  8
0
  6
CONTINUOUS
  0
ENDSEC
  0
EOF
