  0
SECTION
  2
HEADER
  9
$ACADVER
  1
AC1009
  9
$INSBASE
 10
0.0
 20
0.0
 30
0.0
  9
$EXTMIN
 10
2009.9940776427161
 20
1837.0203820017341
 30
0.0
  9
$EXTMAX
 10
3412.0299107929809
 20
2341.0780967049341
 30
0.0
  9
$LIMMIN
 10
0.0
 20
0.0
  9
$LIMMAX
 10
420.0
 20
297.0
  9
$ORTHOMODE
 70
     0
  9
$REGENMODE
 70
     1
  9
$FILLMODE
 70
     1
  9
$QTEXTMODE
 70
     0
  9
$MIRRTEXT
 70
     0
  9
$DRAGMODE
 70
     2
  9
$LTSCALE
 40
1.0
  9
$OSMODE
 70
   447
  9
$ATTMODE
 70
     1
  9
$TEXTSIZE
 40
2.5
  9
$TRACEWID
 40
1.0
  9
$TEXTSTYLE
  7
STANDARD
  9
$CLAYER
  8
0
  9
$CELTYPE
  6
BYLAYER
  9
$CECOLOR
 62
   256
  9
$DIMSCALE
 40
1.0
  9
$DIMASZ
 40
2.5
  9
$DIMEXO
 40
0.625
  9
$DIMDLI
 40
3.75
  9
$DIMRND
 40
0.0
  9
$DIMDLE
 40
0.0
  9
$DIMEXE
 40
1.25
  9
$DIMTP
 40
0.0
  9
$DIMTM
 40
0.0
  9
$DIMTXT
 40
2.5
  9
$DIMCEN
 40
2.5
  9
$DIMTSZ
 40
0.0
  9
$DIMTOL
 70
     0
  9
$DIMLIM
 70
     0
  9
$DIMTIH
 70
     0
  9
$DIMTOH
 70
     0
  9
$DIMSE1
 70
     0
  9
$DIMSE2
 70
     0
  9
$DIMTAD
 70
     1
  9
$DIMZIN
 70
     8
  9
$DIMBLK
  1

  9
$DIMASO
 70
     1
  9
$DIMSHO
 70
     1
  9
$DIMPOST
  1

  9
$DIMAPOST
  1

  9
$DIMALT
 70
     0
  9
$DIMALTD
 70
     3
  9
$DIMALTF
 40
0.03937007874016
  9
$DIMLFAC
 40
1.0
  9
$DIMTOFL
 70
     1
  9
$DIMTVP
 40
0.0
  9
$DIMTIX
 70
     0
  9
$DIMSOXD
 70
     0
  9
$DIMSAH
 70
     0
  9
$DIMBLK1
  1

  9
$DIMBLK2
  1

  9
$DIMSTYLE
  2
ISO-25
  9
$DIMCLRD
 70
     0
  9
$DIMCLRE
 70
     0
  9
$DIMCLRT
 70
     0
  9
$DIMTFAC
 40
1.0
  9
$DIMGAP
 40
0.625
  9
$LUNITS
 70
     2
  9
$LUPREC
 70
     4
  9
$SKETCHINC
 40
1.0
  9
$FILLETRAD
 40
0.0
  9
$AUNITS
 70
     0
  9
$AUPREC
 70
     0
  9
$MENU
  1
.
  9
$ELEVATION
 40
0.0
  9
$PELEVATION
 40
0.0
  9
$THICKNESS
 40
0.0
  9
$LIMCHECK
 70
     0
  9
$BLIPMODE
 70
     0
  9
$CHAMFERA
 40
0.0
  9
$CHAMFERB
 40
0.0
  9
$SKPOLY
 70
     0
  9
$TDCREATE
 40
2457745.4813583451
  9
$TDUPDATE
 40
2457746.4238644792
  9
$TDINDWG
 40
0.7006243519000001
  9
$TDUSRTIMER
 40
0.700624294
  9
$USRTIMER
 70
     1
  9
$ANGBASE
 50
0.0
  9
$ANGDIR
 70
     0
  9
$PDMODE
 70
     0
  9
$PDSIZE
 40
0.0
  9
$PLINEWID
 40
0.0
  9
$COORDS
 70
     1
  9
$SPLFRAME
 70
     0
  9
$SPLINETYPE
 70
     6
  9
$SPLINESEGS
 70
     8
  9
$ATTDIA
 70
     1
  9
$ATTREQ
 70
     1
  9
$HANDLING
 70
     1
  9
$HANDSEED
  5
C13
  9
$SURFTAB1
 70
     6
  9
$SURFTAB2
 70
     6
  9
$SURFTYPE
 70
     6
  9
$SURFU
 70
     6
  9
$SURFV
 70
     6
  9
$UCSNAME
  2

  9
$UCSORG
 10
0.0
 20
0.0
 30
0.0
  9
$UCSXDIR
 10
1.0
 20
0.0
 30
0.0
  9
$UCSYDIR
 10
0.0
 20
1.0
 30
0.0
  9
$PUCSNAME
  2

  9
$PUCSORG
 10
0.0
 20
0.0
 30
0.0
  9
$PUCSXDIR
 10
1.0
 20
0.0
 30
0.0
  9
$PUCSYDIR
 10
0.0
 20
1.0
 30
0.0
  9
$USERI1
 70
     0
  9
$USERI2
 70
     0
  9
$USERI3
 70
     0
  9
$USERI4
 70
     0
  9
$USERI5
 70
     0
  9
$USERR1
 40
0.0
  9
$USERR2
 40
0.0
  9
$USERR3
 40
0.0
  9
$USERR4
 40
0.0
  9
$USERR5
 40
0.0
  9
$WORLDVIEW
 70
     1
  9
$SHADEDGE
 70
     3
  9
$SHADEDIF
 70
    70
  9
$TILEMODE
 70
     1
  9
$MAXACTVP
 70
    64
  9
$PLIMCHECK
 70
     0
  9
$PEXTMIN
 10
0.0
 20
0.0
 30
0.0
  9
$PEXTMAX
 10
0.0
 20
0.0
 30
0.0
  9
$PLIMMIN
 10
0.0
 20
0.0
  9
$PLIMMAX
 10
12.0
 20
9.0
  9
$UNITMODE
 70
     0
  9
$VISRETAIN
 70
     1
  9
$PLINEGEN
 70
     0
  9
$PSLTSCALE
 70
     1
  0
ENDSEC
  0
SECTION
  2
TABLES
  0
TABLE
  2
VPORT
 70
     1
  0
VPORT
  2
*ACTIVE
 70
     0
 10
0.0
 20
0.0
 11
1.0
 21
1.0
 12
2302.6260630206912
 22
2059.6950172576321
 13
0.0
 23
0.0
 14
10.0
 24
10.0
 15
10.0
 25
10.0
 16
0.0
 26
0.0
 36
1.0
 17
0.0
 27
0.0
 37
0.0
 40
467.67025809634561
 41
2.6660117878192531
 42
50.0
 43
0.0
 44
0.0
 50
0.0
 51
0.0
 71
     0
 72
  1000
 73
     1
 74
     3
 75
     0
 76
     1
 77
     0
 78
     0
  0
ENDTAB
  0
TABLE
  2
LTYPE
 70
     2
  0
LTYPE
  2
CONTINUOUS
 70
     0
  3
Solid line
 72
    65
 73
     0
 40
0.0
  0
ENDTAB
  0
TABLE
  2
LAYER
 70
     2
  0
LAYER
  2
0
 70
     0
 62
     7
  6
CONTINUOUS
  0
LAYER
  2
EERST_SNIJDEN
 70
     0
 62
     1
  6
CONTINUOUS
  0
ENDTAB
  0
TABLE
  2
STYLE
 70
     2
  0
STYLE
  2
STANDARD
 70
     0
 40
0.0
 41
1.0
 50
0.0
 71
     0
 42
2.5
  3
txt
  4

  0
STYLE
  2
ANNOTATIVE
 70
     0
 40
0.0
 41
1.0
 50
0.0
 71
     0
 42
2.5
  3
txt
  4

  0
ENDTAB
  0
TABLE
  2
VIEW
 70
     0
  0
ENDTAB
  0
TABLE
  2
UCS
 70
     0
  0
ENDTAB
  0
TABLE
  2
APPID
 70
     9
  0
APPID
  2
ACAD
 70
     0
  0
APPID
  2
ACADANNOTATIVE
 70
     0
  0
APPID
  2
ACAD_PSEXT
 70
     0
  0
APPID
  2
ACADANNOPO
 70
     0
  0
APPID
  2
ACAD_DSTYLE_DIMJAG
 70
     0
  0
APPID
  2
ACAD_DSTYLE_DIMTALN
 70
     0
  0
APPID
  2
ACAD_MLEADERVER
 70
     0
  0
APPID
  2
ACAD_NAV_VCDISPLAY
 70
     0
  0
APPID
  2
ACAD_EXEMPT_FROM_CAD_STANDARDS
 70
     0
  0
ENDTAB
  0
TABLE
  2
DIMSTYLE
 70
     4
  0
DIMSTYLE
  2
STANDARD
 70
     0
  3

  4

  5

  6

  7

 40
1.0
 41
0.18
 42
0.0625
 43
0.38
 44
0.18
 45
0.0
 46
0.0
 47
0.0
 48
0.0
140
0.18
141
0.09
142
0.0
143
25.399999999999999
144
1.0
145
0.0
146
1.0
147
0.09
 71
     0
 72
     0
 73
     1
 74
     1
 75
     0
 76
     0
 77
     0
 78
     0
170
     0
171
     2
172
     0
173
     0
174
     0
175
     0
176
     0
177
     0
178
     0
  0
DIMSTYLE
  2
ANNOTATIVE
 70
     0
  3

  4

  5

  6

  7

 40
0.0
 41
2.5
 42
0.625
 43
3.75
 44
1.25
 45
0.0
 46
0.0
 47
0.0
 48
0.0
140
2.5
141
2.5
142
0.0
143
0.03937007874016
144
1.0
145
0.0
146
1.0
147
0.625
 71
     0
 72
     0
 73
     0
 74
     0
 75
     0
 76
     0
 77
     1
 78
     8
170
     0
171
     3
172
     1
173
     0
174
     0
175
     0
176
     0
177
     0
178
     0
  0
DIMSTYLE
  2
ISO-25
 70
     0
  3

  4

  5

  6

  7

 40
1.0
 41
2.5
 42
0.625
 43
3.75
 44
1.25
 45
0.0
 46
0.0
 47
0.0
 48
0.0
140
2.5
141
2.5
142
0.0
143
0.03937007874016
144
1.0
145
0.0
146
1.0
147
0.625
 71
     0
 72
     0
 73
     0
 74
     0
 75
     0
 76
     0
 77
     1
 78
     8
170
     0
171
     3
172
     1
173
     0
174
     0
175
     0
176
     0
177
     0
178
     0
  0
ENDTAB
  0
ENDSEC
  0
SECTION
  2
BLOCKS
  0
BLOCK
  8
0
  2
$MODEL_SPACE
 70
     0
 10
0.0
 20
0.0
 30
0.0
  3
$MODEL_SPACE
  1

  0
ENDBLK
  5
A4F
  8
0
  0
BLOCK
 67
     1
  8
0
  2
$PAPER_SPACE
 70
     0
 10
0.0
 20
0.0
 30
0.0
  3
$PAPER_SPACE
  1

  0
ENDBLK
  5
A4B
 67
     1
  8
0
  0
BLOCK
  8
0
  2
A$C3D885378
 70
     0
 10
0.0
 20
0.0
 30
0.0
  3
A$C3D885378
  1

  0
CIRCLE
  5
B52
  8
0
 10
10.0
 20
0.0
 30
0.0
 40
2.4500000000000002
  0
CIRCLE
  5
B53
  8
0
 10
20.0
 20
0.0
 30
0.0
 40
2.4500000000000002
  0
CIRCLE
  5
B54
  8
0
 10
30.0
 20
0.0
 30
0.0
 40
2.4500000000000002
  0
CIRCLE
  5
B55
  8
0
 10
40.0
 20
0.0
 30
0.0
 40
2.4500000000000002
  0
CIRCLE
  5
B56
  8
0
 10
50.0
 20
0.0
 30
0.0
 40
2.4500000000000002
  0
CIRCLE
  5
B57
  8
0
 10
60.0
 20
0.0
 30
0.0
 40
2.4500000000000002
  0
ENDBLK
  5
B59
  8
0
  0
ENDSEC
  0
SECTION
  2
ENTITIES
  0
LINE
  5
5C6
  8
0
 62
     1
 10
2472.9742456964791
 20
2020.694734241587
 30
0.0
 11
2472.9742456964791
 21
1980.694734241587
 31
0.0
  0
ARC
  5
5C7
  8
0
 62
     1
 10
2482.9742456964791
 20
1980.694734241587
 30
0.0
 40
10.0
 50
180.0
 51
270.0
  0
ARC
  5
5C8
  8
0
 62
     1
 10
2482.9742456964791
 20
2020.694734241587
 30
0.0
 40
10.0
 50
90.0
 51
180.0
  0
LINE
  5
5C9
  8
0
 62
     1
 10
2487.9742456964791
 20
2030.694734241589
 30
0.0
 11
2487.9742456964791
 21
1970.694734241589
 31
0.0
  0
LINE
  5
5CA
  8
0
 62
     1
 10
2482.9742456964791
 20
1970.694734241589
 30
0.0
 11
2487.9742456964791
 21
1970.694734241589
 31
0.0
  0
LINE
  5
5CB
  8
0
 62
     1
 10
2482.9742456964791
 20
2030.694734241589
 30
0.0
 11
2487.9742456964791
 21
2030.694734241589
 31
0.0
  0
LINE
  5
5CC
  8
0
 62
     1
 10
2472.9742456964791
 20
1980.694734241587
 30
0.0
 11
2472.9742456964791
 21
1990.694734241589
 31
0.0
  0
CIRCLE
  5
5CD
  8
EERST_SNIJDEN
 10
2480.4742456964791
 20
1990.694734241589
 30
0.0
 40
2.5
  0
CIRCLE
  5
5CE
  8
EERST_SNIJDEN
 10
2480.4742456964791
 20
2010.694734241589
 30
0.0
 40
2.5
  0
LINE
  5
5CF
  8
0
 62
     1
 10
2490.9742456964791
 20
2020.694734241587
 30
0.0
 11
2490.9742456964791
 21
1980.694734241587
 31
0.0
  0
ARC
  5
5D0
  8
0
 62
     1
 10
2500.9742456964791
 20
1980.694734241587
 30
0.0
 40
10.0
 50
180.0
 51
270.0
  0
ARC
  5
5D1
  8
0
 62
     1
 10
2500.9742456964791
 20
2020.694734241587
 30
0.0
 40
10.0
 50
90.0
 51
180.0
  0
LINE
  5
5D2
  8
0
 62
     1
 10
2505.9742456964791
 20
2030.694734241589
 30
0.0
 11
2505.9742456964791
 21
1970.694734241589
 31
0.0
  0
LINE
  5
5D3
  8
0
 62
     1
 10
2500.9742456964791
 20
1970.694734241589
 30
0.0
 11
2505.9742456964791
 21
1970.694734241589
 31
0.0
  0
LINE
  5
5D4
  8
0
 62
     1
 10
2500.9742456964791
 20
2030.694734241589
 30
0.0
 11
2505.9742456964791
 21
2030.694734241589
 31
0.0
  0
LINE
  5
5D5
  8
0
 62
     1
 10
2490.9742456964791
 20
1980.694734241587
 30
0.0
 11
2490.9742456964791
 21
1990.694734241589
 31
0.0
  0
CIRCLE
  5
5D6
  8
EERST_SNIJDEN
 10
2498.4742456964791
 20
1990.694734241589
 30
0.0
 40
2.5
  0
CIRCLE
  5
5D7
  8
EERST_SNIJDEN
 10
2498.4742456964791
 20
2010.694734241589
 30
0.0
 40
2.5
  0
LINE
  5
5D8
  8
0
 62
     1
 10
2508.9742456964782
 20
2020.694734241587
 30
0.0
 11
2508.9742456964782
 21
1980.694734241587
 31
0.0
  0
ARC
  5
5D9
  8
0
 62
     1
 10
2518.9742456964791
 20
1980.694734241587
 30
0.0
 40
10.0
 50
180.0
 51
270.0
  0
ARC
  5
5DA
  8
0
 62
     1
 10
2518.9742456964791
 20
2020.694734241587
 30
0.0
 40
10.0
 50
90.0
 51
180.0
  0
LINE
  5
5DB
  8
0
 62
     1
 10
2523.9742456964791
 20
2030.694734241589
 30
0.0
 11
2523.9742456964791
 21
1970.694734241589
 31
0.0
  0
LINE
  5
5DC
  8
0
 62
     1
 10
2518.9742456964791
 20
1970.694734241589
 30
0.0
 11
2523.9742456964791
 21
1970.694734241589
 31
0.0
  0
LINE
  5
5DD
  8
0
 62
     1
 10
2518.9742456964791
 20
2030.694734241589
 30
0.0
 11
2523.9742456964791
 21
2030.694734241589
 31
0.0
  0
LINE
  5
5DE
  8
0
 62
     1
 10
2508.9742456964782
 20
1980.694734241587
 30
0.0
 11
2508.9742456964782
 21
1990.694734241589
 31
0.0
  0
CIRCLE
  5
5DF
  8
EERST_SNIJDEN
 10
2516.4742456964791
 20
1990.694734241589
 30
0.0
 40
2.5
  0
CIRCLE
  5
5E0
  8
EERST_SNIJDEN
 10
2516.4742456964791
 20
2010.694734241589
 30
0.0
 40
2.5
  0
LINE
  5
5E1
  8
0
 62
     1
 10
2526.9742456964791
 20
2020.694734241587
 30
0.0
 11
2526.9742456964791
 21
1980.694734241587
 31
0.0
  0
ARC
  5
5E2
  8
0
 62
     1
 10
2536.9742456964791
 20
1980.694734241587
 30
0.0
 40
10.0
 50
180.0
 51
270.0
  0
ARC
  5
5E3
  8
0
 62
     1
 10
2536.9742456964791
 20
2020.694734241587
 30
0.0
 40
10.0
 50
90.0
 51
180.0
  0
LINE
  5
5E4
  8
0
 62
     1
 10
2541.9742456964791
 20
2030.694734241589
 30
0.0
 11
2541.9742456964791
 21
1970.694734241589
 31
0.0
  0
LINE
  5
5E5
  8
0
 62
     1
 10
2536.9742456964791
 20
1970.694734241589
 30
0.0
 11
2541.9742456964791
 21
1970.694734241589
 31
0.0
  0
LINE
  5
5E6
  8
0
 62
     1
 10
2536.9742456964791
 20
2030.694734241589
 30
0.0
 11
2541.9742456964791
 21
2030.694734241589
 31
0.0
  0
LINE
  5
5E7
  8
0
 62
     1
 10
2526.9742456964791
 20
1980.694734241587
 30
0.0
 11
2526.9742456964791
 21
1990.694734241589
 31
0.0
  0
CIRCLE
  5
5E8
  8
EERST_SNIJDEN
 10
2534.4742456964791
 20
1990.694734241589
 30
0.0
 40
2.5
  0
CIRCLE
  5
5E9
  8
EERST_SNIJDEN
 10
2534.4742456964791
 20
2010.694734241589
 30
0.0
 40
2.5
  0
LINE
  5
5EA
  8
0
 62
     1
 10
2544.9742456964791
 20
2020.694734241587
 30
0.0
 11
2544.9742456964791
 21
1980.694734241587
 31
0.0
  0
ARC
  5
5EB
  8
0
 62
     1
 10
2554.9742456964791
 20
1980.694734241587
 30
0.0
 40
10.0
 50
180.0
 51
270.0
  0
ARC
  5
5EC
  8
0
 62
     1
 10
2554.9742456964791
 20
2020.694734241587
 30
0.0
 40
10.0
 50
90.0
 51
180.0
  0
LINE
  5
5ED
  8
0
 62
     1
 10
2559.9742456964791
 20
2030.694734241589
 30
0.0
 11
2559.9742456964791
 21
1970.694734241589
 31
0.0
  0
LINE
  5
5EE
  8
0
 62
     1
 10
2554.9742456964791
 20
1970.694734241589
 30
0.0
 11
2559.9742456964791
 21
1970.694734241589
 31
0.0
  0
LINE
  5
5EF
  8
0
 62
     1
 10
2554.9742456964791
 20
2030.694734241589
 30
0.0
 11
2559.9742456964791
 21
2030.694734241589
 31
0.0
  0
LINE
  5
5F0
  8
0
 62
     1
 10
2544.9742456964791
 20
1980.694734241587
 30
0.0
 11
2544.9742456964791
 21
1990.694734241589
 31
0.0
  0
CIRCLE
  5
5F1
  8
EERST_SNIJDEN
 10
2552.4742456964791
 20
1990.694734241589
 30
0.0
 40
2.5
  0
CIRCLE
  5
5F2
  8
EERST_SNIJDEN
 10
2552.4742456964791
 20
2010.694734241589
 30
0.0
 40
2.5
  0
LINE
  5
5F3
  8
0
 62
     1
 10
2562.9742456964791
 20
2020.694734241587
 30
0.0
 11
2562.9742456964791
 21
1980.694734241587
 31
0.0
  0
ARC
  5
5F4
  8
0
 62
     1
 10
2572.9742456964791
 20
1980.694734241587
 30
0.0
 40
10.0
 50
180.0
 51
270.0
  0
ARC
  5
5F5
  8
0
 62
     1
 10
2572.9742456964791
 20
2020.694734241587
 30
0.0
 40
10.0
 50
90.0
 51
180.0
  0
LINE
  5
5F6
  8
0
 62
     1
 10
2577.9742456964791
 20
2030.694734241589
 30
0.0
 11
2577.9742456964791
 21
1970.694734241589
 31
0.0
  0
LINE
  5
5F7
  8
0
 62
     1
 10
2572.9742456964791
 20
1970.694734241589
 30
0.0
 11
2577.9742456964791
 21
1970.694734241589
 31
0.0
  0
LINE
  5
5F8
  8
0
 62
     1
 10
2572.9742456964791
 20
2030.694734241589
 30
0.0
 11
2577.9742456964791
 21
2030.694734241589
 31
0.0
  0
LINE
  5
5F9
  8
0
 62
     1
 10
2562.9742456964791
 20
1980.694734241587
 30
0.0
 11
2562.9742456964791
 21
1990.694734241589
 31
0.0
  0
CIRCLE
  5
5FA
  8
EERST_SNIJDEN
 10
2570.4742456964791
 20
1990.694734241589
 30
0.0
 40
2.5
  0
CIRCLE
  5
5FB
  8
EERST_SNIJDEN
 10
2570.4742456964791
 20
2010.694734241589
 30
0.0
 40
2.5
  0
LINE
  5
5FC
  8
0
 62
     1
 10
2580.9742456964791
 20
2020.694734241587
 30
0.0
 11
2580.9742456964791
 21
1980.694734241587
 31
0.0
  0
ARC
  5
5FD
  8
0
 62
     1
 10
2590.9742456964791
 20
1980.694734241587
 30
0.0
 40
10.0
 50
180.0
 51
270.0
  0
ARC
  5
5FE
  8
0
 62
     1
 10
2590.9742456964791
 20
2020.694734241587
 30
0.0
 40
10.0
 50
90.0
 51
180.0
  0
LINE
  5
5FF
  8
0
 62
     1
 10
2595.9742456964791
 20
2030.694734241589
 30
0.0
 11
2595.9742456964791
 21
1970.694734241589
 31
0.0
  0
LINE
  5
600
  8
0
 62
     1
 10
2590.9742456964791
 20
1970.694734241589
 30
0.0
 11
2595.9742456964791
 21
1970.694734241589
 31
0.0
  0
LINE
  5
601
  8
0
 62
     1
 10
2590.9742456964791
 20
2030.694734241589
 30
0.0
 11
2595.9742456964791
 21
2030.694734241589
 31
0.0
  0
LINE
  5
602
  8
0
 62
     1
 10
2580.9742456964791
 20
1980.694734241587
 30
0.0
 11
2580.9742456964791
 21
1990.694734241589
 31
0.0
  0
CIRCLE
  5
603
  8
EERST_SNIJDEN
 10
2588.4742456964791
 20
1990.694734241589
 30
0.0
 40
2.5
  0
CIRCLE
  5
604
  8
EERST_SNIJDEN
 10
2588.4742456964791
 20
2010.694734241589
 30
0.0
 40
2.5
  0
LINE
  5
605
  8
0
 62
     1
 10
2598.9742456964791
 20
2020.694734241587
 30
0.0
 11
2598.9742456964791
 21
1980.694734241587
 31
0.0
  0
ARC
  5
606
  8
0
 62
     1
 10
2608.9742456964791
 20
1980.694734241587
 30
0.0
 40
10.0
 50
180.0
 51
270.0
  0
ARC
  5
607
  8
0
 62
     1
 10
2608.9742456964791
 20
2020.694734241587
 30
0.0
 40
10.0
 50
90.0
 51
180.0
  0
LINE
  5
608
  8
0
 62
     1
 10
2613.9742456964791
 20
2030.694734241589
 30
0.0
 11
2613.9742456964791
 21
1970.694734241589
 31
0.0
  0
LINE
  5
609
  8
0
 62
     1
 10
2608.9742456964791
 20
1970.694734241589
 30
0.0
 11
2613.9742456964791
 21
1970.694734241589
 31
0.0
  0
LINE
  5
60A
  8
0
 62
     1
 10
2608.9742456964791
 20
2030.694734241589
 30
0.0
 11
2613.9742456964791
 21
2030.694734241589
 31
0.0
  0
LINE
  5
60B
  8
0
 62
     1
 10
2598.9742456964791
 20
1980.694734241587
 30
0.0
 11
2598.9742456964791
 21
1990.694734241589
 31
0.0
  0
CIRCLE
  5
60C
  8
EERST_SNIJDEN
 10
2606.4742456964791
 20
1990.694734241589
 30
0.0
 40
2.5
  0
CIRCLE
  5
60D
  8
EERST_SNIJDEN
 10
2606.4742456964791
 20
2010.694734241589
 30
0.0
 40
2.5
  0
LINE
  5
60E
  8
0
 62
     1
 10
2616.9742456964791
 20
2020.694734241587
 30
0.0
 11
2616.9742456964791
 21
1980.694734241587
 31
0.0
  0
ARC
  5
60F
  8
0
 62
     1
 10
2626.9742456964791
 20
1980.694734241587
 30
0.0
 40
10.0
 50
180.0
 51
270.0
  0
ARC
  5
610
  8
0
 62
     1
 10
2626.9742456964791
 20
2020.694734241587
 30
0.0
 40
10.0
 50
90.0
 51
180.0
  0
LINE
  5
611
  8
0
 62
     1
 10
2631.9742456964791
 20
2030.694734241589
 30
0.0
 11
2631.9742456964791
 21
1970.694734241589
 31
0.0
  0
LINE
  5
612
  8
0
 62
     1
 10
2626.9742456964791
 20
1970.694734241589
 30
0.0
 11
2631.9742456964791
 21
1970.694734241589
 31
0.0
  0
LINE
  5
613
  8
0
 62
     1
 10
2626.9742456964791
 20
2030.694734241589
 30
0.0
 11
2631.9742456964791
 21
2030.694734241589
 31
0.0
  0
LINE
  5
614
  8
0
 62
     1
 10
2616.9742456964791
 20
1980.694734241587
 30
0.0
 11
2616.9742456964791
 21
1990.694734241589
 31
0.0
  0
CIRCLE
  5
615
  8
EERST_SNIJDEN
 10
2624.4742456964791
 20
1990.694734241589
 30
0.0
 40
2.5
  0
CIRCLE
  5
616
  8
EERST_SNIJDEN
 10
2624.4742456964791
 20
2010.694734241589
 30
0.0
 40
2.5
  0
LINE
  5
617
  8
0
 62
     1
 10
2634.9742456964791
 20
2020.694734241587
 30
0.0
 11
2634.9742456964791
 21
1980.694734241587
 31
0.0
  0
ARC
  5
618
  8
0
 62
     1
 10
2644.9742456964791
 20
1980.694734241587
 30
0.0
 40
10.0
 50
180.0
 51
270.0
  0
ARC
  5
619
  8
0
 62
     1
 10
2644.9742456964791
 20
2020.694734241587
 30
0.0
 40
10.0
 50
90.0
 51
180.0
  0
LINE
  5
61A
  8
0
 62
     1
 10
2649.9742456964782
 20
2030.694734241589
 30
0.0
 11
2649.9742456964782
 21
1970.694734241589
 31
0.0
  0
LINE
  5
61B
  8
0
 62
     1
 10
2644.9742456964791
 20
1970.694734241589
 30
0.0
 11
2649.9742456964782
 21
1970.694734241589
 31
0.0
  0
LINE
  5
61C
  8
0
 62
     1
 10
2644.9742456964791
 20
2030.694734241589
 30
0.0
 11
2649.9742456964782
 21
2030.694734241589
 31
0.0
  0
LINE
  5
61D
  8
0
 62
     1
 10
2634.9742456964791
 20
1980.694734241587
 30
0.0
 11
2634.9742456964791
 21
1990.694734241589
 31
0.0
  0
CIRCLE
  5
61E
  8
EERST_SNIJDEN
 10
2642.4742456964791
 20
1990.694734241589
 30
0.0
 40
2.5
  0
CIRCLE
  5
61F
  8
EERST_SNIJDEN
 10
2642.4742456964791
 20
2010.694734241589
 30
0.0
 40
2.5
  0
LINE
  5
620
  8
0
 62
     1
 10
2652.9742456964791
 20
2020.694734241587
 30
0.0
 11
2652.9742456964791
 21
1980.694734241587
 31
0.0
  0
ARC
  5
621
  8
0
 62
     1
 10
2662.9742456964791
 20
1980.694734241587
 30
0.0
 40
10.0
 50
180.0
 51
270.0
  0
ARC
  5
622
  8
0
 62
     1
 10
2662.9742456964791
 20
2020.694734241587
 30
0.0
 40
10.0
 50
90.0
 51
180.0
  0
LINE
  5
623
  8
0
 62
     1
 10
2667.9742456964791
 20
2030.694734241589
 30
0.0
 11
2667.9742456964791
 21
1970.694734241589
 31
0.0
  0
LINE
  5
624
  8
0
 62
     1
 10
2662.9742456964791
 20
1970.694734241589
 30
0.0
 11
2667.9742456964791
 21
1970.694734241589
 31
0.0
  0
LINE
  5
625
  8
0
 62
     1
 10
2662.9742456964791
 20
2030.694734241589
 30
0.0
 11
2667.9742456964791
 21
2030.694734241589
 31
0.0
  0
LINE
  5
626
  8
0
 62
     1
 10
2652.9742456964791
 20
1980.694734241587
 30
0.0
 11
2652.9742456964791
 21
1990.694734241589
 31
0.0
  0
CIRCLE
  5
627
  8
EERST_SNIJDEN
 10
2660.4742456964791
 20
1990.694734241589
 30
0.0
 40
2.5
  0
CIRCLE
  5
628
  8
EERST_SNIJDEN
 10
2660.4742456964791
 20
2010.694734241589
 30
0.0
 40
2.5
  0
LINE
  5
629
  8
0
 62
     1
 10
2406.965455825597
 20
2016.7004490828731
 30
0.0
 11
2406.965455825597
 21
1976.7004490828731
 31
0.0
  0
ARC
  5
62A
  8
0
 62
     1
 10
2416.965455825597
 20
1976.7004490828731
 30
0.0
 40
10.0
 50
180.0
 51
270.0
  0
ARC
  5
62B
  8
0
 62
     1
 10
2416.965455825597
 20
2016.7004490828731
 30
0.0
 40
10.0
 50
90.0
 51
180.0
  0
LINE
  5
62C
  8
0
 62
     1
 10
2421.965455825597
 20
2026.7004490828749
 30
0.0
 11
2421.965455825597
 21
1966.7004490828749
 31
0.0
  0
LINE
  5
62D
  8
0
 62
     1
 10
2416.965455825597
 20
1966.7004490828749
 30
0.0
 11
2421.965455825597
 21
1966.7004490828749
 31
0.0
  0
LINE
  5
62E
  8
0
 62
     1
 10
2416.965455825597
 20
2026.7004490828749
 30
0.0
 11
2421.965455825597
 21
2026.7004490828749
 31
0.0
  0
LINE
  5
62F
  8
0
 62
     1
 10
2406.965455825597
 20
1976.7004490828731
 30
0.0
 11
2406.965455825597
 21
1986.700449082874
 31
0.0
  0
CIRCLE
  5
630
  8
EERST_SNIJDEN
 10
2414.4654558255979
 20
1986.700449082874
 30
0.0
 40
2.5
  0
CIRCLE
  5
631
  8
EERST_SNIJDEN
 10
2414.4654558255979
 20
2006.7004490828749
 30
0.0
 40
2.5
  0
LINE
  5
632
  8
0
 62
     1
 10
2423.9104163787488
 20
2016.7004490828731
 30
0.0
 11
2423.9104163787488
 21
1976.7004490828731
 31
0.0
  0
ARC
  5
633
  8
0
 62
     1
 10
2433.9104163787479
 20
1976.7004490828731
 30
0.0
 40
10.0
 50
180.0
 51
270.0
  0
ARC
  5
634
  8
0
 62
     1
 10
2433.9104163787479
 20
2016.7004490828731
 30
0.0
 40
10.0
 50
90.0
 51
180.0
  0
LINE
  5
635
  8
0
 62
     1
 10
2438.9104163787479
 20
2026.7004490828749
 30
0.0
 11
2438.9104163787479
 21
2021.7004490828749
 31
0.0
  0
LINE
  5
636
  8
0
 62
     1
 10
2433.9104163787479
 20
1966.7004490828749
 30
0.0
 11
2438.9104163787479
 21
1966.7004490828749
 31
0.0
  0
LINE
  5
637
  8
0
 62
     1
 10
2433.9104163787479
 20
2026.7004490828749
 30
0.0
 11
2438.9104163787479
 21
2026.7004490828749
 31
0.0
  0
LINE
  5
638
  8
0
 62
     1
 10
2423.9104163787488
 20
1976.7004490828731
 30
0.0
 11
2423.9104163787488
 21
1986.700449082874
 31
0.0
  0
CIRCLE
  5
639
  8
EERST_SNIJDEN
 10
2431.4104163787479
 20
1986.700449082874
 30
0.0
 40
2.5
  0
CIRCLE
  5
63A
  8
EERST_SNIJDEN
 10
2431.4104163787479
 20
2006.7004490828749
 30
0.0
 40
2.5
  0
LINE
  5
63B
  8
0
 62
     1
 10
2032.173425474301
 20
2242.3921389433472
 30
0.0
 11
2032.173425474301
 21
2202.3921389433472
 31
0.0
  0
ARC
  5
63C
  8
0
 62
     1
 10
2042.1734254743019
 20
2202.3921389433472
 30
0.0
 40
10.0
 50
180.0
 51
270.0
  0
ARC
  5
63D
  8
0
 62
     1
 10
2042.1734254743019
 20
2242.3921389433472
 30
0.0
 40
10.0
 50
90.0
 51
180.0
  0
LINE
  5
63E
  8
0
 62
     1
 10
2047.173425474301
 20
2252.3921389433449
 30
0.0
 11
2047.173425474301
 21
2192.3921389433472
 31
0.0
  0
LINE
  5
63F
  8
0
 62
     1
 10
2042.1734254743019
 20
2192.3921389433472
 30
0.0
 11
2047.173425474301
 21
2192.3921389433472
 31
0.0
  0
LINE
  5
640
  8
0
 62
     1
 10
2042.1734254743019
 20
2252.3921389433449
 30
0.0
 11
2047.173425474301
 21
2252.3921389433449
 31
0.0
  0
LINE
  5
641
  8
0
 62
     1
 10
2032.173425474301
 20
2202.3921389433472
 30
0.0
 11
2032.173425474301
 21
2212.3921389433472
 31
0.0
  0
CIRCLE
  5
642
  8
EERST_SNIJDEN
 10
2039.6734254743019
 20
2212.3921389433472
 30
0.0
 40
2.5
  0
CIRCLE
  5
643
  8
EERST_SNIJDEN
 10
2039.6734254743019
 20
2232.3921389433472
 30
0.0
 40
2.5
  0
LINE
  5
644
  8
0
 62
     1
 10
2050.1734254743019
 20
2242.3921389433472
 30
0.0
 11
2050.1734254743019
 21
2202.3921389433472
 31
0.0
  0
ARC
  5
645
  8
0
 62
     1
 10
2060.173425474301
 20
2202.3921389433472
 30
0.0
 40
10.0
 50
180.0
 51
270.0
  0
ARC
  5
646
  8
0
 62
     1
 10
2060.173425474301
 20
2242.3921389433472
 30
0.0
 40
10.0
 50
90.0
 51
180.0
  0
LINE
  5
647
  8
0
 62
     1
 10
2065.1734254743019
 20
2252.3921389433449
 30
0.0
 11
2065.1734254743019
 21
2192.3921389433472
 31
0.0
  0
LINE
  5
648
  8
0
 62
     1
 10
2060.173425474301
 20
2192.3921389433472
 30
0.0
 11
2065.1734254743019
 21
2192.3921389433472
 31
0.0
  0
LINE
  5
649
  8
0
 62
     1
 10
2060.173425474301
 20
2252.3921389433449
 30
0.0
 11
2065.1734254743019
 21
2252.3921389433449
 31
0.0
  0
LINE
  5
64A
  8
0
 62
     1
 10
2050.1734254743019
 20
2202.3921389433472
 30
0.0
 11
2050.1734254743019
 21
2212.3921389433472
 31
0.0
  0
CIRCLE
  5
64B
  8
EERST_SNIJDEN
 10
2057.6734254743019
 20
2212.3921389433472
 30
0.0
 40
2.5
  0
CIRCLE
  5
64C
  8
EERST_SNIJDEN
 10
2057.6734254743019
 20
2232.3921389433472
 30
0.0
 40
2.5
  0
LINE
  5
64D
  8
0
 62
     1
 10
2068.1734254743019
 20
2242.3921389433472
 30
0.0
 11
2068.1734254743019
 21
2202.3921389433472
 31
0.0
  0
ARC
  5
64E
  8
0
 62
     1
 10
2078.1734254743019
 20
2202.3921389433472
 30
0.0
 40
10.0
 50
180.0
 51
270.0
  0
ARC
  5
64F
  8
0
 62
     1
 10
2078.1734254743019
 20
2242.3921389433472
 30
0.0
 40
10.0
 50
90.0
 51
180.0
  0
LINE
  5
650
  8
0
 62
     1
 10
2083.173425474301
 20
2252.3921389433449
 30
0.0
 11
2083.173425474301
 21
2192.3921389433472
 31
0.0
  0
LINE
  5
651
  8
0
 62
     1
 10
2078.1734254743019
 20
2192.3921389433472
 30
0.0
 11
2083.173425474301
 21
2192.3921389433472
 31
0.0
  0
LINE
  5
652
  8
0
 62
     1
 10
2078.1734254743019
 20
2252.3921389433449
 30
0.0
 11
2083.173425474301
 21
2252.3921389433449
 31
0.0
  0
LINE
  5
653
  8
0
 62
     1
 10
2068.1734254743019
 20
2202.3921389433472
 30
0.0
 11
2068.1734254743019
 21
2212.3921389433472
 31
0.0
  0
CIRCLE
  5
654
  8
EERST_SNIJDEN
 10
2075.6734254743019
 20
2212.3921389433472
 30
0.0
 40
2.5
  0
CIRCLE
  5
655
  8
EERST_SNIJDEN
 10
2075.6734254743019
 20
2232.3921389433472
 30
0.0
 40
2.5
  0
LINE
  5
656
  8
0
 62
     1
 10
2086.1734254743019
 20
2242.3921389433472
 30
0.0
 11
2086.1734254743019
 21
2202.3921389433472
 31
0.0
  0
ARC
  5
657
  8
0
 62
     1
 10
2096.173425474301
 20
2202.3921389433472
 30
0.0
 40
10.0
 50
180.0
 51
270.0
  0
ARC
  5
658
  8
0
 62
     1
 10
2096.173425474301
 20
2242.3921389433472
 30
0.0
 40
10.0
 50
90.0
 51
180.0
  0
LINE
  5
659
  8
0
 62
     1
 10
2101.1734254743019
 20
2252.3921389433449
 30
0.0
 11
2101.1734254743019
 21
2192.3921389433472
 31
0.0
  0
LINE
  5
65A
  8
0
 62
     1
 10
2096.173425474301
 20
2192.3921389433472
 30
0.0
 11
2101.1734254743019
 21
2192.3921389433472
 31
0.0
  0
LINE
  5
65B
  8
0
 62
     1
 10
2096.173425474301
 20
2252.3921389433449
 30
0.0
 11
2101.1734254743019
 21
2252.3921389433449
 31
0.0
  0
LINE
  5
65C
  8
0
 62
     1
 10
2086.1734254743019
 20
2202.3921389433472
 30
0.0
 11
2086.1734254743019
 21
2212.3921389433472
 31
0.0
  0
CIRCLE
  5
65D
  8
EERST_SNIJDEN
 10
2093.673425474301
 20
2212.3921389433472
 30
0.0
 40
2.5
  0
CIRCLE
  5
65E
  8
EERST_SNIJDEN
 10
2093.673425474301
 20
2232.3921389433472
 30
0.0
 40
2.5
  0
LINE
  5
65F
  8
0
 62
     1
 10
2104.1734254743019
 20
2242.3921389433472
 30
0.0
 11
2104.1734254743019
 21
2202.3921389433472
 31
0.0
  0
ARC
  5
660
  8
0
 62
     1
 10
2114.1734254743019
 20
2202.3921389433472
 30
0.0
 40
10.0
 50
180.0
 51
270.0
  0
ARC
  5
661
  8
0
 62
     1
 10
2114.1734254743019
 20
2242.3921389433472
 30
0.0
 40
10.0
 50
90.0
 51
180.0
  0
LINE
  5
662
  8
0
 62
     1
 10
2119.173425474301
 20
2252.3921389433449
 30
0.0
 11
2119.173425474301
 21
2192.3921389433472
 31
0.0
  0
LINE
  5
663
  8
0
 62
     1
 10
2114.1734254743019
 20
2192.3921389433472
 30
0.0
 11
2119.173425474301
 21
2192.3921389433472
 31
0.0
  0
LINE
  5
664
  8
0
 62
     1
 10
2114.1734254743019
 20
2252.3921389433449
 30
0.0
 11
2119.173425474301
 21
2252.3921389433449
 31
0.0
  0
LINE
  5
665
  8
0
 62
     1
 10
2104.1734254743019
 20
2202.3921389433472
 30
0.0
 11
2104.1734254743019
 21
2212.3921389433472
 31
0.0
  0
CIRCLE
  5
666
  8
EERST_SNIJDEN
 10
2111.6734254743019
 20
2212.3921389433472
 30
0.0
 40
2.5
  0
CIRCLE
  5
667
  8
EERST_SNIJDEN
 10
2111.6734254743019
 20
2232.3921389433472
 30
0.0
 40
2.5
  0
LINE
  5
668
  8
0
 62
     1
 10
2122.1734254743019
 20
2242.3921389433472
 30
0.0
 11
2122.1734254743019
 21
2202.3921389433472
 31
0.0
  0
ARC
  5
669
  8
0
 62
     1
 10
2132.173425474301
 20
2202.3921389433472
 30
0.0
 40
10.0
 50
180.0
 51
270.0
  0
ARC
  5
66A
  8
0
 62
     1
 10
2132.173425474301
 20
2242.3921389433472
 30
0.0
 40
10.0
 50
90.0
 51
180.0
  0
LINE
  5
66B
  8
0
 62
     1
 10
2137.173425474301
 20
2252.3921389433449
 30
0.0
 11
2137.173425474301
 21
2192.3921389433472
 31
0.0
  0
LINE
  5
66C
  8
0
 62
     1
 10
2132.173425474301
 20
2192.3921389433472
 30
0.0
 11
2137.173425474301
 21
2192.3921389433472
 31
0.0
  0
LINE
  5
66D
  8
0
 62
     1
 10
2132.173425474301
 20
2252.3921389433449
 30
0.0
 11
2137.173425474301
 21
2252.3921389433449
 31
0.0
  0
LINE
  5
66E
  8
0
 62
     1
 10
2122.1734254743019
 20
2202.3921389433472
 30
0.0
 11
2122.1734254743019
 21
2212.3921389433472
 31
0.0
  0
CIRCLE
  5
66F
  8
EERST_SNIJDEN
 10
2129.673425474301
 20
2212.3921389433472
 30
0.0
 40
2.5
  0
CIRCLE
  5
670
  8
EERST_SNIJDEN
 10
2129.673425474301
 20
2232.3921389433472
 30
0.0
 40
2.5
  0
LINE
  5
671
  8
0
 62
     1
 10
2140.173425474301
 20
2242.3921389433472
 30
0.0
 11
2140.173425474301
 21
2202.3921389433472
 31
0.0
  0
ARC
  5
672
  8
0
 62
     1
 10
2150.173425474301
 20
2202.3921389433472
 30
0.0
 40
10.0
 50
180.0
 51
270.0
  0
ARC
  5
673
  8
0
 62
     1
 10
2150.173425474301
 20
2242.3921389433472
 30
0.0
 40
10.0
 50
90.0
 51
180.0
  0
LINE
  5
674
  8
0
 62
     1
 10
2155.1734254743019
 20
2252.3921389433449
 30
0.0
 11
2155.1734254743019
 21
2192.3921389433472
 31
0.0
  0
LINE
  5
675
  8
0
 62
     1
 10
2150.173425474301
 20
2192.3921389433472
 30
0.0
 11
2155.1734254743019
 21
2192.3921389433472
 31
0.0
  0
LINE
  5
676
  8
0
 62
     1
 10
2150.173425474301
 20
2252.3921389433449
 30
0.0
 11
2155.1734254743019
 21
2252.3921389433449
 31
0.0
  0
LINE
  5
677
  8
0
 62
     1
 10
2140.173425474301
 20
2202.3921389433472
 30
0.0
 11
2140.173425474301
 21
2212.3921389433472
 31
0.0
  0
CIRCLE
  5
678
  8
EERST_SNIJDEN
 10
2147.6734254743019
 20
2212.3921389433472
 30
0.0
 40
2.5
  0
CIRCLE
  5
679
  8
EERST_SNIJDEN
 10
2147.6734254743019
 20
2232.3921389433472
 30
0.0
 40
2.5
  0
LINE
  5
67A
  8
0
 62
     1
 10
2158.1734254743019
 20
2242.3921389433472
 30
0.0
 11
2158.1734254743019
 21
2202.3921389433472
 31
0.0
  0
ARC
  5
67B
  8
0
 62
     1
 10
2168.1734254743019
 20
2202.3921389433472
 30
0.0
 40
10.0
 50
180.0
 51
270.0
  0
ARC
  5
67C
  8
0
 62
     1
 10
2168.1734254743019
 20
2242.3921389433472
 30
0.0
 40
10.0
 50
90.0
 51
180.0
  0
LINE
  5
67D
  8
0
 62
     1
 10
2173.173425474301
 20
2252.3921389433449
 30
0.0
 11
2173.173425474301
 21
2192.3921389433472
 31
0.0
  0
LINE
  5
67E
  8
0
 62
     1
 10
2168.1734254743019
 20
2192.3921389433472
 30
0.0
 11
2173.173425474301
 21
2192.3921389433472
 31
0.0
  0
LINE
  5
67F
  8
0
 62
     1
 10
2168.1734254743019
 20
2252.3921389433449
 30
0.0
 11
2173.173425474301
 21
2252.3921389433449
 31
0.0
  0
LINE
  5
680
  8
0
 62
     1
 10
2158.1734254743019
 20
2202.3921389433472
 30
0.0
 11
2158.1734254743019
 21
2212.3921389433472
 31
0.0
  0
CIRCLE
  5
681
  8
EERST_SNIJDEN
 10
2165.673425474301
 20
2212.3921389433472
 30
0.0
 40
2.5
  0
CIRCLE
  5
682
  8
EERST_SNIJDEN
 10
2165.673425474301
 20
2232.3921389433472
 30
0.0
 40
2.5
  0
LINE
  5
683
  8
0
 62
     1
 10
2176.173425474301
 20
2242.3921389433472
 30
0.0
 11
2176.173425474301
 21
2202.3921389433472
 31
0.0
  0
ARC
  5
684
  8
0
 62
     1
 10
2186.1734254743019
 20
2202.3921389433472
 30
0.0
 40
10.0
 50
180.0
 51
270.0
  0
ARC
  5
685
  8
0
 62
     1
 10
2186.1734254743019
 20
2242.3921389433472
 30
0.0
 40
10.0
 50
90.0
 51
180.0
  0
LINE
  5
686
  8
0
 62
     1
 10
2191.1734254743019
 20
2252.3921389433449
 30
0.0
 11
2191.1734254743019
 21
2192.3921389433472
 31
0.0
  0
LINE
  5
687
  8
0
 62
     1
 10
2186.1734254743019
 20
2192.3921389433472
 30
0.0
 11
2191.1734254743019
 21
2192.3921389433472
 31
0.0
  0
LINE
  5
688
  8
0
 62
     1
 10
2186.1734254743019
 20
2252.3921389433449
 30
0.0
 11
2191.1734254743019
 21
2252.3921389433449
 31
0.0
  0
LINE
  5
689
  8
0
 62
     1
 10
2176.173425474301
 20
2202.3921389433472
 30
0.0
 11
2176.173425474301
 21
2212.3921389433472
 31
0.0
  0
CIRCLE
  5
68A
  8
EERST_SNIJDEN
 10
2183.673425474301
 20
2212.3921389433472
 30
0.0
 40
2.5
  0
CIRCLE
  5
68B
  8
EERST_SNIJDEN
 10
2183.673425474301
 20
2232.3921389433472
 30
0.0
 40
2.5
  0
LINE
  5
68C
  8
0
 62
     1
 10
2194.1734254743019
 20
2242.3921389433472
 30
0.0
 11
2194.1734254743019
 21
2202.3921389433472
 31
0.0
  0
ARC
  5
68D
  8
0
 62
     1
 10
2204.173425474301
 20
2202.3921389433472
 30
0.0
 40
10.0
 50
180.0
 51
270.0
  0
ARC
  5
68E
  8
0
 62
     1
 10
2204.173425474301
 20
2242.3921389433472
 30
0.0
 40
10.0
 50
90.0
 51
180.0
  0
LINE
  5
68F
  8
0
 62
     1
 10
2209.173425474301
 20
2252.3921389433449
 30
0.0
 11
2209.173425474301
 21
2192.3921389433472
 31
0.0
  0
LINE
  5
690
  8
0
 62
     1
 10
2204.173425474301
 20
2192.3921389433472
 30
0.0
 11
2209.173425474301
 21
2192.3921389433472
 31
0.0
  0
LINE
  5
691
  8
0
 62
     1
 10
2204.173425474301
 20
2252.3921389433449
 30
0.0
 11
2209.173425474301
 21
2252.3921389433449
 31
0.0
  0
LINE
  5
692
  8
0
 62
     1
 10
2194.1734254743019
 20
2202.3921389433472
 30
0.0
 11
2194.1734254743019
 21
2212.3921389433472
 31
0.0
  0
CIRCLE
  5
693
  8
EERST_SNIJDEN
 10
2201.6734254743019
 20
2212.3921389433472
 30
0.0
 40
2.5
  0
CIRCLE
  5
694
  8
EERST_SNIJDEN
 10
2201.6734254743019
 20
2232.3921389433472
 30
0.0
 40
2.5
  0
LINE
  5
695
  8
0
 62
     1
 10
2259.3589862847411
 20
2170.5268948106741
 30
0.0
 11
2299.354092370766
 21
2171.1525857628371
 31
0.0
  0
ARC
  5
696
  8
0
 62
     1
 10
2299.1976696327251
 20
2181.151362284344
 30
0.0
 40
10.0
 50
270.89627282358782
 51
0.896272823609744
  0
ARC
  5
697
  8
0
 62
     1
 10
2259.2025635467012
 20
2180.525671332181
 30
0.0
 40
10.0
 50
180.89627282360971
 51
270.89627282358782
  0
LINE
  5
698
  8
0
 62
     1
 10
2249.1255756561759
 20
2185.3686368548929
 30
0.0
 11
2309.1182347852109
 21
2186.3071732831372
 31
0.0
  0
LINE
  5
699
  8
0
 62
     1
 10
2309.1964461542311
 20
2181.307785022384
 30
0.0
 11
2309.1182347852109
 21
2186.3071732831372
 31
0.0
  0
LINE
  5
69A
  8
0
 62
     1
 10
2249.2037870251961
 20
2180.3692485941401
 30
0.0
 11
2249.1255756561759
 21
2185.3686368548929
 31
0.0
  0
LINE
  5
69B
  8
0
 62
     1
 10
2299.354092370766
 20
2171.1525857628371
 30
0.0
 11
2289.35531584926
 21
2170.9961630247958
 31
0.0
  0
CIRCLE
  5
69C
  8
EERST_SNIJDEN
 10
2289.2379987957288
 20
2178.4952454159261
 30
0.0
 40
2.5
  0
CIRCLE
  5
69D
  8
EERST_SNIJDEN
 10
2269.2404457527159
 20
2178.1823999398448
 30
0.0
 40
2.5
  0
LINE
  5
69E
  8
0
 62
     1
 10
2030.516068957176
 20
2155.8746893377511
 30
0.0
 11
2070.5041474031791
 21
2154.8981740043878
 31
0.0
  0
ARC
  5
69F
  8
0
 62
     1
 10
2070.7482762365198
 20
2164.8951936158892
 30
0.0
 40
10.0
 50
268.60110584153381
 51
358.60110584151431
  0
ARC
  5
6A0
  8
0
 62
     1
 10
2030.7601977905169
 20
2165.8717089492511
 30
0.0
 40
10.0
 50
178.60110584151431
 51
268.60110584153381
  0
LINE
  5
6A1
  8
0
 62
     1
 10
2020.8852425956891
 20
2171.1143475883418
 30
0.0
 11
2080.8673602646909
 21
2169.649574588298
 31
0.0
  0
LINE
  5
6A2
  8
0
 62
     1
 10
2080.7452958480212
 20
2164.651064782548
 30
0.0
 11
2080.8673602646909
 21
2169.649574588298
 31
0.0
  0
LINE
  5
6A3
  8
0
 62
     1
 10
2020.763178179018
 20
2166.1158377825909
 30
0.0
 11
2020.8852425956891
 21
2171.1143475883418
 31
0.0
  0
LINE
  5
6A4
  8
0
 62
     1
 10
2070.5041474031791
 20
2154.8981740043878
 30
0.0
 11
2060.5071277916782
 21
2155.1423028377289
 31
0.0
  0
CIRCLE
  5
6A5
  8
EERST_SNIJDEN
 10
2060.690224416684
 20
2162.6400675463542
 30
0.0
 40
2.5
  0
CIRCLE
  5
6A6
  8
EERST_SNIJDEN
 10
2040.6961851936819
 20
2163.1283252130352
 30
0.0
 40
2.5
  0
LINE
  5
6A7
  8
0
 62
     1
 10
2030.929744302261
 20
2172.814599634346
 30
0.0
 11
2070.917822748263
 21
2171.8380843009841
 31
0.0
  0
ARC
  5
6A8
  8
0
 62
     1
 10
2071.1619515816042
 20
2181.835103912485
 30
0.0
 40
10.0
 50
268.60110584153381
 51
358.60110584151431
  0
ARC
  5
6A9
  8
0
 62
     1
 10
2031.1738731356011
 20
2182.8116192458469
 30
0.0
 40
10.0
 50
178.60110584151431
 51
268.60110584153381
  0
LINE
  5
6AA
  8
0
 62
     1
 10
2021.298917940773
 20
2188.0542578849381
 30
0.0
 11
2026.2974277465221
 21
2187.932193468268
 31
0.0
  0
LINE
  5
6AB
  8
0
 62
     1
 10
2081.1589711931051
 20
2181.5909750791438
 30
0.0
 11
2081.2810356097762
 21
2186.5894848848948
 31
0.0
  0
LINE
  5
6AC
  8
0
 62
     1
 10
2021.1768535241031
 20
2183.0557480791881
 30
0.0
 11
2021.298917940773
 21
2188.0542578849381
 31
0.0
  0
LINE
  5
6AD
  8
0
 62
     1
 10
2070.917822748263
 20
2171.8380843009841
 30
0.0
 11
2060.920803136763
 21
2172.0822131343239
 31
0.0
  0
CIRCLE
  5
6AE
  8
EERST_SNIJDEN
 10
2061.1038997617688
 20
2179.57997784295
 30
0.0
 40
2.5
  0
CIRCLE
  5
6AF
  8
EERST_SNIJDEN
 10
2041.109860538767
 20
2180.068235509631
 30
0.0
 40
2.5
  0
LINE
  5
6B0
  8
0
 62
     1
 10
2026.1753633298511
 20
2182.9336836625171
 30
0.0
 11
2026.2974277465221
 21
2187.932193468268
 31
0.0
  0
LINE
  5
6B1
  8
0
 62
     1
 10
2030.174171174451
 20
2182.8360321291811
 30
0.0
 11
2030.296235591122
 21
2187.8345419349321
 31
0.0
  0
LINE
  5
6B2
  8
0
 62
     1
 10
2030.296235591122
 20
2187.8345419349321
 30
0.0
 11
2072.2837179594248
 21
2186.8092008349008
 31
0.0
  0
LINE
  5
6B3
  8
0
 62
     1
 10
2026.1753633298511
 20
2182.9336836625171
 30
0.0
 11
2030.174171174451
 21
2182.8360321291821
 31
0.0
  0
LINE
  5
6B4
  8
0
 62
     1
 10
2076.1604613873551
 20
2181.713039495814
 30
0.0
 11
2076.2825258040252
 21
2186.7115493015649
 31
0.0
  0
LINE
  5
6B5
  8
0
 62
     1
 10
2072.1616535427538
 20
2181.8106910291508
 30
0.0
 11
2072.2837179594248
 21
2186.8092008349008
 31
0.0
  0
LINE
  5
6B6
  8
0
 62
     1
 10
2076.2825258040252
 20
2186.7115493015649
 30
0.0
 11
2081.2810356097762
 21
2186.5894848848948
 31
0.0
  0
LINE
  5
6B7
  8
0
 62
     1
 10
2072.1616535427538
 20
2181.8106910291508
 30
0.0
 11
2076.1604613873551
 21
2181.713039495814
 31
0.0
  0
LINE
  5
6B8
  8
0
 62
     1
 10
2433.9104163787479
 20
2021.7004490828749
 30
0.0
 11
2438.9104163787479
 21
2021.7004490828749
 31
0.0
  0
LINE
  5
6B9
  8
0
 62
     1
 10
2433.9104163787479
 20
2017.7004490828749
 30
0.0
 11
2438.9104163787479
 21
2017.7004490828749
 31
0.0
  0
LINE
  5
6BA
  8
0
 62
     1
 10
2433.9104163787479
 20
2021.7004490828749
 30
0.0
 11
2433.9104163787488
 21
2017.7004490828749
 31
0.0
  0
LINE
  5
6BB
  8
0
 62
     1
 10
2433.9104163787479
 20
1971.7004490828749
 30
0.0
 11
2438.9104163787479
 21
1971.7004490828749
 31
0.0
  0
LINE
  5
6BC
  8
0
 62
     1
 10
2433.9104163787479
 20
1975.7004490828749
 30
0.0
 11
2438.9104163787479
 21
1975.7004490828749
 31
0.0
  0
LINE
  5
6BD
  8
0
 62
     1
 10
2433.9104163787479
 20
1975.7004490828749
 30
0.0
 11
2433.9104163787479
 21
1971.7004490828749
 31
0.0
  0
LINE
  5
6BE
  8
0
 62
     1
 10
2438.9104163787479
 20
1971.7004490828749
 30
0.0
 11
2438.9104163787479
 21
1966.7004490828749
 31
0.0
  0
LINE
  5
6BF
  8
0
 62
     1
 10
2438.9104163787479
 20
2017.7004490828749
 30
0.0
 11
2438.9104163787479
 21
1975.7004490828749
 31
0.0
  0
LINE
  5
6C0
  8
0
 62
     1
 10
2453.9373777115038
 20
1958.4913941869729
 30
0.0
 11
2453.9373777115038
 21
1918.4913941869729
 31
0.0
  0
ARC
  5
6C1
  8
0
 62
     1
 10
2443.9373777115038
 20
1918.4913941869729
 30
0.0
 40
10.0
 50
270.0
 51
0.0
  0
ARC
  5
6C2
  8
0
 62
     1
 10
2443.9373777115038
 20
1958.4913941869729
 30
0.0
 40
10.0
 50
0.0
 51
90.0
  0
LINE
  5
6C3
  8
0
 62
     1
 10
2443.9373777115038
 20
1908.4913941869729
 30
0.0
 11
2438.9373777115038
 21
1908.4913941869729
 31
0.0
  0
LINE
  5
6C4
  8
0
 62
     1
 10
2378.7980574865019
 20
1863.4913941869729
 30
0.0
 11
2123.9373777115038
 21
1863.4913941869729
 31
0.0
  0
LINE
  5
6C5
  8
0
 62
     1
 10
2123.9373777115038
 20
2013.4913941869729
 30
0.0
 11
2378.7980574865019
 21
2013.4913941869729
 31
0.0
  0
LINE
  5
6C6
  8
0
 62
     1
 10
2443.9373777115038
 20
1968.4913941869729
 30
0.0
 11
2438.9373777115038
 21
1968.4913941869729
 31
0.0
  0
LINE
  5
6C7
  8
0
 62
     1
 10
2016.3264047639011
 20
1958.4913941869729
 30
0.0
 11
2016.3264047639011
 21
1918.4913941869729
 31
0.0
  0
ARC
  5
6C8
  8
0
 62
     1
 10
2026.3264047639011
 20
1918.4913941869729
 30
0.0
 40
10.0
 50
180.0
 51
270.0
  0
ARC
  5
6C9
  8
0
 62
     1
 10
2026.3264047639011
 20
1958.4913941869729
 30
0.0
 40
10.0
 50
90.0
 51
180.0
  0
ARC
  5
6CA
  8
0
 62
     1
 10
2071.4657249889028
 20
1888.4913941869729
 30
0.0
 40
20.0
 50
26.565051177066302
 51
90.0
  0
ARC
  5
6CB
  8
0
 62
     1
 10
2128.9845787077588
 20
1897.4719074230491
 30
0.0
 40
34.863680171497769
 50
210.9776835673911
 51
250.1495629843607
  0
ARC
  5
6CC
  8
0
 62
     1
 10
2123.9373777115038
 20
1883.4913941869729
 30
0.0
 40
20.0
 50
250.1495629843607
 51
270.0
  0
LINE
  5
6CD
  8
0
 62
     1
 10
2076.3264047639009
 20
1908.4913941869729
 30
0.0
 11
2076.3264047639009
 21
1908.4913941869729
 31
0.0
  0
LINE
  5
6CE
  8
0
 62
     1
 10
2099.093580525504
 20
1879.527425742906
 30
0.0
 11
2091.3264047639009
 21
1893.4913941869729
 31
0.0
  0
LINE
  5
6CF
  8
0
 62
     1
 10
2091.3264047639009
 20
1893.4913941869729
 30
0.0
 11
2089.354268808901
 21
1897.435666096972
 31
0.0
  0
ARC
  5
6D0
  8
0
 62
     1
 10
2071.4657249889028
 20
1988.4913941869729
 30
0.0
 40
20.0
 50
270.0
 51
333.43494882290457
  0
ARC
  5
6D1
  8
0
 62
     1
 10
2128.9845787077588
 20
1979.5108809508979
 30
0.0
 40
34.863680171497769
 50
109.85043701562699
 51
149.02231643263781
  0
ARC
  5
6D2
  8
0
 62
     1
 10
2123.9373777115038
 20
1993.4913941869729
 30
0.0
 40
20.0
 50
90.0
 51
109.85043701562699
  0
LINE
  5
6D3
  8
0
 62
     1
 10
2099.093580525504
 20
1997.455362631041
 30
0.0
 11
2091.3264047639009
 21
1983.4913941869729
 31
0.0
  0
LINE
  5
6D4
  8
0
 62
     1
 10
2091.3264047639009
 20
1983.4913941869729
 30
0.0
 11
2089.354268808901
 21
1979.5471222769741
 31
0.0
  0
LINE
  5
6D5
  8
0
 62
     1
 10
2026.3264047639011
 20
1908.4913941869729
 30
0.0
 11
2031.3264047639011
 21
1908.4913941869729
 31
0.0
  0
LINE
  5
6D6
  8
0
 62
     1
 10
2026.3264047639011
 20
1968.4913941869729
 30
0.0
 11
2031.3264047639011
 21
1968.4913941869729
 31
0.0
  0
ARC
  5
6D7
  8
0
 62
     1
 10
2480.9136796352268
 20
1865.4979120964881
 30
0.0
 40
20.0
 50
26.565051177067978
 51
90.0
  0
LINE
  5
6D8
  8
0
 62
     1
 10
2504.0397726288629
 20
1864.6272934132701
 30
0.0
 11
2500.7743594102249
 21
1870.497912096487
 31
0.0
  0
LINE
  5
6D9
  8
0
 62
     1
 10
2500.7743594102249
 20
1870.497912096487
 30
0.0
 11
2498.802223455225
 21
1874.4421840064881
 31
0.0
  0
ARC
  5
6DA
  8
0
 62
     1
 10
2480.9136796352268
 20
1965.4979120964881
 30
0.0
 40
20.0
 50
270.0
 51
333.43494882290292
  0
LINE
  5
6DB
  8
0
 62
     1
 10
2504.0397726288629
 20
1966.3685307797059
 30
0.0
 11
2500.7743594102249
 21
1960.4979120964881
 31
0.0
  0
LINE
  5
6DC
  8
0
 62
     1
 10
2500.7743594102249
 20
1960.4979120964881
 30
0.0
 11
2498.802223455225
 21
1956.5536401864881
 31
0.0
  0
LINE
  5
6DD
  8
0
 62
     1
 10
2480.9136796352268
 20
1885.4979120964881
 30
0.0
 11
2480.9136796352268
 21
1945.497912096487
 31
0.0
  0
LINE
  5
6DE
  8
0
 62
     1
 10
2490.9136796352268
 20
1933.1774040207979
 30
0.0
 11
2490.9136796352268
 21
1897.8184201721749
 31
0.0
  0
LINE
  5
6DF
  8
0
 62
     1
 10
2490.9136796352268
 20
1897.8184201721749
 30
0.0
 11
2505.9136796352282
 21
1897.8184201721749
 31
0.0
  0
LINE
  5
6E0
  8
0
 62
     1
 10
2505.9136796352282
 20
1897.8184201721749
 30
0.0
 11
2505.9136796352282
 21
1865.113386556842
 31
0.0
  0
ARC
  5
6E1
  8
0
 62
     1
 10
2504.9136796352268
 20
1865.113386556842
 30
0.0
 40
1.0
 50
209.0841170520452
 51
0.0
  0
LINE
  5
6E2
  8
0
 62
     1
 10
2490.9136796352268
 20
1933.1774040207979
 30
0.0
 11
2505.9136796352282
 21
1933.1774040207979
 31
0.0
  0
LINE
  5
6E3
  8
0
 62
     1
 10
2505.9136796352282
 20
1933.1774040207979
 30
0.0
 11
2505.9136796352282
 21
1965.882437636134
 31
0.0
  0
ARC
  5
6E4
  8
0
 62
     1
 10
2504.9136796352268
 20
1965.882437636134
 30
0.0
 40
1.0
 50
0.0
 51
150.9158829479548
  0
LINE
  5
6E5
  8
0
 62
     1
 10
2505.9136796352282
 20
1933.1774040207979
 30
0.0
 11
2505.9136796352282
 21
1948.177404020799
 31
0.0
  0
CIRCLE
  5
6E6
  8
EERST_SNIJDEN
 10
2485.9136796352282
 20
1905.4979120964849
 30
0.0
 40
2.5
  0
CIRCLE
  5
6E7
  8
EERST_SNIJDEN
 10
2485.9136796352282
 20
1925.497912096487
 30
0.0
 40
2.5
  0
CIRCLE
  5
6E8
  8
EERST_SNIJDEN
 10
2498.4136796352268
 20
1940.6774040207979
 30
0.0
 40
2.5
  0
CIRCLE
  5
6E9
  8
EERST_SNIJDEN
 10
2498.4136796352268
 20
1890.318420172176
 30
0.0
 40
2.5
  0
ARC
  5
6EA
  8
0
 62
     1
 10
2508.9136796352282
 20
1865.4979120964881
 30
0.0
 40
20.0
 50
26.565051177067978
 51
90.0
  0
LINE
  5
6EB
  8
0
 62
     1
 10
2532.0397726288629
 20
1864.6272934132701
 30
0.0
 11
2528.7743594102262
 21
1870.497912096487
 31
0.0
  0
LINE
  5
6EC
  8
0
 62
     1
 10
2528.7743594102262
 20
1870.497912096487
 30
0.0
 11
2526.802223455225
 21
1874.4421840064881
 31
0.0
  0
ARC
  5
6ED
  8
0
 62
     1
 10
2508.9136796352282
 20
1965.4979120964881
 30
0.0
 40
20.0
 50
270.0
 51
333.43494882290292
  0
LINE
  5
6EE
  8
0
 62
     1
 10
2532.0397726288629
 20
1966.3685307797059
 30
0.0
 11
2528.7743594102262
 21
1960.4979120964881
 31
0.0
  0
LINE
  5
6EF
  8
0
 62
     1
 10
2528.7743594102262
 20
1960.4979120964881
 30
0.0
 11
2526.802223455225
 21
1956.5536401864881
 31
0.0
  0
LINE
  5
6F0
  8
0
 62
     1
 10
2508.9136796352282
 20
1885.4979120964881
 30
0.0
 11
2508.9136796352282
 21
1945.497912096487
 31
0.0
  0
LINE
  5
6F1
  8
0
 62
     1
 10
2518.9136796352268
 20
1933.1774040207979
 30
0.0
 11
2518.9136796352268
 21
1897.8184201721749
 31
0.0
  0
LINE
  5
6F2
  8
0
 62
     1
 10
2518.9136796352268
 20
1897.8184201721749
 30
0.0
 11
2533.9136796352282
 21
1897.8184201721749
 31
0.0
  0
LINE
  5
6F3
  8
0
 62
     1
 10
2533.9136796352282
 20
1897.8184201721749
 30
0.0
 11
2533.9136796352282
 21
1865.113386556842
 31
0.0
  0
ARC
  5
6F4
  8
0
 62
     1
 10
2532.9136796352268
 20
1865.113386556842
 30
0.0
 40
1.0
 50
209.0841170520452
 51
0.0
  0
LINE
  5
6F5
  8
0
 62
     1
 10
2518.9136796352268
 20
1933.1774040207979
 30
0.0
 11
2533.9136796352282
 21
1933.1774040207979
 31
0.0
  0
LINE
  5
6F6
  8
0
 62
     1
 10
2533.9136796352282
 20
1933.1774040207979
 30
0.0
 11
2533.9136796352282
 21
1965.882437636134
 31
0.0
  0
ARC
  5
6F7
  8
0
 62
     1
 10
2532.9136796352268
 20
1965.882437636134
 30
0.0
 40
1.0
 50
0.0
 51
150.9158829479548
  0
LINE
  5
6F8
  8
0
 62
     1
 10
2533.9136796352282
 20
1933.1774040207979
 30
0.0
 11
2533.9136796352282
 21
1948.177404020799
 31
0.0
  0
CIRCLE
  5
6F9
  8
EERST_SNIJDEN
 10
2513.9136796352268
 20
1905.4979120964849
 30
0.0
 40
2.5
  0
CIRCLE
  5
6FA
  8
EERST_SNIJDEN
 10
2513.9136796352268
 20
1925.497912096487
 30
0.0
 40
2.5
  0
CIRCLE
  5
6FB
  8
EERST_SNIJDEN
 10
2526.4136796352268
 20
1940.6774040207979
 30
0.0
 40
2.5
  0
CIRCLE
  5
6FC
  8
EERST_SNIJDEN
 10
2526.4136796352268
 20
1890.318420172176
 30
0.0
 40
2.5
  0
ARC
  5
6FD
  8
0
 62
     1
 10
2536.9136796352268
 20
1865.4979120964881
 30
0.0
 40
20.0
 50
26.565051177067978
 51
90.0
  0
LINE
  5
6FE
  8
0
 62
     1
 10
2560.0397726288629
 20
1864.6272934132701
 30
0.0
 11
2556.7743594102262
 21
1870.497912096487
 31
0.0
  0
LINE
  5
6FF
  8
0
 62
     1
 10
2556.7743594102262
 20
1870.497912096487
 30
0.0
 11
2554.802223455225
 21
1874.4421840064881
 31
0.0
  0
ARC
  5
700
  8
0
 62
     1
 10
2536.9136796352268
 20
1965.4979120964881
 30
0.0
 40
20.0
 50
270.0
 51
333.43494882290292
  0
LINE
  5
701
  8
0
 62
     1
 10
2560.0397726288629
 20
1966.3685307797059
 30
0.0
 11
2556.7743594102262
 21
1960.4979120964881
 31
0.0
  0
LINE
  5
702
  8
0
 62
     1
 10
2556.7743594102262
 20
1960.4979120964881
 30
0.0
 11
2554.802223455225
 21
1956.5536401864881
 31
0.0
  0
LINE
  5
703
  8
0
 62
     1
 10
2536.9136796352268
 20
1885.4979120964881
 30
0.0
 11
2536.9136796352268
 21
1945.497912096487
 31
0.0
  0
LINE
  5
704
  8
0
 62
     1
 10
2546.9136796352282
 20
1933.1774040207979
 30
0.0
 11
2546.9136796352282
 21
1897.8184201721749
 31
0.0
  0
LINE
  5
705
  8
0
 62
     1
 10
2546.9136796352282
 20
1897.8184201721749
 30
0.0
 11
2561.9136796352268
 21
1897.8184201721749
 31
0.0
  0
LINE
  5
706
  8
0
 62
     1
 10
2561.9136796352268
 20
1897.8184201721749
 30
0.0
 11
2561.9136796352268
 21
1865.113386556842
 31
0.0
  0
ARC
  5
707
  8
0
 62
     1
 10
2560.9136796352268
 20
1865.113386556842
 30
0.0
 40
1.0
 50
209.0841170520452
 51
0.0
  0
LINE
  5
708
  8
0
 62
     1
 10
2546.9136796352282
 20
1933.1774040207979
 30
0.0
 11
2561.9136796352268
 21
1933.1774040207979
 31
0.0
  0
LINE
  5
709
  8
0
 62
     1
 10
2561.9136796352268
 20
1933.1774040207979
 30
0.0
 11
2561.9136796352268
 21
1965.882437636134
 31
0.0
  0
ARC
  5
70A
  8
0
 62
     1
 10
2560.9136796352268
 20
1965.882437636134
 30
0.0
 40
1.0
 50
0.0
 51
150.9158829479548
  0
LINE
  5
70B
  8
0
 62
     1
 10
2561.9136796352268
 20
1933.1774040207979
 30
0.0
 11
2561.9136796352268
 21
1948.177404020799
 31
0.0
  0
CIRCLE
  5
70C
  8
EERST_SNIJDEN
 10
2541.9136796352268
 20
1905.4979120964849
 30
0.0
 40
2.5
  0
CIRCLE
  5
70D
  8
EERST_SNIJDEN
 10
2541.9136796352268
 20
1925.497912096487
 30
0.0
 40
2.5
  0
CIRCLE
  5
70E
  8
EERST_SNIJDEN
 10
2554.4136796352268
 20
1940.6774040207979
 30
0.0
 40
2.5
  0
CIRCLE
  5
70F
  8
EERST_SNIJDEN
 10
2554.4136796352268
 20
1890.318420172176
 30
0.0
 40
2.5
  0
ARC
  5
710
  8
0
 62
     1
 10
2564.9136796352268
 20
1865.4979120964881
 30
0.0
 40
20.0
 50
26.565051177067978
 51
90.0
  0
LINE
  5
711
  8
0
 62
     1
 10
2588.0397726288629
 20
1864.6272934132701
 30
0.0
 11
2584.7743594102262
 21
1870.497912096487
 31
0.0
  0
LINE
  5
712
  8
0
 62
     1
 10
2584.7743594102262
 20
1870.497912096487
 30
0.0
 11
2582.8022234552268
 21
1874.4421840064881
 31
0.0
  0
ARC
  5
713
  8
0
 62
     1
 10
2564.9136796352268
 20
1965.4979120964881
 30
0.0
 40
20.0
 50
270.0
 51
333.43494882290292
  0
LINE
  5
714
  8
0
 62
     1
 10
2588.0397726288629
 20
1966.3685307797059
 30
0.0
 11
2584.7743594102262
 21
1960.4979120964881
 31
0.0
  0
LINE
  5
715
  8
0
 62
     1
 10
2584.7743594102262
 20
1960.4979120964881
 30
0.0
 11
2582.8022234552268
 21
1956.5536401864881
 31
0.0
  0
LINE
  5
716
  8
0
 62
     1
 10
2564.9136796352268
 20
1885.4979120964881
 30
0.0
 11
2564.9136796352268
 21
1945.497912096487
 31
0.0
  0
LINE
  5
717
  8
0
 62
     1
 10
2574.9136796352282
 20
1933.1774040207979
 30
0.0
 11
2574.9136796352282
 21
1897.8184201721749
 31
0.0
  0
LINE
  5
718
  8
0
 62
     1
 10
2574.9136796352282
 20
1897.8184201721749
 30
0.0
 11
2589.9136796352268
 21
1897.8184201721749
 31
0.0
  0
LINE
  5
719
  8
0
 62
     1
 10
2589.9136796352268
 20
1897.8184201721749
 30
0.0
 11
2589.9136796352268
 21
1865.113386556842
 31
0.0
  0
ARC
  5
71A
  8
0
 62
     1
 10
2588.9136796352268
 20
1865.113386556842
 30
0.0
 40
1.0
 50
209.0841170520452
 51
0.0
  0
LINE
  5
71B
  8
0
 62
     1
 10
2574.9136796352282
 20
1933.1774040207979
 30
0.0
 11
2589.9136796352268
 21
1933.1774040207979
 31
0.0
  0
LINE
  5
71C
  8
0
 62
     1
 10
2589.9136796352268
 20
1933.1774040207979
 30
0.0
 11
2589.9136796352268
 21
1965.882437636134
 31
0.0
  0
ARC
  5
71D
  8
0
 62
     1
 10
2588.9136796352268
 20
1965.882437636134
 30
0.0
 40
1.0
 50
0.0
 51
150.9158829479548
  0
LINE
  5
71E
  8
0
 62
     1
 10
2589.9136796352268
 20
1933.1774040207979
 30
0.0
 11
2589.9136796352268
 21
1948.177404020799
 31
0.0
  0
CIRCLE
  5
71F
  8
EERST_SNIJDEN
 10
2569.9136796352282
 20
1905.4979120964849
 30
0.0
 40
2.5
  0
CIRCLE
  5
720
  8
EERST_SNIJDEN
 10
2569.9136796352282
 20
1925.497912096487
 30
0.0
 40
2.5
  0
CIRCLE
  5
721
  8
EERST_SNIJDEN
 10
2582.4136796352268
 20
1940.6774040207979
 30
0.0
 40
2.5
  0
CIRCLE
  5
722
  8
EERST_SNIJDEN
 10
2582.4136796352268
 20
1890.318420172176
 30
0.0
 40
2.5
  0
ARC
  5
723
  8
0
 62
     1
 10
2592.9136796352268
 20
1865.4979120964881
 30
0.0
 40
20.0
 50
26.565051177067978
 51
90.0
  0
LINE
  5
724
  8
0
 62
     1
 10
2616.0397726288629
 20
1864.6272934132701
 30
0.0
 11
2612.7743594102262
 21
1870.497912096487
 31
0.0
  0
LINE
  5
725
  8
0
 62
     1
 10
2612.7743594102262
 20
1870.497912096487
 30
0.0
 11
2610.802223455225
 21
1874.4421840064881
 31
0.0
  0
ARC
  5
726
  8
0
 62
     1
 10
2592.9136796352268
 20
1965.4979120964881
 30
0.0
 40
20.0
 50
270.0
 51
333.43494882290292
  0
LINE
  5
727
  8
0
 62
     1
 10
2616.0397726288629
 20
1966.3685307797059
 30
0.0
 11
2612.7743594102262
 21
1960.4979120964881
 31
0.0
  0
LINE
  5
728
  8
0
 62
     1
 10
2612.7743594102262
 20
1960.4979120964881
 30
0.0
 11
2610.802223455225
 21
1956.5536401864881
 31
0.0
  0
LINE
  5
729
  8
0
 62
     1
 10
2592.9136796352268
 20
1885.4979120964881
 30
0.0
 11
2592.9136796352268
 21
1945.497912096487
 31
0.0
  0
LINE
  5
72A
  8
0
 62
     1
 10
2602.9136796352268
 20
1933.1774040207979
 30
0.0
 11
2602.9136796352268
 21
1897.8184201721749
 31
0.0
  0
LINE
  5
72B
  8
0
 62
     1
 10
2602.9136796352268
 20
1897.8184201721749
 30
0.0
 11
2617.9136796352282
 21
1897.8184201721749
 31
0.0
  0
LINE
  5
72C
  8
0
 62
     1
 10
2617.9136796352282
 20
1897.8184201721749
 30
0.0
 11
2617.9136796352282
 21
1865.113386556842
 31
0.0
  0
ARC
  5
72D
  8
0
 62
     1
 10
2616.9136796352268
 20
1865.113386556842
 30
0.0
 40
1.0
 50
209.0841170520452
 51
0.0
  0
LINE
  5
72E
  8
0
 62
     1
 10
2602.9136796352268
 20
1933.1774040207979
 30
0.0
 11
2617.9136796352282
 21
1933.1774040207979
 31
0.0
  0
LINE
  5
72F
  8
0
 62
     1
 10
2617.9136796352282
 20
1933.1774040207979
 30
0.0
 11
2617.9136796352282
 21
1965.882437636134
 31
0.0
  0
ARC
  5
730
  8
0
 62
     1
 10
2616.9136796352268
 20
1965.882437636134
 30
0.0
 40
1.0
 50
0.0
 51
150.9158829479548
  0
LINE
  5
731
  8
0
 62
     1
 10
2617.9136796352282
 20
1933.1774040207979
 30
0.0
 11
2617.9136796352282
 21
1948.177404020799
 31
0.0
  0
CIRCLE
  5
732
  8
EERST_SNIJDEN
 10
2597.9136796352268
 20
1905.4979120964849
 30
0.0
 40
2.5
  0
CIRCLE
  5
733
  8
EERST_SNIJDEN
 10
2597.9136796352268
 20
1925.497912096487
 30
0.0
 40
2.5
  0
CIRCLE
  5
734
  8
EERST_SNIJDEN
 10
2610.4136796352268
 20
1940.6774040207979
 30
0.0
 40
2.5
  0
CIRCLE
  5
735
  8
EERST_SNIJDEN
 10
2610.4136796352268
 20
1890.318420172176
 30
0.0
 40
2.5
  0
ARC
  5
736
  8
0
 62
     1
 10
2620.9136796352268
 20
1865.4979120964881
 30
0.0
 40
20.0
 50
26.565051177067978
 51
90.0
  0
LINE
  5
737
  8
0
 62
     1
 10
2644.0397726288629
 20
1864.6272934132701
 30
0.0
 11
2640.7743594102262
 21
1870.497912096487
 31
0.0
  0
LINE
  5
738
  8
0
 62
     1
 10
2640.7743594102262
 20
1870.497912096487
 30
0.0
 11
2638.802223455225
 21
1874.4421840064881
 31
0.0
  0
ARC
  5
739
  8
0
 62
     1
 10
2620.9136796352268
 20
1965.4979120964881
 30
0.0
 40
20.0
 50
270.0
 51
333.43494882290292
  0
LINE
  5
73A
  8
0
 62
     1
 10
2644.0397726288629
 20
1966.3685307797059
 30
0.0
 11
2640.7743594102262
 21
1960.4979120964881
 31
0.0
  0
LINE
  5
73B
  8
0
 62
     1
 10
2640.7743594102262
 20
1960.4979120964881
 30
0.0
 11
2638.802223455225
 21
1956.5536401864881
 31
0.0
  0
LINE
  5
73C
  8
0
 62
     1
 10
2620.9136796352268
 20
1885.4979120964881
 30
0.0
 11
2620.9136796352268
 21
1945.497912096487
 31
0.0
  0
LINE
  5
73D
  8
0
 62
     1
 10
2630.9136796352282
 20
1933.1774040207979
 30
0.0
 11
2630.9136796352282
 21
1897.8184201721749
 31
0.0
  0
LINE
  5
73E
  8
0
 62
     1
 10
2630.9136796352282
 20
1897.8184201721749
 30
0.0
 11
2645.9136796352268
 21
1897.8184201721749
 31
0.0
  0
LINE
  5
73F
  8
0
 62
     1
 10
2645.9136796352268
 20
1897.8184201721749
 30
0.0
 11
2645.9136796352268
 21
1865.113386556842
 31
0.0
  0
ARC
  5
740
  8
0
 62
     1
 10
2644.9136796352268
 20
1865.113386556842
 30
0.0
 40
1.0
 50
209.0841170520452
 51
0.0
  0
LINE
  5
741
  8
0
 62
     1
 10
2630.9136796352282
 20
1933.1774040207979
 30
0.0
 11
2645.9136796352268
 21
1933.1774040207979
 31
0.0
  0
LINE
  5
742
  8
0
 62
     1
 10
2645.9136796352268
 20
1933.1774040207979
 30
0.0
 11
2645.9136796352268
 21
1965.882437636134
 31
0.0
  0
ARC
  5
743
  8
0
 62
     1
 10
2644.9136796352268
 20
1965.882437636134
 30
0.0
 40
1.0
 50
0.0
 51
150.9158829479548
  0
LINE
  5
744
  8
0
 62
     1
 10
2645.9136796352268
 20
1933.1774040207979
 30
0.0
 11
2645.9136796352268
 21
1948.177404020799
 31
0.0
  0
CIRCLE
  5
745
  8
EERST_SNIJDEN
 10
2625.9136796352268
 20
1905.4979120964849
 30
0.0
 40
2.5
  0
CIRCLE
  5
746
  8
EERST_SNIJDEN
 10
2625.9136796352268
 20
1925.497912096487
 30
0.0
 40
2.5
  0
CIRCLE
  5
747
  8
EERST_SNIJDEN
 10
2638.4136796352268
 20
1940.6774040207979
 30
0.0
 40
2.5
  0
CIRCLE
  5
748
  8
EERST_SNIJDEN
 10
2638.4136796352268
 20
1890.318420172176
 30
0.0
 40
2.5
  0
ARC
  5
749
  8
0
 62
     1
 10
2648.9136796352268
 20
1865.4979120964881
 30
0.0
 40
20.0
 50
26.565051177067978
 51
90.0
  0
LINE
  5
74A
  8
0
 62
     1
 10
2672.0397726288629
 20
1864.6272934132701
 30
0.0
 11
2668.7743594102262
 21
1870.497912096487
 31
0.0
  0
LINE
  5
74B
  8
0
 62
     1
 10
2668.7743594102262
 20
1870.497912096487
 30
0.0
 11
2666.802223455225
 21
1874.4421840064881
 31
0.0
  0
ARC
  5
74C
  8
0
 62
     1
 10
2648.9136796352268
 20
1965.4979120964881
 30
0.0
 40
20.0
 50
270.0
 51
333.43494882290292
  0
LINE
  5
74D
  8
0
 62
     1
 10
2672.0397726288629
 20
1966.3685307797059
 30
0.0
 11
2668.7743594102262
 21
1960.4979120964881
 31
0.0
  0
LINE
  5
74E
  8
0
 62
     1
 10
2668.7743594102262
 20
1960.4979120964881
 30
0.0
 11
2666.802223455225
 21
1956.5536401864881
 31
0.0
  0
LINE
  5
74F
  8
0
 62
     1
 10
2648.9136796352268
 20
1885.4979120964881
 30
0.0
 11
2648.9136796352268
 21
1945.497912096487
 31
0.0
  0
LINE
  5
750
  8
0
 62
     1
 10
2658.9136796352282
 20
1933.1774040207979
 30
0.0
 11
2658.9136796352282
 21
1897.8184201721749
 31
0.0
  0
LINE
  5
751
  8
0
 62
     1
 10
2658.9136796352282
 20
1897.8184201721749
 30
0.0
 11
2673.9136796352268
 21
1897.8184201721749
 31
0.0
  0
LINE
  5
752
  8
0
 62
     1
 10
2673.9136796352268
 20
1897.8184201721749
 30
0.0
 11
2673.9136796352268
 21
1865.113386556842
 31
0.0
  0
ARC
  5
753
  8
0
 62
     1
 10
2672.9136796352268
 20
1865.113386556842
 30
0.0
 40
1.0
 50
209.0841170520452
 51
0.0
  0
LINE
  5
754
  8
0
 62
     1
 10
2658.9136796352282
 20
1933.1774040207979
 30
0.0
 11
2673.9136796352268
 21
1933.1774040207979
 31
0.0
  0
LINE
  5
755
  8
0
 62
     1
 10
2673.9136796352268
 20
1933.1774040207979
 30
0.0
 11
2673.9136796352268
 21
1965.882437636134
 31
0.0
  0
ARC
  5
756
  8
0
 62
     1
 10
2672.9136796352268
 20
1965.882437636134
 30
0.0
 40
1.0
 50
0.0
 51
150.9158829479548
  0
LINE
  5
757
  8
0
 62
     1
 10
2673.9136796352268
 20
1933.1774040207979
 30
0.0
 11
2673.9136796352268
 21
1948.177404020799
 31
0.0
  0
CIRCLE
  5
758
  8
EERST_SNIJDEN
 10
2653.9136796352268
 20
1905.4979120964849
 30
0.0
 40
2.5
  0
CIRCLE
  5
759
  8
EERST_SNIJDEN
 10
2653.9136796352268
 20
1925.497912096487
 30
0.0
 40
2.5
  0
CIRCLE
  5
75A
  8
EERST_SNIJDEN
 10
2666.4136796352282
 20
1940.6774040207979
 30
0.0
 40
2.5
  0
CIRCLE
  5
75B
  8
EERST_SNIJDEN
 10
2666.4136796352282
 20
1890.318420172176
 30
0.0
 40
2.5
  0
ARC
  5
75C
  8
0
 62
     1
 10
2394.38144533577
 20
1886.1132406940631
 30
0.0
 40
20.0
 50
298.65016935595048
 51
2.0851181788879729
  0
LINE
  5
75D
  8
0
 62
     1
 10
2394.352826232453
 20
1862.9707832837371
 30
0.0
 11
2400.1007485801661
 21
1866.4476318419661
 31
0.0
  0
LINE
  5
75E
  8
0
 62
     1
 10
2400.1007485801661
 20
1866.4476318419661
 30
0.0
 11
2403.9706544193091
 21
1868.5619709635801
 31
0.0
  0
ARC
  5
75F
  8
0
 62
     1
 10
2494.3152331146111
 20
1889.751655207765
 30
0.0
 40
20.0
 50
182.08511817888791
 51
245.52006700178359
  0
LINE
  5
760
  8
0
 62
     1
 10
2496.0266984657942
 20
1866.6725512304961
 30
0.0
 11
2490.0411575811222
 21
1869.7222049042971
 31
0.0
  0
LINE
  5
761
  8
0
 62
     1
 10
2490.0411575811222
 20
1869.7222049042971
 30
0.0
 11
2486.0277427803471
 21
1871.549526102644
 31
0.0
  0
LINE
  5
762
  8
0
 62
     1
 10
2414.3682028915382
 20
1886.8409235968029
 30
0.0
 11
2474.3284755588429
 21
1889.0239723050249
 31
0.0
  0
LINE
  5
763
  8
0
 62
     1
 10
2462.3799666165792
 20
1878.582322373152
 30
0.0
 11
2427.0443947365411
 21
1877.2958159729069
 31
0.0
  0
LINE
  5
764
  8
0
 62
     1
 10
2427.0443947365411
 20
1877.2958159729069
 30
0.0
 11
2427.5901569135972
 21
1862.3057478060809
 31
0.0
  0
LINE
  5
765
  8
0
 62
     1
 10
2427.5901569135972
 20
1862.3057478060809
 30
0.0
 11
2394.9067780274499
 21
1861.11580311631
 31
0.0
  0
ARC
  5
766
  8
0
 62
     1
 10
2394.8703938823128
 20
1862.1151409940981
 30
0.0
 40
1.0
 50
121.16923523092581
 51
272.0851181788816
  0
LINE
  5
767
  8
0
 62
     1
 10
2462.3799666165792
 20
1878.582322373152
 30
0.0
 11
2462.9257287936339
 21
1863.5922542063261
 31
0.0
  0
LINE
  5
768
  8
0
 62
     1
 10
2462.9257287936339
 20
1863.5922542063261
 30
0.0
 11
2495.609107679782
 21
1864.782198896097
 31
0.0
  0
ARC
  5
769
  8
0
 62
     1
 10
2495.5727235346458
 20
1865.781536773886
 30
0.0
 40
1.0
 50
272.0851181788816
 51
63.001001126831291
  0
LINE
  5
76A
  8
0
 62
     1
 10
2462.9257287936339
 20
1863.5922542063261
 30
0.0
 11
2477.9157969604612
 21
1864.138016383381
 31
0.0
  0
CIRCLE
  5
76B
  8
EERST_SNIJDEN
 10
2434.53688117299
 20
1882.5719171106009
 30
0.0
 40
2.5
  0
CIRCLE
  5
76C
  8
EERST_SNIJDEN
 10
2454.52363872876
 20
1883.2996000133419
 30
0.0
 40
2.5
  0
CIRCLE
  5
76D
  8
EERST_SNIJDEN
 10
2470.147881788519
 20
1871.3601693782671
 30
0.0
 40
2.5
  0
CIRCLE
  5
76E
  8
EERST_SNIJDEN
 10
2419.8222417416559
 20
1869.527900800967
 30
0.0
 40
2.5
  0
ARC
  5
76F
  8
0
 62
     1
 10
2358.9295439842449
 20
2159.9573139158879
 30
0.0
 40
20.0
 50
69.520461691434136
 51
132.95541051436771
  0
LINE
  5
770
  8
0
 62
     1
 10
2376.4484316490029
 20
2175.0789120136892
 30
0.0
 11
2370.0581174383469
 21
2177.150378040752
 31
0.0
  0
LINE
  5
771
  8
0
 62
     1
 10
2370.0581174383469
 20
2177.150378040752
 30
0.0
 11
2365.9270010026839
 21
2178.6932578546139
 31
0.0
  0
ARC
  5
772
  8
0
 62
     1
 10
2290.7866450078791
 20
2233.1457373112362
 30
0.0
 40
20.0
 50
312.95541051436783
 51
16.390359337260652
  0
LINE
  5
773
  8
0
 62
     1
 10
2307.1190030530879
 20
2249.5417195851019
 30
0.0
 11
2308.7295083596168
 21
2243.0199590965658
 31
0.0
  0
LINE
  5
774
  8
0
 62
     1
 10
2308.7295083596168
 20
2243.0199590965658
 30
0.0
 11
2309.9738743699231
 21
2238.7893380597188
 31
0.0
  0
LINE
  5
775
  8
0
 62
     1
 10
2345.3009641889721
 20
2174.5949985949578
 30
0.0
 11
2341.8938192401552
 21
2178.254419764723
 31
0.0
  0
LINE
  5
776
  8
0
 62
     1
 10
2320.1296185140791
 20
2216.3051569149088
 30
0.0
 11
2344.2242551571148
 21
2190.4264741074871
 31
0.0
  0
LINE
  5
777
  8
0
 62
     1
 10
2344.2242551571148
 20
2190.4264741074871
 30
0.0
 11
2355.2025186664182
 21
2200.6479089539421
 31
0.0
  0
LINE
  5
778
  8
0
 62
     1
 10
2355.2025186664182
 20
2200.6479089539421
 30
0.0
 11
2377.4886766831019
 21
2176.7116104799602
 31
0.0
  0
ARC
  5
779
  8
0
 62
     1
 10
2376.7567924491482
 20
2176.0301814901968
 30
0.0
 40
1.0
 50
252.03952756641911
 51
42.955410514353972
  0
LINE
  5
77A
  8
0
 62
     1
 10
2320.1296185140791
 20
2216.3051569149088
 30
0.0
 11
2331.107882023382
 21
2226.5265917613651
 31
0.0
  0
LINE
  5
77B
  8
0
 62
     1
 10
2331.107882023382
 20
2226.5265917613651
 30
0.0
 11
2308.8217240066961
 21
2250.462890235347
 31
0.0
  0
ARC
  5
77C
  8
0
 62
     1
 10
2308.0898397727419
 20
2249.7814612455841
 30
0.0
 40
1.0
 50
42.955410514353972
 51
193.87129346231441
  0
LINE
  5
77D
  8
0
 62
     1
 10
2331.107882023382
 20
2226.5265917613651
 30
0.0
 11
2320.8864471769261
 21
2237.5048552706671
 31
0.0
  0
CIRCLE
  5
77E
  8
EERST_SNIJDEN
 10
2335.3318055634668
 20
2192.6398282228438
 30
0.0
 40
2.5
  0
CIRCLE
  5
77F
  8
EERST_SNIJDEN
 10
2321.7032257681931
 20
2207.2775129019151
 30
0.0
 40
2.5
  0
CIRCLE
  5
780
  8
EERST_SNIJDEN
 10
2320.5080328455019
 20
2226.9050060927871
 30
0.0
 40
2.5
  0
CIRCLE
  5
781
  8
EERST_SNIJDEN
 10
2354.824104334994
 20
2190.0480597760629
 30
0.0
 40
2.5
  0
LINE
  5
782
  8
0
 62
     1
 10
2020.832263758439
 20
1897.979577690297
 30
0.0
 11
2080.8322637584379
 21
1897.979577690297
 31
0.0
  0
LINE
  5
783
  8
0
 62
     1
 10
2070.8322637584379
 20
1887.979577690297
 30
0.0
 11
2030.832263758439
 21
1887.979577690297
 31
0.0
  0
CIRCLE
  5
784
  8
EERST_SNIJDEN
 10
2040.8322637584399
 20
1892.9795776902961
 30
0.0
 40
2.5
  0
CIRCLE
  5
785
  8
EERST_SNIJDEN
 10
2060.8322637584401
 20
1892.9795776902961
 30
0.0
 40
2.5
  0
LINE
  5
786
  8
0
 62
     1
 10
2030.832263758439
 20
1887.979577690297
 30
0.0
 11
2033.1527718341281
 21
1887.979577690297
 31
0.0
  0
LINE
  5
787
  8
0
 62
     1
 10
2070.8322637584379
 20
1887.979577690297
 30
0.0
 11
2068.5117556827499
 21
1887.979577690297
 31
0.0
  0
LINE
  5
788
  8
0
 62
     1
 10
2020.832263758439
 20
1884.979577690297
 30
0.0
 11
2080.8322637584379
 21
1884.979577690297
 31
0.0
  0
LINE
  5
789
  8
0
 62
     1
 10
2070.8322637584379
 20
1874.9795776902961
 30
0.0
 11
2030.832263758439
 21
1874.9795776902961
 31
0.0
  0
CIRCLE
  5
78A
  8
EERST_SNIJDEN
 10
2040.8322637584399
 20
1879.979577690297
 30
0.0
 40
2.5
  0
CIRCLE
  5
78B
  8
EERST_SNIJDEN
 10
2060.8322637584401
 20
1879.979577690297
 30
0.0
 40
2.5
  0
LINE
  5
78C
  8
0
 62
     1
 10
2030.832263758439
 20
1874.9795776902961
 30
0.0
 11
2033.1527718341281
 21
1874.9795776902961
 31
0.0
  0
LINE
  5
78D
  8
0
 62
     1
 10
2070.8322637584379
 20
1874.9795776902961
 30
0.0
 11
2068.5117556827499
 21
1874.9795776902961
 31
0.0
  0
LINE
  5
78E
  8
0
 62
     1
 10
2020.832263758439
 20
1871.979577690297
 30
0.0
 11
2080.8322637584379
 21
1871.979577690297
 31
0.0
  0
LINE
  5
78F
  8
0
 62
     1
 10
2070.832263758437
 20
1861.979577690297
 30
0.0
 11
2030.8322637584381
 21
1861.979577690297
 31
0.0
  0
CIRCLE
  5
790
  8
EERST_SNIJDEN
 10
2040.8322637584399
 20
1866.979577690297
 30
0.0
 40
2.5
  0
CIRCLE
  5
791
  8
EERST_SNIJDEN
 10
2060.8322637584401
 20
1866.979577690297
 30
0.0
 40
2.5
  0
LINE
  5
792
  8
0
 62
     1
 10
2070.832263758437
 20
1861.979577690297
 30
0.0
 11
2068.5117556827499
 21
1861.979577690297
 31
0.0
  0
ARC
  5
793
  8
0
 62
     1
 10
2030.832263758439
 20
1897.979577690297
 30
0.0
 40
10.0
 50
180.0
 51
270.0
  0
ARC
  5
794
  8
0
 62
     1
 10
2070.8322637584379
 20
1897.979577690297
 30
0.0
 40
10.0
 50
270.0
 51
0.0
  0
ARC
  5
795
  8
0
 62
     1
 10
2030.832263758439
 20
1884.979577690297
 30
0.0
 40
10.0
 50
180.0
 51
270.0
  0
ARC
  5
796
  8
0
 62
     1
 10
2070.8322637584379
 20
1884.979577690297
 30
0.0
 40
10.0
 50
270.0
 51
0.0
  0
ARC
  5
797
  8
0
 62
     1
 10
2030.8322637584381
 20
1871.9795776902979
 30
0.0
 40
10.0
 50
180.0
 51
270.0
  0
ARC
  5
798
  8
0
 62
     1
 10
2070.832263758437
 20
1871.9795776902979
 30
0.0
 40
10.0
 50
270.0
 51
0.0
  0
LINE
  5
799
  8
0
 62
     1
 10
2037.573925321461
 20
1988.2472434240581
 30
0.0
 11
2077.7132455464639
 21
1988.2472434240581
 31
0.0
  0
LINE
  5
79A
  8
0
 62
     1
 10
2032.573925321461
 20
2048.2472434240581
 30
0.0
 11
2077.7132455464639
 21
2048.2472434240581
 31
0.0
  0
LINE
  5
79B
  8
0
 62
     1
 10
2022.573925321462
 20
2038.2472434240581
 30
0.0
 11
2022.573925321462
 21
1998.2472434240581
 31
0.0
  0
ARC
  5
79C
  8
0
 62
     1
 10
2032.573925321461
 20
1998.2472434240581
 30
0.0
 40
10.0
 50
180.0
 51
270.0
  0
ARC
  5
79D
  8
0
 62
     1
 10
2032.573925321461
 20
2038.2472434240581
 30
0.0
 40
10.0
 50
90.0
 51
180.0
  0
LINE
  5
79E
  8
0
 62
     1
 10
2032.573925321461
 20
1988.2472434240581
 30
0.0
 11
2037.573925321461
 21
1988.2472434240581
 31
0.0
  0
CIRCLE
  5
79F
  8
EERST_SNIJDEN
 10
2030.073925321461
 20
2008.2472434240581
 30
0.0
 40
2.5
  0
CIRCLE
  5
7A0
  8
EERST_SNIJDEN
 10
2030.073925321461
 20
2028.2472434240581
 30
0.0
 40
2.5
  0
CIRCLE
  5
7A1
  8
EERST_SNIJDEN
 10
2082.7132455464639
 20
2008.2472434240581
 30
0.0
 40
2.5
  0
CIRCLE
  5
7A2
  8
EERST_SNIJDEN
 10
2082.7132455464639
 20
2028.2472434240581
 30
0.0
 40
2.5
  0
LINE
  5
7A3
  8
0
 62
     1
 10
2087.7132455464639
 20
2038.2472434240581
 30
0.0
 11
2087.7132455464639
 21
1998.2472434240581
 31
0.0
  0
ARC
  5
7A4
  8
0
 62
     1
 10
2077.7132455464639
 20
1998.2472434240581
 30
0.0
 40
10.0
 50
270.0
 51
0.0
  0
ARC
  5
7A5
  8
0
 62
     1
 10
2077.7132455464639
 20
2038.2472434240581
 30
0.0
 40
10.0
 50
0.0
 51
90.0
  0
LINE
  5
7A6
  8
0
 62
     1
 10
2311.481790921739
 20
2218.2557764112148
 30
0.0
 11
2307.8223697519711
 21
2214.8486314623992
 31
0.0
  0
LINE
  5
7A7
  8
0
 62
     1
 10
2314.2075068807931
 20
2215.3282394754028
 30
0.0
 11
2310.5480857110251
 21
2211.921094526585
 31
0.0
  0
LINE
  5
7A8
  8
0
 62
     1
 10
2311.481790921739
 20
2218.2557764112148
 30
0.0
 11
2314.2075068807922
 21
2215.3282394754028
 31
0.0
  0
LINE
  5
7A9
  8
0
 62
     1
 10
2345.5532404099222
 20
2181.6615647135409
 30
0.0
 11
2341.8938192401552
 21
2178.254419764723
 31
0.0
  0
LINE
  5
7AA
  8
0
 62
     1
 10
2342.8275244508682
 20
2184.5891016493551
 30
0.0
 11
2339.1681032810998
 21
2181.1819567005368
 31
0.0
  0
LINE
  5
7AB
  8
0
 62
     1
 10
2342.8275244508682
 20
2184.5891016493551
 30
0.0
 11
2345.5532404099222
 21
2181.6615647135409
 31
0.0
  0
LINE
  5
7AC
  8
0
 62
     1
 10
2307.8223697519711
 20
2214.8486314623992
 30
0.0
 11
2304.4152248031519
 21
2218.5080526321658
 31
0.0
  0
LINE
  5
7AD
  8
0
 62
     1
 10
2339.1681032810998
 20
2181.1819567005368
 30
0.0
 11
2310.5480857110251
 21
2211.921094526585
 31
0.0
  0
LINE
  5
7AE
  8
0
 62
     1
 10
2059.349605182786
 20
2145.5476976249151
 30
0.0
 11
2039.3496051827869
 21
2145.5476976249151
 31
0.0
  0
ARC
  5
7AF
  8
0
 62
     1
 10
2059.349605182786
 20
2144.5476976249151
 30
0.0
 40
1.0
 50
0.0
 51
90.0
  0
LINE
  5
7B0
  8
0
 62
     1
 10
2035.3496051827869
 20
2149.5476976249151
 30
0.0
 11
2035.3496051827869
 21
2149.5476976249151
 31
0.0
  0
ARC
  5
7B1
  8
0
 62
     1
 10
2039.3496051827869
 20
2149.5476976249151
 30
0.0
 40
4.0
 50
180.0
 51
270.0
  0
ARC
  5
7B2
  8
0
 62
     1
 10
2039.3496051827869
 20
2149.5476976249151
 30
0.0
 40
4.0
 50
90.0
 51
180.0
  0
LINE
  5
7B3
  8
0
 62
     1
 10
2039.3496051827869
 20
2153.5476976249161
 30
0.0
 11
2067.349605182786
 21
2153.5476976249161
 31
0.0
  0
LINE
  5
7B4
  8
0
 62
     1
 10
2060.349605182786
 20
2144.5476976249151
 30
0.0
 11
2060.349605182786
 21
2124.5476976249151
 31
0.0
  0
LINE
  5
7B5
  8
0
 62
     1
 10
2054.5730898676338
 20
2135.738935889784
 30
0.0
 11
2054.5730898676338
 21
2135.738935889784
 31
0.0
  0
ARC
  5
7B6
  8
0
 62
     1
 10
2064.349605182786
 20
2124.5476976249151
 30
0.0
 40
4.0
 50
270.0
 51
0.0
  0
ARC
  5
7B7
  8
0
 62
     1
 10
2064.349605182786
 20
2124.5476976249151
 30
0.0
 40
4.0
 50
180.0
 51
270.0
  0
LINE
  5
7B8
  8
0
 62
     1
 10
2068.349605182786
 20
2124.5476976249151
 30
0.0
 11
2068.349605182786
 21
2152.5476976249151
 31
0.0
  0
ARC
  5
7B9
  8
0
 62
     1
 10
2067.349605182786
 20
2152.5476976249151
 30
0.0
 40
1.0
 50
0.0
 51
90.0
  0
CIRCLE
  5
7BA
  8
EERST_SNIJDEN
 10
2064.349605182786
 20
2149.5476976249151
 30
0.0
 40
3.0
  0
CIRCLE
  5
7BB
  8
EERST_SNIJDEN
 10
2064.349605182786
 20
2124.5476976249151
 30
0.0
 40
1.0
  0
CIRCLE
  5
7BC
  8
EERST_SNIJDEN
 10
2064.349605182786
 20
2128.5476976249151
 30
0.0
 40
1.0
  0
CIRCLE
  5
7BD
  8
EERST_SNIJDEN
 10
2064.349605182786
 20
2132.5476976249151
 30
0.0
 40
1.0
  0
CIRCLE
  5
7BE
  8
EERST_SNIJDEN
 10
2039.3496051827869
 20
2149.5476976249151
 30
0.0
 40
1.0
  0
CIRCLE
  5
7BF
  8
EERST_SNIJDEN
 10
2043.3496051827869
 20
2149.5476976249151
 30
0.0
 40
1.0
  0
CIRCLE
  5
7C0
  8
EERST_SNIJDEN
 10
2047.3496051827869
 20
2149.5476976249151
 30
0.0
 40
1.0
  0
LINE
  5
7C1
  8
0
 62
     1
 10
2024.479184697296
 20
2131.1409206596431
 30
0.0
 11
2024.479184697296
 21
2131.1409206596431
 31
0.0
  0
ARC
  5
7C2
  8
0
 62
     1
 10
2028.4791846972969
 20
2131.1409206596431
 30
0.0
 40
4.0
 50
90.0
 51
180.0
  0
ARC
  5
7C3
  8
0
 62
     1
 10
2028.4791846972969
 20
2131.1409206596431
 30
0.0
 40
4.0
 50
180.0
 51
270.0
  0
LINE
  5
7C4
  8
0
 62
     1
 10
2028.4791846972969
 20
2127.1409206596431
 30
0.0
 11
2053.4791846972971
 21
2127.1409206596431
 31
0.0
  0
CIRCLE
  5
7C5
  8
EERST_SNIJDEN
 10
2053.4791846972971
 20
2131.1409206596431
 30
0.0
 40
3.0
  0
CIRCLE
  5
7C6
  8
EERST_SNIJDEN
 10
2028.4791846972969
 20
2131.1409206596431
 30
0.0
 40
1.0
  0
CIRCLE
  5
7C7
  8
EERST_SNIJDEN
 10
2032.4791846972969
 20
2131.1409206596431
 30
0.0
 40
1.0
  0
CIRCLE
  5
7C8
  8
EERST_SNIJDEN
 10
2036.4791846972969
 20
2131.1409206596431
 30
0.0
 40
1.0
  0
LINE
  5
7C9
  8
0
 62
     1
 10
2028.4791846972969
 20
2135.1409206596418
 30
0.0
 11
2053.4791846972971
 21
2135.1409206596418
 31
0.0
  0
ARC
  5
7CA
  8
0
 62
     1
 10
2053.4791846972971
 20
2131.1409206596431
 30
0.0
 40
4.0
 50
270.0
 51
90.0
  0
LINE
  5
7CB
  8
0
 62
     1
 10
2454.9742456964791
 20
2020.694734241587
 30
0.0
 11
2454.9742456964791
 21
1980.694734241587
 31
0.0
  0
ARC
  5
7CC
  8
0
 62
     1
 10
2464.9742456964791
 20
1980.694734241587
 30
0.0
 40
10.0
 50
180.0
 51
270.0
  0
ARC
  5
7CD
  8
0
 62
     1
 10
2464.9742456964791
 20
2020.694734241587
 30
0.0
 40
10.0
 50
90.0
 51
180.0
  0
LINE
  5
7CE
  8
0
 62
     1
 10
2469.9742456964791
 20
2030.694734241589
 30
0.0
 11
2469.9742456964791
 21
1970.694734241589
 31
0.0
  0
LINE
  5
7CF
  8
0
 62
     1
 10
2464.9742456964791
 20
1970.694734241589
 30
0.0
 11
2469.9742456964791
 21
1970.694734241589
 31
0.0
  0
LINE
  5
7D0
  8
0
 62
     1
 10
2464.9742456964791
 20
2030.694734241589
 30
0.0
 11
2469.9742456964791
 21
2030.694734241589
 31
0.0
  0
LINE
  5
7D1
  8
0
 62
     1
 10
2454.9742456964791
 20
1980.694734241587
 30
0.0
 11
2454.9742456964791
 21
1990.694734241589
 31
0.0
  0
CIRCLE
  5
7D2
  8
EERST_SNIJDEN
 10
2462.4742456964782
 20
1990.694734241589
 30
0.0
 40
2.5
  0
CIRCLE
  5
7D3
  8
EERST_SNIJDEN
 10
2462.4742456964782
 20
2010.694734241589
 30
0.0
 40
2.5
  0
LINE
  5
7D4
  8
0
 62
     1
 10
2014.1734254743019
 20
2242.3921389433472
 30
0.0
 11
2014.1734254743019
 21
2202.3921389433472
 31
0.0
  0
ARC
  5
7D5
  8
0
 62
     1
 10
2024.1734254743019
 20
2202.3921389433472
 30
0.0
 40
10.0
 50
180.0
 51
270.0
  0
ARC
  5
7D6
  8
0
 62
     1
 10
2024.1734254743019
 20
2242.3921389433472
 30
0.0
 40
10.0
 50
90.0
 51
180.0
  0
LINE
  5
7D7
  8
0
 62
     1
 10
2029.1734254743019
 20
2252.3921389433449
 30
0.0
 11
2029.1734254743019
 21
2192.3921389433472
 31
0.0
  0
LINE
  5
7D8
  8
0
 62
     1
 10
2024.1734254743019
 20
2192.3921389433472
 30
0.0
 11
2029.1734254743019
 21
2192.3921389433472
 31
0.0
  0
LINE
  5
7D9
  8
0
 62
     1
 10
2024.1734254743019
 20
2252.3921389433449
 30
0.0
 11
2029.1734254743019
 21
2252.3921389433449
 31
0.0
  0
LINE
  5
7DA
  8
0
 62
     1
 10
2014.1734254743019
 20
2202.3921389433472
 30
0.0
 11
2014.1734254743019
 21
2212.3921389433472
 31
0.0
  0
CIRCLE
  5
7DB
  8
EERST_SNIJDEN
 10
2021.673425474301
 20
2212.3921389433472
 30
0.0
 40
2.5
  0
CIRCLE
  5
7DC
  8
EERST_SNIJDEN
 10
2021.673425474301
 20
2232.3921389433472
 30
0.0
 40
2.5
  0
LINE
  5
7DD
  8
0
 62
     1
 10
2500.2981892816051
 20
2242.0581459306418
 30
0.0
 11
2526.2981892816042
 21
2242.0581459306418
 31
0.0
  0
LINE
  5
7DE
  8
0
 62
     1
 10
2546.2981892816042
 20
2175.0581459306431
 30
0.0
 11
2546.2981892816042
 21
2188.4490383291281
 31
0.0
  0
ARC
  5
7DF
  8
0
 62
     1
 10
2526.2981892816042
 20
2222.0581459306441
 30
0.0
 40
20.0
 50
0.0
 51
90.0
  0
LINE
  5
7E0
  8
0
 62
     1
 10
2536.2981892816051
 20
2225.0581459306441
 30
0.0
 11
2510.2981892816042
 21
2225.0581459306441
 31
0.0
  0
LINE
  5
7E1
  8
0
 62
     1
 10
2536.2981892816051
 20
2225.0581459306418
 30
0.0
 11
2536.2981892816051
 21
2175.0581459306431
 31
0.0
  0
LINE
  5
7E2
  8
0
 62
     1
 10
2510.2981892816042
 20
2225.0581459306418
 30
0.0
 11
2510.2981892816042
 21
2175.0581459306431
 31
0.0
  0
LINE
  5
7E3
  8
0
 62
     1
 10
2510.2981892816042
 20
2175.0581459306431
 30
0.0
 11
2500.2981892816051
 21
2175.0581459306431
 31
0.0
  0
LINE
  5
7E4
  8
0
 62
     1
 10
2500.2981892816051
 20
2175.0581459306431
 30
0.0
 11
2500.2981892816051
 21
2242.0581459306418
 31
0.0
  0
LINE
  5
7E5
  8
0
 62
     1
 10
2536.2981892816051
 20
2175.0581459306431
 30
0.0
 11
2546.2981892816042
 21
2175.0581459306431
 31
0.0
  0
CIRCLE
  5
7E6
  8
EERST_SNIJDEN
 10
2505.2981892816051
 20
2180.0581459306441
 30
0.0
 40
2.5
  0
CIRCLE
  5
7E7
  8
EERST_SNIJDEN
 10
2541.2981892816051
 20
2180.0581459306441
 30
0.0
 40
2.5
  0
CIRCLE
  5
7E8
  8
EERST_SNIJDEN
 10
2505.2981892816051
 20
2230.0581459306418
 30
0.0
 40
2.5
  0
CIRCLE
  5
7E9
  8
EERST_SNIJDEN
 10
2536.618697357294
 20
2230.0581459306418
 30
0.0
 40
2.5
  0
LINE
  5
7EA
  8
0
 62
     1
 10
2549.2981892816051
 20
2242.0581459306418
 30
0.0
 11
2575.2981892816051
 21
2242.0581459306418
 31
0.0
  0
LINE
  5
7EB
  8
0
 62
     1
 10
2595.2981892816051
 20
2175.0581459306431
 30
0.0
 11
2595.2981892816051
 21
2192.4490383291291
 31
0.0
  0
ARC
  5
7EC
  8
0
 62
     1
 10
2575.2981892816051
 20
2222.0581459306441
 30
0.0
 40
20.0
 50
0.0
 51
90.0
  0
LINE
  5
7ED
  8
0
 62
     1
 10
2585.2981892816051
 20
2225.0581459306441
 30
0.0
 11
2559.2981892816051
 21
2225.0581459306441
 31
0.0
  0
LINE
  5
7EE
  8
0
 62
     1
 10
2585.2981892816051
 20
2225.0581459306418
 30
0.0
 11
2585.2981892816051
 21
2175.0581459306431
 31
0.0
  0
LINE
  5
7EF
  8
0
 62
     1
 10
2559.2981892816051
 20
2225.0581459306418
 30
0.0
 11
2559.2981892816051
 21
2175.0581459306431
 31
0.0
  0
LINE
  5
7F0
  8
0
 62
     1
 10
2559.2981892816051
 20
2175.0581459306431
 30
0.0
 11
2549.2981892816051
 21
2175.0581459306431
 31
0.0
  0
LINE
  5
7F1
  8
0
 62
     1
 10
2549.2981892816051
 20
2175.0581459306431
 30
0.0
 11
2549.2981892816051
 21
2242.0581459306418
 31
0.0
  0
LINE
  5
7F2
  8
0
 62
     1
 10
2585.2981892816051
 20
2175.0581459306431
 30
0.0
 11
2595.2981892816051
 21
2175.0581459306431
 31
0.0
  0
CIRCLE
  5
7F3
  8
EERST_SNIJDEN
 10
2554.2981892816042
 20
2180.0581459306441
 30
0.0
 40
2.5
  0
CIRCLE
  5
7F4
  8
EERST_SNIJDEN
 10
2590.2981892816042
 20
2180.0581459306441
 30
0.0
 40
2.5
  0
CIRCLE
  5
7F5
  8
EERST_SNIJDEN
 10
2554.2981892816042
 20
2230.0581459306418
 30
0.0
 40
2.5
  0
CIRCLE
  5
7F6
  8
EERST_SNIJDEN
 10
2585.618697357294
 20
2230.0581459306418
 30
0.0
 40
2.5
  0
LINE
  5
7F7
  8
0
 62
     1
 10
2569.944956090415
 20
2156.801130387264
 30
0.0
 11
2543.944956090415
 21
2156.801130387264
 31
0.0
  0
LINE
  5
7F8
  8
0
 62
     1
 10
2523.944956090415
 20
2223.8011303872649
 30
0.0
 11
2523.944956090415
 21
2176.801130387264
 31
0.0
  0
ARC
  5
7F9
  8
0
 62
     1
 10
2543.944956090415
 20
2176.801130387264
 30
0.0
 40
20.0
 50
180.0
 51
270.0
  0
LINE
  5
7FA
  8
0
 62
     1
 10
2533.944956090415
 20
2173.8011303872622
 30
0.0
 11
2559.944956090415
 21
2173.8011303872622
 31
0.0
  0
LINE
  5
7FB
  8
0
 62
     1
 10
2533.944956090415
 20
2173.801130387264
 30
0.0
 11
2533.944956090415
 21
2223.8011303872649
 31
0.0
  0
LINE
  5
7FC
  8
0
 62
     1
 10
2559.944956090415
 20
2173.801130387264
 30
0.0
 11
2559.944956090415
 21
2223.8011303872649
 31
0.0
  0
LINE
  5
7FD
  8
0
 62
     1
 10
2559.944956090415
 20
2223.8011303872649
 30
0.0
 11
2569.944956090415
 21
2223.8011303872649
 31
0.0
  0
LINE
  5
7FE
  8
0
 62
     1
 10
2569.944956090415
 20
2223.8011303872649
 30
0.0
 11
2569.944956090415
 21
2156.801130387264
 31
0.0
  0
LINE
  5
7FF
  8
0
 62
     1
 10
2533.944956090415
 20
2223.8011303872649
 30
0.0
 11
2523.944956090415
 21
2223.8011303872649
 31
0.0
  0
CIRCLE
  5
800
  8
EERST_SNIJDEN
 10
2564.944956090415
 20
2218.8011303872622
 30
0.0
 40
2.5
  0
CIRCLE
  5
801
  8
EERST_SNIJDEN
 10
2528.944956090415
 20
2218.8011303872622
 30
0.0
 40
2.5
  0
CIRCLE
  5
802
  8
EERST_SNIJDEN
 10
2564.944956090415
 20
2168.8011303872631
 30
0.0
 40
2.5
  0
CIRCLE
  5
803
  8
EERST_SNIJDEN
 10
2533.6244480147261
 20
2168.8011303872631
 30
0.0
 40
2.5
  0
LINE
  5
804
  8
0
 62
     1
 10
2451.801799773209
 20
2219.130871213385
 30
0.0
 11
2425.801799773209
 21
2219.130871213385
 31
0.0
  0
LINE
  5
805
  8
0
 62
     1
 10
2405.801799773209
 20
2249.130871213385
 30
0.0
 11
2405.801799773209
 21
2239.130871213385
 31
0.0
  0
ARC
  5
806
  8
0
 62
     1
 10
2425.801799773209
 20
2239.130871213385
 30
0.0
 40
20.0
 50
180.0
 51
270.0
  0
LINE
  5
807
  8
0
 62
     1
 10
2415.801799773209
 20
2236.130871213385
 30
0.0
 11
2415.801799773209
 21
2249.130871213385
 31
0.0
  0
LINE
  5
808
  8
0
 62
     1
 10
2451.801799773209
 20
2236.130871213385
 30
0.0
 11
2451.801799773209
 21
2219.130871213385
 31
0.0
  0
CIRCLE
  5
809
  8
EERST_SNIJDEN
 10
2446.801799773209
 20
2231.130871213385
 30
0.0
 40
2.5
  0
CIRCLE
  5
80A
  8
EERST_SNIJDEN
 10
2415.4812916975202
 20
2231.130871213385
 30
0.0
 40
2.5
  0
LINE
  5
80B
  8
0
 62
     1
 10
2520.944956090415
 20
2156.801130387264
 30
0.0
 11
2494.944956090415
 21
2156.801130387264
 31
0.0
  0
LINE
  5
80C
  8
0
 62
     1
 10
2474.944956090415
 20
2223.8011303872622
 30
0.0
 11
2474.944956090415
 21
2176.801130387264
 31
0.0
  0
ARC
  5
80D
  8
0
 62
     1
 10
2494.944956090415
 20
2176.801130387264
 30
0.0
 40
20.0
 50
180.0
 51
270.0
  0
LINE
  5
80E
  8
0
 62
     1
 10
2484.944956090415
 20
2173.8011303872622
 30
0.0
 11
2510.944956090415
 21
2173.8011303872622
 31
0.0
  0
LINE
  5
80F
  8
0
 62
     1
 10
2484.944956090415
 20
2173.801130387264
 30
0.0
 11
2484.944956090415
 21
2223.8011303872622
 31
0.0
  0
LINE
  5
810
  8
0
 62
     1
 10
2510.944956090415
 20
2173.801130387264
 30
0.0
 11
2510.944956090415
 21
2223.8011303872622
 31
0.0
  0
LINE
  5
811
  8
0
 62
     1
 10
2510.944956090415
 20
2223.8011303872622
 30
0.0
 11
2520.944956090415
 21
2223.8011303872622
 31
0.0
  0
LINE
  5
812
  8
0
 62
     1
 10
2520.944956090415
 20
2223.8011303872622
 30
0.0
 11
2520.944956090415
 21
2156.801130387264
 31
0.0
  0
LINE
  5
813
  8
0
 62
     1
 10
2484.944956090415
 20
2223.8011303872622
 30
0.0
 11
2474.944956090415
 21
2223.8011303872622
 31
0.0
  0
CIRCLE
  5
814
  8
EERST_SNIJDEN
 10
2515.944956090415
 20
2218.8011303872622
 30
0.0
 40
2.5
  0
CIRCLE
  5
815
  8
EERST_SNIJDEN
 10
2479.944956090415
 20
2218.8011303872622
 30
0.0
 40
2.5
  0
CIRCLE
  5
816
  8
EERST_SNIJDEN
 10
2515.944956090415
 20
2168.8011303872631
 30
0.0
 40
2.5
  0
CIRCLE
  5
817
  8
EERST_SNIJDEN
 10
2484.6244480147261
 20
2168.8011303872631
 30
0.0
 40
2.5
  0
LINE
  5
818
  8
0
 62
     1
 10
2415.801799773209
 20
2236.130871213385
 30
0.0
 11
2451.801799773209
 21
2236.130871213385
 31
0.0
  0
LINE
  5
819
  8
0
 62
     1
 10
2405.801799773209
 20
2249.130871213385
 30
0.0
 11
2405.801799773209
 21
2249.130871213385
 31
0.0
  0
LINE
  5
81A
  8
0
 62
     1
 10
2405.801799773209
 20
2249.130871213385
 30
0.0
 11
2415.801799773209
 21
2249.130871213385
 31
0.0
  0
LINE
  5
81B
  8
0
 62
     1
 10
2417.801799773209
 20
2255.130871213385
 30
0.0
 11
2443.801799773209
 21
2255.130871213385
 31
0.0
  0
LINE
  5
81C
  8
0
 62
     1
 10
2463.801799773209
 20
2225.130871213385
 30
0.0
 11
2463.801799773209
 21
2235.1308712133869
 31
0.0
  0
ARC
  5
81D
  8
0
 62
     1
 10
2443.801799773209
 20
2235.1308712133869
 30
0.0
 40
20.0
 50
0.0
 51
90.0
  0
LINE
  5
81E
  8
0
 62
     1
 10
2453.801799773209
 20
2238.1308712133869
 30
0.0
 11
2453.801799773209
 21
2225.130871213385
 31
0.0
  0
LINE
  5
81F
  8
0
 62
     1
 10
2417.801799773209
 20
2238.1308712133869
 30
0.0
 11
2417.801799773209
 21
2255.130871213385
 31
0.0
  0
CIRCLE
  5
820
  8
EERST_SNIJDEN
 10
2422.801799773209
 20
2243.1308712133869
 30
0.0
 40
2.5
  0
CIRCLE
  5
821
  8
EERST_SNIJDEN
 10
2454.1223078488979
 20
2243.1308712133869
 30
0.0
 40
2.5
  0
LINE
  5
822
  8
0
 62
     1
 10
2453.801799773209
 20
2238.1308712133869
 30
0.0
 11
2417.801799773209
 21
2238.130871213385
 31
0.0
  0
LINE
  5
823
  8
0
 62
     1
 10
2461.801799773209
 20
2225.130871213385
 30
0.0
 11
2461.801799773209
 21
2225.130871213385
 31
0.0
  0
LINE
  5
824
  8
0
 62
     1
 10
2463.801799773209
 20
2225.130871213385
 30
0.0
 11
2453.801799773209
 21
2225.130871213385
 31
0.0
  0
LINE
  5
825
  8
0
 62
     1
 10
2451.801799773209
 20
2180.8989584306141
 30
0.0
 11
2425.801799773209
 21
2180.8989584306141
 31
0.0
  0
LINE
  5
826
  8
0
 62
     1
 10
2405.801799773209
 20
2210.8989584306169
 30
0.0
 11
2405.801799773209
 21
2200.8989584306169
 31
0.0
  0
ARC
  5
827
  8
0
 62
     1
 10
2425.801799773209
 20
2200.8989584306169
 30
0.0
 40
20.0
 50
180.0
 51
270.0
  0
LINE
  5
828
  8
0
 62
     1
 10
2415.801799773209
 20
2197.8989584306159
 30
0.0
 11
2415.801799773209
 21
2210.8989584306169
 31
0.0
  0
LINE
  5
829
  8
0
 62
     1
 10
2451.801799773209
 20
2197.8989584306159
 30
0.0
 11
2451.801799773209
 21
2180.8989584306141
 31
0.0
  0
CIRCLE
  5
82A
  8
EERST_SNIJDEN
 10
2446.801799773209
 20
2192.8989584306169
 30
0.0
 40
2.5
  0
CIRCLE
  5
82B
  8
EERST_SNIJDEN
 10
2415.4812916975202
 20
2192.8989584306169
 30
0.0
 40
2.5
  0
LINE
  5
82C
  8
0
 62
     1
 10
2415.801799773209
 20
2197.8989584306159
 30
0.0
 11
2451.801799773209
 21
2197.8989584306159
 31
0.0
  0
LINE
  5
82D
  8
0
 62
     1
 10
2405.801799773209
 20
2210.8989584306169
 30
0.0
 11
2405.801799773209
 21
2210.8989584306169
 31
0.0
  0
LINE
  5
82E
  8
0
 62
     1
 10
2405.801799773209
 20
2210.8989584306169
 30
0.0
 11
2415.801799773209
 21
2210.8989584306169
 31
0.0
  0
LINE
  5
82F
  8
0
 62
     1
 10
2417.801799773209
 20
2216.8989584306159
 30
0.0
 11
2443.801799773209
 21
2216.8989584306159
 31
0.0
  0
LINE
  5
830
  8
0
 62
     1
 10
2463.801799773209
 20
2186.8989584306159
 30
0.0
 11
2463.801799773209
 21
2196.8989584306169
 31
0.0
  0
ARC
  5
831
  8
0
 62
     1
 10
2443.801799773209
 20
2196.8989584306169
 30
0.0
 40
20.0
 50
0.0
 51
90.0
  0
LINE
  5
832
  8
0
 62
     1
 10
2453.801799773209
 20
2199.8989584306169
 30
0.0
 11
2453.801799773209
 21
2186.8989584306159
 31
0.0
  0
LINE
  5
833
  8
0
 62
     1
 10
2417.801799773209
 20
2199.8989584306169
 30
0.0
 11
2417.801799773209
 21
2216.8989584306159
 31
0.0
  0
CIRCLE
  5
834
  8
EERST_SNIJDEN
 10
2422.801799773209
 20
2204.8989584306159
 30
0.0
 40
2.5
  0
CIRCLE
  5
835
  8
EERST_SNIJDEN
 10
2454.1223078488979
 20
2204.8989584306159
 30
0.0
 40
2.5
  0
LINE
  5
836
  8
0
 62
     1
 10
2453.801799773209
 20
2199.8989584306169
 30
0.0
 11
2417.801799773209
 21
2199.8989584306169
 31
0.0
  0
LINE
  5
837
  8
0
 62
     1
 10
2461.801799773209
 20
2186.8989584306159
 30
0.0
 11
2461.801799773209
 21
2186.8989584306159
 31
0.0
  0
LINE
  5
838
  8
0
 62
     1
 10
2463.801799773209
 20
2186.8989584306159
 30
0.0
 11
2453.801799773209
 21
2186.8989584306159
 31
0.0
  0
LINE
  5
839
  8
0
 62
     1
 10
2451.801799773209
 20
2142.667045647845
 30
0.0
 11
2425.801799773209
 21
2142.667045647845
 31
0.0
  0
LINE
  5
83A
  8
0
 62
     1
 10
2405.801799773209
 20
2172.667045647846
 30
0.0
 11
2405.801799773209
 21
2162.667045647845
 31
0.0
  0
ARC
  5
83B
  8
0
 62
     1
 10
2425.801799773209
 20
2162.667045647845
 30
0.0
 40
20.0
 50
180.0
 51
270.0
  0
LINE
  5
83C
  8
0
 62
     1
 10
2415.801799773209
 20
2159.667045647846
 30
0.0
 11
2415.801799773209
 21
2172.667045647846
 31
0.0
  0
LINE
  5
83D
  8
0
 62
     1
 10
2451.801799773209
 20
2159.667045647846
 30
0.0
 11
2451.801799773209
 21
2142.667045647845
 31
0.0
  0
CIRCLE
  5
83E
  8
EERST_SNIJDEN
 10
2446.801799773209
 20
2154.667045647846
 30
0.0
 40
2.5
  0
CIRCLE
  5
83F
  8
EERST_SNIJDEN
 10
2415.4812916975202
 20
2154.667045647846
 30
0.0
 40
2.5
  0
LINE
  5
840
  8
0
 62
     1
 10
2415.801799773209
 20
2159.667045647846
 30
0.0
 11
2451.801799773209
 21
2159.667045647846
 31
0.0
  0
LINE
  5
841
  8
0
 62
     1
 10
2405.801799773209
 20
2172.667045647846
 30
0.0
 11
2405.801799773209
 21
2172.667045647846
 31
0.0
  0
LINE
  5
842
  8
0
 62
     1
 10
2405.801799773209
 20
2172.667045647846
 30
0.0
 11
2415.801799773209
 21
2172.667045647846
 31
0.0
  0
LINE
  5
843
  8
0
 62
     1
 10
2417.801799773209
 20
2178.667045647845
 30
0.0
 11
2443.801799773209
 21
2178.667045647845
 31
0.0
  0
LINE
  5
844
  8
0
 62
     1
 10
2463.801799773209
 20
2148.667045647846
 30
0.0
 11
2463.801799773209
 21
2158.667045647845
 31
0.0
  0
ARC
  5
845
  8
0
 62
     1
 10
2443.801799773209
 20
2158.667045647845
 30
0.0
 40
20.0
 50
0.0
 51
90.0
  0
LINE
  5
846
  8
0
 62
     1
 10
2453.801799773209
 20
2161.667045647845
 30
0.0
 11
2453.801799773209
 21
2148.667045647846
 31
0.0
  0
LINE
  5
847
  8
0
 62
     1
 10
2417.801799773209
 20
2161.667045647845
 30
0.0
 11
2417.801799773209
 21
2178.667045647845
 31
0.0
  0
CIRCLE
  5
848
  8
EERST_SNIJDEN
 10
2422.801799773209
 20
2166.667045647846
 30
0.0
 40
2.5
  0
CIRCLE
  5
849
  8
EERST_SNIJDEN
 10
2454.1223078488979
 20
2166.667045647846
 30
0.0
 40
2.5
  0
LINE
  5
84A
  8
0
 62
     1
 10
2453.801799773209
 20
2161.667045647845
 30
0.0
 11
2417.801799773209
 21
2161.667045647845
 31
0.0
  0
LINE
  5
84B
  8
0
 62
     1
 10
2461.801799773209
 20
2148.667045647846
 30
0.0
 11
2461.801799773209
 21
2148.667045647846
 31
0.0
  0
LINE
  5
84C
  8
0
 62
     1
 10
2463.801799773209
 20
2148.667045647846
 30
0.0
 11
2453.801799773209
 21
2148.667045647846
 31
0.0
  0
LINE
  5
84D
  8
0
 62
     1
 10
2249.2460530602521
 20
2193.2527781205958
 30
0.0
 11
2289.3853732852549
 21
2193.2527781205958
 31
0.0
  0
LINE
  5
84E
  8
0
 62
     1
 10
2244.246053060253
 20
2253.2527781205972
 30
0.0
 11
2289.3853732852549
 21
2253.2527781205972
 31
0.0
  0
LINE
  5
84F
  8
0
 62
     1
 10
2234.246053060253
 20
2243.2527781205958
 30
0.0
 11
2234.246053060253
 21
2203.2527781205958
 31
0.0
  0
ARC
  5
850
  8
0
 62
     1
 10
2244.246053060253
 20
2203.2527781205958
 30
0.0
 40
10.0
 50
180.0
 51
270.0
  0
ARC
  5
851
  8
0
 62
     1
 10
2244.246053060253
 20
2243.2527781205958
 30
0.0
 40
10.0
 50
90.0
 51
180.0
  0
LINE
  5
852
  8
0
 62
     1
 10
2244.246053060253
 20
2193.2527781205958
 30
0.0
 11
2249.2460530602521
 21
2193.2527781205958
 31
0.0
  0
CIRCLE
  5
853
  8
EERST_SNIJDEN
 10
2241.746053060253
 20
2213.2527781205958
 30
0.0
 40
2.5
  0
CIRCLE
  5
854
  8
EERST_SNIJDEN
 10
2241.746053060253
 20
2233.2527781205972
 30
0.0
 40
2.5
  0
CIRCLE
  5
855
  8
EERST_SNIJDEN
 10
2294.3853732852549
 20
2213.2527781205958
 30
0.0
 40
2.5
  0
CIRCLE
  5
856
  8
EERST_SNIJDEN
 10
2294.3853732852549
 20
2233.2527781205972
 30
0.0
 40
2.5
  0
LINE
  5
857
  8
0
 62
     1
 10
2299.3853732852549
 20
2243.2527781205958
 30
0.0
 11
2299.3853732852549
 21
2203.2527781205958
 31
0.0
  0
ARC
  5
858
  8
0
 62
     1
 10
2289.3853732852549
 20
2203.2527781205958
 30
0.0
 40
10.0
 50
270.0
 51
0.0
  0
ARC
  5
859
  8
0
 62
     1
 10
2289.3853732852549
 20
2243.2527781205958
 30
0.0
 40
10.0
 50
0.0
 51
90.0
  0
LINE
  5
85A
  8
0
 62
     1
 10
2541.2981892816051
 20
2192.4490383291281
 30
0.0
 11
2546.2981892816042
 21
2192.4490383291281
 31
0.0
  0
LINE
  5
85B
  8
0
 62
     1
 10
2541.2981892816051
 20
2188.4490383291281
 30
0.0
 11
2546.2981892816042
 21
2188.4490383291281
 31
0.0
  0
LINE
  5
85C
  8
0
 62
     1
 10
2541.2981892816051
 20
2192.4490383291281
 30
0.0
 11
2541.2981892816051
 21
2188.4490383291281
 31
0.0
  0
LINE
  5
85D
  8
0
 62
     1
 10
2546.2981892816042
 20
2192.4490383291281
 30
0.0
 11
2546.2981892816042
 21
2222.0581459306441
 31
0.0
  0
LINE
  5
85E
  8
0
 62
     1
 10
2595.2981892816051
 20
2192.4490383291291
 30
0.0
 11
2595.2981892816051
 21
2222.0581459306441
 31
0.0
  0
LINE
  5
85F
  8
0
 62
     1
 10
2398.7980574865019
 20
1953.4913941869729
 30
0.0
 11
2438.9373777115038
 21
1953.4913941869729
 31
0.0
  0
LINE
  5
860
  8
0
 62
     1
 10
2398.7980574865019
 20
1923.4913941869729
 30
0.0
 11
2438.9373777115038
 21
1923.4913941869729
 31
0.0
  0
LINE
  5
861
  8
0
 62
     1
 10
2031.3264047639011
 20
1923.4913941869729
 30
0.0
 11
2071.4657249889028
 21
1923.4913941869729
 31
0.0
  0
LINE
  5
862
  8
0
 62
     1
 10
2031.3264047639011
 20
1953.4913941869729
 30
0.0
 11
2071.4657249889028
 21
1953.4913941869729
 31
0.0
  0
LINE
  5
863
  8
0
 62
     1
 10
2031.3264047639011
 20
1953.4913941869729
 30
0.0
 11
2031.3264047639011
 21
1968.4913941869729
 31
0.0
  0
LINE
  5
864
  8
0
 62
     1
 10
2071.4657249889028
 20
1953.4913941869729
 30
0.0
 11
2071.4657249889028
 21
1968.4913941869729
 31
0.0
  0
LINE
  5
865
  8
0
 62
     1
 10
2031.3264047639011
 20
1908.4913941869729
 30
0.0
 11
2031.3264047639011
 21
1923.4913941869729
 31
0.0
  0
LINE
  5
866
  8
0
 62
     1
 10
2071.4657249889028
 20
1908.4913941869729
 30
0.0
 11
2071.4657249889028
 21
1923.4913941869729
 31
0.0
  0
LINE
  5
867
  8
0
 62
     1
 10
2398.7980574865019
 20
1953.4913941869729
 30
0.0
 11
2398.7980574865019
 21
1968.4913941869729
 31
0.0
  0
LINE
  5
868
  8
0
 62
     1
 10
2438.9373777115038
 20
1953.4913941869729
 30
0.0
 11
2438.9373777115038
 21
1968.4913941869729
 31
0.0
  0
LINE
  5
869
  8
0
 62
     1
 10
2398.7980574865019
 20
1908.4913941869729
 30
0.0
 11
2398.7980574865019
 21
1923.4913941869729
 31
0.0
  0
LINE
  5
86A
  8
0
 62
     1
 10
2438.9373777115038
 20
1908.4913941869729
 30
0.0
 11
2438.9373777115038
 21
1923.4913941869729
 31
0.0
  0
LINE
  5
86B
  8
0
 62
     1
 10
2398.7980574865019
 20
1883.4913941869729
 30
0.0
 11
2398.7980574865019
 21
1923.4913941869729
 31
0.0
  0
LINE
  5
86C
  8
0
 62
     1
 10
2398.7980574865019
 20
1953.491394186972
 30
0.0
 11
2398.7980574865019
 21
1993.4913941869729
 31
0.0
  0
ARC
  5
86D
  8
0
 62
     1
 10
2378.7980574865019
 20
1993.4913941869729
 30
0.0
 40
20.0
 50
0.0
 51
90.0
  0
ARC
  5
86E
  8
0
 62
     1
 10
2378.7980574865019
 20
1883.4913941869729
 30
0.0
 40
20.0
 50
270.0
 51
0.0
  0
LINE
  5
86F
  8
0
 62
     1
 10
2494.1567687764382
 20
2080.9495237648312
 30
0.0
 11
2468.1567687764382
 21
2080.9495237648312
 31
0.0
  0
LINE
  5
870
  8
0
 62
     1
 10
2514.1567687764382
 20
2100.9495237648312
 30
0.0
 11
2514.1567687764382
 21
2147.9495237648312
 31
0.0
  0
ARC
  5
871
  8
0
 62
     1
 10
2494.1567687764382
 20
2100.9495237648312
 30
0.0
 40
20.0
 50
270.0
 51
0.0
  0
ARC
  5
872
  8
0
 62
     1
 10
2494.1567687764382
 20
2100.9495237648312
 30
0.0
 40
10.0
 50
270.0
 51
0.0
  0
CIRCLE
  5
873
  8
EERST_SNIJDEN
 10
2509.1567687764382
 20
2142.9495237648312
 30
0.0
 40
2.5
  0
LINE
  5
874
  8
0
 62
     1
 10
2504.1567687764382
 20
2147.9495237648312
 30
0.0
 11
2514.1567687764382
 21
2147.9495237648312
 31
0.0
  0
LINE
  5
875
  8
0
 62
     1
 10
2504.1567687764382
 20
2147.9495237648312
 30
0.0
 11
2504.1567687764382
 21
2100.9495237648312
 31
0.0
  0
LINE
  5
876
  8
0
 62
     1
 10
2494.1567687764382
 20
2090.9495237648312
 30
0.0
 11
2468.1567687764382
 21
2090.9495237648312
 31
0.0
  0
CIRCLE
  5
877
  8
EERST_SNIJDEN
 10
2473.1567687764382
 20
2085.9495237648312
 30
0.0
 40
2.5
  0
LINE
  5
878
  8
0
 62
     1
 10
2468.1567687764382
 20
2090.9495237648312
 30
0.0
 11
2468.1567687764382
 21
2080.9495237648312
 31
0.0
  0
LINE
  5
879
  8
0
 62
     1
 10
2506.1567687764382
 20
2068.9495237648312
 30
0.0
 11
2480.1567687764382
 21
2068.9495237648312
 31
0.0
  0
LINE
  5
87A
  8
0
 62
     1
 10
2526.1567687764382
 20
2088.9495237648312
 30
0.0
 11
2526.1567687764382
 21
2135.9495237648312
 31
0.0
  0
ARC
  5
87B
  8
0
 62
     1
 10
2506.1567687764382
 20
2088.9495237648312
 30
0.0
 40
20.0
 50
270.0
 51
0.0
  0
ARC
  5
87C
  8
0
 62
     1
 10
2506.1567687764382
 20
2088.9495237648312
 30
0.0
 40
10.0
 50
270.0
 51
0.0
  0
CIRCLE
  5
87D
  8
EERST_SNIJDEN
 10
2521.1567687764382
 20
2130.9495237648312
 30
0.0
 40
2.5
  0
LINE
  5
87E
  8
0
 62
     1
 10
2516.1567687764391
 20
2135.9495237648312
 30
0.0
 11
2526.1567687764382
 21
2135.9495237648312
 31
0.0
  0
LINE
  5
87F
  8
0
 62
     1
 10
2516.1567687764391
 20
2135.9495237648312
 30
0.0
 11
2516.1567687764391
 21
2088.9495237648312
 31
0.0
  0
LINE
  5
880
  8
0
 62
     1
 10
2506.1567687764382
 20
2078.9495237648312
 30
0.0
 11
2480.1567687764382
 21
2078.9495237648312
 31
0.0
  0
CIRCLE
  5
881
  8
EERST_SNIJDEN
 10
2485.1567687764382
 20
2073.9495237648312
 30
0.0
 40
2.5
  0
LINE
  5
882
  8
0
 62
     1
 10
2480.1567687764382
 20
2078.9495237648312
 30
0.0
 11
2480.1567687764382
 21
2068.9495237648312
 31
0.0
  0
LINE
  5
883
  8
0
 62
     1
 10
2518.1567687764382
 20
2056.9495237648298
 30
0.0
 11
2492.1567687764382
 21
2056.9495237648298
 31
0.0
  0
LINE
  5
884
  8
0
 62
     1
 10
2538.1567687764382
 20
2076.9495237648298
 30
0.0
 11
2538.1567687764382
 21
2123.9495237648321
 31
0.0
  0
ARC
  5
885
  8
0
 62
     1
 10
2518.1567687764382
 20
2076.9495237648298
 30
0.0
 40
20.0
 50
270.0
 51
0.0
  0
ARC
  5
886
  8
0
 62
     1
 10
2518.1567687764382
 20
2076.9495237648298
 30
0.0
 40
10.0
 50
270.0
 51
0.0
  0
CIRCLE
  5
887
  8
EERST_SNIJDEN
 10
2533.1567687764382
 20
2118.9495237648312
 30
0.0
 40
2.5
  0
LINE
  5
888
  8
0
 62
     1
 10
2528.1567687764391
 20
2123.9495237648321
 30
0.0
 11
2538.1567687764382
 21
2123.9495237648321
 31
0.0
  0
LINE
  5
889
  8
0
 62
     1
 10
2528.1567687764391
 20
2123.9495237648321
 30
0.0
 11
2528.1567687764391
 21
2076.9495237648298
 31
0.0
  0
LINE
  5
88A
  8
0
 62
     1
 10
2518.1567687764382
 20
2066.9495237648312
 30
0.0
 11
2492.1567687764382
 21
2066.9495237648312
 31
0.0
  0
CIRCLE
  5
88B
  8
EERST_SNIJDEN
 10
2497.1567687764382
 20
2061.9495237648312
 30
0.0
 40
2.5
  0
LINE
  5
88C
  8
0
 62
     1
 10
2492.1567687764382
 20
2066.9495237648312
 30
0.0
 11
2492.1567687764382
 21
2056.9495237648298
 31
0.0
  0
LINE
  5
88D
  8
0
 62
     1
 10
2530.1567687764382
 20
2044.9495237648309
 30
0.0
 11
2504.1567687764382
 21
2044.9495237648309
 31
0.0
  0
LINE
  5
88E
  8
0
 62
     1
 10
2550.1567687764382
 20
2064.9495237648312
 30
0.0
 11
2550.1567687764382
 21
2111.9495237648312
 31
0.0
  0
ARC
  5
88F
  8
0
 62
     1
 10
2530.1567687764382
 20
2064.9495237648312
 30
0.0
 40
20.0
 50
270.0
 51
0.0
  0
ARC
  5
890
  8
0
 62
     1
 10
2530.1567687764382
 20
2064.9495237648312
 30
0.0
 40
10.0
 50
270.0
 51
0.0
  0
CIRCLE
  5
891
  8
EERST_SNIJDEN
 10
2545.1567687764382
 20
2106.9495237648312
 30
0.0
 40
2.5
  0
LINE
  5
892
  8
0
 62
     1
 10
2540.1567687764391
 20
2111.9495237648312
 30
0.0
 11
2550.1567687764382
 21
2111.9495237648312
 31
0.0
  0
LINE
  5
893
  8
0
 62
     1
 10
2540.1567687764391
 20
2111.9495237648312
 30
0.0
 11
2540.1567687764391
 21
2064.9495237648312
 31
0.0
  0
LINE
  5
894
  8
0
 62
     1
 10
2530.1567687764382
 20
2054.9495237648298
 30
0.0
 11
2504.1567687764382
 21
2054.9495237648298
 31
0.0
  0
CIRCLE
  5
895
  8
EERST_SNIJDEN
 10
2509.1567687764382
 20
2049.9495237648298
 30
0.0
 40
2.5
  0
LINE
  5
896
  8
0
 62
     1
 10
2504.1567687764382
 20
2054.9495237648298
 30
0.0
 11
2504.1567687764382
 21
2044.9495237648309
 31
0.0
  0
LINE
  5
897
  8
0
 62
     1
 10
2542.1567687764382
 20
2032.9495237648309
 30
0.0
 11
2516.1567687764391
 21
2032.9495237648309
 31
0.0
  0
LINE
  5
898
  8
0
 62
     1
 10
2562.1567687764382
 20
2052.9495237648312
 30
0.0
 11
2562.1567687764382
 21
2099.9495237648312
 31
0.0
  0
ARC
  5
899
  8
0
 62
     1
 10
2542.1567687764382
 20
2052.9495237648312
 30
0.0
 40
20.0
 50
270.0
 51
0.0
  0
ARC
  5
89A
  8
0
 62
     1
 10
2542.1567687764382
 20
2052.9495237648312
 30
0.0
 40
10.0
 50
270.0
 51
0.0
  0
CIRCLE
  5
89B
  8
EERST_SNIJDEN
 10
2557.1567687764382
 20
2094.9495237648312
 30
0.0
 40
2.5
  0
LINE
  5
89C
  8
0
 62
     1
 10
2552.1567687764382
 20
2099.9495237648312
 30
0.0
 11
2562.1567687764382
 21
2099.9495237648312
 31
0.0
  0
LINE
  5
89D
  8
0
 62
     1
 10
2552.1567687764382
 20
2099.9495237648312
 30
0.0
 11
2552.1567687764382
 21
2052.9495237648312
 31
0.0
  0
LINE
  5
89E
  8
0
 62
     1
 10
2542.1567687764382
 20
2042.94952376483
 30
0.0
 11
2516.1567687764391
 21
2042.94952376483
 31
0.0
  0
CIRCLE
  5
89F
  8
EERST_SNIJDEN
 10
2521.1567687764382
 20
2037.9495237648309
 30
0.0
 40
2.5
  0
LINE
  5
8A0
  8
0
 62
     1
 10
2516.1567687764391
 20
2042.94952376483
 30
0.0
 11
2516.1567687764391
 21
2032.9495237648309
 31
0.0
  0
LINE
  5
8A1
  8
0
 62
     1
 10
2592.1567687764391
 20
2080.9495237648312
 30
0.0
 11
2566.1567687764382
 21
2080.9495237648312
 31
0.0
  0
LINE
  5
8A2
  8
0
 62
     1
 10
2612.1567687764391
 20
2100.9495237648312
 30
0.0
 11
2612.1567687764391
 21
2147.9495237648312
 31
0.0
  0
ARC
  5
8A3
  8
0
 62
     1
 10
2592.1567687764391
 20
2100.9495237648312
 30
0.0
 40
20.0
 50
270.0
 51
0.0
  0
ARC
  5
8A4
  8
0
 62
     1
 10
2592.1567687764391
 20
2100.9495237648312
 30
0.0
 40
10.0
 50
270.0
 51
0.0
  0
CIRCLE
  5
8A5
  8
EERST_SNIJDEN
 10
2607.1567687764382
 20
2142.9495237648312
 30
0.0
 40
2.5
  0
LINE
  5
8A6
  8
0
 62
     1
 10
2602.1567687764382
 20
2147.9495237648312
 30
0.0
 11
2612.1567687764391
 21
2147.9495237648312
 31
0.0
  0
LINE
  5
8A7
  8
0
 62
     1
 10
2602.1567687764382
 20
2147.9495237648312
 30
0.0
 11
2602.1567687764382
 21
2100.9495237648312
 31
0.0
  0
LINE
  5
8A8
  8
0
 62
     1
 10
2592.1567687764391
 20
2090.9495237648312
 30
0.0
 11
2566.1567687764382
 21
2090.9495237648312
 31
0.0
  0
CIRCLE
  5
8A9
  8
EERST_SNIJDEN
 10
2571.1567687764382
 20
2085.9495237648312
 30
0.0
 40
2.5
  0
LINE
  5
8AA
  8
0
 62
     1
 10
2566.1567687764382
 20
2090.9495237648312
 30
0.0
 11
2566.1567687764382
 21
2080.9495237648312
 31
0.0
  0
LINE
  5
8AB
  8
0
 62
     1
 10
2604.1567687764382
 20
2068.9495237648312
 30
0.0
 11
2578.1567687764382
 21
2068.9495237648312
 31
0.0
  0
LINE
  5
8AC
  8
0
 62
     1
 10
2624.1567687764391
 20
2088.9495237648312
 30
0.0
 11
2624.1567687764391
 21
2135.9495237648312
 31
0.0
  0
ARC
  5
8AD
  8
0
 62
     1
 10
2604.1567687764382
 20
2088.9495237648312
 30
0.0
 40
20.0
 50
270.0
 51
0.0
  0
ARC
  5
8AE
  8
0
 62
     1
 10
2604.1567687764382
 20
2088.9495237648312
 30
0.0
 40
10.0
 50
270.0
 51
0.0
  0
CIRCLE
  5
8AF
  8
EERST_SNIJDEN
 10
2619.1567687764382
 20
2130.9495237648312
 30
0.0
 40
2.5
  0
LINE
  5
8B0
  8
0
 62
     1
 10
2614.1567687764382
 20
2135.9495237648312
 30
0.0
 11
2624.1567687764391
 21
2135.9495237648312
 31
0.0
  0
LINE
  5
8B1
  8
0
 62
     1
 10
2614.1567687764382
 20
2135.9495237648312
 30
0.0
 11
2614.1567687764382
 21
2088.9495237648312
 31
0.0
  0
LINE
  5
8B2
  8
0
 62
     1
 10
2604.1567687764382
 20
2078.9495237648312
 30
0.0
 11
2578.1567687764382
 21
2078.9495237648312
 31
0.0
  0
CIRCLE
  5
8B3
  8
EERST_SNIJDEN
 10
2583.1567687764391
 20
2073.9495237648312
 30
0.0
 40
2.5
  0
LINE
  5
8B4
  8
0
 62
     1
 10
2578.1567687764382
 20
2078.9495237648312
 30
0.0
 11
2578.1567687764382
 21
2068.9495237648312
 31
0.0
  0
LINE
  5
8B5
  8
0
 62
     1
 10
2616.1567687764382
 20
2056.9495237648298
 30
0.0
 11
2590.1567687764382
 21
2056.9495237648298
 31
0.0
  0
LINE
  5
8B6
  8
0
 62
     1
 10
2636.1567687764382
 20
2076.9495237648298
 30
0.0
 11
2636.1567687764382
 21
2123.9495237648321
 31
0.0
  0
ARC
  5
8B7
  8
0
 62
     1
 10
2616.1567687764382
 20
2076.9495237648298
 30
0.0
 40
20.0
 50
270.0
 51
0.0
  0
ARC
  5
8B8
  8
0
 62
     1
 10
2616.1567687764382
 20
2076.9495237648298
 30
0.0
 40
10.0
 50
270.0
 51
0.0
  0
CIRCLE
  5
8B9
  8
EERST_SNIJDEN
 10
2631.1567687764382
 20
2118.9495237648312
 30
0.0
 40
2.5
  0
LINE
  5
8BA
  8
0
 62
     1
 10
2626.1567687764382
 20
2123.9495237648321
 30
0.0
 11
2636.1567687764382
 21
2123.9495237648321
 31
0.0
  0
LINE
  5
8BB
  8
0
 62
     1
 10
2626.1567687764382
 20
2123.9495237648321
 30
0.0
 11
2626.1567687764382
 21
2076.9495237648298
 31
0.0
  0
LINE
  5
8BC
  8
0
 62
     1
 10
2616.1567687764382
 20
2066.9495237648312
 30
0.0
 11
2590.1567687764382
 21
2066.9495237648312
 31
0.0
  0
CIRCLE
  5
8BD
  8
EERST_SNIJDEN
 10
2595.1567687764382
 20
2061.9495237648312
 30
0.0
 40
2.5
  0
LINE
  5
8BE
  8
0
 62
     1
 10
2590.1567687764382
 20
2066.9495237648312
 30
0.0
 11
2590.1567687764382
 21
2056.9495237648298
 31
0.0
  0
LINE
  5
8BF
  8
0
 62
     1
 10
2628.1567687764391
 20
2044.9495237648309
 30
0.0
 11
2602.1567687764382
 21
2044.9495237648309
 31
0.0
  0
LINE
  5
8C0
  8
0
 62
     1
 10
2648.1567687764382
 20
2064.9495237648312
 30
0.0
 11
2648.1567687764382
 21
2111.9495237648312
 31
0.0
  0
ARC
  5
8C1
  8
0
 62
     1
 10
2628.1567687764391
 20
2064.9495237648312
 30
0.0
 40
20.0
 50
270.0
 51
0.0
  0
ARC
  5
8C2
  8
0
 62
     1
 10
2628.1567687764391
 20
2064.9495237648312
 30
0.0
 40
10.0
 50
270.0
 51
0.0
  0
CIRCLE
  5
8C3
  8
EERST_SNIJDEN
 10
2643.1567687764382
 20
2106.9495237648312
 30
0.0
 40
2.5
  0
LINE
  5
8C4
  8
0
 62
     1
 10
2638.1567687764382
 20
2111.9495237648312
 30
0.0
 11
2648.1567687764382
 21
2111.9495237648312
 31
0.0
  0
LINE
  5
8C5
  8
0
 62
     1
 10
2638.1567687764382
 20
2111.9495237648312
 30
0.0
 11
2638.1567687764382
 21
2064.9495237648312
 31
0.0
  0
LINE
  5
8C6
  8
0
 62
     1
 10
2628.1567687764391
 20
2054.9495237648298
 30
0.0
 11
2602.1567687764382
 21
2054.9495237648298
 31
0.0
  0
CIRCLE
  5
8C7
  8
EERST_SNIJDEN
 10
2607.1567687764382
 20
2049.9495237648298
 30
0.0
 40
2.5
  0
LINE
  5
8C8
  8
0
 62
     1
 10
2602.1567687764382
 20
2054.9495237648298
 30
0.0
 11
2602.1567687764382
 21
2044.9495237648309
 31
0.0
  0
LINE
  5
8C9
  8
0
 62
     1
 10
2640.1567687764391
 20
2032.9495237648309
 30
0.0
 11
2614.1567687764382
 21
2032.9495237648309
 31
0.0
  0
LINE
  5
8CA
  8
0
 62
     1
 10
2660.1567687764391
 20
2052.9495237648312
 30
0.0
 11
2660.1567687764391
 21
2099.9495237648312
 31
0.0
  0
ARC
  5
8CB
  8
0
 62
     1
 10
2640.1567687764391
 20
2052.9495237648312
 30
0.0
 40
20.0
 50
270.0
 51
0.0
  0
ARC
  5
8CC
  8
0
 62
     1
 10
2640.1567687764391
 20
2052.9495237648312
 30
0.0
 40
10.0
 50
270.0
 51
0.0
  0
CIRCLE
  5
8CD
  8
EERST_SNIJDEN
 10
2655.1567687764382
 20
2094.9495237648312
 30
0.0
 40
2.5
  0
LINE
  5
8CE
  8
0
 62
     1
 10
2650.1567687764382
 20
2099.9495237648312
 30
0.0
 11
2660.1567687764391
 21
2099.9495237648312
 31
0.0
  0
LINE
  5
8CF
  8
0
 62
     1
 10
2650.1567687764382
 20
2099.9495237648312
 30
0.0
 11
2650.1567687764382
 21
2052.9495237648312
 31
0.0
  0
LINE
  5
8D0
  8
0
 62
     1
 10
2640.1567687764391
 20
2042.94952376483
 30
0.0
 11
2614.1567687764382
 21
2042.94952376483
 31
0.0
  0
CIRCLE
  5
8D1
  8
EERST_SNIJDEN
 10
2619.1567687764382
 20
2037.9495237648309
 30
0.0
 40
2.5
  0
LINE
  5
8D2
  8
0
 62
     1
 10
2614.1567687764382
 20
2042.94952376483
 30
0.0
 11
2614.1567687764382
 21
2032.9495237648309
 31
0.0
  0
CIRCLE
  5
8D3
  8
EERST_SNIJDEN
 10
2023.8264047639
 20
1928.4913941869729
 30
0.0
 40
2.5
  0
CIRCLE
  5
8D4
  8
EERST_SNIJDEN
 10
2023.8264047639
 20
1948.4913941869729
 30
0.0
 40
2.5
  0
CIRCLE
  5
8D5
  8
EERST_SNIJDEN
 10
2076.4657249889028
 20
1928.4913941869729
 30
0.0
 40
2.5
  0
CIRCLE
  5
8D6
  8
EERST_SNIJDEN
 10
2076.4657249889028
 20
1948.4913941869729
 30
0.0
 40
2.5
  0
CIRCLE
  5
8D7
  8
EERST_SNIJDEN
 10
2088.9657249889028
 20
1963.670886111285
 30
0.0
 40
2.5
  0
CIRCLE
  5
8D8
  8
EERST_SNIJDEN
 10
2088.9657249889028
 20
1913.311902262662
 30
0.0
 40
2.5
  0
CIRCLE
  5
8D9
  8
EERST_SNIJDEN
 10
2111.8582171020898
 20
1988.4913941869729
 30
0.0
 40
3.0
  0
CIRCLE
  5
8DA
  8
EERST_SNIJDEN
 10
2111.8582171020898
 20
1888.4913941869729
 30
0.0
 40
3.0
  0
CIRCLE
  5
8DB
  8
EERST_SNIJDEN
 10
2357.7980574865019
 20
1951.4913941869729
 30
0.0
 40
2.5
  0
CIRCLE
  5
8DC
  8
EERST_SNIJDEN
 10
2393.7980574865019
 20
1951.4913941869729
 30
0.0
 40
2.5
  0
CIRCLE
  5
8DD
  8
EERST_SNIJDEN
 10
2357.7980574865019
 20
2001.4913941869729
 30
0.0
 40
2.5
  0
CIRCLE
  5
8DE
  8
EERST_SNIJDEN
 10
2389.1185655621898
 20
2001.4913941869729
 30
0.0
 40
2.5
  0
CIRCLE
  5
8DF
  8
EERST_SNIJDEN
 10
2204.6572631885638
 20
2005.9913941869729
 30
0.0
 40
2.5
  0
CIRCLE
  5
8E0
  8
EERST_SNIJDEN
 10
2294.6572631885629
 20
2005.9913941869729
 30
0.0
 40
2.5
  0
CIRCLE
  5
8E1
  8
EERST_SNIJDEN
 10
2446.4373777115038
 20
1948.4913941869729
 30
0.0
 40
2.5
  0
CIRCLE
  5
8E2
  8
EERST_SNIJDEN
 10
2446.4373777115038
 20
1928.4913941869729
 30
0.0
 40
2.5
  0
CIRCLE
  5
8E3
  8
EERST_SNIJDEN
 10
2393.7980574865019
 20
1925.4913941869729
 30
0.0
 40
2.5
  0
CIRCLE
  5
8E4
  8
EERST_SNIJDEN
 10
2357.7980574865019
 20
1868.4913941869729
 30
0.0
 40
2.5
  0
CIRCLE
  5
8E5
  8
EERST_SNIJDEN
 10
2203.9927063095251
 20
1870.991394186972
 30
0.0
 40
2.5
  0
CIRCLE
  5
8E6
  8
EERST_SNIJDEN
 10
2293.9927063095251
 20
1870.991394186972
 30
0.0
 40
2.5
  0
LINE
  5
8E7
  8
0
 62
     1
 10
2454.0861135166042
 20
2110.4908411208339
 30
0.0
 11
2454.0861135166042
 21
2070.4908411208339
 31
0.0
  0
ARC
  5
8E8
  8
0
 62
     1
 10
2444.0861135166042
 20
2070.4908411208339
 30
0.0
 40
10.0
 50
270.0
 51
0.0
  0
ARC
  5
8E9
  8
0
 62
     1
 10
2444.0861135166042
 20
2110.4908411208339
 30
0.0
 40
10.0
 50
0.0
 51
90.0
  0
LINE
  5
8EA
  8
0
 62
     1
 10
2444.0861135166042
 20
2060.490841120833
 30
0.0
 11
2439.0861135166042
 21
2060.490841120833
 31
0.0
  0
LINE
  5
8EB
  8
0
 62
     1
 10
2378.9467932916018
 20
2015.4908411208321
 30
0.0
 11
2352.9467932916018
 21
2015.4908411208321
 31
0.0
  0
LINE
  5
8EC
  8
0
 62
     1
 10
2352.9467932916018
 20
2165.490841120833
 30
0.0
 11
2378.9467932916018
 21
2165.4908411208339
 31
0.0
  0
LINE
  5
8ED
  8
0
 62
     1
 10
2444.0861135166042
 20
2120.4908411208339
 30
0.0
 11
2439.0861135166042
 21
2120.4908411208339
 31
0.0
  0
LINE
  5
8EE
  8
0
 62
     1
 10
2016.475140569001
 20
2110.4908411208339
 30
0.0
 11
2016.475140569001
 21
2070.4908411208339
 31
0.0
  0
ARC
  5
8EF
  8
0
 62
     1
 10
2026.475140569001
 20
2070.4908411208339
 30
0.0
 40
10.0
 50
180.0
 51
270.0
  0
ARC
  5
8F0
  8
0
 62
     1
 10
2026.475140569001
 20
2110.4908411208339
 30
0.0
 40
10.0
 50
90.0
 51
180.0
  0
ARC
  5
8F1
  8
0
 62
     1
 10
2071.6144607940009
 20
2040.4908411208339
 30
0.0
 40
20.0
 50
26.565051177066302
 51
90.0
  0
LINE
  5
8F2
  8
0
 62
     1
 10
2076.4751405689999
 20
2060.490841120833
 30
0.0
 11
2076.4751405689999
 21
2060.490841120833
 31
0.0
  0
LINE
  5
8F3
  8
0
 62
     1
 10
2096.6144607940032
 20
2036.2512786790171
 30
0.0
 11
2091.4751405690008
 21
2045.4908411208339
 31
0.0
  0
LINE
  5
8F4
  8
0
 62
     1
 10
2091.4751405690008
 20
2045.4908411208339
 30
0.0
 11
2089.503004614
 21
2049.4351130308328
 31
0.0
  0
ARC
  5
8F5
  8
0
 62
     1
 10
2071.6144607940009
 20
2140.490841120833
 30
0.0
 40
20.0
 50
270.0
 51
333.43494882290457
  0
LINE
  5
8F6
  8
0
 62
     1
 10
2096.6144607940032
 20
2144.7304035626489
 30
0.0
 11
2091.4751405690008
 21
2135.4908411208339
 31
0.0
  0
LINE
  5
8F7
  8
0
 62
     1
 10
2091.4751405690008
 20
2135.4908411208339
 30
0.0
 11
2089.503004614
 21
2131.5465692108351
 31
0.0
  0
LINE
  5
8F8
  8
0
 62
     1
 10
2026.475140569001
 20
2060.490841120833
 30
0.0
 11
2031.4751405689999
 21
2060.490841120833
 31
0.0
  0
LINE
  5
8F9
  8
0
 62
     1
 10
2026.475140569001
 20
2120.4908411208339
 30
0.0
 11
2031.4751405689999
 21
2120.4908411208339
 31
0.0
  0
LINE
  5
8FA
  8
0
 62
     1
 10
2398.9467932916018
 20
2105.4908411208339
 30
0.0
 11
2439.0861135166042
 21
2105.4908411208339
 31
0.0
  0
LINE
  5
8FB
  8
0
 62
     1
 10
2398.9467932916018
 20
2075.4908411208339
 30
0.0
 11
2439.0861135166042
 21
2075.4908411208339
 31
0.0
  0
LINE
  5
8FC
  8
0
 62
     1
 10
2031.4751405689999
 20
2075.4908411208339
 30
0.0
 11
2071.6144607940009
 21
2075.4908411208339
 31
0.0
  0
LINE
  5
8FD
  8
0
 62
     1
 10
2031.4751405689999
 20
2105.4908411208339
 30
0.0
 11
2071.6144607940009
 21
2105.4908411208339
 31
0.0
  0
LINE
  5
8FE
  8
0
 62
     1
 10
2031.4751405689999
 20
2105.4908411208339
 30
0.0
 11
2031.4751405689999
 21
2120.4908411208339
 31
0.0
  0
LINE
  5
8FF
  8
0
 62
     1
 10
2071.6144607940009
 20
2105.4908411208339
 30
0.0
 11
2071.6144607940009
 21
2120.4908411208339
 31
0.0
  0
LINE
  5
900
  8
0
 62
     1
 10
2031.4751405689999
 20
2060.490841120833
 30
0.0
 11
2031.4751405689999
 21
2075.4908411208339
 31
0.0
  0
LINE
  5
901
  8
0
 62
     1
 10
2071.6144607940009
 20
2060.490841120833
 30
0.0
 11
2071.6144607940009
 21
2075.4908411208339
 31
0.0
  0
LINE
  5
902
  8
0
 62
     1
 10
2398.9467932916018
 20
2105.4908411208339
 30
0.0
 11
2398.9467932916018
 21
2120.4908411208339
 31
0.0
  0
LINE
  5
903
  8
0
 62
     1
 10
2439.0861135166042
 20
2105.4908411208339
 30
0.0
 11
2439.0861135166042
 21
2120.4908411208339
 31
0.0
  0
LINE
  5
904
  8
0
 62
     1
 10
2398.9467932916018
 20
2060.490841120833
 30
0.0
 11
2398.9467932916018
 21
2075.4908411208339
 31
0.0
  0
LINE
  5
905
  8
0
 62
     1
 10
2439.0861135166042
 20
2060.490841120833
 30
0.0
 11
2439.0861135166042
 21
2075.4908411208339
 31
0.0
  0
LINE
  5
906
  8
0
 62
     1
 10
2398.9467932916018
 20
2035.4908411208321
 30
0.0
 11
2398.9467932916018
 21
2075.4908411208339
 31
0.0
  0
LINE
  5
907
  8
0
 62
     1
 10
2398.9467932916018
 20
2105.490841120833
 30
0.0
 11
2398.9467932916018
 21
2145.4908411208339
 31
0.0
  0
ARC
  5
908
  8
0
 62
     1
 10
2378.9467932916018
 20
2145.4908411208339
 30
0.0
 40
20.0
 50
0.0
 51
90.0
  0
ARC
  5
909
  8
0
 62
     1
 10
2378.9467932916018
 20
2035.4908411208321
 30
0.0
 40
20.0
 50
270.0
 51
0.0
  0
CIRCLE
  5
90A
  8
EERST_SNIJDEN
 10
2023.975140569001
 20
2080.4908411208339
 30
0.0
 40
2.5
  0
CIRCLE
  5
90B
  8
EERST_SNIJDEN
 10
2023.975140569001
 20
2100.4908411208339
 30
0.0
 40
2.5
  0
CIRCLE
  5
90C
  8
EERST_SNIJDEN
 10
2076.6144607940032
 20
2080.4908411208339
 30
0.0
 40
2.5
  0
CIRCLE
  5
90D
  8
EERST_SNIJDEN
 10
2076.6144607940032
 20
2100.4908411208339
 30
0.0
 40
2.5
  0
CIRCLE
  5
90E
  8
EERST_SNIJDEN
 10
2089.1144607940032
 20
2115.6703330451451
 30
0.0
 40
2.5
  0
CIRCLE
  5
90F
  8
EERST_SNIJDEN
 10
2089.1144607940032
 20
2065.3113491965232
 30
0.0
 40
2.5
  0
CIRCLE
  5
910
  8
EERST_SNIJDEN
 10
2112.0069529071889
 20
2140.490841120833
 30
0.0
 40
3.0
  0
CIRCLE
  5
911
  8
EERST_SNIJDEN
 10
2112.0069529071889
 20
2040.4908411208339
 30
0.0
 40
3.0
  0
CIRCLE
  5
912
  8
EERST_SNIJDEN
 10
2357.9467932916018
 20
2103.4908411208339
 30
0.0
 40
2.5
  0
CIRCLE
  5
913
  8
EERST_SNIJDEN
 10
2393.9467932916018
 20
2103.4908411208339
 30
0.0
 40
2.5
  0
CIRCLE
  5
914
  8
EERST_SNIJDEN
 10
2357.9467932916018
 20
2153.4908411208339
 30
0.0
 40
2.5
  0
CIRCLE
  5
915
  8
EERST_SNIJDEN
 10
2389.2673013672911
 20
2153.4908411208339
 30
0.0
 40
2.5
  0
CIRCLE
  5
916
  8
EERST_SNIJDEN
 10
2204.8059989936628
 20
2157.9908411208339
 30
0.0
 40
2.5
  0
CIRCLE
  5
917
  8
EERST_SNIJDEN
 10
2294.8059989936628
 20
2157.9908411208339
 30
0.0
 40
2.5
  0
CIRCLE
  5
918
  8
EERST_SNIJDEN
 10
2446.5861135166042
 20
2100.4908411208339
 30
0.0
 40
2.5
  0
CIRCLE
  5
919
  8
EERST_SNIJDEN
 10
2446.5861135166042
 20
2080.4908411208339
 30
0.0
 40
2.5
  0
CIRCLE
  5
91A
  8
EERST_SNIJDEN
 10
2393.9467932916018
 20
2077.4908411208339
 30
0.0
 40
2.5
  0
CIRCLE
  5
91B
  8
EERST_SNIJDEN
 10
2357.9467932916018
 20
2020.4908411208339
 30
0.0
 40
2.5
  0
CIRCLE
  5
91C
  8
EERST_SNIJDEN
 10
2204.1414421146251
 20
2022.990841120833
 30
0.0
 40
2.5
  0
CIRCLE
  5
91D
  8
EERST_SNIJDEN
 10
2294.1414421146251
 20
2022.990841120833
 30
0.0
 40
2.5
  0
LINE
  5
91E
  8
0
 62
     1
 10
2352.9467932916018
 20
2018.4908411208339
 30
0.0
 11
2124.0861135166042
 21
2018.4908411208339
 31
0.0
  0
ARC
  5
91F
  8
0
 62
     1
 10
2129.1333145128592
 20
2049.4713543569092
 30
0.0
 40
31.863680171497759
 50
210.9776835673911
 51
250.1495629843607
  0
LINE
  5
920
  8
0
 62
     1
 10
2101.8640373496942
 20
2032.9851521074841
 30
0.0
 11
2099.236181813093
 21
2037.7095581097351
 31
0.0
  0
ARC
  5
921
  8
0
 62
     1
 10
2124.0861135166042
 20
2035.4908411208321
 30
0.0
 40
17.0
 50
250.1495629843607
 51
270.0
  0
LINE
  5
922
  8
0
 62
     1
 10
2352.9467932916018
 20
2018.4908411208339
 30
0.0
 11
2352.9467932916018
 21
2015.4908411208321
 31
0.0
  0
LINE
  5
923
  8
0
 62
     1
 10
2096.6144607940032
 20
2036.2512786790189
 30
0.0
 11
2099.236181813093
 21
2037.7095581097351
 31
0.0
  0
LINE
  5
924
  8
0
 62
     1
 10
2124.0861135166042
 20
2162.4908411208339
 30
0.0
 11
2352.9467932916018
 21
2162.4908411208339
 31
0.0
  0
ARC
  5
925
  8
0
 62
     1
 10
2129.1333145128592
 20
2131.5103278847582
 30
0.0
 40
31.863680171497681
 50
109.85043701562699
 51
149.02231643263781
  0
ARC
  5
926
  8
0
 62
     1
 10
2124.0861135166042
 20
2145.490841120833
 30
0.0
 40
17.000000000000082
 50
90.0
 51
109.85043701562699
  0
LINE
  5
927
  8
0
 62
     1
 10
2101.8640373496942
 20
2147.9965301341822
 30
0.0
 11
2099.236181813093
 21
2143.2721241319309
 31
0.0
  0
LINE
  5
928
  8
0
 62
     1
 10
2096.6144607940032
 20
2144.730403562648
 30
0.0
 11
2099.236181813093
 21
2143.2721241319309
 31
0.0
  0
LINE
  5
929
  8
0
 62
     1
 10
2352.9467932916018
 20
2165.490841120833
 30
0.0
 11
2352.9467932916018
 21
2162.4908411208339
 31
0.0
  0
LINE
  5
92A
  8
0
 62
     7
 10
2009.9940776427161
 20
2257.0203820017341
 30
0.0
 11
2009.9940776427161
 21
1837.0203820017341
 31
0.0
  0
LINE
  5
92B
  8
0
 62
     7
 10
2009.9940776427161
 20
1857.0203820017341
 30
0.0
 11
2709.9940776427161
 21
1857.0203820017341
 31
0.0
  0
LINE
  5
92C
  8
0
 62
     1
 10
2093.202181570301
 20
2175.2384346106401
 30
0.0
 11
2193.0719626960481
 21
2180.3400831574691
 31
0.0
  0
LINE
  5
92D
  8
0
 62
     1
 10
2192.663830812302
 20
2188.3296656475291
 30
0.0
 11
2093.209829973594
 21
2183.2492564072581
 31
0.0
  0
CIRCLE
  5
92E
  8
EERST_SNIJDEN
 62
     1
 10
2093.413895915467
 20
2179.2544651622279
 30
0.0
 40
2.0
  0
CIRCLE
  5
92F
  8
EERST_SNIJDEN
 62
     1
 10
2192.867896754175
 20
2184.3348744024988
 30
0.0
 40
2.0
  0
ARC
  5
930
  8
0
 62
     1
 10
2192.867896754175
 20
2184.3348744024988
 30
0.0
 40
4.0
 50
272.9242987428039
 51
92.924298742803927
  0
ARC
  5
931
  8
0
 62
     1
 10
2093.413895915467
 20
2179.2544651622279
 30
0.0
 40
4.0
 50
92.924298742803927
 51
272.9242987428039
  0
LINE
  5
932
  8
0
 62
     1
 10
2119.9783169062239
 20
2165.7321247957452
 30
0.0
 11
2174.9066965253851
 21
2168.5380314965009
 31
0.0
  0
LINE
  5
933
  8
0
 62
     1
 10
2174.4985646416389
 20
2176.52761398656
 30
0.0
 11
2119.5701850224768
 21
2173.7217072858039
 31
0.0
  0
CIRCLE
  5
934
  8
EERST_SNIJDEN
 62
     1
 10
2119.7742509643508
 20
2169.726916040775
 30
0.0
 40
2.0
  0
CIRCLE
  5
935
  8
EERST_SNIJDEN
 62
     1
 10
2174.702630583512
 20
2172.5328227415312
 30
0.0
 40
2.0
  0
ARC
  5
936
  8
0
 62
     1
 10
2174.702630583512
 20
2172.5328227415312
 30
0.0
 40
4.0
 50
272.9242987428039
 51
92.924298742803927
  0
ARC
  5
937
  8
0
 62
     1
 10
2119.7742509643508
 20
2169.726916040775
 30
0.0
 40
4.0
 50
92.924298742803927
 51
272.9242987428039
  0
CIRCLE
  5
938
  8
EERST_SNIJDEN
 62
     1
 10
2125.766437831895
 20
2170.0330149535848
 30
0.0
 40
2.0
  0
CIRCLE
  5
939
  8
EERST_SNIJDEN
 62
     1
 10
2131.7586246994401
 20
2170.3391138663951
 30
0.0
 40
2.0
  0
LINE
  5
A68
  8
0
 10
2009.9940776427161
 20
2257.0203820017341
 30
0.0
 11
2709.9940776427161
 21
2257.0203820017341
 31
0.0
  0
LINE
  5
A69
  8
0
 10
2709.9940776427161
 20
1837.0203820017341
 30
0.0
 11
2709.9940776427161
 21
2257.0203820017341
 31
0.0
  0
LINE
  5
ABD
  8
0
 62
     1
 10
2679.9566685197328
 20
1923.6677652682349
 30
0.0
 11
2679.9566685197328
 21
2223.6677652682361
 31
0.0
  0
LINE
  5
ABE
  8
0
 62
     1
 10
2694.9566685197328
 20
2223.6677652682361
 30
0.0
 11
2694.9566685197328
 21
1923.6677652682349
 31
0.0
  0
ARC
  5
ADE
  8
0
 62
     1
 10
2687.4566685197319
 20
1923.6677652682349
 30
0.0
 40
7.4999999999995453
 50
180.0
 51
0.0
  0
ARC
  5
ADF
  8
0
 62
     1
 10
2687.4566685197319
 20
2223.6677652682361
 30
0.0
 40
7.4999999999995453
 50
0.0
 51
180.0
  0
CIRCLE
  5
AED
  8
0
 62
     1
 10
2687.4566685197319
 20
1923.6677652682349
 30
0.0
 40
2.4500000000000002
  0
CIRCLE
  5
AEE
  8
0
 62
     1
 10
2687.4566685197319
 20
1933.6677652682361
 30
0.0
 40
2.4500000000000002
  0
CIRCLE
  5
AEF
  8
0
 62
     1
 10
2687.4566685197319
 20
1943.6677652682349
 30
0.0
 40
2.4500000000000002
  0
CIRCLE
  5
AF0
  8
0
 62
     1
 10
2687.4566685197319
 20
1953.6677652682349
 30
0.0
 40
2.4500000000000002
  0
CIRCLE
  5
AF1
  8
0
 62
     1
 10
2687.4566685197319
 20
1963.6677652682349
 30
0.0
 40
2.4500000000000002
  0
CIRCLE
  5
AF2
  8
0
 62
     1
 10
2687.4566685197319
 20
1973.6677652682349
 30
0.0
 40
2.4500000000000002
  0
CIRCLE
  5
AF3
  8
0
 62
     1
 10
2687.4566685197319
 20
1983.6677652682361
 30
0.0
 40
2.4500000000000002
  0
CIRCLE
  5
AF4
  8
0
 62
     1
 10
2687.4566685197319
 20
1993.6677652682349
 30
0.0
 40
2.4500000000000002
  0
CIRCLE
  5
AF5
  8
0
 62
     1
 10
2687.4566685197319
 20
2003.6677652682361
 30
0.0
 40
2.4500000000000002
  0
CIRCLE
  5
AF6
  8
0
 62
     1
 10
2687.4566685197319
 20
2013.6677652682361
 30
0.0
 40
2.4500000000000002
  0
CIRCLE
  5
AF7
  8
0
 62
     1
 10
2687.4566685197319
 20
2023.6677652682349
 30
0.0
 40
2.4500000000000002
  0
CIRCLE
  5
AF8
  8
0
 62
     1
 10
2687.4566685197319
 20
2033.6677652682361
 30
0.0
 40
2.4500000000000002
  0
CIRCLE
  5
AF9
  8
0
 62
     1
 10
2687.4566685197319
 20
2043.6677652682361
 30
0.0
 40
2.4500000000000002
  0
CIRCLE
  5
AFA
  8
0
 62
     1
 10
2687.4566685197319
 20
2053.6677652682361
 30
0.0
 40
2.4500000000000002
  0
CIRCLE
  5
AFB
  8
0
 62
     1
 10
2687.4566685197319
 20
2063.6677652682361
 30
0.0
 40
2.4500000000000002
  0
CIRCLE
  5
AFC
  8
0
 62
     1
 10
2687.4566685197319
 20
2073.6677652682361
 30
0.0
 40
2.4500000000000002
  0
CIRCLE
  5
AFD
  8
0
 62
     1
 10
2687.4566685197319
 20
2083.6677652682361
 30
0.0
 40
2.4500000000000002
  0
CIRCLE
  5
AFE
  8
0
 62
     1
 10
2687.4566685197319
 20
2093.6677652682361
 30
0.0
 40
2.4500000000000002
  0
CIRCLE
  5
B06
  8
0
 62
     1
 10
2687.4566685197319
 20
2103.6677652682361
 30
0.0
 40
2.4500000000000002
  0
CIRCLE
  5
B07
  8
0
 62
     1
 10
2687.4566685197319
 20
2113.6677652682351
 30
0.0
 40
2.4500000000000002
  0
CIRCLE
  5
B11
  8
0
 62
     1
 10
2687.4566685197319
 20
2123.6677652682361
 30
0.0
 40
2.4500000000000002
  0
CIRCLE
  5
B12
  8
0
 62
     1
 10
2687.4566685197319
 20
2133.6677652682361
 30
0.0
 40
2.4500000000000002
  0
CIRCLE
  5
B13
  8
0
 62
     1
 10
2687.4566685197319
 20
2143.6677652682361
 30
0.0
 40
2.4500000000000002
  0
CIRCLE
  5
B14
  8
0
 62
     1
 10
2687.4566685197319
 20
2153.6677652682361
 30
0.0
 40
2.4500000000000002
  0
CIRCLE
  5
B15
  8
0
 62
     1
 10
2687.4566685197319
 20
2163.6677652682361
 30
0.0
 40
2.4500000000000002
  0
CIRCLE
  5
B3D
  8
0
 62
     1
 10
2687.4566685197319
 20
2173.6677652682361
 30
0.0
 40
2.4500000000000002
  0
CIRCLE
  5
B3E
  8
0
 62
     1
 10
2687.4566685197319
 20
2183.6677652682361
 30
0.0
 40
2.4500000000000002
  0
CIRCLE
  5
B3F
  8
0
 62
     1
 10
2687.4566685197319
 20
2193.6677652682351
 30
0.0
 40
2.4500000000000002
  0
CIRCLE
  5
B40
  8
0
 62
     1
 10
2687.4566685197319
 20
2203.6677652682361
 30
0.0
 40
2.4500000000000002
  0
CIRCLE
  5
B41
  8
0
 62
     1
 10
2687.4566685197319
 20
2213.6677652682351
 30
0.0
 40
2.4500000000000002
  0
CIRCLE
  5
B42
  8
0
 62
     1
 10
2687.4566685197319
 20
2223.6677652682361
 30
0.0
 40
2.4500000000000002
  0
LINE
  5
B8F
  8
0
 62
     1
 10
2671.665067950581
 20
2120.348494430441
 30
0.0
 11
2646.6662376233598
 21
2120.5903255094822
 31
0.0
  0
LINE
  5
B90
  8
0
 62
     1
 10
2646.6662376233598
 20
2120.5903255094822
 30
0.0
 11
2646.7919897844608
 21
2133.5897172796358
 31
0.0
  0
LINE
  5
B91
  8
0
 62
     1
 10
2647.7980070732692
 20
2237.5848514408781
 30
0.0
 11
2672.7968374004899
 21
2237.3430203618382
 31
0.0
  0
LINE
  5
B92
  8
0
 62
     1
 10
2672.7968374004899
 20
2237.3430203618382
 30
0.0
 11
2671.665067950581
 21
2120.348494430441
 31
0.0
  0
LINE
  5
B93
  8
0
 62
     1
 10
2646.6662376233598
 20
2120.5903255094822
 30
0.0
 11
2646.762970054976
 21
2130.5898576403702
 31
0.0
  0
LINE
  5
B94
  8
0
 62
     1
 10
2646.7919897844608
 20
2133.5897172796358
 30
0.0
 11
2650.7918026368161
 21
2133.5510243069898
 31
0.0
  0
LINE
  5
B95
  8
0
 62
     1
 10
2650.7918026368161
 20
2133.5510243069898
 30
0.0
 11
2651.6720677645221
 21
2224.5467666980762
 31
0.0
  0
LINE
  5
B96
  8
0
 62
     1
 10
2647.6722549121678
 20
2224.5854596707231
 30
0.0
 11
2651.6720677645221
 21
2224.5467666980762
 31
0.0
  0
LINE
  5
B97
  8
0
 62
     1
 10
2647.6722549121678
 20
2224.5854596707231
 30
0.0
 11
2647.7980070732692
 21
2237.5848514408781
 31
0.0
  0
CIRCLE
  5
B98
  8
EERST_SNIJDEN
 62
     1
 10
2663.83687522537
 20
2145.6887597918089
 30
0.0
 40
0.7499999999999999
  0
CIRCLE
  5
B99
  8
EERST_SNIJDEN
 62
     1
 10
2664.392740066713
 20
2143.9199442617419
 30
0.0
 40
0.7499999999999999
  0
CIRCLE
  5
B9A
  8
EERST_SNIJDEN
 62
     1
 10
2663.802760487335
 20
2142.162213281993
 30
0.0
 40
0.7499999999999999
  0
CIRCLE
  5
B9B
  8
EERST_SNIJDEN
 62
     1
 10
2662.292288633892
 20
2141.0869603437468
 30
0.0
 40
0.7499999999999999
  0
CIRCLE
  5
B9C
  8
EERST_SNIJDEN
 62
     1
 10
2660.4382734153451
 20
2141.104895522913
 30
0.0
 40
0.7499999999999999
  0
CIRCLE
  5
B9D
  8
EERST_SNIJDEN
 62
     1
 10
2658.948885629522
 20
2142.2091681906431
 30
0.0
 40
0.7499999999999999
  0
CIRCLE
  5
B9E
  8
EERST_SNIJDEN
 62
     1
 10
2658.393020788179
 20
2143.9779837207102
 30
0.0
 40
0.7499999999999999
  0
CIRCLE
  5
B9F
  8
EERST_SNIJDEN
 62
     1
 10
2658.983000367557
 20
2145.73571470046
 30
0.0
 40
0.7499999999999999
  0
CIRCLE
  5
BA0
  8
EERST_SNIJDEN
 62
     1
 10
2660.493472221001
 20
2146.8109676387048
 30
0.0
 40
0.7499999999999999
  0
CIRCLE
  5
BA1
  8
EERST_SNIJDEN
 62
     1
 10
2662.3474874395461
 20
2146.7930324595382
 30
0.0
 40
0.7499999999999999
  0
CIRCLE
  5
BA2
  8
EERST_SNIJDEN
 62
     1
 10
2664.0305359094732
 20
2165.6865418575649
 30
0.0
 40
0.7499999999999999
  0
CIRCLE
  5
BA3
  8
EERST_SNIJDEN
 62
     1
 10
2664.5864007508162
 20
2163.9177263274969
 30
0.0
 40
0.7499999999999999
  0
CIRCLE
  5
BA4
  8
EERST_SNIJDEN
 62
     1
 10
2663.9964211714382
 20
2162.1599953477489
 30
0.0
 40
0.7499999999999999
  0
CIRCLE
  5
BA5
  8
EERST_SNIJDEN
 62
     1
 10
2662.4859493179952
 20
2161.0847424095018
 30
0.0
 40
0.7499999999999999
  0
CIRCLE
  5
BA6
  8
EERST_SNIJDEN
 62
     1
 10
2660.6319340994478
 20
2161.1026775886689
 30
0.0
 40
0.7499999999999999
  0
CIRCLE
  5
BA7
  8
EERST_SNIJDEN
 62
     1
 10
2659.1425463136261
 20
2162.2069502563982
 30
0.0
 40
0.7499999999999999
  0
CIRCLE
  5
BA8
  8
EERST_SNIJDEN
 62
     1
 10
2658.5866814722831
 20
2163.9757657864652
 30
0.0
 40
0.7499999999999999
  0
CIRCLE
  5
BA9
  8
EERST_SNIJDEN
 62
     1
 10
2659.1766610516602
 20
2165.7334967662141
 30
0.0
 40
0.7499999999999999
  0
CIRCLE
  5
BAA
  8
EERST_SNIJDEN
 62
     1
 10
2660.6871329051041
 20
2166.8087497044598
 30
0.0
 40
0.7499999999999999
  0
CIRCLE
  5
BAB
  8
EERST_SNIJDEN
 62
     1
 10
2662.5411481236488
 20
2166.7908145252941
 30
0.0
 40
0.7499999999999999
  0
CIRCLE
  5
BAC
  8
EERST_SNIJDEN
 62
     1
 10
2664.3207332043212
 20
2195.68513825023
 30
0.0
 40
0.7499999999999999
  0
CIRCLE
  5
BAD
  8
EERST_SNIJDEN
 62
     1
 10
2664.8765980456642
 20
2193.9163227201639
 30
0.0
 40
0.7499999999999999
  0
CIRCLE
  5
BAE
  8
EERST_SNIJDEN
 62
     1
 10
2664.2866184662871
 20
2192.1585917404141
 30
0.0
 40
0.7499999999999999
  0
CIRCLE
  5
BAF
  8
EERST_SNIJDEN
 62
     1
 10
2662.7761466128431
 20
2191.0833388021679
 30
0.0
 40
0.7499999999999999
  0
CIRCLE
  5
BB0
  8
EERST_SNIJDEN
 62
     1
 10
2660.9221313942971
 20
2191.1012739813341
 30
0.0
 40
0.7499999999999999
  0
CIRCLE
  5
BB1
  8
EERST_SNIJDEN
 62
     1
 10
2659.432743608475
 20
2192.2055466490651
 30
0.0
 40
0.7499999999999999
  0
CIRCLE
  5
BB2
  8
EERST_SNIJDEN
 62
     1
 10
2658.8768787671311
 20
2193.9743621791308
 30
0.0
 40
0.7499999999999999
  0
CIRCLE
  5
BB3
  8
EERST_SNIJDEN
 62
     1
 10
2659.4668583465091
 20
2195.7320931588802
 30
0.0
 40
0.7499999999999999
  0
CIRCLE
  5
BB4
  8
EERST_SNIJDEN
 62
     1
 10
2660.9773301999521
 20
2196.8073460971259
 30
0.0
 40
0.7499999999999999
  0
CIRCLE
  5
BB5
  8
EERST_SNIJDEN
 62
     1
 10
2662.8313454184981
 20
2196.7894109179588
 30
0.0
 40
0.7499999999999999
  0
CIRCLE
  5
BB6
  8
EERST_SNIJDEN
 62
     1
 10
2664.5141980675539
 20
2215.6842025120081
 30
0.0
 40
0.7499999999999999
  0
CIRCLE
  5
BB7
  8
EERST_SNIJDEN
 62
     1
 10
2665.0700629088969
 20
2213.9153869819402
 30
0.0
 40
0.7499999999999999
  0
CIRCLE
  5
BB8
  8
EERST_SNIJDEN
 62
     1
 10
2664.4800833295189
 20
2212.1576560021922
 30
0.0
 40
0.7499999999999999
  0
CIRCLE
  5
BB9
  8
EERST_SNIJDEN
 62
     1
 10
2662.969611476075
 20
2211.0824030639451
 30
0.0
 40
0.7499999999999999
  0
CIRCLE
  5
BBA
  8
EERST_SNIJDEN
 62
     1
 10
2661.1155962575299
 20
2211.1003382431122
 30
0.0
 40
0.7499999999999999
  0
CIRCLE
  5
BBB
  8
EERST_SNIJDEN
 62
     1
 10
2659.6262084717068
 20
2212.204610910841
 30
0.0
 40
0.7499999999999999
  0
CIRCLE
  5
BBC
  8
EERST_SNIJDEN
 62
     1
 10
2659.0703436303629
 20
2213.9734264409099
 30
0.0
 40
0.7499999999999999
  0
CIRCLE
  5
BBD
  8
EERST_SNIJDEN
 62
     1
 10
2659.6603232097409
 20
2215.7311574206592
 30
0.0
 40
0.7499999999999999
  0
CIRCLE
  5
BBE
  8
EERST_SNIJDEN
 62
     1
 10
2661.1707950631849
 20
2216.806410358904
 30
0.0
 40
0.7499999999999999
  0
CIRCLE
  5
BBF
  8
EERST_SNIJDEN
 62
     1
 10
2663.0248102817309
 20
2216.7884751797369
 30
0.0
 40
0.7499999999999999
  0
ENDSEC
  0
EOF
