  0
SECTION
  2
HEADER
  9
$ACADVER
  1
AC1009
  9
$EXTMIN
 10
-1.49960080
 20
-1.50026596
 30
0.0
  9
$EXTMAX
 10
170.50039920
 20
129.49973404
 30
0.0
  0
ENDSEC
  0
SECTION
  2
TABLES
  0
TABLE
  2
LAYER
 70
2
 0
LAYER
 2
Default Layer
 70
0
 62
18
 6
CONTINUOUS
 0
LAYER
 2
Preview Toolpath Layer
 70
0
 62
14
 6
CONTINUOUS
 0
ENDTAB
 0
ENDSEC
  0
SECTION
  2
ENTITIES
  0
POLYLINE
  8
Default Layer
 62
256
 66
   1
 39
0.000000
 70
    1
  0
VERTEX
  8
0
 10
169.00039920
 20
-0.00026596
  0
VERTEX
  8
0
 10
169.00039920
 20
127.99973404
  0
VERTEX
  8
0
 10
0.00039920
 20
127.99973404
  0
VERTEX
  8
0
 10
0.00039920
 20
-0.00026596
  0
VERTEX
  8
0
 10
169.00039920
 20
-0.00026596
  0
SEQEND
  0
POLYLINE
  8
Default Layer
 62
256
 66
   1
 39
0.000000
 70
    1
  0
VERTEX
  8
0
 10
150.80118862
 20
105.39967553
  0
VERTEX
  8
0
 10
150.79189543
 20
105.58371508
  0
VERTEX
  8
0
 10
150.76461902
 20
105.76243831
  0
VERTEX
  8
0
 10
150.72026419
 20
105.93494047
  0
VERTEX
  8
0
 10
150.65973570
 20
106.10031676
  0
VERTEX
  8
0
 10
150.58393834
 20
106.25766242
  0
VERTEX
  8
0
 10
150.49377689
 20
106.40607265
  0
VERTEX
  8
0
 10
150.39015613
 20
106.54464268
  0
VERTEX
  8
0
 10
150.27398083
 20
106.67246774
  0
VERTEX
  8
0
 10
150.14615577
 20
106.78864304
  0
VERTEX
  8
0
 10
150.00758574
 20
106.89226380
  0
VERTEX
  8
0
 10
149.85917551
 20
106.98242525
  0
VERTEX
  8
0
 10
149.70182985
 20
107.05822261
  0
VERTEX
  8
0
 10
149.53645356
 20
107.11875109
  0
VERTEX
  8
0
 10
149.36395141
 20
107.16310593
  0
VERTEX
  8
0
 10
149.18522817
 20
107.19038233
  0
VERTEX
  8
0
 10
149.00118862
 20
107.19967553
  0
VERTEX
  8
0
 10
148.81714908
 20
107.19038233
  0
VERTEX
  8
0
 10
148.63842584
 20
107.16310593
  0
VERTEX
  8
0
 10
148.46592368
 20
107.11875109
  0
VERTEX
  8
0
 10
148.30054739
 20
107.05822261
  0
VERTEX
  8
0
 10
148.14320174
 20
106.98242525
  0
VERTEX
  8
0
 10
147.99479151
 20
106.89226380
  0
VERTEX
  8
0
 10
147.85622147
 20
106.78864304
  0
VERTEX
  8
0
 10
147.72839642
 20
106.67246774
  0
VERTEX
  8
0
 10
147.61222112
 20
106.54464268
  0
VERTEX
  8
0
 10
147.50860035
 20
106.40607265
  0
VERTEX
  8
0
 10
147.41843890
 20
106.25766242
  0
VERTEX
  8
0
 10
147.34264155
 20
106.10031676
  0
VERTEX
  8
0
 10
147.28211306
 20
105.93494047
  0
VERTEX
  8
0
 10
147.23775823
 20
105.76243831
  0
VERTEX
  8
0
 10
147.21048182
 20
105.58371508
  0
VERTEX
  8
0
 10
147.20118862
 20
105.39967553
  0
VERTEX
  8
0
 10
147.21048182
 20
105.21563599
  0
VERTEX
  8
0
 10
147.23775823
 20
105.03691275
  0
VERTEX
  8
0
 10
147.28211306
 20
104.86441059
  0
VERTEX
  8
0
 10
147.34264155
 20
104.69903430
  0
VERTEX
  8
0
 10
147.41843890
 20
104.54168865
  0
VERTEX
  8
0
 10
147.50860035
 20
104.39327842
  0
VERTEX
  8
0
 10
147.61222112
 20
104.25470838
  0
VERTEX
  8
0
 10
147.72839642
 20
104.12688333
  0
VERTEX
  8
0
 10
147.85622147
 20
104.01070803
  0
VERTEX
  8
0
 10
147.99479151
 20
103.90708726
  0
VERTEX
  8
0
 10
148.14320174
 20
103.81692581
  0
VERTEX
  8
0
 10
148.30054739
 20
103.74112845
  0
VERTEX
  8
0
 10
148.46592368
 20
103.68059997
  0
VERTEX
  8
0
 10
148.63842584
 20
103.63624513
  0
VERTEX
  8
0
 10
148.81714908
 20
103.60896873
  0
VERTEX
  8
0
 10
149.00118862
 20
103.59967553
  0
VERTEX
  8
0
 10
149.18522817
 20
103.60896873
  0
VERTEX
  8
0
 10
149.36395141
 20
103.63624513
  0
VERTEX
  8
0
 10
149.53645356
 20
103.68059997
  0
VERTEX
  8
0
 10
149.70182985
 20
103.74112845
  0
VERTEX
  8
0
 10
149.85917551
 20
103.81692581
  0
VERTEX
  8
0
 10
150.00758574
 20
103.90708726
  0
VERTEX
  8
0
 10
150.14615577
 20
104.01070803
  0
VERTEX
  8
0
 10
150.27398083
 20
104.12688333
  0
VERTEX
  8
0
 10
150.39015613
 20
104.25470838
  0
VERTEX
  8
0
 10
150.49377689
 20
104.39327842
  0
VERTEX
  8
0
 10
150.58393834
 20
104.54168865
  0
VERTEX
  8
0
 10
150.65973570
 20
104.69903430
  0
VERTEX
  8
0
 10
150.72026419
 20
104.86441059
  0
VERTEX
  8
0
 10
150.76461902
 20
105.03691275
  0
VERTEX
  8
0
 10
150.79189543
 20
105.21563599
  0
VERTEX
  8
0
 10
150.80118862
 20
105.39967553
  0
SEQEND
  0
POLYLINE
  8
Default Layer
 62
256
 66
   1
 39
0.000000
 70
    1
  0
VERTEX
  8
0
 10
150.80157984
 20
92.69961170
  0
VERTEX
  8
0
 10
150.79228664
 20
92.88365125
  0
VERTEX
  8
0
 10
150.76501024
 20
93.06237448
  0
VERTEX
  8
0
 10
150.72065540
 20
93.23487664
  0
VERTEX
  8
0
 10
150.66012692
 20
93.40025293
  0
VERTEX
  8
0
 10
150.58432956
 20
93.55759859
  0
VERTEX
  8
0
 10
150.49416811
 20
93.70600882
  0
VERTEX
  8
0
 10
150.39054735
 20
93.84457885
  0
VERTEX
  8
0
 10
150.27437205
 20
93.97240391
  0
VERTEX
  8
0
 10
150.14654699
 20
94.08857921
  0
VERTEX
  8
0
 10
150.00797696
 20
94.19219997
  0
VERTEX
  8
0
 10
149.85956672
 20
94.28236142
  0
VERTEX
  8
0
 10
149.70222107
 20
94.35815878
  0
VERTEX
  8
0
 10
149.53684478
 20
94.41868726
  0
VERTEX
  8
0
 10
149.36434262
 20
94.46304210
  0
VERTEX
  8
0
 10
149.18561938
 20
94.49031851
  0
VERTEX
  8
0
 10
149.00157984
 20
94.49961170
  0
VERTEX
  8
0
 10
148.81754030
 20
94.49031851
  0
VERTEX
  8
0
 10
148.63881706
 20
94.46304210
  0
VERTEX
  8
0
 10
148.46631490
 20
94.41868726
  0
VERTEX
  8
0
 10
148.30093861
 20
94.35815878
  0
VERTEX
  8
0
 10
148.14359296
 20
94.28236142
  0
VERTEX
  8
0
 10
147.99518272
 20
94.19219997
  0
VERTEX
  8
0
 10
147.85661269
 20
94.08857921
  0
VERTEX
  8
0
 10
147.72878763
 20
93.97240391
  0
VERTEX
  8
0
 10
147.61261233
 20
93.84457885
  0
VERTEX
  8
0
 10
147.50899157
 20
93.70600882
  0
VERTEX
  8
0
 10
147.41883012
 20
93.55759859
  0
VERTEX
  8
0
 10
147.34303276
 20
93.40025293
  0
VERTEX
  8
0
 10
147.28250428
 20
93.23487664
  0
VERTEX
  8
0
 10
147.23814944
 20
93.06237448
  0
VERTEX
  8
0
 10
147.21087304
 20
92.88365125
  0
VERTEX
  8
0
 10
147.20157984
 20
92.69961170
  0
VERTEX
  8
0
 10
147.21087304
 20
92.51557216
  0
VERTEX
  8
0
 10
147.23814944
 20
92.33684892
  0
VERTEX
  8
0
 10
147.28250428
 20
92.16434676
  0
VERTEX
  8
0
 10
147.34303276
 20
91.99897047
  0
VERTEX
  8
0
 10
147.41883012
 20
91.84162482
  0
VERTEX
  8
0
 10
147.50899157
 20
91.69321459
  0
VERTEX
  8
0
 10
147.61261233
 20
91.55464455
  0
VERTEX
  8
0
 10
147.72878763
 20
91.42681950
  0
VERTEX
  8
0
 10
147.85661269
 20
91.31064420
  0
VERTEX
  8
0
 10
147.99518272
 20
91.20702343
  0
VERTEX
  8
0
 10
148.14359296
 20
91.11686198
  0
VERTEX
  8
0
 10
148.30093861
 20
91.04106462
  0
VERTEX
  8
0
 10
148.46631490
 20
90.98053614
  0
VERTEX
  8
0
 10
148.63881706
 20
90.93618130
  0
VERTEX
  8
0
 10
148.81754030
 20
90.90890490
  0
VERTEX
  8
0
 10
149.00157984
 20
90.89961170
  0
VERTEX
  8
0
 10
149.18561938
 20
90.90890490
  0
VERTEX
  8
0
 10
149.36434262
 20
90.93618130
  0
VERTEX
  8
0
 10
149.53684478
 20
90.98053614
  0
VERTEX
  8
0
 10
149.70222107
 20
91.04106462
  0
VERTEX
  8
0
 10
149.85956672
 20
91.11686198
  0
VERTEX
  8
0
 10
150.00797696
 20
91.20702343
  0
VERTEX
  8
0
 10
150.14654699
 20
91.31064420
  0
VERTEX
  8
0
 10
150.27437205
 20
91.42681950
  0
VERTEX
  8
0
 10
150.39054735
 20
91.55464455
  0
VERTEX
  8
0
 10
150.49416811
 20
91.69321459
  0
VERTEX
  8
0
 10
150.58432956
 20
91.84162482
  0
VERTEX
  8
0
 10
150.66012692
 20
91.99897047
  0
VERTEX
  8
0
 10
150.72065540
 20
92.16434676
  0
VERTEX
  8
0
 10
150.76501024
 20
92.33684892
  0
VERTEX
  8
0
 10
150.79228664
 20
92.51557216
  0
VERTEX
  8
0
 10
150.80157984
 20
92.69961170
  0
SEQEND
  0
POLYLINE
  8
Default Layer
 62
256
 66
   1
 39
0.000000
 70
    1
  0
VERTEX
  8
0
 10
150.80154790
 20
79.99963298
  0
VERTEX
  8
0
 10
150.79225471
 20
80.18367252
  0
VERTEX
  8
0
 10
150.76497830
 20
80.36239576
  0
VERTEX
  8
0
 10
150.72062347
 20
80.53489792
  0
VERTEX
  8
0
 10
150.66009498
 20
80.70027421
  0
VERTEX
  8
0
 10
150.58429762
 20
80.85761986
  0
VERTEX
  8
0
 10
150.49413617
 20
81.00603010
  0
VERTEX
  8
0
 10
150.39051541
 20
81.14460013
  0
VERTEX
  8
0
 10
150.27434011
 20
81.27242518
  0
VERTEX
  8
0
 10
150.14651505
 20
81.38860048
  0
VERTEX
  8
0
 10
150.00794502
 20
81.49222125
  0
VERTEX
  8
0
 10
149.85953479
 20
81.58238270
  0
VERTEX
  8
0
 10
149.70218914
 20
81.65818006
  0
VERTEX
  8
0
 10
149.53681284
 20
81.71870854
  0
VERTEX
  8
0
 10
149.36431069
 20
81.76306338
  0
VERTEX
  8
0
 10
149.18558745
 20
81.79033978
  0
VERTEX
  8
0
 10
149.00154790
 20
81.79963298
  0
VERTEX
  8
0
 10
148.81750836
 20
81.79033978
  0
VERTEX
  8
0
 10
148.63878512
 20
81.76306338
  0
VERTEX
  8
0
 10
148.46628297
 20
81.71870854
  0
VERTEX
  8
0
 10
148.30090667
 20
81.65818006
  0
VERTEX
  8
0
 10
148.14356102
 20
81.58238270
  0
VERTEX
  8
0
 10
147.99515079
 20
81.49222125
  0
VERTEX
  8
0
 10
147.85658075
 20
81.38860048
  0
VERTEX
  8
0
 10
147.72875570
 20
81.27242518
  0
VERTEX
  8
0
 10
147.61258040
 20
81.14460013
  0
VERTEX
  8
0
 10
147.50895963
 20
81.00603010
  0
VERTEX
  8
0
 10
147.41879818
 20
80.85761986
  0
VERTEX
  8
0
 10
147.34300083
 20
80.70027421
  0
VERTEX
  8
0
 10
147.28247234
 20
80.53489792
  0
VERTEX
  8
0
 10
147.23811751
 20
80.36239576
  0
VERTEX
  8
0
 10
147.21084110
 20
80.18367252
  0
VERTEX
  8
0
 10
147.20154790
 20
79.99963298
  0
VERTEX
  8
0
 10
147.21084110
 20
79.81559344
  0
VERTEX
  8
0
 10
147.23811751
 20
79.63687020
  0
VERTEX
  8
0
 10
147.28247234
 20
79.46436804
  0
VERTEX
  8
0
 10
147.34300083
 20
79.29899175
  0
VERTEX
  8
0
 10
147.41879818
 20
79.14164609
  0
VERTEX
  8
0
 10
147.50895963
 20
78.99323586
  0
VERTEX
  8
0
 10
147.61258040
 20
78.85466583
  0
VERTEX
  8
0
 10
147.72875570
 20
78.72684077
  0
VERTEX
  8
0
 10
147.85658075
 20
78.61066547
  0
VERTEX
  8
0
 10
147.99515079
 20
78.50704471
  0
VERTEX
  8
0
 10
148.14356102
 20
78.41688326
  0
VERTEX
  8
0
 10
148.30090667
 20
78.34108590
  0
VERTEX
  8
0
 10
148.46628297
 20
78.28055742
  0
VERTEX
  8
0
 10
148.63878512
 20
78.23620258
  0
VERTEX
  8
0
 10
148.81750836
 20
78.20892618
  0
VERTEX
  8
0
 10
149.00154790
 20
78.19963298
  0
VERTEX
  8
0
 10
149.18558745
 20
78.20892618
  0
VERTEX
  8
0
 10
149.36431069
 20
78.23620258
  0
VERTEX
  8
0
 10
149.53681284
 20
78.28055742
  0
VERTEX
  8
0
 10
149.70218914
 20
78.34108590
  0
VERTEX
  8
0
 10
149.85953479
 20
78.41688326
  0
VERTEX
  8
0
 10
150.00794502
 20
78.50704471
  0
VERTEX
  8
0
 10
150.14651505
 20
78.61066547
  0
VERTEX
  8
0
 10
150.27434011
 20
78.72684077
  0
VERTEX
  8
0
 10
150.39051541
 20
78.85466583
  0
VERTEX
  8
0
 10
150.49413617
 20
78.99323586
  0
VERTEX
  8
0
 10
150.58429762
 20
79.14164609
  0
VERTEX
  8
0
 10
150.66009498
 20
79.29899175
  0
VERTEX
  8
0
 10
150.72062347
 20
79.46436804
  0
VERTEX
  8
0
 10
150.76497830
 20
79.63687020
  0
VERTEX
  8
0
 10
150.79225471
 20
79.81559344
  0
VERTEX
  8
0
 10
150.80154790
 20
79.99963298
  0
SEQEND
  0
POLYLINE
  8
Default Layer
 62
256
 66
   1
 39
0.000000
 70
    1
  0
VERTEX
  8
0
 10
150.80097904
 20
67.29952660
  0
VERTEX
  8
0
 10
150.79168584
 20
67.48356614
  0
VERTEX
  8
0
 10
150.76440944
 20
67.66228938
  0
VERTEX
  8
0
 10
150.72005460
 20
67.83479153
  0
VERTEX
  8
0
 10
150.65952612
 20
68.00016783
  0
VERTEX
  8
0
 10
150.58372876
 20
68.15751348
  0
VERTEX
  8
0
 10
150.49356731
 20
68.30592371
  0
VERTEX
  8
0
 10
150.38994655
 20
68.44449375
  0
VERTEX
  8
0
 10
150.27377125
 20
68.57231880
  0
VERTEX
  8
0
 10
150.14594619
 20
68.68849410
  0
VERTEX
  8
0
 10
150.00737616
 20
68.79211487
  0
VERTEX
  8
0
 10
149.85896593
 20
68.88227632
  0
VERTEX
  8
0
 10
149.70162027
 20
68.95807367
  0
VERTEX
  8
0
 10
149.53624398
 20
69.01860216
  0
VERTEX
  8
0
 10
149.36374182
 20
69.06295699
  0
VERTEX
  8
0
 10
149.18501859
 20
69.09023340
  0
VERTEX
  8
0
 10
149.00097904
 20
69.09952660
  0
VERTEX
  8
0
 10
148.81693950
 20
69.09023340
  0
VERTEX
  8
0
 10
148.63821626
 20
69.06295699
  0
VERTEX
  8
0
 10
148.46571410
 20
69.01860216
  0
VERTEX
  8
0
 10
148.30033781
 20
68.95807367
  0
VERTEX
  8
0
 10
148.14299216
 20
68.88227632
  0
VERTEX
  8
0
 10
147.99458193
 20
68.79211487
  0
VERTEX
  8
0
 10
147.85601189
 20
68.68849410
  0
VERTEX
  8
0
 10
147.72818684
 20
68.57231880
  0
VERTEX
  8
0
 10
147.61201154
 20
68.44449375
  0
VERTEX
  8
0
 10
147.50839077
 20
68.30592371
  0
VERTEX
  8
0
 10
147.41822932
 20
68.15751348
  0
VERTEX
  8
0
 10
147.34243196
 20
68.00016783
  0
VERTEX
  8
0
 10
147.28190348
 20
67.83479153
  0
VERTEX
  8
0
 10
147.23754864
 20
67.66228938
  0
VERTEX
  8
0
 10
147.21027224
 20
67.48356614
  0
VERTEX
  8
0
 10
147.20097904
 20
67.29952660
  0
VERTEX
  8
0
 10
147.21027224
 20
67.11548705
  0
VERTEX
  8
0
 10
147.23754864
 20
66.93676381
  0
VERTEX
  8
0
 10
147.28190348
 20
66.76426166
  0
VERTEX
  8
0
 10
147.34243196
 20
66.59888536
  0
VERTEX
  8
0
 10
147.41822932
 20
66.44153971
  0
VERTEX
  8
0
 10
147.50839077
 20
66.29312948
  0
VERTEX
  8
0
 10
147.61201154
 20
66.15455945
  0
VERTEX
  8
0
 10
147.72818684
 20
66.02673439
  0
VERTEX
  8
0
 10
147.85601189
 20
65.91055909
  0
VERTEX
  8
0
 10
147.99458193
 20
65.80693833
  0
VERTEX
  8
0
 10
148.14299216
 20
65.71677688
  0
VERTEX
  8
0
 10
148.30033781
 20
65.64097952
  0
VERTEX
  8
0
 10
148.46571410
 20
65.58045103
  0
VERTEX
  8
0
 10
148.63821626
 20
65.53609620
  0
VERTEX
  8
0
 10
148.81693950
 20
65.50881979
  0
VERTEX
  8
0
 10
149.00097904
 20
65.49952660
  0
VERTEX
  8
0
 10
149.18501859
 20
65.50881979
  0
VERTEX
  8
0
 10
149.36374182
 20
65.53609620
  0
VERTEX
  8
0
 10
149.53624398
 20
65.58045103
  0
VERTEX
  8
0
 10
149.70162027
 20
65.64097952
  0
VERTEX
  8
0
 10
149.85896593
 20
65.71677688
  0
VERTEX
  8
0
 10
150.00737616
 20
65.80693833
  0
VERTEX
  8
0
 10
150.14594619
 20
65.91055909
  0
VERTEX
  8
0
 10
150.27377125
 20
66.02673439
  0
VERTEX
  8
0
 10
150.38994655
 20
66.15455945
  0
VERTEX
  8
0
 10
150.49356731
 20
66.29312948
  0
VERTEX
  8
0
 10
150.58372876
 20
66.44153971
  0
VERTEX
  8
0
 10
150.65952612
 20
66.59888536
  0
VERTEX
  8
0
 10
150.72005460
 20
66.76426166
  0
VERTEX
  8
0
 10
150.76440944
 20
66.93676381
  0
VERTEX
  8
0
 10
150.79168584
 20
67.11548705
  0
VERTEX
  8
0
 10
150.80097904
 20
67.29952660
  0
SEQEND
  0
POLYLINE
  8
Default Layer
 62
256
 66
   1
 39
0.000000
 70
    1
  0
VERTEX
  8
0
 10
150.80111078
 20
54.59975000
  0
VERTEX
  8
0
 10
150.79181758
 20
54.78378954
  0
VERTEX
  8
0
 10
150.76454118
 20
54.96251278
  0
VERTEX
  8
0
 10
150.72018634
 20
55.13501494
  0
VERTEX
  8
0
 10
150.65965786
 20
55.30039123
  0
VERTEX
  8
0
 10
150.58386050
 20
55.45773688
  0
VERTEX
  8
0
 10
150.49369905
 20
55.60614712
  0
VERTEX
  8
0
 10
150.39007828
 20
55.74471715
  0
VERTEX
  8
0
 10
150.27390298
 20
55.87254221
  0
VERTEX
  8
0
 10
150.14607793
 20
55.98871751
  0
VERTEX
  8
0
 10
150.00750790
 20
56.09233827
  0
VERTEX
  8
0
 10
149.85909766
 20
56.18249972
  0
VERTEX
  8
0
 10
149.70175201
 20
56.25829708
  0
VERTEX
  8
0
 10
149.53637572
 20
56.31882556
  0
VERTEX
  8
0
 10
149.36387356
 20
56.36318040
  0
VERTEX
  8
0
 10
149.18515032
 20
56.39045680
  0
VERTEX
  8
0
 10
149.00111078
 20
56.39975000
  0
VERTEX
  8
0
 10
148.81707123
 20
56.39045680
  0
VERTEX
  8
0
 10
148.63834800
 20
56.36318040
  0
VERTEX
  8
0
 10
148.46584584
 20
56.31882556
  0
VERTEX
  8
0
 10
148.30046955
 20
56.25829708
  0
VERTEX
  8
0
 10
148.14312389
 20
56.18249972
  0
VERTEX
  8
0
 10
147.99471366
 20
56.09233827
  0
VERTEX
  8
0
 10
147.85614363
 20
55.98871751
  0
VERTEX
  8
0
 10
147.72831857
 20
55.87254221
  0
VERTEX
  8
0
 10
147.61214327
 20
55.74471715
  0
VERTEX
  8
0
 10
147.50852251
 20
55.60614712
  0
VERTEX
  8
0
 10
147.41836106
 20
55.45773688
  0
VERTEX
  8
0
 10
147.34256370
 20
55.30039123
  0
VERTEX
  8
0
 10
147.28203522
 20
55.13501494
  0
VERTEX
  8
0
 10
147.23768038
 20
54.96251278
  0
VERTEX
  8
0
 10
147.21040398
 20
54.78378954
  0
VERTEX
  8
0
 10
147.20111078
 20
54.59975000
  0
VERTEX
  8
0
 10
147.21040398
 20
54.41571046
  0
VERTEX
  8
0
 10
147.23768038
 20
54.23698722
  0
VERTEX
  8
0
 10
147.28203522
 20
54.06448506
  0
VERTEX
  8
0
 10
147.34256370
 20
53.89910877
  0
VERTEX
  8
0
 10
147.41836106
 20
53.74176312
  0
VERTEX
  8
0
 10
147.50852251
 20
53.59335288
  0
VERTEX
  8
0
 10
147.61214327
 20
53.45478285
  0
VERTEX
  8
0
 10
147.72831857
 20
53.32695779
  0
VERTEX
  8
0
 10
147.85614363
 20
53.21078249
  0
VERTEX
  8
0
 10
147.99471366
 20
53.10716173
  0
VERTEX
  8
0
 10
148.14312389
 20
53.01700028
  0
VERTEX
  8
0
 10
148.30046955
 20
52.94120292
  0
VERTEX
  8
0
 10
148.46584584
 20
52.88067444
  0
VERTEX
  8
0
 10
148.63834800
 20
52.83631960
  0
VERTEX
  8
0
 10
148.81707123
 20
52.80904320
  0
VERTEX
  8
0
 10
149.00111078
 20
52.79975000
  0
VERTEX
  8
0
 10
149.18515032
 20
52.80904320
  0
VERTEX
  8
0
 10
149.36387356
 20
52.83631960
  0
VERTEX
  8
0
 10
149.53637572
 20
52.88067444
  0
VERTEX
  8
0
 10
149.70175201
 20
52.94120292
  0
VERTEX
  8
0
 10
149.85909766
 20
53.01700028
  0
VERTEX
  8
0
 10
150.00750790
 20
53.10716173
  0
VERTEX
  8
0
 10
150.14607793
 20
53.21078249
  0
VERTEX
  8
0
 10
150.27390298
 20
53.32695779
  0
VERTEX
  8
0
 10
150.39007828
 20
53.45478285
  0
VERTEX
  8
0
 10
150.49369905
 20
53.59335288
  0
VERTEX
  8
0
 10
150.58386050
 20
53.74176312
  0
VERTEX
  8
0
 10
150.65965786
 20
53.89910877
  0
VERTEX
  8
0
 10
150.72018634
 20
54.06448506
  0
VERTEX
  8
0
 10
150.76454118
 20
54.23698722
  0
VERTEX
  8
0
 10
150.79181758
 20
54.41571046
  0
VERTEX
  8
0
 10
150.80111078
 20
54.59975000
  0
SEQEND
  0
POLYLINE
  8
Default Layer
 62
256
 66
   1
 39
0.000000
 70
    1
  0
VERTEX
  8
0
 10
139.00053109
 20
90.24045745
  0
VERTEX
  8
0
 10
139.00053109
 20
95.24045745
  0
VERTEX
  8
0
 10
138.33886670
 20
95.24045745
  0
VERTEX
  8
0
 10
138.33886670
 20
93.18725144
  0
VERTEX
  8
0
 10
135.73995810
 20
93.18725144
  0
VERTEX
  8
0
 10
135.73995810
 20
95.24045745
  0
VERTEX
  8
0
 10
135.07829371
 20
95.24045745
  0
VERTEX
  8
0
 10
135.07829371
 20
90.24045745
  0
VERTEX
  8
0
 10
135.73995810
 20
90.24045745
  0
VERTEX
  8
0
 10
135.73995810
 20
92.59721052
  0
VERTEX
  8
0
 10
138.33886670
 20
92.59721052
  0
VERTEX
  8
0
 10
138.33886670
 20
90.24045745
  0
VERTEX
  8
0
 10
139.00053109
 20
90.24045745
  0
SEQEND
  0
POLYLINE
  8
Default Layer
 62
256
 66
   1
 39
0.000000
 70
    1
  0
VERTEX
  8
0
 10
134.28361431
 20
92.05150792
  0
VERTEX
  8
0
 10
134.27487454
 20
92.29488915
  0
VERTEX
  8
0
 10
134.24865524
 20
92.52196324
  0
VERTEX
  8
0
 10
134.20495640
 20
92.73273021
  0
VERTEX
  8
0
 10
134.14377802
 20
92.92719005
  0
VERTEX
  8
0
 10
134.06512011
 20
93.10534276
  0
VERTEX
  8
0
 10
133.96898266
 20
93.26718835
  0
VERTEX
  8
0
 10
133.85536567
 20
93.41272680
  0
VERTEX
  8
0
 10
133.72426915
 20
93.54195813
  0
VERTEX
  8
0
 10
133.47785033
 20
93.71803248
  0
VERTEX
  8
0
 10
133.20585169
 20
93.84379988
  0
VERTEX
  8
0
 10
132.90827325
 20
93.91926031
  0
VERTEX
  8
0
 10
132.58511499
 20
93.94441379
  0
VERTEX
  8
0
 10
132.40264569
 20
93.93673985
  0
VERTEX
  8
0
 10
132.22870299
 20
93.91371802
  0
VERTEX
  8
0
 10
132.06328689
 20
93.87534831
  0
VERTEX
  8
0
 10
131.90639739
 20
93.82163071
  0
VERTEX
  8
0
 10
131.75803450
 20
93.75256522
  0
VERTEX
  8
0
 10
131.61819821
 20
93.66815185
  0
VERTEX
  8
0
 10
131.48688853
 20
93.56839060
  0
VERTEX
  8
0
 10
131.36410544
 20
93.45328146
  0
VERTEX
  8
0
 10
131.25299315
 20
93.32548900
  0
VERTEX
  8
0
 10
131.15669582
 20
93.18597245
  0
VERTEX
  8
0
 10
131.07521347
 20
93.03473183
  0
VERTEX
  8
0
 10
131.00854610
 20
92.87176713
  0
VERTEX
  8
0
 10
130.95669369
 20
92.69707835
  0
VERTEX
  8
0
 10
130.91965626
 20
92.51066550
  0
VERTEX
  8
0
 10
130.89743380
 20
92.31252856
  0
VERTEX
  8
0
 10
130.89002632
 20
92.10266754
  0
VERTEX
  8
0
 10
130.90324255
 20
91.77162218
  0
VERTEX
  8
0
 10
130.94289125
 20
91.47766754
  0
VERTEX
  8
0
 10
131.00897243
 20
91.22080363
  0
VERTEX
  8
0
 10
131.10148607
 20
91.00103043
  0
VERTEX
  8
0
 10
131.21766104
 20
90.81259251
  0
VERTEX
  8
0
 10
131.35813682
 20
90.64632375
  0
VERTEX
  8
0
 10
131.52291342
 20
90.50222416
  0
VERTEX
  8
0
 10
131.71199085
 20
90.38029374
  0
VERTEX
  8
0
 10
131.91620299
 20
90.28330363
  0
VERTEX
  8
0
 10
132.12979439
 20
90.21402498
  0
VERTEX
  8
0
 10
132.35276506
 20
90.17245779
  0
VERTEX
  8
0
 10
132.58511499
 20
90.15860206
  0
VERTEX
  8
0
 10
132.77072848
 20
90.16622271
  0
VERTEX
  8
0
 10
132.94728245
 20
90.18908466
  0
VERTEX
  8
0
 10
133.11477691
 20
90.22718792
  0
VERTEX
  8
0
 10
133.27321185
 20
90.28053248
  0
VERTEX
  8
0
 10
133.42258728
 20
90.34911834
  0
VERTEX
  8
0
 10
133.56290319
 20
90.43294551
  0
VERTEX
  8
0
 10
133.69415959
 20
90.53201398
  0
VERTEX
  8
0
 10
133.81635647
 20
90.64632375
  0
VERTEX
  8
0
 10
133.92587002
 20
90.77496887
  0
VERTEX
  8
0
 10
134.02078177
 20
90.91704339
  0
VERTEX
  8
0
 10
134.10109171
 20
91.07254732
  0
VERTEX
  8
0
 10
134.16679985
 20
91.24148064
  0
VERTEX
  8
0
 10
134.21790618
 20
91.42384336
  0
VERTEX
  8
0
 10
134.25441069
 20
91.61963548
  0
VERTEX
  8
0
 10
134.27631341
 20
91.82885700
  0
VERTEX
  8
0
 10
134.28361431
 20
92.05150792
  0
SEQEND
  0
POLYLINE
  8
Default Layer
 62
256
 66
   1
 39
0.000000
 70
    1
  0
VERTEX
  8
0
 10
133.65264569
 20
92.05150792
  0
VERTEX
  8
0
 10
133.63367400
 20
91.72536536
  0
VERTEX
  8
0
 10
133.57675892
 20
91.44270847
  0
VERTEX
  8
0
 10
133.48190046
 20
91.20353726
  0
VERTEX
  8
0
 10
133.34909862
 20
91.00785172
  0
VERTEX
  8
0
 10
133.18751949
 20
90.85714401
  0
VERTEX
  8
0
 10
133.00632918
 20
90.74949565
  0
VERTEX
  8
0
 10
132.80552768
 20
90.68490663
  0
VERTEX
  8
0
 10
132.58511499
 20
90.66337696
  0
VERTEX
  8
0
 10
132.36619446
 20
90.68511979
  0
VERTEX
  8
0
 10
132.16645879
 20
90.75034831
  0
VERTEX
  8
0
 10
131.98590797
 20
90.85906249
  0
VERTEX
  8
0
 10
131.82454200
 20
91.01126236
  0
VERTEX
  8
0
 10
131.69174016
 20
91.20801372
  0
VERTEX
  8
0
 10
131.59688170
 20
91.45038241
  0
VERTEX
  8
0
 10
131.53996663
 20
91.73836843
  0
VERTEX
  8
0
 10
131.52099494
 20
92.07197177
  0
VERTEX
  8
0
 10
131.54017979
 20
92.38745608
  0
VERTEX
  8
0
 10
131.59773436
 20
92.66201270
  0
VERTEX
  8
0
 10
131.69365865
 20
92.89564162
  0
VERTEX
  8
0
 10
131.82795265
 20
93.08834285
  0
VERTEX
  8
0
 10
131.98910544
 20
93.24054271
  0
VERTEX
  8
0
 10
132.16901677
 20
93.34925690
  0
VERTEX
  8
0
 10
132.36768662
 20
93.41448541
  0
VERTEX
  8
0
 10
132.58511499
 20
93.43622825
  0
VERTEX
  8
0
 10
132.80552768
 20
93.41469858
  0
VERTEX
  8
0
 10
133.00632918
 20
93.35010956
  0
VERTEX
  8
0
 10
133.18751949
 20
93.24246120
  0
VERTEX
  8
0
 10
133.34909862
 20
93.09175349
  0
VERTEX
  8
0
 10
133.48190046
 20
92.89756011
  0
VERTEX
  8
0
 10
133.57675892
 20
92.65945472
  0
VERTEX
  8
0
 10
133.63367400
 20
92.37743732
  0
VERTEX
  8
0
 10
133.65264569
 20
92.05150792
  0
SEQEND
  0
POLYLINE
  8
Default Layer
 62
256
 66
   1
 39
0.000000
 70
    1
  0
VERTEX
  8
0
 10
127.79657475
 20
90.24045745
  0
VERTEX
  8
0
 10
127.79657475
 20
90.77251747
  0
VERTEX
  8
0
 10
127.90704755
 20
90.62863105
  0
VERTEX
  8
0
 10
128.02700619
 20
90.50392948
  0
VERTEX
  8
0
 10
128.15645068
 20
90.39841277
  0
VERTEX
  8
0
 10
128.29538102
 20
90.31208091
  0
VERTEX
  8
0
 10
128.44379721
 20
90.24493391
  0
VERTEX
  8
0
 10
128.60169924
 20
90.19697177
  0
VERTEX
  8
0
 10
128.76908711
 20
90.16819449
  0
VERTEX
  8
0
 10
128.94596083
 20
90.15860206
  0
VERTEX
  8
0
 10
129.10370299
 20
90.16627600
  0
VERTEX
  8
0
 10
129.25632918
 20
90.18929783
  0
VERTEX
  8
0
 10
129.40383941
 20
90.22766754
  0
VERTEX
  8
0
 10
129.54623368
 20
90.28138514
  0
VERTEX
  8
0
 10
129.67562488
 20
90.34661365
  0
VERTEX
  8
0
 10
129.78753655
 20
90.41951611
  0
VERTEX
  8
0
 10
129.88196868
 20
90.50009251
  0
VERTEX
  8
0
 10
129.95892127
 20
90.58834285
  0
VERTEX
  8
0
 10
130.07232509
 20
90.79639196
  0
VERTEX
  8
0
 10
130.14650653
 20
91.04536877
  0
VERTEX
  8
0
 10
130.17464432
 20
91.27899769
  0
VERTEX
  8
0
 10
130.18402359
 20
91.61835649
  0
VERTEX
  8
0
 10
130.18402359
 20
93.86255840
  0
VERTEX
  8
0
 10
129.57010817
 20
93.86255840
  0
VERTEX
  8
0
 10
129.57010817
 20
91.85369073
  0
VERTEX
  8
0
 10
129.56072891
 20
91.45123507
  0
VERTEX
  8
0
 10
129.53259112
 20
91.20566891
  0
VERTEX
  8
0
 10
129.49550039
 20
91.09098610
  0
VERTEX
  8
0
 10
129.44220913
 20
90.98909319
  0
VERTEX
  8
0
 10
129.37271731
 20
90.89999019
  0
VERTEX
  8
0
 10
129.28702495
 20
90.82367709
  0
VERTEX
  8
0
 10
129.18769003
 20
90.76399087
  0
VERTEX
  8
0
 10
129.07727052
 20
90.72135786
  0
VERTEX
  8
0
 10
128.95576642
 20
90.69577805
  0
VERTEX
  8
0
 10
128.82317775
 20
90.68725144
  0
VERTEX
  8
0
 10
128.68717843
 20
90.69599121
  0
VERTEX
  8
0
 10
128.55544241
 20
90.72221052
  0
VERTEX
  8
0
 10
128.42796970
 20
90.76590936
  0
VERTEX
  8
0
 10
128.30476029
 20
90.82708773
  0
VERTEX
  8
0
 10
128.19263546
 20
90.90489299
  0
VERTEX
  8
0
 10
128.09841649
 20
90.99506181
  0
VERTEX
  8
0
 10
128.02210340
 20
91.09759421
  0
VERTEX
  8
0
 10
127.96369617
 20
91.21249019
  0
VERTEX
  8
0
 10
127.91893150
 20
91.34891584
  0
VERTEX
  8
0
 10
127.88695674
 20
91.51262661
  0
VERTEX
  8
0
 10
127.86137693
 20
91.92190356
  0
VERTEX
  8
0
 10
127.86137693
 20
93.86255840
  0
VERTEX
  8
0
 10
127.24746151
 20
93.86255840
  0
VERTEX
  8
0
 10
127.24746151
 20
90.24045745
  0
VERTEX
  8
0
 10
127.79657475
 20
90.24045745
  0
SEQEND
  0
POLYLINE
  8
Default Layer
 62
256
 66
   1
 39
0.000000
 70
    1
  0
VERTEX
  8
0
 10
126.29248198
 20
90.24045745
  0
VERTEX
  8
0
 10
126.29248198
 20
93.86255840
  0
VERTEX
  8
0
 10
125.73995810
 20
93.86255840
  0
VERTEX
  8
0
 10
125.73995810
 20
93.31344517
  0
VERTEX
  8
0
 10
125.53702495
 20
93.63319278
  0
VERTEX
  8
0
 10
125.44195333
 20
93.74382545
  0
VERTEX
  8
0
 10
125.35114501
 20
93.82163071
  0
VERTEX
  8
0
 10
125.25863136
 20
93.87534831
  0
VERTEX
  8
0
 10
125.16185442
 20
93.91371802
  0
VERTEX
  8
0
 10
125.06081417
 20
93.93673985
  0
VERTEX
  8
0
 10
124.95551063
 20
93.94441379
  0
VERTEX
  8
0
 10
124.79968696
 20
93.93205022
  0
VERTEX
  8
0
 10
124.64258430
 20
93.89495949
  0
VERTEX
  8
0
 10
124.48420265
 20
93.83314162
  0
VERTEX
  8
0
 10
124.32454200
 20
93.74659660
  0
VERTEX
  8
0
 10
124.53600176
 20
93.17701952
  0
VERTEX
  8
0
 10
124.64855292
 20
93.23521359
  0
VERTEX
  8
0
 10
124.76110408
 20
93.27678078
  0
VERTEX
  8
0
 10
124.87365524
 20
93.30172109
  0
VERTEX
  8
0
 10
124.98620640
 20
93.31003453
  0
VERTEX
  8
0
 10
125.08426233
 20
93.30236058
  0
VERTEX
  8
0
 10
125.17720230
 20
93.27933876
  0
VERTEX
  8
0
 10
125.26502632
 20
93.24096904
  0
VERTEX
  8
0
 10
125.34773436
 20
93.18725144
  0
VERTEX
  8
0
 10
125.42212898
 20
93.12159660
  0
VERTEX
  8
0
 10
125.48501267
 20
93.04400451
  0
VERTEX
  8
0
 10
125.53638546
 20
92.95447518
  0
VERTEX
  8
0
 10
125.57624733
 20
92.85300861
  0
VERTEX
  8
0
 10
125.65298675
 20
92.51023917
  0
VERTEX
  8
0
 10
125.67856656
 20
92.13677395
  0
VERTEX
  8
0
 10
125.67856656
 20
90.24045745
  0
VERTEX
  8
0
 10
126.29248198
 20
90.24045745
  0
SEQEND
  0
POLYLINE
  8
Default Layer
 62
256
 66
   1
 39
0.000000
 70
    1
  0
VERTEX
  8
0
 10
124.20516956
 20
91.32163071
  0
VERTEX
  8
0
 10
123.59807543
 20
91.41712866
  0
VERTEX
  8
0
 10
123.56119787
 20
91.24531761
  0
VERTEX
  8
0
 10
123.50172482
 20
91.09482307
  0
VERTEX
  8
0
 10
123.41965626
 20
90.96564503
  0
VERTEX
  8
0
 10
123.31499221
 20
90.85778350
  0
VERTEX
  8
0
 10
123.18581417
 20
90.77273064
  0
VERTEX
  8
0
 10
123.03361431
 20
90.71197859
  0
VERTEX
  8
0
 10
122.85839262
 20
90.67552736
  0
VERTEX
  8
0
 10
122.66014910
 20
90.66337696
  0
VERTEX
  8
0
 10
122.46233191
 20
90.67403521
  0
VERTEX
  8
0
 10
122.29179985
 20
90.70600997
  0
VERTEX
  8
0
 10
122.14855292
 20
90.75930124
  0
VERTEX
  8
0
 10
122.03259112
 20
90.83390902
  0
VERTEX
  8
0
 10
121.94306179
 20
90.92450417
  0
VERTEX
  8
0
 10
121.87911226
 20
91.02234694
  0
VERTEX
  8
0
 10
121.84074255
 20
91.12743732
  0
VERTEX
  8
0
 10
121.82795265
 20
91.23977532
  0
VERTEX
  8
0
 10
121.83925039
 20
91.33825758
  0
VERTEX
  8
0
 10
121.87314364
 20
91.42565526
  0
VERTEX
  8
0
 10
121.92963239
 20
91.50196836
  0
VERTEX
  8
0
 10
122.00871663
 20
91.56719687
  0
VERTEX
  8
0
 10
122.22870299
 20
91.66013685
  0
VERTEX
  8
0
 10
122.63627461
 20
91.77524599
  0
VERTEX
  8
0
 10
123.20840967
 20
91.93384080
  0
VERTEX
  8
0
 10
123.57420094
 20
92.06856113
  0
VERTEX
  8
0
 10
123.69613136
 20
92.13741345
  0
VERTEX
  8
0
 10
123.80271390
 20
92.21777668
  0
VERTEX
  8
0
 10
123.89394855
 20
92.30965083
  0
VERTEX
  8
0
 10
123.96983532
 20
92.41303589
  0
VERTEX
  8
0
 10
124.02802939
 20
92.52665288
  0
VERTEX
  8
0
 10
124.06959657
 20
92.64581215
  0
VERTEX
  8
0
 10
124.09453689
 20
92.77051372
  0
VERTEX
  8
0
 10
124.10285033
 20
92.90075758
  0
VERTEX
  8
0
 10
124.07556520
 20
93.13353385
  0
VERTEX
  8
0
 10
123.99370981
 20
93.34755158
  0
VERTEX
  8
0
 10
123.86154746
 20
93.53769483
  0
VERTEX
  8
0
 10
123.69016274
 20
93.69202634
  0
VERTEX
  8
0
 10
123.52133600
 20
93.78922962
  0
VERTEX
  8
0
 10
123.30134964
 20
93.86937968
  0
VERTEX
  8
0
 10
123.04384623
 20
93.92565526
  0
VERTEX
  8
0
 10
122.76928962
 20
93.94441379
  0
VERTEX
  8
0
 10
122.56273266
 20
93.93673985
  0
VERTEX
  8
0
 10
122.36939194
 20
93.91371802
  0
VERTEX
  8
0
 10
122.18926745
 20
93.87534831
  0
VERTEX
  8
0
 10
122.02235919
 20
93.82163071
  0
VERTEX
  8
0
 10
121.87101199
 20
93.75469687
  0
VERTEX
  8
0
 10
121.74098130
 20
93.67667846
  0
VERTEX
  8
0
 10
121.63226711
 20
93.58757545
  0
VERTEX
  8
0
 10
121.54486943
 20
93.48738787
  0
VERTEX
  8
0
 10
121.47409862
 20
93.37441038
  0
VERTEX
  8
0
 10
121.41526506
 20
93.24352702
  0
VERTEX
  8
0
 10
121.36836874
 20
93.09473780
  0
VERTEX
  8
0
 10
121.33340967
 20
92.92804271
  0
VERTEX
  8
0
 10
121.93368252
 20
92.84618732
  0
VERTEX
  8
0
 10
121.96395196
 20
92.97834967
  0
VERTEX
  8
0
 10
122.01383259
 20
93.09516413
  0
VERTEX
  8
0
 10
122.08332441
 20
93.19663071
  0
VERTEX
  8
0
 10
122.17242741
 20
93.28274940
  0
VERTEX
  8
0
 10
122.27986260
 20
93.35138855
  0
VERTEX
  8
0
 10
122.40776165
 20
93.40041652
  0
VERTEX
  8
0
 10
122.55612454
 20
93.42983330
  0
VERTEX
  8
0
 10
122.72495128
 20
93.43963889
  0
VERTEX
  8
0
 10
122.92127632
 20
93.43089912
  0
VERTEX
  8
0
 10
123.08733191
 20
93.40467982
  0
VERTEX
  8
0
 10
123.22311806
 20
93.36098098
  0
VERTEX
  8
0
 10
123.32863477
 20
93.29980260
  0
VERTEX
  8
0
 10
123.40771902
 20
93.22690015
  0
VERTEX
  8
0
 10
123.46420776
 20
93.14802907
  0
VERTEX
  8
0
 10
123.49810101
 20
93.06318937
  0
VERTEX
  8
0
 10
123.50939876
 20
92.97238105
  0
VERTEX
  8
0
 10
123.49064023
 20
92.85897723
  0
VERTEX
  8
0
 10
123.43436465
 20
92.75751065
  0
VERTEX
  8
0
 10
123.33801404
 20
92.66712866
  0
VERTEX
  8
0
 10
123.19903041
 20
92.59379988
  0
VERTEX
  8
0
 10
122.65673846
 20
92.43691038
  0
VERTEX
  8
0
 10
122.10421458
 20
92.27831556
  0
VERTEX
  8
0
 10
121.74950790
 20
92.15041652
  0
VERTEX
  8
0
 10
121.62693798
 20
92.08945131
  0
VERTEX
  8
0
 10
121.51843696
 20
92.01569619
  0
VERTEX
  8
0
 10
121.42400483
 20
91.92915117
  0
VERTEX
  8
0
 10
121.34364160
 20
91.82981625
  0
VERTEX
  8
0
 10
121.27947891
 20
91.71769142
  0
VERTEX
  8
0
 10
121.23364842
 20
91.59277668
  0
VERTEX
  8
0
 10
121.20615012
 20
91.45507204
  0
VERTEX
  8
0
 10
121.19698402
 20
91.30457750
  0
VERTEX
  8
0
 10
121.20828177
 20
91.15323030
  0
VERTEX
  8
0
 10
121.24217502
 20
91.00614640
  0
VERTEX
  8
0
 10
121.29866376
 20
90.86332580
  0
VERTEX
  8
0
 10
121.37774801
 20
90.72476850
  0
VERTEX
  8
0
 10
121.47644344
 20
90.59750895
  0
VERTEX
  8
0
 10
121.59517638
 20
90.48517095
  0
VERTEX
  8
0
 10
121.73394685
 20
90.38775451
  0
VERTEX
  8
0
 10
121.89275483
 20
90.30525963
  0
VERTEX
  8
0
 10
122.06712386
 20
90.24109694
  0
VERTEX
  8
0
 10
122.25257748
 20
90.19526645
  0
VERTEX
  8
0
 10
122.44911567
 20
90.16776816
  0
VERTEX
  8
0
 10
122.65673846
 20
90.15860206
  0
VERTEX
  8
0
 10
122.98884964
 20
90.17693425
  0
VERTEX
  8
0
 10
123.27918048
 20
90.23193084
  0
VERTEX
  8
0
 10
123.52773095
 20
90.32359183
  0
VERTEX
  8
0
 10
123.73450108
 20
90.45191720
  0
VERTEX
  8
0
 10
123.90204883
 20
90.61626747
  0
VERTEX
  8
0
 10
124.03634282
 20
90.81600315
  0
VERTEX
  8
0
 10
124.13738307
 20
91.05112423
  0
VERTEX
  8
0
 10
124.20516956
 20
91.32163071
  0
SEQEND
  0
POLYLINE
  8
Default Layer
 62
256
 66
   1
 39
0.000000
 70
    1
  0
VERTEX
  8
0
 10
137.35361220
 20
77.49803191
  0
VERTEX
  8
0
 10
137.35361220
 20
81.90799099
  0
VERTEX
  8
0
 10
139.00095190
 20
81.90799099
  0
VERTEX
  8
0
 10
139.00095190
 20
82.49803191
  0
VERTEX
  8
0
 10
135.03778682
 20
82.49803191
  0
VERTEX
  8
0
 10
135.03778682
 20
81.90799099
  0
VERTEX
  8
0
 10
136.69194780
 20
81.90799099
  0
VERTEX
  8
0
 10
136.69194780
 20
77.49803191
  0
VERTEX
  8
0
 10
137.35361220
 20
77.49803191
  0
SEQEND
  0
POLYLINE
  8
Default Layer
 62
256
 66
   1
 39
0.000000
 70
    1
  0
VERTEX
  8
0
 10
131.95797782
 20
78.66447121
  0
VERTEX
  8
0
 10
131.32359855
 20
78.58602646
  0
VERTEX
  8
0
 10
131.41462004
 20
78.32362025
  0
VERTEX
  8
0
 10
131.53761629
 20
78.09233614
  0
VERTEX
  8
0
 10
131.69258730
 20
77.89217414
  0
VERTEX
  8
0
 10
131.87953307
 20
77.72313423
  0
VERTEX
  8
0
 10
132.09653512
 20
77.58884024
  0
VERTEX
  8
0
 10
132.34167495
 20
77.49291595
  0
VERTEX
  8
0
 10
132.61495258
 20
77.43536138
  0
VERTEX
  8
0
 10
132.91636800
 20
77.41617653
  0
VERTEX
  8
0
 10
133.10992188
 20
77.42379718
  0
VERTEX
  8
0
 10
133.29324385
 20
77.44665913
  0
VERTEX
  8
0
 10
133.46633389
 20
77.48476239
  0
VERTEX
  8
0
 10
133.62919201
 20
77.53810695
  0
VERTEX
  8
0
 10
133.78181820
 20
77.60669281
  0
VERTEX
  8
0
 10
133.92421247
 20
77.69051998
  0
VERTEX
  8
0
 10
134.05637482
 20
77.78958845
  0
VERTEX
  8
0
 10
134.17830524
 20
77.90389822
  0
VERTEX
  8
0
 10
134.28701943
 20
78.03280980
  0
VERTEX
  8
0
 10
134.38123839
 20
78.17397837
  0
VERTEX
  8
0
 10
134.46096213
 20
78.32740393
  0
VERTEX
  8
0
 10
134.52619064
 20
78.49308649
  0
VERTEX
  8
0
 10
134.57692393
 20
78.67102603
  0
VERTEX
  8
0
 10
134.61316199
 20
78.86122257
  0
VERTEX
  8
0
 10
134.63490483
 20
79.06367610
  0
VERTEX
  8
0
 10
134.64215244
 20
79.27838662
  0
VERTEX
  8
0
 10
134.63479825
 20
79.50050463
  0
VERTEX
  8
0
 10
134.61273566
 20
79.70983273
  0
VERTEX
  8
0
 10
134.57596469
 20
79.90637093
  0
VERTEX
  8
0
 10
134.52448532
 20
80.09011923
  0
VERTEX
  8
0
 10
134.45829757
 20
80.26107762
  0
VERTEX
  8
0
 10
134.37740142
 20
80.41924610
  0
VERTEX
  8
0
 10
134.28179688
 20
80.56462468
  0
VERTEX
  8
0
 10
134.17148396
 20
80.69721336
  0
VERTEX
  8
0
 10
134.04944695
 20
80.81551998
  0
VERTEX
  8
0
 10
133.91867018
 20
80.91805238
  0
VERTEX
  8
0
 10
133.77915364
 20
81.00481056
  0
VERTEX
  8
0
 10
133.63089733
 20
81.07579453
  0
VERTEX
  8
0
 10
133.47390125
 20
81.13100429
  0
VERTEX
  8
0
 10
133.30816540
 20
81.17043983
  0
VERTEX
  8
0
 10
133.13368979
 20
81.19410115
  0
VERTEX
  8
0
 10
132.95047441
 20
81.20198826
  0
VERTEX
  8
0
 10
132.77301448
 20
81.19426102
  0
VERTEX
  8
0
 10
132.60386800
 20
81.17107932
  0
VERTEX
  8
0
 10
132.44303495
 20
81.13244315
  0
VERTEX
  8
0
 10
132.29051533
 20
81.07835252
  0
VERTEX
  8
0
 10
132.14630916
 20
81.00880741
  0
VERTEX
  8
0
 10
132.01041643
 20
80.92380784
  0
VERTEX
  8
0
 10
131.88283713
 20
80.82335379
  0
VERTEX
  8
0
 10
131.76357127
 20
80.70744528
  0
VERTEX
  8
0
 10
131.65565645
 20
80.57752117
  0
VERTEX
  8
0
 10
131.56213027
 20
80.43502032
  0
VERTEX
  8
0
 10
131.48299274
 20
80.27994273
  0
VERTEX
  8
0
 10
131.41824385
 20
80.11228840
  0
VERTEX
  8
0
 10
131.36788360
 20
79.93205732
  0
VERTEX
  8
0
 10
131.33191199
 20
79.73924951
  0
VERTEX
  8
0
 10
131.31032903
 20
79.53386496
  0
VERTEX
  8
0
 10
131.30313471
 20
79.31590367
  0
VERTEX
  8
0
 10
131.30654535
 20
79.15219290
  0
VERTEX
  8
0
 10
134.00777318
 20
79.15219290
  0
VERTEX
  8
0
 10
134.00957091
 20
79.00808622
  0
VERTEX
  8
0
 10
133.99523652
 20
78.87232719
  0
VERTEX
  8
0
 10
133.92529023
 20
78.62621404
  0
VERTEX
  8
0
 10
133.81217205
 20
78.41457736
  0
VERTEX
  8
0
 10
133.67011970
 20
78.23814106
  0
VERTEX
  8
0
 10
133.50896690
 20
78.09937059
  0
VERTEX
  8
0
 10
133.32905558
 20
78.00024883
  0
VERTEX
  8
0
 10
133.13038573
 20
77.94077578
  0
VERTEX
  8
0
 10
132.91295735
 20
77.92095142
  0
VERTEX
  8
0
 10
132.75031240
 20
77.93203601
  0
VERTEX
  8
0
 10
132.60003102
 20
77.96528976
  0
VERTEX
  8
0
 10
132.46211322
 20
78.02071268
  0
VERTEX
  8
0
 10
132.33655899
 20
78.09830477
  0
VERTEX
  8
0
 10
132.22336834
 20
78.20019767
  0
VERTEX
  8
0
 10
132.12254126
 20
78.32852305
  0
VERTEX
  8
0
 10
132.03407775
 20
78.48328089
  0
VERTEX
  8
0
 10
131.95797782
 20
78.66447121
  0
SEQEND
  0
POLYLINE
  8
Default Layer
 62
256
 66
   1
 39
0.000000
 70
    1
  0
VERTEX
  8
0
 10
133.97366677
 20
79.65696779
  0
VERTEX
  8
0
 10
131.95115654
 20
79.65696779
  0
VERTEX
  8
0
 10
131.98099965
 20
79.87119870
  0
VERTEX
  8
0
 10
132.02960128
 20
80.05686548
  0
VERTEX
  8
0
 10
132.09696145
 20
80.21396814
  0
VERTEX
  8
0
 10
132.18308014
 20
80.34250668
  0
VERTEX
  8
0
 10
132.34060913
 20
80.49769085
  0
VERTEX
  8
0
 10
132.51988096
 20
80.60853669
  0
VERTEX
  8
0
 10
132.72089562
 20
80.67504419
  0
VERTEX
  8
0
 10
132.94365312
 20
80.69721336
  0
VERTEX
  8
0
 10
133.14679944
 20
80.67952066
  0
VERTEX
  8
0
 10
133.33331888
 20
80.62644256
  0
VERTEX
  8
0
 10
133.50321145
 20
80.53797905
  0
VERTEX
  8
0
 10
133.65647714
 20
80.41413014
  0
VERTEX
  8
0
 10
133.78373669
 20
80.26065129
  0
VERTEX
  8
0
 10
133.87902147
 20
80.08329794
  0
VERTEX
  8
0
 10
133.94233150
 20
79.88207011
  0
VERTEX
  8
0
 10
133.97366677
 20
79.65696779
  0
SEQEND
  0
POLYLINE
  8
Default Layer
 62
256
 66
   1
 39
0.000000
 70
    1
  0
VERTEX
  8
0
 10
130.55279364
 20
77.49803191
  0
VERTEX
  8
0
 10
130.55279364
 20
81.12013287
  0
VERTEX
  8
0
 10
130.00026977
 20
81.12013287
  0
VERTEX
  8
0
 10
130.00026977
 20
80.60512605
  0
VERTEX
  8
0
 10
129.89496622
 20
80.74501563
  0
VERTEX
  8
0
 10
129.77857809
 20
80.86625327
  0
VERTEX
  8
0
 10
129.65110538
 20
80.96883896
  0
VERTEX
  8
0
 10
129.51254808
 20
81.05277271
  0
VERTEX
  8
0
 10
129.36290619
 20
81.11805451
  0
VERTEX
  8
0
 10
129.20217973
 20
81.16468437
  0
VERTEX
  8
0
 10
129.03036868
 20
81.19266229
  0
VERTEX
  8
0
 10
128.84747304
 20
81.20198826
  0
VERTEX
  8
0
 10
128.68717291
 20
81.19452748
  0
VERTEX
  8
0
 10
128.53369405
 20
81.17214515
  0
VERTEX
  8
0
 10
128.38703648
 20
81.13484126
  0
VERTEX
  8
0
 10
128.24720019
 20
81.08261582
  0
VERTEX
  8
0
 10
128.11780899
 20
81.01994528
  0
VERTEX
  8
0
 10
128.00589733
 20
80.94789549
  0
VERTEX
  8
0
 10
127.91146520
 20
80.86646643
  0
VERTEX
  8
0
 10
127.83451261
 20
80.77565811
  0
VERTEX
  8
0
 10
127.71855081
 20
80.56675634
  0
VERTEX
  8
0
 10
127.64351670
 20
80.32204283
  0
VERTEX
  8
0
 10
127.61793689
 20
80.08756125
  0
VERTEX
  8
0
 10
127.60941029
 20
79.72518062
  0
VERTEX
  8
0
 10
127.60941029
 20
77.49803191
  0
VERTEX
  8
0
 10
128.22332570
 20
77.49803191
  0
VERTEX
  8
0
 10
128.22332570
 20
79.70130613
  0
VERTEX
  8
0
 10
128.24123157
 20
80.02872769
  0
VERTEX
  8
0
 10
128.29494917
 20
80.26065129
  0
VERTEX
  8
0
 10
128.33779535
 20
80.34954112
  0
VERTEX
  8
0
 10
128.39471042
 20
80.42862537
  0
VERTEX
  8
0
 10
128.46569439
 20
80.49790402
  0
VERTEX
  8
0
 10
128.55074726
 20
80.55737707
  0
VERTEX
  8
0
 10
128.64517939
 20
80.60661820
  0
VERTEX
  8
0
 10
128.74771179
 20
80.64179044
  0
VERTEX
  8
0
 10
128.97707741
 20
80.66992823
  0
VERTEX
  8
0
 10
129.16658116
 20
80.65436718
  0
VERTEX
  8
0
 10
129.34286868
 20
80.60768403
  0
VERTEX
  8
0
 10
129.50593996
 20
80.52987878
  0
VERTEX
  8
0
 10
129.65579501
 20
80.42095142
  0
VERTEX
  8
0
 10
129.72214264
 20
80.35172607
  0
VERTEX
  8
0
 10
129.77964392
 20
80.26853840
  0
VERTEX
  8
0
 10
129.86810742
 20
80.06027612
  0
VERTEX
  8
0
 10
129.92118553
 20
79.79616459
  0
VERTEX
  8
0
 10
129.93887823
 20
79.47620381
  0
VERTEX
  8
0
 10
129.93887823
 20
77.49803191
  0
VERTEX
  8
0
 10
130.55279364
 20
77.49803191
  0
SEQEND
  0
POLYLINE
  8
Default Layer
 62
256
 66
   1
 39
0.000000
 70
    1
  0
VERTEX
  8
0
 10
126.91363948
 20
78.57920518
  0
VERTEX
  8
0
 10
126.30654535
 20
78.67470313
  0
VERTEX
  8
0
 10
126.26966779
 20
78.50289208
  0
VERTEX
  8
0
 10
126.21019473
 20
78.35239754
  0
VERTEX
  8
0
 10
126.12812618
 20
78.22321950
  0
VERTEX
  8
0
 10
126.02346213
 20
78.11535797
  0
VERTEX
  8
0
 10
125.89428409
 20
78.03030511
  0
VERTEX
  8
0
 10
125.74208423
 20
77.96955306
  0
VERTEX
  8
0
 10
125.56686254
 20
77.93310183
  0
VERTEX
  8
0
 10
125.36861902
 20
77.92095142
  0
VERTEX
  8
0
 10
125.17080183
 20
77.93160968
  0
VERTEX
  8
0
 10
125.00026977
 20
77.96358444
  0
VERTEX
  8
0
 10
124.85702284
 20
78.01687571
  0
VERTEX
  8
0
 10
124.74106104
 20
78.09148348
  0
VERTEX
  8
0
 10
124.65153171
 20
78.18207864
  0
VERTEX
  8
0
 10
124.58758218
 20
78.27992141
  0
VERTEX
  8
0
 10
124.54921247
 20
78.38501179
  0
VERTEX
  8
0
 10
124.53642257
 20
78.49734979
  0
VERTEX
  8
0
 10
124.54772031
 20
78.59583205
  0
VERTEX
  8
0
 10
124.58161356
 20
78.68322973
  0
VERTEX
  8
0
 10
124.63810231
 20
78.75954283
  0
VERTEX
  8
0
 10
124.71718655
 20
78.82477134
  0
VERTEX
  8
0
 10
124.93717291
 20
78.91771131
  0
VERTEX
  8
0
 10
125.34474453
 20
79.03282046
  0
VERTEX
  8
0
 10
125.91687959
 20
79.19141527
  0
VERTEX
  8
0
 10
126.28267086
 20
79.32613560
  0
VERTEX
  8
0
 10
126.40460128
 20
79.39498792
  0
VERTEX
  8
0
 10
126.51118382
 20
79.47535115
  0
VERTEX
  8
0
 10
126.60241847
 20
79.56722530
  0
VERTEX
  8
0
 10
126.67830524
 20
79.67061036
  0
VERTEX
  8
0
 10
126.73649930
 20
79.78422734
  0
VERTEX
  8
0
 10
126.77806649
 20
79.90338662
  0
VERTEX
  8
0
 10
126.80300681
 20
80.02808819
  0
VERTEX
  8
0
 10
126.81132025
 20
80.15833205
  0
VERTEX
  8
0
 10
126.78403512
 20
80.39110831
  0
VERTEX
  8
0
 10
126.70217973
 20
80.60512605
  0
VERTEX
  8
0
 10
126.57001738
 20
80.79526930
  0
VERTEX
  8
0
 10
126.39863266
 20
80.94960081
  0
VERTEX
  8
0
 10
126.22980592
 20
81.04680408
  0
VERTEX
  8
0
 10
126.00981956
 20
81.12695415
  0
VERTEX
  8
0
 10
125.75231615
 20
81.18322973
  0
VERTEX
  8
0
 10
125.47775954
 20
81.20198826
  0
VERTEX
  8
0
 10
125.27120258
 20
81.19431432
  0
VERTEX
  8
0
 10
125.07786186
 20
81.17129249
  0
VERTEX
  8
0
 10
124.89773737
 20
81.13292277
  0
VERTEX
  8
0
 10
124.73082911
 20
81.07920518
  0
VERTEX
  8
0
 10
124.57948191
 20
81.01227134
  0
VERTEX
  8
0
 10
124.44945121
 20
80.93425292
  0
VERTEX
  8
0
 10
124.34073703
 20
80.84514992
  0
VERTEX
  8
0
 10
124.25333935
 20
80.74496234
  0
VERTEX
  8
0
 10
124.18256854
 20
80.63198485
  0
VERTEX
  8
0
 10
124.12373498
 20
80.50110149
  0
VERTEX
  8
0
 10
124.07683866
 20
80.35231227
  0
VERTEX
  8
0
 10
124.04187959
 20
80.18561718
  0
VERTEX
  8
0
 10
124.64215244
 20
80.10376179
  0
VERTEX
  8
0
 10
124.67242188
 20
80.23592414
  0
VERTEX
  8
0
 10
124.72230251
 20
80.35273860
  0
VERTEX
  8
0
 10
124.79179433
 20
80.45420518
  0
VERTEX
  8
0
 10
124.88089733
 20
80.54032387
  0
VERTEX
  8
0
 10
124.98833252
 20
80.60896302
  0
VERTEX
  8
0
 10
125.11623157
 20
80.65799099
  0
VERTEX
  8
0
 10
125.26459446
 20
80.68740777
  0
VERTEX
  8
0
 10
125.43342120
 20
80.69721336
  0
VERTEX
  8
0
 10
125.62974624
 20
80.68847359
  0
VERTEX
  8
0
 10
125.79580183
 20
80.66225429
  0
VERTEX
  8
0
 10
125.93158798
 20
80.61855545
  0
VERTEX
  8
0
 10
126.03710469
 20
80.55737707
  0
VERTEX
  8
0
 10
126.11618894
 20
80.48447462
  0
VERTEX
  8
0
 10
126.17267768
 20
80.40560354
  0
VERTEX
  8
0
 10
126.20657093
 20
80.32076384
  0
VERTEX
  8
0
 10
126.21786868
 20
80.22995552
  0
VERTEX
  8
0
 10
126.19911015
 20
80.11655170
  0
VERTEX
  8
0
 10
126.14283457
 20
80.01508512
  0
VERTEX
  8
0
 10
126.04648396
 20
79.92470313
  0
VERTEX
  8
0
 10
125.90750033
 20
79.85137434
  0
VERTEX
  8
0
 10
125.36520838
 20
79.69448485
  0
VERTEX
  8
0
 10
124.81268450
 20
79.53589003
  0
VERTEX
  8
0
 10
124.45797782
 20
79.40799099
  0
VERTEX
  8
0
 10
124.33540790
 20
79.34702578
  0
VERTEX
  8
0
 10
124.22690688
 20
79.27327066
  0
VERTEX
  8
0
 10
124.13247475
 20
79.18672564
  0
VERTEX
  8
0
 10
124.05211152
 20
79.08739071
  0
VERTEX
  8
0
 10
123.98794883
 20
78.97526588
  0
VERTEX
  8
0
 10
123.94211834
 20
78.85035115
  0
VERTEX
  8
0
 10
123.91462004
 20
78.71264651
  0
VERTEX
  8
0
 10
123.90545394
 20
78.56215197
  0
VERTEX
  8
0
 10
123.91675169
 20
78.41080477
  0
VERTEX
  8
0
 10
123.95064494
 20
78.26372086
  0
VERTEX
  8
0
 10
124.00713368
 20
78.12090026
  0
VERTEX
  8
0
 10
124.08621793
 20
77.98234297
  0
VERTEX
  8
0
 10
124.18491336
 20
77.85508342
  0
VERTEX
  8
0
 10
124.30364630
 20
77.74274542
  0
VERTEX
  8
0
 10
124.44241677
 20
77.64532898
  0
VERTEX
  8
0
 10
124.60122475
 20
77.56283410
  0
VERTEX
  8
0
 10
124.77559378
 20
77.49867141
  0
VERTEX
  8
0
 10
124.96104739
 20
77.45284092
  0
VERTEX
  8
0
 10
125.15758559
 20
77.42534262
  0
VERTEX
  8
0
 10
125.36520838
 20
77.41617653
  0
VERTEX
  8
0
 10
125.69731956
 20
77.43450872
  0
VERTEX
  8
0
 10
125.98765040
 20
77.48950531
  0
VERTEX
  8
0
 10
126.23620087
 20
77.58116629
  0
VERTEX
  8
0
 10
126.44297100
 20
77.70949167
  0
VERTEX
  8
0
 10
126.61051875
 20
77.87384194
  0
VERTEX
  8
0
 10
126.74481274
 20
78.07357762
  0
VERTEX
  8
0
 10
126.84585299
 20
78.30869870
  0
VERTEX
  8
0
 10
126.91363948
 20
78.57920518
  0
SEQEND
  0
POLYLINE
  8
Default Layer
 62
256
 66
   1
 39
0.000000
 70
    1
  0
VERTEX
  8
0
 10
121.46343484
 20
79.30908239
  0
VERTEX
  8
0
 10
121.45469508
 20
79.55246362
  0
VERTEX
  8
0
 10
121.42847577
 20
79.77953771
  0
VERTEX
  8
0
 10
121.38477693
 20
79.99030468
  0
VERTEX
  8
0
 10
121.32359855
 20
80.18476452
  0
VERTEX
  8
0
 10
121.24494064
 20
80.36291723
  0
VERTEX
  8
0
 10
121.14880319
 20
80.52476282
  0
VERTEX
  8
0
 10
121.03518621
 20
80.67030127
  0
VERTEX
  8
0
 10
120.90408969
 20
80.79953260
  0
VERTEX
  8
0
 10
120.65767086
 20
80.97560695
  0
VERTEX
  8
0
 10
120.38567222
 20
81.10137434
  0
VERTEX
  8
0
 10
120.08809378
 20
81.17683478
  0
VERTEX
  8
0
 10
119.76493553
 20
81.20198826
  0
VERTEX
  8
0
 10
119.58246622
 20
81.19431432
  0
VERTEX
  8
0
 10
119.40852352
 20
81.17129249
  0
VERTEX
  8
0
 10
119.24310742
 20
81.13292277
  0
VERTEX
  8
0
 10
119.08621793
 20
81.07920518
  0
VERTEX
  8
0
 10
118.93785503
 20
81.01013969
  0
VERTEX
  8
0
 10
118.79801875
 20
80.92572632
  0
VERTEX
  8
0
 10
118.66670906
 20
80.82596507
  0
VERTEX
  8
0
 10
118.54392598
 20
80.71085593
  0
VERTEX
  8
0
 10
118.43281368
 20
80.58306346
  0
VERTEX
  8
0
 10
118.33651636
 20
80.44354692
  0
VERTEX
  8
0
 10
118.25503401
 20
80.29230630
  0
VERTEX
  8
0
 10
118.18836663
 20
80.12934160
  0
VERTEX
  8
0
 10
118.13651423
 20
79.95465282
  0
VERTEX
  8
0
 10
118.09947679
 20
79.76823996
  0
VERTEX
  8
0
 10
118.07725434
 20
79.57010303
  0
VERTEX
  8
0
 10
118.06984685
 20
79.36024201
  0
VERTEX
  8
0
 10
118.08306308
 20
79.02919665
  0
VERTEX
  8
0
 10
118.12271179
 20
78.73524201
  0
VERTEX
  8
0
 10
118.18879296
 20
78.47837809
  0
VERTEX
  8
0
 10
118.28130660
 20
78.25860490
  0
VERTEX
  8
0
 10
118.39748157
 20
78.07016698
  0
VERTEX
  8
0
 10
118.53795735
 20
77.90389822
  0
VERTEX
  8
0
 10
118.70273396
 20
77.75979863
  0
VERTEX
  8
0
 10
118.89181138
 20
77.63786820
  0
VERTEX
  8
0
 10
119.09602352
 20
77.54087809
  0
VERTEX
  8
0
 10
119.30961493
 20
77.47159945
  0
VERTEX
  8
0
 10
119.53258559
 20
77.43003226
  0
VERTEX
  8
0
 10
119.76493553
 20
77.41617653
  0
VERTEX
  8
0
 10
119.95054902
 20
77.42379718
  0
VERTEX
  8
0
 10
120.12710299
 20
77.44665913
  0
VERTEX
  8
0
 10
120.29459745
 20
77.48476239
  0
VERTEX
  8
0
 10
120.45303239
 20
77.53810695
  0
VERTEX
  8
0
 10
120.60240781
 20
77.60669281
  0
VERTEX
  8
0
 10
120.74272373
 20
77.69051998
  0
VERTEX
  8
0
 10
120.87398012
 20
77.78958845
  0
VERTEX
  8
0
 10
120.99617700
 20
77.90389822
  0
VERTEX
  8
0
 10
121.10569056
 20
78.03254334
  0
VERTEX
  8
0
 10
121.20060231
 20
78.17461786
  0
VERTEX
  8
0
 10
121.28091225
 20
78.33012179
  0
VERTEX
  8
0
 10
121.34662038
 20
78.49905511
  0
VERTEX
  8
0
 10
121.39772671
 20
78.68141783
  0
VERTEX
  8
0
 10
121.43423123
 20
78.87720995
  0
VERTEX
  8
0
 10
121.45613394
 20
79.08643147
  0
VERTEX
  8
0
 10
121.46343484
 20
79.30908239
  0
SEQEND
  0
POLYLINE
  8
Default Layer
 62
256
 66
   1
 39
0.000000
 70
    1
  0
VERTEX
  8
0
 10
120.83246622
 20
79.30908239
  0
VERTEX
  8
0
 10
120.81349453
 20
78.98293983
  0
VERTEX
  8
0
 10
120.75657946
 20
78.70028294
  0
VERTEX
  8
0
 10
120.66172100
 20
78.46111172
  0
VERTEX
  8
0
 10
120.52891915
 20
78.26542619
  0
VERTEX
  8
0
 10
120.36734003
 20
78.11471848
  0
VERTEX
  8
0
 10
120.18614971
 20
78.00707011
  0
VERTEX
  8
0
 10
119.98534821
 20
77.94248110
  0
VERTEX
  8
0
 10
119.76493553
 20
77.92095142
  0
VERTEX
  8
0
 10
119.54601499
 20
77.94269426
  0
VERTEX
  8
0
 10
119.34627932
 20
78.00792277
  0
VERTEX
  8
0
 10
119.16572850
 20
78.11663696
  0
VERTEX
  8
0
 10
119.00436254
 20
78.26883683
  0
VERTEX
  8
0
 10
118.87156070
 20
78.46558819
  0
VERTEX
  8
0
 10
118.77670224
 20
78.70795688
  0
VERTEX
  8
0
 10
118.71978716
 20
78.99594290
  0
VERTEX
  8
0
 10
118.70081547
 20
79.32954624
  0
VERTEX
  8
0
 10
118.72000033
 20
79.64503055
  0
VERTEX
  8
0
 10
118.77755490
 20
79.91958717
  0
VERTEX
  8
0
 10
118.87347918
 20
80.15321609
  0
VERTEX
  8
0
 10
119.00777318
 20
80.34591732
  0
VERTEX
  8
0
 10
119.16892598
 20
80.49811718
  0
VERTEX
  8
0
 10
119.34883730
 20
80.60683137
  0
VERTEX
  8
0
 10
119.54750715
 20
80.67205988
  0
VERTEX
  8
0
 10
119.76493553
 20
80.69380272
  0
VERTEX
  8
0
 10
119.98534821
 20
80.67227305
  0
VERTEX
  8
0
 10
120.18614971
 20
80.60768403
  0
VERTEX
  8
0
 10
120.36734003
 20
80.50003567
  0
VERTEX
  8
0
 10
120.52891915
 20
80.34932796
  0
VERTEX
  8
0
 10
120.66172100
 20
80.15513458
  0
VERTEX
  8
0
 10
120.75657946
 20
79.91702919
  0
VERTEX
  8
0
 10
120.81349453
 20
79.63501179
  0
VERTEX
  8
0
 10
120.83246622
 20
79.30908239
  0
SEQEND
  0
POLYLINE
  8
Default Layer
 62
256
 66
   1
 39
0.000000
 70
    1
  0
VERTEX
  8
0
 10
117.20354398
 20
77.49803191
  0
VERTEX
  8
0
 10
117.20354398
 20
80.64264310
  0
VERTEX
  8
0
 10
117.74583594
 20
80.64264310
  0
VERTEX
  8
0
 10
117.74583594
 20
81.12013287
  0
VERTEX
  8
0
 10
117.20354398
 20
81.12013287
  0
VERTEX
  8
0
 10
117.20354398
 20
81.50553533
  0
VERTEX
  8
0
 10
117.18734344
 20
81.82357762
  0
VERTEX
  8
0
 10
117.13874180
 20
82.04782728
  0
VERTEX
  8
0
 10
117.08609003
 20
82.16144426
  0
VERTEX
  8
0
 10
117.01681138
 20
82.26355033
  0
VERTEX
  8
0
 10
116.93090585
 20
82.35414549
  0
VERTEX
  8
0
 10
116.82837345
 20
82.43322973
  0
VERTEX
  8
0
 10
116.70473771
 20
82.49888458
  0
VERTEX
  8
0
 10
116.55893280
 20
82.54578089
  0
VERTEX
  8
0
 10
116.39095872
 20
82.57391868
  0
VERTEX
  8
0
 10
116.20081547
 20
82.58329794
  0
VERTEX
  8
0
 10
115.92796418
 20
82.56795006
  0
VERTEX
  8
0
 10
115.62782775
 20
82.52190640
  0
VERTEX
  8
0
 10
115.71991506
 20
81.98643573
  0
VERTEX
  8
0
 10
115.90579501
 20
82.01201554
  0
VERTEX
  8
0
 10
116.08144303
 20
82.02054215
  0
VERTEX
  8
0
 10
116.21104739
 20
82.01308137
  0
VERTEX
  8
0
 10
116.32018791
 20
81.99069904
  0
VERTEX
  8
0
 10
116.40886458
 20
81.95339515
  0
VERTEX
  8
0
 10
116.47707741
 20
81.90116970
  0
VERTEX
  8
0
 10
116.52781070
 20
81.82848041
  0
VERTEX
  8
0
 10
116.56404876
 20
81.72978498
  0
VERTEX
  8
0
 10
116.58579160
 20
81.60508342
  0
VERTEX
  8
0
 10
116.59303921
 20
81.45437571
  0
VERTEX
  8
0
 10
116.59303921
 20
81.12013287
  0
VERTEX
  8
0
 10
115.88703648
 20
81.12013287
  0
VERTEX
  8
0
 10
115.88703648
 20
80.64264310
  0
VERTEX
  8
0
 10
116.59303921
 20
80.64264310
  0
VERTEX
  8
0
 10
116.59303921
 20
77.49803191
  0
VERTEX
  8
0
 10
117.20354398
 20
77.49803191
  0
SEQEND
  0
POLYLINE
  8
Default Layer
 62
256
 66
   1
 39
0.000000
 70
    1
  0
VERTEX
  8
0
 10
113.41091097
 20
77.49803191
  0
VERTEX
  8
0
 10
113.41091097
 20
82.49803191
  0
VERTEX
  8
0
 10
112.41500374
 20
82.49803191
  0
VERTEX
  8
0
 10
111.23151124
 20
78.95778635
  0
VERTEX
  8
0
 10
110.99276636
 20
78.21767721
  0
VERTEX
  8
0
 10
110.72673634
 20
79.01917789
  0
VERTEX
  8
0
 10
109.52960128
 20
82.49803191
  0
VERTEX
  8
0
 10
108.63942393
 20
82.49803191
  0
VERTEX
  8
0
 10
108.63942393
 20
77.49803191
  0
VERTEX
  8
0
 10
109.27721383
 20
77.49803191
  0
VERTEX
  8
0
 10
109.27721383
 20
81.68288867
  0
VERTEX
  8
0
 10
110.73014699
 20
77.49803191
  0
VERTEX
  8
0
 10
111.32700920
 20
77.49803191
  0
VERTEX
  8
0
 10
112.77312106
 20
81.75451213
  0
VERTEX
  8
0
 10
112.77312106
 20
77.49803191
  0
VERTEX
  8
0
 10
113.41091097
 20
77.49803191
  0
SEQEND
  0
POLYLINE
  8
Default Layer
 62
256
 66
   1
 39
0.000000
 70
    1
  0
VERTEX
  8
0
 10
107.64692734
 20
81.79202919
  0
VERTEX
  8
0
 10
107.64692734
 20
82.49803191
  0
VERTEX
  8
0
 10
107.03301192
 20
82.49803191
  0
VERTEX
  8
0
 10
107.03301192
 20
81.79202919
  0
VERTEX
  8
0
 10
107.64692734
 20
81.79202919
  0
SEQEND
  0
POLYLINE
  8
Default Layer
 62
256
 66
   1
 39
0.000000
 70
    1
  0
VERTEX
  8
0
 10
107.64692734
 20
77.49803191
  0
VERTEX
  8
0
 10
107.64692734
 20
81.12013287
  0
VERTEX
  8
0
 10
107.03301192
 20
81.12013287
  0
VERTEX
  8
0
 10
107.03301192
 20
77.49803191
  0
VERTEX
  8
0
 10
107.64692734
 20
77.49803191
  0
SEQEND
  0
POLYLINE
  8
Default Layer
 62
256
 66
   1
 39
0.000000
 70
    1
  0
VERTEX
  8
0
 10
106.09849624
 20
77.49803191
  0
VERTEX
  8
0
 10
106.09849624
 20
81.12013287
  0
VERTEX
  8
0
 10
105.54597236
 20
81.12013287
  0
VERTEX
  8
0
 10
105.54597236
 20
80.60512605
  0
VERTEX
  8
0
 10
105.44066881
 20
80.74501563
  0
VERTEX
  8
0
 10
105.32428068
 20
80.86625327
  0
VERTEX
  8
0
 10
105.19680797
 20
80.96883896
  0
VERTEX
  8
0
 10
105.05825067
 20
81.05277271
  0
VERTEX
  8
0
 10
104.90860879
 20
81.11805451
  0
VERTEX
  8
0
 10
104.74788232
 20
81.16468437
  0
VERTEX
  8
0
 10
104.57607127
 20
81.19266229
  0
VERTEX
  8
0
 10
104.39317564
 20
81.20198826
  0
VERTEX
  8
0
 10
104.23287550
 20
81.19452748
  0
VERTEX
  8
0
 10
104.07939664
 20
81.17214515
  0
VERTEX
  8
0
 10
103.93273907
 20
81.13484126
  0
VERTEX
  8
0
 10
103.79290278
 20
81.08261582
  0
VERTEX
  8
0
 10
103.66351158
 20
81.01994528
  0
VERTEX
  8
0
 10
103.55159992
 20
80.94789549
  0
VERTEX
  8
0
 10
103.45716779
 20
80.86646643
  0
VERTEX
  8
0
 10
103.38021520
 20
80.77565811
  0
VERTEX
  8
0
 10
103.26425340
 20
80.56675634
  0
VERTEX
  8
0
 10
103.18921929
 20
80.32204283
  0
VERTEX
  8
0
 10
103.16363948
 20
80.08756125
  0
VERTEX
  8
0
 10
103.15511288
 20
79.72518062
  0
VERTEX
  8
0
 10
103.15511288
 20
77.49803191
  0
VERTEX
  8
0
 10
103.76902830
 20
77.49803191
  0
VERTEX
  8
0
 10
103.76902830
 20
79.70130613
  0
VERTEX
  8
0
 10
103.78693416
 20
80.02872769
  0
VERTEX
  8
0
 10
103.84065176
 20
80.26065129
  0
VERTEX
  8
0
 10
103.88349794
 20
80.34954112
  0
VERTEX
  8
0
 10
103.94041302
 20
80.42862537
  0
VERTEX
  8
0
 10
104.01139699
 20
80.49790402
  0
VERTEX
  8
0
 10
104.09644985
 20
80.55737707
  0
VERTEX
  8
0
 10
104.19088198
 20
80.60661820
  0
VERTEX
  8
0
 10
104.29341438
 20
80.64179044
  0
VERTEX
  8
0
 10
104.52278000
 20
80.66992823
  0
VERTEX
  8
0
 10
104.71228375
 20
80.65436718
  0
VERTEX
  8
0
 10
104.88857127
 20
80.60768403
  0
VERTEX
  8
0
 10
105.05164255
 20
80.52987878
  0
VERTEX
  8
0
 10
105.20149760
 20
80.42095142
  0
VERTEX
  8
0
 10
105.26784523
 20
80.35172607
  0
VERTEX
  8
0
 10
105.32534651
 20
80.26853840
  0
VERTEX
  8
0
 10
105.41381001
 20
80.06027612
  0
VERTEX
  8
0
 10
105.46688812
 20
79.79616459
  0
VERTEX
  8
0
 10
105.48458082
 20
79.47620381
  0
VERTEX
  8
0
 10
105.48458082
 20
77.49803191
  0
VERTEX
  8
0
 10
106.09849624
 20
77.49803191
  0
SEQEND
  0
POLYLINE
  8
Default Layer
 62
256
 66
   1
 39
0.000000
 70
    1
  0
VERTEX
  8
0
 10
99.83996963
 20
77.49803191
  0
VERTEX
  8
0
 10
99.83996963
 20
78.03009194
  0
VERTEX
  8
0
 10
99.95044243
 20
77.88620552
  0
VERTEX
  8
0
 10
100.07040108
 20
77.76150395
  0
VERTEX
  8
0
 10
100.19984557
 20
77.65598724
  0
VERTEX
  8
0
 10
100.33877591
 20
77.56965538
  0
VERTEX
  8
0
 10
100.48719209
 20
77.50250838
  0
VERTEX
  8
0
 10
100.64509412
 20
77.45454624
  0
VERTEX
  8
0
 10
100.81248200
 20
77.42576895
  0
VERTEX
  8
0
 10
100.98935572
 20
77.41617653
  0
VERTEX
  8
0
 10
101.14709787
 20
77.42385047
  0
VERTEX
  8
0
 10
101.29972407
 20
77.44687230
  0
VERTEX
  8
0
 10
101.44723430
 20
77.48524201
  0
VERTEX
  8
0
 10
101.58962857
 20
77.53895961
  0
VERTEX
  8
0
 10
101.71901977
 20
77.60418812
  0
VERTEX
  8
0
 10
101.83093143
 20
77.67709058
  0
VERTEX
  8
0
 10
101.92536356
 20
77.75766698
  0
VERTEX
  8
0
 10
102.00231615
 20
77.84591732
  0
VERTEX
  8
0
 10
102.11571997
 20
78.05396643
  0
VERTEX
  8
0
 10
102.18990142
 20
78.30294324
  0
VERTEX
  8
0
 10
102.21803921
 20
78.53657216
  0
VERTEX
  8
0
 10
102.22741847
 20
78.87593096
  0
VERTEX
  8
0
 10
102.22741847
 20
81.12013287
  0
VERTEX
  8
0
 10
101.61350306
 20
81.12013287
  0
VERTEX
  8
0
 10
101.61350306
 20
79.11126520
  0
VERTEX
  8
0
 10
101.60412379
 20
78.70880954
  0
VERTEX
  8
0
 10
101.57598600
 20
78.46324337
  0
VERTEX
  8
0
 10
101.53889528
 20
78.34856056
  0
VERTEX
  8
0
 10
101.48560401
 20
78.24666766
  0
VERTEX
  8
0
 10
101.41611220
 20
78.15756466
  0
VERTEX
  8
0
 10
101.33041984
 20
78.08125156
  0
VERTEX
  8
0
 10
101.23108491
 20
78.02156534
  0
VERTEX
  8
0
 10
101.12066540
 20
77.97893232
  0
VERTEX
  8
0
 10
100.99916131
 20
77.95335252
  0
VERTEX
  8
0
 10
100.86657263
 20
77.94482591
  0
VERTEX
  8
0
 10
100.73057332
 20
77.95356568
  0
VERTEX
  8
0
 10
100.59883730
 20
77.97978498
  0
VERTEX
  8
0
 10
100.47136458
 20
78.02348382
  0
VERTEX
  8
0
 10
100.34815517
 20
78.08466220
  0
VERTEX
  8
0
 10
100.23603034
 20
78.16246745
  0
VERTEX
  8
0
 10
100.14181138
 20
78.25263628
  0
VERTEX
  8
0
 10
100.06549828
 20
78.35516868
  0
VERTEX
  8
0
 10
100.00709105
 20
78.47006466
  0
VERTEX
  8
0
 10
99.96232639
 20
78.60649031
  0
VERTEX
  8
0
 10
99.93035162
 20
78.77020108
  0
VERTEX
  8
0
 10
99.90477182
 20
79.17947803
  0
VERTEX
  8
0
 10
99.90477182
 20
81.12013287
  0
VERTEX
  8
0
 10
99.29085640
 20
81.12013287
  0
VERTEX
  8
0
 10
99.29085640
 20
77.49803191
  0
VERTEX
  8
0
 10
99.83996963
 20
77.49803191
  0
SEQEND
  0
POLYLINE
  8
Default Layer
 62
256
 66
   1
 39
0.000000
 70
    1
  0
VERTEX
  8
0
 10
96.98867359
 20
78.04714515
  0
VERTEX
  8
0
 10
96.89999692
 20
77.50485320
  0
VERTEX
  8
0
 10
97.14556308
 20
77.46392550
  0
VERTEX
  8
0
 10
97.36384412
 20
77.45028294
  0
VERTEX
  8
0
 10
97.66056991
 20
77.47671541
  0
VERTEX
  8
0
 10
97.78079501
 20
77.50975599
  0
VERTEX
  8
0
 10
97.88226158
 20
77.55601282
  0
VERTEX
  8
0
 10
98.03915108
 20
77.67794324
  0
VERTEX
  8
0
 10
98.09713198
 20
77.75105886
  0
VERTEX
  8
0
 10
98.14147031
 20
77.83227475
  0
VERTEX
  8
0
 10
98.17429774
 20
77.94290743
  0
VERTEX
  8
0
 10
98.19774589
 20
78.10086275
  0
VERTEX
  8
0
 10
98.21650442
 20
78.55874133
  0
VERTEX
  8
0
 10
98.21650442
 20
80.64264310
  0
VERTEX
  8
0
 10
98.66670906
 20
80.64264310
  0
VERTEX
  8
0
 10
98.66670906
 20
81.12013287
  0
VERTEX
  8
0
 10
98.21650442
 20
81.12013287
  0
VERTEX
  8
0
 10
98.21650442
 20
82.01713151
  0
VERTEX
  8
0
 10
97.60599965
 20
82.38548076
  0
VERTEX
  8
0
 10
97.60599965
 20
81.12013287
  0
VERTEX
  8
0
 10
96.98867359
 20
81.12013287
  0
VERTEX
  8
0
 10
96.98867359
 20
80.64264310
  0
VERTEX
  8
0
 10
97.60599965
 20
80.64264310
  0
VERTEX
  8
0
 10
97.60599965
 20
78.52463492
  0
VERTEX
  8
0
 10
97.59832570
 20
78.30891186
  0
VERTEX
  8
0
 10
97.57530388
 20
78.18698144
  0
VERTEX
  8
0
 10
97.53181820
 20
78.11962127
  0
VERTEX
  8
0
 10
97.46957400
 20
78.06760900
  0
VERTEX
  8
0
 10
97.37919201
 20
78.03435524
  0
VERTEX
  8
0
 10
97.25811424
 20
78.02327066
  0
VERTEX
  8
0
 10
96.98867359
 20
78.04714515
  0
SEQEND
  0
POLYLINE
  8
Default Layer
 62
256
 66
   1
 39
0.000000
 70
    1
  0
VERTEX
  8
0
 10
93.90886458
 20
78.66447121
  0
VERTEX
  8
0
 10
93.27448532
 20
78.58602646
  0
VERTEX
  8
0
 10
93.36550681
 20
78.32362025
  0
VERTEX
  8
0
 10
93.48850306
 20
78.09233614
  0
VERTEX
  8
0
 10
93.64347407
 20
77.89217414
  0
VERTEX
  8
0
 10
93.83041984
 20
77.72313423
  0
VERTEX
  8
0
 10
94.04742188
 20
77.58884024
  0
VERTEX
  8
0
 10
94.29256172
 20
77.49291595
  0
VERTEX
  8
0
 10
94.56583935
 20
77.43536138
  0
VERTEX
  8
0
 10
94.86725476
 20
77.41617653
  0
VERTEX
  8
0
 10
95.06080865
 20
77.42379718
  0
VERTEX
  8
0
 10
95.24413061
 20
77.44665913
  0
VERTEX
  8
0
 10
95.41722066
 20
77.48476239
  0
VERTEX
  8
0
 10
95.58007877
 20
77.53810695
  0
VERTEX
  8
0
 10
95.73270497
 20
77.60669281
  0
VERTEX
  8
0
 10
95.87509924
 20
77.69051998
  0
VERTEX
  8
0
 10
96.00726158
 20
77.78958845
  0
VERTEX
  8
0
 10
96.12919201
 20
77.90389822
  0
VERTEX
  8
0
 10
96.23790619
 20
78.03280980
  0
VERTEX
  8
0
 10
96.33212516
 20
78.17397837
  0
VERTEX
  8
0
 10
96.41184890
 20
78.32740393
  0
VERTEX
  8
0
 10
96.47707741
 20
78.49308649
  0
VERTEX
  8
0
 10
96.52781070
 20
78.67102603
  0
VERTEX
  8
0
 10
96.56404876
 20
78.86122257
  0
VERTEX
  8
0
 10
96.58579160
 20
79.06367610
  0
VERTEX
  8
0
 10
96.59303921
 20
79.27838662
  0
VERTEX
  8
0
 10
96.58568501
 20
79.50050463
  0
VERTEX
  8
0
 10
96.56362243
 20
79.70983273
  0
VERTEX
  8
0
 10
96.52685145
 20
79.90637093
  0
VERTEX
  8
0
 10
96.47537209
 20
80.09011923
  0
VERTEX
  8
0
 10
96.40918433
 20
80.26107762
  0
VERTEX
  8
0
 10
96.32828819
 20
80.41924610
  0
VERTEX
  8
0
 10
96.23268365
 20
80.56462468
  0
VERTEX
  8
0
 10
96.12237072
 20
80.69721336
  0
VERTEX
  8
0
 10
96.00033372
 20
80.81551998
  0
VERTEX
  8
0
 10
95.86955694
 20
80.91805238
  0
VERTEX
  8
0
 10
95.73004040
 20
81.00481056
  0
VERTEX
  8
0
 10
95.58178409
 20
81.07579453
  0
VERTEX
  8
0
 10
95.42478802
 20
81.13100429
  0
VERTEX
  8
0
 10
95.25905217
 20
81.17043983
  0
VERTEX
  8
0
 10
95.08457656
 20
81.19410115
  0
VERTEX
  8
0
 10
94.90136117
 20
81.20198826
  0
VERTEX
  8
0
 10
94.72390125
 20
81.19426102
  0
VERTEX
  8
0
 10
94.55475476
 20
81.17107932
  0
VERTEX
  8
0
 10
94.39392171
 20
81.13244315
  0
VERTEX
  8
0
 10
94.24140210
 20
81.07835252
  0
VERTEX
  8
0
 10
94.09719593
 20
81.00880741
  0
VERTEX
  8
0
 10
93.96130319
 20
80.92380784
  0
VERTEX
  8
0
 10
93.83372390
 20
80.82335379
  0
VERTEX
  8
0
 10
93.71445804
 20
80.70744528
  0
VERTEX
  8
0
 10
93.60654322
 20
80.57752117
  0
VERTEX
  8
0
 10
93.51301704
 20
80.43502032
  0
VERTEX
  8
0
 10
93.43387951
 20
80.27994273
  0
VERTEX
  8
0
 10
93.36913061
 20
80.11228840
  0
VERTEX
  8
0
 10
93.31877037
 20
79.93205732
  0
VERTEX
  8
0
 10
93.28279876
 20
79.73924951
  0
VERTEX
  8
0
 10
93.26121580
 20
79.53386496
  0
VERTEX
  8
0
 10
93.25402147
 20
79.31590367
  0
VERTEX
  8
0
 10
93.25743212
 20
79.15219290
  0
VERTEX
  8
0
 10
95.95865995
 20
79.15219290
  0
VERTEX
  8
0
 10
95.96045767
 20
79.00808622
  0
VERTEX
  8
0
 10
95.94612328
 20
78.87232719
  0
VERTEX
  8
0
 10
95.87617700
 20
78.62621404
  0
VERTEX
  8
0
 10
95.76305882
 20
78.41457736
  0
VERTEX
  8
0
 10
95.62100647
 20
78.23814106
  0
VERTEX
  8
0
 10
95.45985367
 20
78.09937059
  0
VERTEX
  8
0
 10
95.27994235
 20
78.00024883
  0
VERTEX
  8
0
 10
95.08127250
 20
77.94077578
  0
VERTEX
  8
0
 10
94.86384412
 20
77.92095142
  0
VERTEX
  8
0
 10
94.70119917
 20
77.93203601
  0
VERTEX
  8
0
 10
94.55091779
 20
77.96528976
  0
VERTEX
  8
0
 10
94.41299999
 20
78.02071268
  0
VERTEX
  8
0
 10
94.28744576
 20
78.09830477
  0
VERTEX
  8
0
 10
94.17425510
 20
78.20019767
  0
VERTEX
  8
0
 10
94.07342802
 20
78.32852305
  0
VERTEX
  8
0
 10
93.98496452
 20
78.48328089
  0
VERTEX
  8
0
 10
93.90886458
 20
78.66447121
  0
SEQEND
  0
POLYLINE
  8
Default Layer
 62
256
 66
   1
 39
0.000000
 70
    1
  0
VERTEX
  8
0
 10
95.92455353
 20
79.65696779
  0
VERTEX
  8
0
 10
93.90204330
 20
79.65696779
  0
VERTEX
  8
0
 10
93.93188641
 20
79.87119870
  0
VERTEX
  8
0
 10
93.98048805
 20
80.05686548
  0
VERTEX
  8
0
 10
94.04784821
 20
80.21396814
  0
VERTEX
  8
0
 10
94.13396690
 20
80.34250668
  0
VERTEX
  8
0
 10
94.29149589
 20
80.49769085
  0
VERTEX
  8
0
 10
94.47076772
 20
80.60853669
  0
VERTEX
  8
0
 10
94.67178239
 20
80.67504419
  0
VERTEX
  8
0
 10
94.89453989
 20
80.69721336
  0
VERTEX
  8
0
 10
95.09768621
 20
80.67952066
  0
VERTEX
  8
0
 10
95.28420565
 20
80.62644256
  0
VERTEX
  8
0
 10
95.45409821
 20
80.53797905
  0
VERTEX
  8
0
 10
95.60736390
 20
80.41413014
  0
VERTEX
  8
0
 10
95.73462345
 20
80.26065129
  0
VERTEX
  8
0
 10
95.82990824
 20
80.08329794
  0
VERTEX
  8
0
 10
95.89321827
 20
79.88207011
  0
VERTEX
  8
0
 10
95.92455353
 20
79.65696779
  0
SEQEND
  0
POLYLINE
  8
Default Layer
 62
256
 66
   1
 39
0.000000
 70
    1
  0
VERTEX
  8
0
 10
92.74924658
 20
78.57920518
  0
VERTEX
  8
0
 10
92.14215244
 20
78.67470313
  0
VERTEX
  8
0
 10
92.10527488
 20
78.50289208
  0
VERTEX
  8
0
 10
92.04580183
 20
78.35239754
  0
VERTEX
  8
0
 10
91.96373327
 20
78.22321950
  0
VERTEX
  8
0
 10
91.85906922
 20
78.11535797
  0
VERTEX
  8
0
 10
91.72989119
 20
78.03030511
  0
VERTEX
  8
0
 10
91.57769132
 20
77.96955306
  0
VERTEX
  8
0
 10
91.40246963
 20
77.93310183
  0
VERTEX
  8
0
 10
91.20422611
 20
77.92095142
  0
VERTEX
  8
0
 10
91.00640892
 20
77.93160968
  0
VERTEX
  8
0
 10
90.83587686
 20
77.96358444
  0
VERTEX
  8
0
 10
90.69262993
 20
78.01687571
  0
VERTEX
  8
0
 10
90.57666813
 20
78.09148348
  0
VERTEX
  8
0
 10
90.48713880
 20
78.18207864
  0
VERTEX
  8
0
 10
90.42318928
 20
78.27992141
  0
VERTEX
  8
0
 10
90.38481956
 20
78.38501179
  0
VERTEX
  8
0
 10
90.37202966
 20
78.49734979
  0
VERTEX
  8
0
 10
90.38332741
 20
78.59583205
  0
VERTEX
  8
0
 10
90.41722066
 20
78.68322973
  0
VERTEX
  8
0
 10
90.47370940
 20
78.75954283
  0
VERTEX
  8
0
 10
90.55279364
 20
78.82477134
  0
VERTEX
  8
0
 10
90.77278000
 20
78.91771131
  0
VERTEX
  8
0
 10
91.18035162
 20
79.03282046
  0
VERTEX
  8
0
 10
91.75248669
 20
79.19141527
  0
VERTEX
  8
0
 10
92.11827795
 20
79.32613560
  0
VERTEX
  8
0
 10
92.24020838
 20
79.39498792
  0
VERTEX
  8
0
 10
92.34679091
 20
79.47535115
  0
VERTEX
  8
0
 10
92.43802557
 20
79.56722530
  0
VERTEX
  8
0
 10
92.51391233
 20
79.67061036
  0
VERTEX
  8
0
 10
92.57210640
 20
79.78422734
  0
VERTEX
  8
0
 10
92.61367359
 20
79.90338662
  0
VERTEX
  8
0
 10
92.63861390
 20
80.02808819
  0
VERTEX
  8
0
 10
92.64692734
 20
80.15833205
  0
VERTEX
  8
0
 10
92.61964221
 20
80.39110831
  0
VERTEX
  8
0
 10
92.53778682
 20
80.60512605
  0
VERTEX
  8
0
 10
92.40562448
 20
80.79526930
  0
VERTEX
  8
0
 10
92.23423976
 20
80.94960081
  0
VERTEX
  8
0
 10
92.06541302
 20
81.04680408
  0
VERTEX
  8
0
 10
91.84542666
 20
81.12695415
  0
VERTEX
  8
0
 10
91.58792325
 20
81.18322973
  0
VERTEX
  8
0
 10
91.31336663
 20
81.20198826
  0
VERTEX
  8
0
 10
91.10680967
 20
81.19431432
  0
VERTEX
  8
0
 10
90.91346895
 20
81.17129249
  0
VERTEX
  8
0
 10
90.73334446
 20
81.13292277
  0
VERTEX
  8
0
 10
90.56643621
 20
81.07920518
  0
VERTEX
  8
0
 10
90.41508900
 20
81.01227134
  0
VERTEX
  8
0
 10
90.28505831
 20
80.93425292
  0
VERTEX
  8
0
 10
90.17634412
 20
80.84514992
  0
VERTEX
  8
0
 10
90.08894644
 20
80.74496234
  0
VERTEX
  8
0
 10
90.01817564
 20
80.63198485
  0
VERTEX
  8
0
 10
89.95934207
 20
80.50110149
  0
VERTEX
  8
0
 10
89.91244576
 20
80.35231227
  0
VERTEX
  8
0
 10
89.87748669
 20
80.18561718
  0
VERTEX
  8
0
 10
90.47775954
 20
80.10376179
  0
VERTEX
  8
0
 10
90.50802898
 20
80.23592414
  0
VERTEX
  8
0
 10
90.55790961
 20
80.35273860
  0
VERTEX
  8
0
 10
90.62740142
 20
80.45420518
  0
VERTEX
  8
0
 10
90.71650442
 20
80.54032387
  0
VERTEX
  8
0
 10
90.82393962
 20
80.60896302
  0
VERTEX
  8
0
 10
90.95183866
 20
80.65799099
  0
VERTEX
  8
0
 10
91.10020156
 20
80.68740777
  0
VERTEX
  8
0
 10
91.26902830
 20
80.69721336
  0
VERTEX
  8
0
 10
91.46535333
 20
80.68847359
  0
VERTEX
  8
0
 10
91.63140892
 20
80.66225429
  0
VERTEX
  8
0
 10
91.76719508
 20
80.61855545
  0
VERTEX
  8
0
 10
91.87271179
 20
80.55737707
  0
VERTEX
  8
0
 10
91.95179603
 20
80.48447462
  0
VERTEX
  8
0
 10
92.00828478
 20
80.40560354
  0
VERTEX
  8
0
 10
92.04217802
 20
80.32076384
  0
VERTEX
  8
0
 10
92.05347577
 20
80.22995552
  0
VERTEX
  8
0
 10
92.03471724
 20
80.11655170
  0
VERTEX
  8
0
 10
91.97844167
 20
80.01508512
  0
VERTEX
  8
0
 10
91.88209105
 20
79.92470313
  0
VERTEX
  8
0
 10
91.74310742
 20
79.85137434
  0
VERTEX
  8
0
 10
91.20081547
 20
79.69448485
  0
VERTEX
  8
0
 10
90.64829160
 20
79.53589003
  0
VERTEX
  8
0
 10
90.29358491
 20
79.40799099
  0
VERTEX
  8
0
 10
90.17101499
 20
79.34702578
  0
VERTEX
  8
0
 10
90.06251397
 20
79.27327066
  0
VERTEX
  8
0
 10
89.96808184
 20
79.18672564
  0
VERTEX
  8
0
 10
89.88771861
 20
79.08739071
  0
VERTEX
  8
0
 10
89.82355592
 20
78.97526588
  0
VERTEX
  8
0
 10
89.77772543
 20
78.85035115
  0
VERTEX
  8
0
 10
89.75022714
 20
78.71264651
  0
VERTEX
  8
0
 10
89.74106104
 20
78.56215197
  0
VERTEX
  8
0
 10
89.75235879
 20
78.41080477
  0
VERTEX
  8
0
 10
89.78625203
 20
78.26372086
  0
VERTEX
  8
0
 10
89.84274078
 20
78.12090026
  0
VERTEX
  8
0
 10
89.92182502
 20
77.98234297
  0
VERTEX
  8
0
 10
90.02052045
 20
77.85508342
  0
VERTEX
  8
0
 10
90.13925340
 20
77.74274542
  0
VERTEX
  8
0
 10
90.27802386
 20
77.64532898
  0
VERTEX
  8
0
 10
90.43683184
 20
77.56283410
  0
VERTEX
  8
0
 10
90.61120087
 20
77.49867141
  0
VERTEX
  8
0
 10
90.79665449
 20
77.45284092
  0
VERTEX
  8
0
 10
90.99319269
 20
77.42534262
  0
VERTEX
  8
0
 10
91.20081547
 20
77.41617653
  0
VERTEX
  8
0
 10
91.53292666
 20
77.43450872
  0
VERTEX
  8
0
 10
91.82325749
 20
77.48950531
  0
VERTEX
  8
0
 10
92.07180797
 20
77.58116629
  0
VERTEX
  8
0
 10
92.27857809
 20
77.70949167
  0
VERTEX
  8
0
 10
92.44612584
 20
77.87384194
  0
VERTEX
  8
0
 10
92.58041984
 20
78.07357762
  0
VERTEX
  8
0
 10
92.68146008
 20
78.30869870
  0
VERTEX
  8
0
 10
92.74924658
 20
78.57920518
  0
SEQEND
  0
POLYLINE
  8
Default Layer
 62
256
 66
   1
 39
0.000000
 70
    1
  0
VERTEX
  8
0
 10
139.00063244
 20
64.84094681
  0
VERTEX
  8
0
 10
139.00063244
 20
69.84094681
  0
VERTEX
  8
0
 10
138.00472521
 20
69.84094681
  0
VERTEX
  8
0
 10
136.82123271
 20
66.30070124
  0
VERTEX
  8
0
 10
136.58248783
 20
65.56059210
  0
VERTEX
  8
0
 10
136.31645781
 20
66.36209278
  0
VERTEX
  8
0
 10
135.11932275
 20
69.84094681
  0
VERTEX
  8
0
 10
134.22914540
 20
69.84094681
  0
VERTEX
  8
0
 10
134.22914540
 20
64.84094681
  0
VERTEX
  8
0
 10
134.86693530
 20
64.84094681
  0
VERTEX
  8
0
 10
134.86693530
 20
69.02580356
  0
VERTEX
  8
0
 10
136.31986845
 20
64.84094681
  0
VERTEX
  8
0
 10
136.91673066
 20
64.84094681
  0
VERTEX
  8
0
 10
138.36284253
 20
69.09742703
  0
VERTEX
  8
0
 10
138.36284253
 20
64.84094681
  0
VERTEX
  8
0
 10
139.00063244
 20
64.84094681
  0
SEQEND
  0
POLYLINE
  8
Default Layer
 62
256
 66
   1
 39
0.000000
 70
    1
  0
VERTEX
  8
0
 10
133.23664881
 20
69.13494408
  0
VERTEX
  8
0
 10
133.23664881
 20
69.84094681
  0
VERTEX
  8
0
 10
132.62273339
 20
69.84094681
  0
VERTEX
  8
0
 10
132.62273339
 20
69.13494408
  0
VERTEX
  8
0
 10
133.23664881
 20
69.13494408
  0
SEQEND
  0
POLYLINE
  8
Default Layer
 62
256
 66
   1
 39
0.000000
 70
    1
  0
VERTEX
  8
0
 10
133.23664881
 20
64.84094681
  0
VERTEX
  8
0
 10
133.23664881
 20
68.46304776
  0
VERTEX
  8
0
 10
132.62273339
 20
68.46304776
  0
VERTEX
  8
0
 10
132.62273339
 20
64.84094681
  0
VERTEX
  8
0
 10
133.23664881
 20
64.84094681
  0
SEQEND
  0
POLYLINE
  8
Default Layer
 62
256
 66
   1
 39
0.000000
 70
    1
  0
VERTEX
  8
0
 10
131.68821770
 20
64.84094681
  0
VERTEX
  8
0
 10
131.68821770
 20
68.46304776
  0
VERTEX
  8
0
 10
131.13569383
 20
68.46304776
  0
VERTEX
  8
0
 10
131.13569383
 20
67.94804094
  0
VERTEX
  8
0
 10
131.03039028
 20
68.08793052
  0
VERTEX
  8
0
 10
130.91400215
 20
68.20916816
  0
VERTEX
  8
0
 10
130.78652944
 20
68.31175385
  0
VERTEX
  8
0
 10
130.64797214
 20
68.39568760
  0
VERTEX
  8
0
 10
130.49833025
 20
68.46096940
  0
VERTEX
  8
0
 10
130.33760379
 20
68.50759926
  0
VERTEX
  8
0
 10
130.16579274
 20
68.53557718
  0
VERTEX
  8
0
 10
129.98289710
 20
68.54490315
  0
VERTEX
  8
0
 10
129.82259697
 20
68.53744237
  0
VERTEX
  8
0
 10
129.66911811
 20
68.51506004
  0
VERTEX
  8
0
 10
129.52246054
 20
68.47775615
  0
VERTEX
  8
0
 10
129.38262425
 20
68.42553071
  0
VERTEX
  8
0
 10
129.25323305
 20
68.36286018
  0
VERTEX
  8
0
 10
129.14132139
 20
68.29081038
  0
VERTEX
  8
0
 10
129.04688926
 20
68.20938132
  0
VERTEX
  8
0
 10
128.96993667
 20
68.11857300
  0
VERTEX
  8
0
 10
128.85397487
 20
67.90967123
  0
VERTEX
  8
0
 10
128.77894076
 20
67.66495772
  0
VERTEX
  8
0
 10
128.75336095
 20
67.43047614
  0
VERTEX
  8
0
 10
128.74483435
 20
67.06809551
  0
VERTEX
  8
0
 10
128.74483435
 20
64.84094681
  0
VERTEX
  8
0
 10
129.35874976
 20
64.84094681
  0
VERTEX
  8
0
 10
129.35874976
 20
67.04422102
  0
VERTEX
  8
0
 10
129.37665563
 20
67.37164258
  0
VERTEX
  8
0
 10
129.43037323
 20
67.60356618
  0
VERTEX
  8
0
 10
129.47321941
 20
67.69245602
  0
VERTEX
  8
0
 10
129.53013448
 20
67.77154026
  0
VERTEX
  8
0
 10
129.60111845
 20
67.84081891
  0
VERTEX
  8
0
 10
129.68617132
 20
67.90029197
  0
VERTEX
  8
0
 10
129.78060345
 20
67.94953310
  0
VERTEX
  8
0
 10
129.88313585
 20
67.98470534
  0
VERTEX
  8
0
 10
130.11250147
 20
68.01284313
  0
VERTEX
  8
0
 10
130.30200522
 20
67.99728207
  0
VERTEX
  8
0
 10
130.47829274
 20
67.95059892
  0
VERTEX
  8
0
 10
130.64136402
 20
67.87279367
  0
VERTEX
  8
0
 10
130.79121907
 20
67.76386632
  0
VERTEX
  8
0
 10
130.85756670
 20
67.69464096
  0
VERTEX
  8
0
 10
130.91506798
 20
67.61145329
  0
VERTEX
  8
0
 10
131.00353148
 20
67.40319101
  0
VERTEX
  8
0
 10
131.05660959
 20
67.13907948
  0
VERTEX
  8
0
 10
131.07430229
 20
66.81911870
  0
VERTEX
  8
0
 10
131.07430229
 20
64.84094681
  0
VERTEX
  8
0
 10
131.68821770
 20
64.84094681
  0
SEQEND
  0
POLYLINE
  8
Default Layer
 62
256
 66
   1
 39
0.000000
 70
    1
  0
VERTEX
  8
0
 10
125.42969110
 20
64.84094681
  0
VERTEX
  8
0
 10
125.42969110
 20
65.37300684
  0
VERTEX
  8
0
 10
125.54016390
 20
65.22912041
  0
VERTEX
  8
0
 10
125.66012255
 20
65.10441884
  0
VERTEX
  8
0
 10
125.78956704
 20
64.99890213
  0
VERTEX
  8
0
 10
125.92849738
 20
64.91257027
  0
VERTEX
  8
0
 10
126.07691356
 20
64.84542328
  0
VERTEX
  8
0
 10
126.23481559
 20
64.79746113
  0
VERTEX
  8
0
 10
126.40220346
 20
64.76868385
  0
VERTEX
  8
0
 10
126.57907719
 20
64.75909142
  0
VERTEX
  8
0
 10
126.73681934
 20
64.76676536
  0
VERTEX
  8
0
 10
126.88944553
 20
64.78978719
  0
VERTEX
  8
0
 10
127.03695577
 20
64.82815690
  0
VERTEX
  8
0
 10
127.17935004
 20
64.88187450
  0
VERTEX
  8
0
 10
127.30874124
 20
64.94710302
  0
VERTEX
  8
0
 10
127.42065290
 20
65.02000547
  0
VERTEX
  8
0
 10
127.51508503
 20
65.10058187
  0
VERTEX
  8
0
 10
127.59203762
 20
65.18883221
  0
VERTEX
  8
0
 10
127.70544144
 20
65.39688132
  0
VERTEX
  8
0
 10
127.77962289
 20
65.64585813
  0
VERTEX
  8
0
 10
127.80776068
 20
65.87948705
  0
VERTEX
  8
0
 10
127.81713994
 20
66.21884585
  0
VERTEX
  8
0
 10
127.81713994
 20
68.46304776
  0
VERTEX
  8
0
 10
127.20322453
 20
68.46304776
  0
VERTEX
  8
0
 10
127.20322453
 20
66.45418010
  0
VERTEX
  8
0
 10
127.19384526
 20
66.05172443
  0
VERTEX
  8
0
 10
127.16570747
 20
65.80615827
  0
VERTEX
  8
0
 10
127.12861675
 20
65.69147546
  0
VERTEX
  8
0
 10
127.07532548
 20
65.58958255
  0
VERTEX
  8
0
 10
127.00583367
 20
65.50047955
  0
VERTEX
  8
0
 10
126.92014131
 20
65.42416645
  0
VERTEX
  8
0
 10
126.82080638
 20
65.36448023
  0
VERTEX
  8
0
 10
126.71038687
 20
65.32184722
  0
VERTEX
  8
0
 10
126.58888278
 20
65.29626741
  0
VERTEX
  8
0
 10
126.45629410
 20
65.28774081
  0
VERTEX
  8
0
 10
126.32029478
 20
65.29648057
  0
VERTEX
  8
0
 10
126.18855877
 20
65.32269988
  0
VERTEX
  8
0
 10
126.06108605
 20
65.36639872
  0
VERTEX
  8
0
 10
125.93787664
 20
65.42757710
  0
VERTEX
  8
0
 10
125.82575181
 20
65.50538235
  0
VERTEX
  8
0
 10
125.73153285
 20
65.59555117
  0
VERTEX
  8
0
 10
125.65521975
 20
65.69808358
  0
VERTEX
  8
0
 10
125.59681252
 20
65.81297955
  0
VERTEX
  8
0
 10
125.55204785
 20
65.94940520
  0
VERTEX
  8
0
 10
125.52007309
 20
66.11311598
  0
VERTEX
  8
0
 10
125.49449328
 20
66.52239292
  0
VERTEX
  8
0
 10
125.49449328
 20
68.46304776
  0
VERTEX
  8
0
 10
124.88057787
 20
68.46304776
  0
VERTEX
  8
0
 10
124.88057787
 20
64.84094681
  0
VERTEX
  8
0
 10
125.42969110
 20
64.84094681
  0
SEQEND
  0
POLYLINE
  8
Default Layer
 62
256
 66
   1
 39
0.000000
 70
    1
  0
VERTEX
  8
0
 10
122.57839506
 20
65.39006004
  0
VERTEX
  8
0
 10
122.48971839
 20
64.84776809
  0
VERTEX
  8
0
 10
122.73528455
 20
64.80684040
  0
VERTEX
  8
0
 10
122.95356559
 20
64.79319783
  0
VERTEX
  8
0
 10
123.25029137
 20
64.81963030
  0
VERTEX
  8
0
 10
123.37051648
 20
64.85267089
  0
VERTEX
  8
0
 10
123.47198305
 20
64.89892771
  0
VERTEX
  8
0
 10
123.62887255
 20
65.02085813
  0
VERTEX
  8
0
 10
123.68685345
 20
65.09397375
  0
VERTEX
  8
0
 10
123.73119178
 20
65.17518965
  0
VERTEX
  8
0
 10
123.76401920
 20
65.28582232
  0
VERTEX
  8
0
 10
123.78746736
 20
65.44377764
  0
VERTEX
  8
0
 10
123.80622589
 20
65.90165622
  0
VERTEX
  8
0
 10
123.80622589
 20
67.98555800
  0
VERTEX
  8
0
 10
124.25643053
 20
67.98555800
  0
VERTEX
  8
0
 10
124.25643053
 20
68.46304776
  0
VERTEX
  8
0
 10
123.80622589
 20
68.46304776
  0
VERTEX
  8
0
 10
123.80622589
 20
69.36004640
  0
VERTEX
  8
0
 10
123.19572111
 20
69.72839565
  0
VERTEX
  8
0
 10
123.19572111
 20
68.46304776
  0
VERTEX
  8
0
 10
122.57839506
 20
68.46304776
  0
VERTEX
  8
0
 10
122.57839506
 20
67.98555800
  0
VERTEX
  8
0
 10
123.19572111
 20
67.98555800
  0
VERTEX
  8
0
 10
123.19572111
 20
65.86754981
  0
VERTEX
  8
0
 10
123.18804717
 20
65.65182675
  0
VERTEX
  8
0
 10
123.16502534
 20
65.52989633
  0
VERTEX
  8
0
 10
123.12153967
 20
65.46253617
  0
VERTEX
  8
0
 10
123.05929547
 20
65.41052389
  0
VERTEX
  8
0
 10
122.96891347
 20
65.37727014
  0
VERTEX
  8
0
 10
122.84783571
 20
65.36618555
  0
VERTEX
  8
0
 10
122.57839506
 20
65.39006004
  0
SEQEND
  0
POLYLINE
  8
Default Layer
 62
256
 66
   1
 39
0.000000
 70
    1
  0
VERTEX
  8
0
 10
119.49858605
 20
66.00738610
  0
VERTEX
  8
0
 10
118.86420679
 20
65.92894135
  0
VERTEX
  8
0
 10
118.95522828
 20
65.66653514
  0
VERTEX
  8
0
 10
119.07822453
 20
65.43525104
  0
VERTEX
  8
0
 10
119.23319553
 20
65.23508903
  0
VERTEX
  8
0
 10
119.42014131
 20
65.06604913
  0
VERTEX
  8
0
 10
119.63714335
 20
64.93175513
  0
VERTEX
  8
0
 10
119.88228319
 20
64.83583085
  0
VERTEX
  8
0
 10
120.15556081
 20
64.77827628
  0
VERTEX
  8
0
 10
120.45697623
 20
64.75909142
  0
VERTEX
  8
0
 10
120.65053012
 20
64.76671207
  0
VERTEX
  8
0
 10
120.83385208
 20
64.78957403
  0
VERTEX
  8
0
 10
121.00694212
 20
64.82767728
  0
VERTEX
  8
0
 10
121.16980024
 20
64.88102184
  0
VERTEX
  8
0
 10
121.32242643
 20
64.94960771
  0
VERTEX
  8
0
 10
121.46482071
 20
65.03343487
  0
VERTEX
  8
0
 10
121.59698305
 20
65.13250334
  0
VERTEX
  8
0
 10
121.71891347
 20
65.24681311
  0
VERTEX
  8
0
 10
121.82762766
 20
65.37572469
  0
VERTEX
  8
0
 10
121.92184663
 20
65.51689326
  0
VERTEX
  8
0
 10
122.00157036
 20
65.67031882
  0
VERTEX
  8
0
 10
122.06679888
 20
65.83600138
  0
VERTEX
  8
0
 10
122.11753216
 20
66.01394093
  0
VERTEX
  8
0
 10
122.15377023
 20
66.20413746
  0
VERTEX
  8
0
 10
122.17551307
 20
66.40659099
  0
VERTEX
  8
0
 10
122.18276068
 20
66.62130152
  0
VERTEX
  8
0
 10
122.17540648
 20
66.84341952
  0
VERTEX
  8
0
 10
122.15334390
 20
67.05274763
  0
VERTEX
  8
0
 10
122.11657292
 20
67.24928583
  0
VERTEX
  8
0
 10
122.06509356
 20
67.43303412
  0
VERTEX
  8
0
 10
121.99890580
 20
67.60399251
  0
VERTEX
  8
0
 10
121.91800965
 20
67.76216100
  0
VERTEX
  8
0
 10
121.82240512
 20
67.90753958
  0
VERTEX
  8
0
 10
121.71209219
 20
68.04012825
  0
VERTEX
  8
0
 10
121.59005519
 20
68.15843487
  0
VERTEX
  8
0
 10
121.45927841
 20
68.26096727
  0
VERTEX
  8
0
 10
121.31976187
 20
68.34772546
  0
VERTEX
  8
0
 10
121.17150556
 20
68.41870943
  0
VERTEX
  8
0
 10
121.01450948
 20
68.47391918
  0
VERTEX
  8
0
 10
120.84877364
 20
68.51335472
  0
VERTEX
  8
0
 10
120.67429802
 20
68.53701604
  0
VERTEX
  8
0
 10
120.49108264
 20
68.54490315
  0
VERTEX
  8
0
 10
120.31362272
 20
68.53717592
  0
VERTEX
  8
0
 10
120.14447623
 20
68.51399422
  0
VERTEX
  8
0
 10
119.98364318
 20
68.47535805
  0
VERTEX
  8
0
 10
119.83112357
 20
68.42126741
  0
VERTEX
  8
0
 10
119.68691740
 20
68.35172230
  0
VERTEX
  8
0
 10
119.55102466
 20
68.26672273
  0
VERTEX
  8
0
 10
119.42344536
 20
68.16626869
  0
VERTEX
  8
0
 10
119.30417950
 20
68.05036018
  0
VERTEX
  8
0
 10
119.19626469
 20
67.92043606
  0
VERTEX
  8
0
 10
119.10273851
 20
67.77793521
  0
VERTEX
  8
0
 10
119.02360097
 20
67.62285762
  0
VERTEX
  8
0
 10
118.95885208
 20
67.45520329
  0
VERTEX
  8
0
 10
118.90849183
 20
67.27497222
  0
VERTEX
  8
0
 10
118.87252023
 20
67.08216441
  0
VERTEX
  8
0
 10
118.85093726
 20
66.87677986
  0
VERTEX
  8
0
 10
118.84374294
 20
66.65881857
  0
VERTEX
  8
0
 10
118.84715358
 20
66.49510779
  0
VERTEX
  8
0
 10
121.54838141
 20
66.49510779
  0
VERTEX
  8
0
 10
121.55017914
 20
66.35100111
  0
VERTEX
  8
0
 10
121.53584475
 20
66.21524208
  0
VERTEX
  8
0
 10
121.46589847
 20
65.96912894
  0
VERTEX
  8
0
 10
121.35278029
 20
65.75749226
  0
VERTEX
  8
0
 10
121.21072794
 20
65.58105595
  0
VERTEX
  8
0
 10
121.04957514
 20
65.44228549
  0
VERTEX
  8
0
 10
120.86966382
 20
65.34316373
  0
VERTEX
  8
0
 10
120.67099397
 20
65.28369067
  0
VERTEX
  8
0
 10
120.45356559
 20
65.26386632
  0
VERTEX
  8
0
 10
120.29092064
 20
65.27495090
  0
VERTEX
  8
0
 10
120.14063926
 20
65.30820465
  0
VERTEX
  8
0
 10
120.00272146
 20
65.36362757
  0
VERTEX
  8
0
 10
119.87716723
 20
65.44121966
  0
VERTEX
  8
0
 10
119.76397657
 20
65.54311257
  0
VERTEX
  8
0
 10
119.66314949
 20
65.67143794
  0
VERTEX
  8
0
 10
119.57468598
 20
65.82619579
  0
VERTEX
  8
0
 10
119.49858605
 20
66.00738610
  0
SEQEND
  0
POLYLINE
  8
Default Layer
 62
256
 66
   1
 39
0.000000
 70
    1
  0
VERTEX
  8
0
 10
121.51427500
 20
66.99988269
  0
VERTEX
  8
0
 10
119.49176477
 20
66.99988269
  0
VERTEX
  8
0
 10
119.52160788
 20
67.21411359
  0
VERTEX
  8
0
 10
119.57020952
 20
67.39978037
  0
VERTEX
  8
0
 10
119.63756968
 20
67.55688303
  0
VERTEX
  8
0
 10
119.72368837
 20
67.68542157
  0
VERTEX
  8
0
 10
119.88121736
 20
67.84060574
  0
VERTEX
  8
0
 10
120.06048919
 20
67.95145158
  0
VERTEX
  8
0
 10
120.26150386
 20
68.01795909
  0
VERTEX
  8
0
 10
120.48426136
 20
68.04012825
  0
VERTEX
  8
0
 10
120.68740768
 20
68.02243555
  0
VERTEX
  8
0
 10
120.87392712
 20
67.96935745
  0
VERTEX
  8
0
 10
121.04381968
 20
67.88089394
  0
VERTEX
  8
0
 10
121.19708537
 20
67.75704503
  0
VERTEX
  8
0
 10
121.32434492
 20
67.60356618
  0
VERTEX
  8
0
 10
121.41962971
 20
67.42621284
  0
VERTEX
  8
0
 10
121.48293974
 20
67.22498501
  0
VERTEX
  8
0
 10
121.51427500
 20
66.99988269
  0
SEQEND
  0
POLYLINE
  8
Default Layer
 62
256
 66
   1
 39
0.000000
 70
    1
  0
VERTEX
  8
0
 10
118.33896804
 20
65.92212007
  0
VERTEX
  8
0
 10
117.73187391
 20
66.01761802
  0
VERTEX
  8
0
 10
117.69499635
 20
65.84580697
  0
VERTEX
  8
0
 10
117.63552330
 20
65.69531243
  0
VERTEX
  8
0
 10
117.55345474
 20
65.56613439
  0
VERTEX
  8
0
 10
117.44879069
 20
65.45827287
  0
VERTEX
  8
0
 10
117.31961266
 20
65.37322000
  0
VERTEX
  8
0
 10
117.16741279
 20
65.31246795
  0
VERTEX
  8
0
 10
116.99219110
 20
65.27601673
  0
VERTEX
  8
0
 10
116.79394758
 20
65.26386632
  0
VERTEX
  8
0
 10
116.59613039
 20
65.27452457
  0
VERTEX
  8
0
 10
116.42559833
 20
65.30649933
  0
VERTEX
  8
0
 10
116.28235140
 20
65.35979060
  0
VERTEX
  8
0
 10
116.16638960
 20
65.43439838
  0
VERTEX
  8
0
 10
116.07686027
 20
65.52499353
  0
VERTEX
  8
0
 10
116.01291075
 20
65.62283630
  0
VERTEX
  8
0
 10
115.97454103
 20
65.72792669
  0
VERTEX
  8
0
 10
115.96175113
 20
65.84026468
  0
VERTEX
  8
0
 10
115.97304888
 20
65.93874694
  0
VERTEX
  8
0
 10
116.00694212
 20
66.02614463
  0
VERTEX
  8
0
 10
116.06343087
 20
66.10245772
  0
VERTEX
  8
0
 10
116.14251511
 20
66.16768624
  0
VERTEX
  8
0
 10
116.36250147
 20
66.26062621
  0
VERTEX
  8
0
 10
116.77007309
 20
66.37573535
  0
VERTEX
  8
0
 10
117.34220815
 20
66.53433016
  0
VERTEX
  8
0
 10
117.70799942
 20
66.66905049
  0
VERTEX
  8
0
 10
117.82992985
 20
66.73790281
  0
VERTEX
  8
0
 10
117.93651238
 20
66.81826604
  0
VERTEX
  8
0
 10
118.02774704
 20
66.91014019
  0
VERTEX
  8
0
 10
118.10363380
 20
67.01352525
  0
VERTEX
  8
0
 10
118.16182787
 20
67.12714224
  0
VERTEX
  8
0
 10
118.20339506
 20
67.24630152
  0
VERTEX
  8
0
 10
118.22833537
 20
67.37100308
  0
VERTEX
  8
0
 10
118.23664881
 20
67.50124694
  0
VERTEX
  8
0
 10
118.20936368
 20
67.73402321
  0
VERTEX
  8
0
 10
118.12750829
 20
67.94804094
  0
VERTEX
  8
0
 10
117.99534594
 20
68.13818419
  0
VERTEX
  8
0
 10
117.82396122
 20
68.29251570
  0
VERTEX
  8
0
 10
117.65513448
 20
68.38971898
  0
VERTEX
  8
0
 10
117.43514813
 20
68.46986905
  0
VERTEX
  8
0
 10
117.17764472
 20
68.52614463
  0
VERTEX
  8
0
 10
116.90308810
 20
68.54490315
  0
VERTEX
  8
0
 10
116.69653114
 20
68.53722921
  0
VERTEX
  8
0
 10
116.50319042
 20
68.51420738
  0
VERTEX
  8
0
 10
116.32306593
 20
68.47583767
  0
VERTEX
  8
0
 10
116.15615768
 20
68.42212007
  0
VERTEX
  8
0
 10
116.00481047
 20
68.35518624
  0
VERTEX
  8
0
 10
115.87477978
 20
68.27716782
  0
VERTEX
  8
0
 10
115.76606559
 20
68.18806482
  0
VERTEX
  8
0
 10
115.67866791
 20
68.08787723
  0
VERTEX
  8
0
 10
115.60789710
 20
67.97489974
  0
VERTEX
  8
0
 10
115.54906354
 20
67.84401639
  0
VERTEX
  8
0
 10
115.50216723
 20
67.69522716
  0
VERTEX
  8
0
 10
115.46720815
 20
67.52853207
  0
VERTEX
  8
0
 10
116.06748101
 20
67.44667669
  0
VERTEX
  8
0
 10
116.09775045
 20
67.57883903
  0
VERTEX
  8
0
 10
116.14763107
 20
67.69565349
  0
VERTEX
  8
0
 10
116.21712289
 20
67.79712007
  0
VERTEX
  8
0
 10
116.30622589
 20
67.88323876
  0
VERTEX
  8
0
 10
116.41366109
 20
67.95187791
  0
VERTEX
  8
0
 10
116.54156013
 20
68.00090588
  0
VERTEX
  8
0
 10
116.68992302
 20
68.03032266
  0
VERTEX
  8
0
 10
116.85874976
 20
68.04012825
  0
VERTEX
  8
0
 10
117.05507480
 20
68.03138849
  0
VERTEX
  8
0
 10
117.22113039
 20
68.00516918
  0
VERTEX
  8
0
 10
117.35691654
 20
67.96147034
  0
VERTEX
  8
0
 10
117.46243326
 20
67.90029197
  0
VERTEX
  8
0
 10
117.54151750
 20
67.82738951
  0
VERTEX
  8
0
 10
117.59800624
 20
67.74851843
  0
VERTEX
  8
0
 10
117.63189949
 20
67.66367873
  0
VERTEX
  8
0
 10
117.64319724
 20
67.57287041
  0
VERTEX
  8
0
 10
117.62443871
 20
67.45946659
  0
VERTEX
  8
0
 10
117.56816313
 20
67.35800001
  0
VERTEX
  8
0
 10
117.47181252
 20
67.26761802
  0
VERTEX
  8
0
 10
117.33282889
 20
67.19428924
  0
VERTEX
  8
0
 10
116.79053694
 20
67.03739974
  0
VERTEX
  8
0
 10
116.23801307
 20
66.87880493
  0
VERTEX
  8
0
 10
115.88330638
 20
66.75090588
  0
VERTEX
  8
0
 10
115.76073646
 20
66.68994067
  0
VERTEX
  8
0
 10
115.65223544
 20
66.61618555
  0
VERTEX
  8
0
 10
115.55780331
 20
66.52964053
  0
VERTEX
  8
0
 10
115.47744008
 20
66.43030561
  0
VERTEX
  8
0
 10
115.41327739
 20
66.31818078
  0
VERTEX
  8
0
 10
115.36744690
 20
66.19326604
  0
VERTEX
  8
0
 10
115.33994860
 20
66.05556141
  0
VERTEX
  8
0
 10
115.33078251
 20
65.90506686
  0
VERTEX
  8
0
 10
115.34208025
 20
65.75371966
  0
VERTEX
  8
0
 10
115.37597350
 20
65.60663576
  0
VERTEX
  8
0
 10
115.43246225
 20
65.46381516
  0
VERTEX
  8
0
 10
115.51154649
 20
65.32525786
  0
VERTEX
  8
0
 10
115.61024192
 20
65.19799831
  0
VERTEX
  8
0
 10
115.72897487
 20
65.08566031
  0
VERTEX
  8
0
 10
115.86774533
 20
64.98824388
  0
VERTEX
  8
0
 10
116.02655331
 20
64.90574899
  0
VERTEX
  8
0
 10
116.20092234
 20
64.84158630
  0
VERTEX
  8
0
 10
116.38637596
 20
64.79575581
  0
VERTEX
  8
0
 10
116.58291416
 20
64.76825752
  0
VERTEX
  8
0
 10
116.79053694
 20
64.75909142
  0
VERTEX
  8
0
 10
117.12264813
 20
64.77742362
  0
VERTEX
  8
0
 10
117.41297896
 20
64.83242021
  0
VERTEX
  8
0
 10
117.66152944
 20
64.92408119
  0
VERTEX
  8
0
 10
117.86829956
 20
65.05240656
  0
VERTEX
  8
0
 10
118.03584731
 20
65.21675684
  0
VERTEX
  8
0
 10
118.17014131
 20
65.41649251
  0
VERTEX
  8
0
 10
118.27118155
 20
65.65161359
  0
VERTEX
  8
0
 10
118.33896804
 20
65.92212007
  0
SEQEND
  0
POLYLINE
  8
Default Layer
 62
256
 66
   1
 39
0.000000
 70
    1
  0
VERTEX
  8
0
 10
139.00042977
 20
52.83513830
  0
VERTEX
  8
0
 10
139.00042977
 20
57.83513830
  0
VERTEX
  8
0
 10
138.33876538
 20
57.83513830
  0
VERTEX
  8
0
 10
138.33876538
 20
53.42517923
  0
VERTEX
  8
0
 10
135.87628243
 20
53.42517923
  0
VERTEX
  8
0
 10
135.87628243
 20
52.83513830
  0
VERTEX
  8
0
 10
139.00042977
 20
52.83513830
  0
SEQEND
  0
POLYLINE
  8
Default Layer
 62
256
 66
   1
 39
0.000000
 70
    1
  0
VERTEX
  8
0
 10
135.16345842
 20
57.12913557
  0
VERTEX
  8
0
 10
135.16345842
 20
57.83513830
  0
VERTEX
  8
0
 10
134.54954300
 20
57.83513830
  0
VERTEX
  8
0
 10
134.54954300
 20
57.12913557
  0
VERTEX
  8
0
 10
135.16345842
 20
57.12913557
  0
SEQEND
  0
POLYLINE
  8
Default Layer
 62
256
 66
   1
 39
0.000000
 70
    1
  0
VERTEX
  8
0
 10
135.16345842
 20
52.83513830
  0
VERTEX
  8
0
 10
135.16345842
 20
56.45723925
  0
VERTEX
  8
0
 10
134.54954300
 20
56.45723925
  0
VERTEX
  8
0
 10
134.54954300
 20
52.83513830
  0
VERTEX
  8
0
 10
135.16345842
 20
52.83513830
  0
SEQEND
  0
POLYLINE
  8
Default Layer
 62
256
 66
   1
 39
0.000000
 70
    1
  0
VERTEX
  8
0
 10
133.72757847
 20
52.53500187
  0
VERTEX
  8
0
 10
133.13071626
 20
52.44632520
  0
VERTEX
  8
0
 10
133.10364430
 20
52.31757350
  0
VERTEX
  8
0
 10
133.05994546
 20
52.20758032
  0
VERTEX
  8
0
 10
132.99961974
 20
52.11634566
  0
VERTEX
  8
0
 10
132.92266715
 20
52.04386954
  0
VERTEX
  8
0
 10
132.79796558
 20
51.96926176
  0
VERTEX
  8
0
 10
132.65237383
 20
51.91597049
  0
VERTEX
  8
0
 10
132.48589191
 20
51.88399573
  0
VERTEX
  8
0
 10
132.29851981
 20
51.87333748
  0
VERTEX
  8
0
 10
132.09750514
 20
51.88399573
  0
VERTEX
  8
0
 10
131.92079130
 20
51.91597049
  0
VERTEX
  8
0
 10
131.76837827
 20
51.96926176
  0
VERTEX
  8
0
 10
131.64026606
 20
52.04386954
  0
VERTEX
  8
0
 10
131.53368352
 20
52.13766217
  0
VERTEX
  8
0
 10
131.44585951
 20
52.24850801
  0
VERTEX
  8
0
 10
131.37679402
 20
52.37640706
  0
VERTEX
  8
0
 10
131.32648707
 20
52.52135931
  0
VERTEX
  8
0
 10
131.29152799
 20
52.81211647
  0
VERTEX
  8
0
 10
131.28214873
 20
53.30921742
  0
VERTEX
  8
0
 10
131.49574014
 20
53.10180781
  0
VERTEX
  8
0
 10
131.61180852
 20
53.02032546
  0
VERTEX
  8
0
 10
131.73405869
 20
52.95365808
  0
VERTEX
  8
0
 10
131.86249065
 20
52.90180568
  0
VERTEX
  8
0
 10
131.99710439
 20
52.86476824
  0
VERTEX
  8
0
 10
132.13789992
 20
52.84254578
  0
VERTEX
  8
0
 10
132.28487724
 20
52.83513830
  0
VERTEX
  8
0
 10
132.46633401
 20
52.84355832
  0
VERTEX
  8
0
 10
132.63723911
 20
52.86881838
  0
VERTEX
  8
0
 10
132.79759254
 20
52.91091848
  0
VERTEX
  8
0
 10
132.94739430
 20
52.96985863
  0
VERTEX
  8
0
 10
133.08664438
 20
53.04563881
  0
VERTEX
  8
0
 10
133.21534280
 20
53.13825903
  0
VERTEX
  8
0
 10
133.33348954
 20
53.24771930
  0
VERTEX
  8
0
 10
133.44108461
 20
53.37401961
  0
VERTEX
  8
0
 10
133.62014327
 20
53.65688966
  0
VERTEX
  8
0
 10
133.74804232
 20
53.96661852
  0
VERTEX
  8
0
 10
133.82478175
 20
54.30320617
  0
VERTEX
  8
0
 10
133.85036156
 20
54.66665262
  0
VERTEX
  8
0
 10
133.83863748
 20
54.92074539
  0
VERTEX
  8
0
 10
133.80346524
 20
55.16460624
  0
VERTEX
  8
0
 10
133.74484484
 20
55.39823516
  0
VERTEX
  8
0
 10
133.66277629
 20
55.62163216
  0
VERTEX
  8
0
 10
133.55853857
 20
55.82904178
  0
VERTEX
  8
0
 10
133.43341067
 20
56.01129792
  0
VERTEX
  8
0
 10
133.28739259
 20
56.16840058
  0
VERTEX
  8
0
 10
133.12048434
 20
56.30034976
  0
VERTEX
  8
0
 10
132.93375173
 20
56.40480064
  0
VERTEX
  8
0
 10
132.73167124
 20
56.47940842
  0
VERTEX
  8
0
 10
132.51424286
 20
56.52417309
  0
VERTEX
  8
0
 10
132.28146660
 20
56.53909464
  0
VERTEX
  8
0
 10
132.12468369
 20
56.53099437
  0
VERTEX
  8
0
 10
131.97493523
 20
56.50669355
  0
VERTEX
  8
0
 10
131.83222121
 20
56.46619219
  0
VERTEX
  8
0
 10
131.69654164
 20
56.40949028
  0
VERTEX
  8
0
 10
131.56789651
 20
56.33658782
  0
VERTEX
  8
0
 10
131.44628584
 20
56.24748482
  0
VERTEX
  8
0
 10
131.33170961
 20
56.14218127
  0
VERTEX
  8
0
 10
131.22416783
 20
56.02067718
  0
VERTEX
  8
0
 10
131.22416783
 20
56.45723925
  0
VERTEX
  8
0
 10
130.65800139
 20
56.45723925
  0
VERTEX
  8
0
 10
130.65800139
 20
53.32627063
  0
VERTEX
  8
0
 10
130.66887281
 20
52.93404689
  0
VERTEX
  8
0
 10
130.70148707
 20
52.60321470
  0
VERTEX
  8
0
 10
130.75584416
 20
52.33377404
  0
VERTEX
  8
0
 10
130.83194409
 20
52.12572493
  0
VERTEX
  8
0
 10
130.93000003
 20
51.95924300
  0
VERTEX
  8
0
 10
131.05363577
 20
51.81109328
  0
VERTEX
  8
0
 10
131.20285132
 20
51.68127575
  0
VERTEX
  8
0
 10
131.37764668
 20
51.56979041
  0
VERTEX
  8
0
 10
131.57439805
 20
51.48026108
  0
VERTEX
  8
0
 10
131.79289225
 20
51.41631156
  0
VERTEX
  8
0
 10
132.03312929
 20
51.37794184
  0
VERTEX
  8
0
 10
132.29510917
 20
51.36515194
  0
VERTEX
  8
0
 10
132.60355903
 20
51.38327097
  0
VERTEX
  8
0
 10
132.88088679
 20
51.43762807
  0
VERTEX
  8
0
 10
133.12709246
 20
51.52822322
  0
VERTEX
  8
0
 10
133.34217602
 20
51.65505644
  0
VERTEX
  8
0
 10
133.43548903
 20
51.73296828
  0
VERTEX
  8
0
 10
133.51590555
 20
51.82004621
  0
VERTEX
  8
0
 10
133.58342559
 20
51.91629024
  0
VERTEX
  8
0
 10
133.63804914
 20
52.02170037
  0
VERTEX
  8
0
 10
133.70860678
 20
52.26001893
  0
VERTEX
  8
0
 10
133.72757847
 20
52.53500187
  0
SEQEND
  0
POLYLINE
  8
Default Layer
 62
256
 66
   1
 39
0.000000
 70
    1
  0
VERTEX
  8
0
 10
133.21939293
 20
54.71099096
  0
VERTEX
  8
0
 10
133.20170023
 20
54.37866661
  0
VERTEX
  8
0
 10
133.14862213
 20
54.09451756
  0
VERTEX
  8
0
 10
133.06015862
 20
53.85854382
  0
VERTEX
  8
0
 10
132.93630971
 20
53.67074539
  0
VERTEX
  8
0
 10
132.78581517
 20
53.52749846
  0
VERTEX
  8
0
 10
132.61741476
 20
53.42517923
  0
VERTEX
  8
0
 10
132.43110849
 20
53.36378768
  0
VERTEX
  8
0
 10
132.22689634
 20
53.34332384
  0
VERTEX
  8
0
 10
132.02396319
 20
53.36357452
  0
VERTEX
  8
0
 10
131.83808325
 20
53.42432657
  0
VERTEX
  8
0
 10
131.66925651
 20
53.52557998
  0
VERTEX
  8
0
 10
131.51748297
 20
53.66733475
  0
VERTEX
  8
0
 10
131.39214191
 20
53.85406736
  0
VERTEX
  8
0
 10
131.30261258
 20
54.08684362
  0
VERTEX
  8
0
 10
131.24889498
 20
54.36566354
  0
VERTEX
  8
0
 10
131.23098911
 20
54.69052711
  0
VERTEX
  8
0
 10
131.24953447
 20
55.00260078
  0
VERTEX
  8
0
 10
131.30517056
 20
55.27374676
  0
VERTEX
  8
0
 10
131.39789737
 20
55.50396504
  0
VERTEX
  8
0
 10
131.52771490
 20
55.69325562
  0
VERTEX
  8
0
 10
131.68204641
 20
55.84097902
  0
VERTEX
  8
0
 10
131.85172581
 20
55.94649573
  0
VERTEX
  8
0
 10
132.03675310
 20
56.00980576
  0
VERTEX
  8
0
 10
132.23712827
 20
56.03090910
  0
VERTEX
  8
0
 10
132.43409280
 20
56.01001893
  0
VERTEX
  8
0
 10
132.61570944
 20
55.94734839
  0
VERTEX
  8
0
 10
132.78197820
 20
55.84289751
  0
VERTEX
  8
0
 10
132.93289907
 20
55.69666627
  0
VERTEX
  8
0
 10
133.05824014
 20
55.51099948
  0
VERTEX
  8
0
 10
133.14776947
 20
55.28483134
  0
VERTEX
  8
0
 10
133.20148707
 20
55.01816183
  0
VERTEX
  8
0
 10
133.21939293
 20
54.71099096
  0
SEQEND
  0
POLYLINE
  8
Default Layer
 62
256
 66
   1
 39
0.000000
 70
    1
  0
VERTEX
  8
0
 10
129.73030698
 20
52.83513830
  0
VERTEX
  8
0
 10
129.73030698
 20
57.83513830
  0
VERTEX
  8
0
 10
129.11639157
 20
57.83513830
  0
VERTEX
  8
0
 10
129.11639157
 20
56.04114103
  0
VERTEX
  8
0
 10
129.00543915
 20
56.15784890
  0
VERTEX
  8
0
 10
128.88745228
 20
56.25899573
  0
VERTEX
  8
0
 10
128.76243096
 20
56.34458151
  0
VERTEX
  8
0
 10
128.63037520
 20
56.41460624
  0
VERTEX
  8
0
 10
128.49128499
 20
56.46906991
  0
VERTEX
  8
0
 10
128.34516033
 20
56.50797254
  0
VERTEX
  8
0
 10
128.19200122
 20
56.53131412
  0
VERTEX
  8
0
 10
128.03180767
 20
56.53909464
  0
VERTEX
  8
0
 10
127.83718795
 20
56.52907588
  0
VERTEX
  8
0
 10
127.65578447
 20
56.49901961
  0
VERTEX
  8
0
 10
127.48759723
 20
56.44892581
  0
VERTEX
  8
0
 10
127.33262622
 20
56.37879451
  0
VERTEX
  8
0
 10
127.19492158
 20
56.29267581
  0
VERTEX
  8
0
 10
127.07853345
 20
56.19120924
  0
VERTEX
  8
0
 10
126.98346183
 20
56.07439478
  0
VERTEX
  8
0
 10
126.90970671
 20
55.94223243
  0
VERTEX
  8
0
 10
126.85300480
 20
55.78662193
  0
VERTEX
  8
0
 10
126.81250344
 20
55.59946299
  0
VERTEX
  8
0
 10
126.78820262
 20
55.38075562
  0
VERTEX
  8
0
 10
126.78010235
 20
55.13049983
  0
VERTEX
  8
0
 10
126.78010235
 20
52.83513830
  0
VERTEX
  8
0
 10
127.39401776
 20
52.83513830
  0
VERTEX
  8
0
 10
127.39401776
 20
55.13049983
  0
VERTEX
  8
0
 10
127.40659450
 20
55.34494389
  0
VERTEX
  8
0
 10
127.44432472
 20
55.52783953
  0
VERTEX
  8
0
 10
127.50720842
 20
55.67918673
  0
VERTEX
  8
0
 10
127.59524559
 20
55.79898550
  0
VERTEX
  8
0
 10
127.70459928
 20
55.89149914
  0
VERTEX
  8
0
 10
127.83484314
 20
55.95758032
  0
VERTEX
  8
0
 10
127.98597718
 20
55.99722902
  0
VERTEX
  8
0
 10
128.15800139
 20
56.01044526
  0
VERTEX
  8
0
 10
128.29250855
 20
56.00149232
  0
VERTEX
  8
0
 10
128.42317874
 20
55.97463352
  0
VERTEX
  8
0
 10
128.55001196
 20
55.92986886
  0
VERTEX
  8
0
 10
128.67300821
 20
55.86719833
  0
VERTEX
  8
0
 10
128.78385405
 20
55.79088523
  0
VERTEX
  8
0
 10
128.87764668
 20
55.70178223
  0
VERTEX
  8
0
 10
128.95438611
 20
55.59988932
  0
VERTEX
  8
0
 10
129.01407233
 20
55.48520651
  0
VERTEX
  8
0
 10
129.05883700
 20
55.35261783
  0
VERTEX
  8
0
 10
129.09081176
 20
55.19700733
  0
VERTEX
  8
0
 10
129.11639157
 20
54.81672084
  0
VERTEX
  8
0
 10
129.11639157
 20
52.83513830
  0
VERTEX
  8
0
 10
129.73030698
 20
52.83513830
  0
SEQEND
  0
POLYLINE
  8
Default Layer
 62
256
 66
   1
 39
0.000000
 70
    1
  0
VERTEX
  8
0
 10
124.50520467
 20
53.38425153
  0
VERTEX
  8
0
 10
124.41652799
 20
52.84195958
  0
VERTEX
  8
0
 10
124.66209416
 20
52.80103189
  0
VERTEX
  8
0
 10
124.88037520
 20
52.78738932
  0
VERTEX
  8
0
 10
125.17710098
 20
52.81382179
  0
VERTEX
  8
0
 10
125.29732608
 20
52.84686238
  0
VERTEX
  8
0
 10
125.39879266
 20
52.89311920
  0
VERTEX
  8
0
 10
125.55568216
 20
53.01504962
  0
VERTEX
  8
0
 10
125.61366306
 20
53.08816524
  0
VERTEX
  8
0
 10
125.65800139
 20
53.16938114
  0
VERTEX
  8
0
 10
125.69082881
 20
53.28001381
  0
VERTEX
  8
0
 10
125.71427697
 20
53.43796913
  0
VERTEX
  8
0
 10
125.73303550
 20
53.89584771
  0
VERTEX
  8
0
 10
125.73303550
 20
55.97974948
  0
VERTEX
  8
0
 10
126.18324014
 20
55.97974948
  0
VERTEX
  8
0
 10
126.18324014
 20
56.45723925
  0
VERTEX
  8
0
 10
125.73303550
 20
56.45723925
  0
VERTEX
  8
0
 10
125.73303550
 20
57.35423789
  0
VERTEX
  8
0
 10
125.12253072
 20
57.72258714
  0
VERTEX
  8
0
 10
125.12253072
 20
56.45723925
  0
VERTEX
  8
0
 10
124.50520467
 20
56.45723925
  0
VERTEX
  8
0
 10
124.50520467
 20
55.97974948
  0
VERTEX
  8
0
 10
125.12253072
 20
55.97974948
  0
VERTEX
  8
0
 10
125.12253072
 20
53.86174130
  0
VERTEX
  8
0
 10
125.11485678
 20
53.64601824
  0
VERTEX
  8
0
 10
125.09183495
 20
53.52408782
  0
VERTEX
  8
0
 10
125.04834928
 20
53.45672766
  0
VERTEX
  8
0
 10
124.98610507
 20
53.40471538
  0
VERTEX
  8
0
 10
124.89572308
 20
53.37146163
  0
VERTEX
  8
0
 10
124.77464532
 20
53.36037704
  0
VERTEX
  8
0
 10
124.50520467
 20
53.38425153
  0
SEQEND
  0
POLYLINE
  8
Default Layer
 62
256
 66
   1
 39
0.000000
 70
    1
  0
VERTEX
  8
0
 10
139.00109925
 20
104.50642837
  0
VERTEX
  8
0
 10
138.37695191
 20
104.56099863
  0
VERTEX
  8
0
 10
138.34753513
 20
104.38172680
  0
VERTEX
  8
0
 10
138.30362313
 20
104.21908185
  0
VERTEX
  8
0
 10
138.24521590
 20
104.07306377
  0
VERTEX
  8
0
 10
138.17231344
 20
103.94367257
  0
VERTEX
  8
0
 10
138.07937347
 20
103.82984242
  0
VERTEX
  8
0
 10
137.96426433
 20
103.72709686
  0
VERTEX
  8
0
 10
137.82698602
 20
103.63543588
  0
VERTEX
  8
0
 10
137.66753854
 20
103.55485948
  0
VERTEX
  8
0
 10
137.49167736
 20
103.49069679
  0
VERTEX
  8
0
 10
137.30515792
 20
103.44486630
  0
VERTEX
  8
0
 10
137.10798022
 20
103.41736800
  0
VERTEX
  8
0
 10
136.90014427
 20
103.40820191
  0
VERTEX
  8
0
 10
136.54373227
 20
103.43633970
  0
VERTEX
  8
0
 10
136.38215314
 20
103.47151193
  0
VERTEX
  8
0
 10
136.23165860
 20
103.52075307
  0
VERTEX
  8
0
 10
136.09608561
 20
103.58214461
  0
VERTEX
  8
0
 10
135.97927115
 20
103.65376807
  0
VERTEX
  8
0
 10
135.88121521
 20
103.73562346
  0
VERTEX
  8
0
 10
135.80191781
 20
103.82771077
  0
VERTEX
  8
0
 10
135.73924727
 20
103.92875102
  0
VERTEX
  8
0
 10
135.69448261
 20
104.03405457
  0
VERTEX
  8
0
 10
135.66762381
 20
104.14362141
  0
VERTEX
  8
0
 10
135.65867088
 20
104.25745156
  0
VERTEX
  8
0
 10
135.66719748
 20
104.37128171
  0
VERTEX
  8
0
 10
135.69277729
 20
104.47743792
  0
VERTEX
  8
0
 10
135.73541030
 20
104.57592019
  0
VERTEX
  8
0
 10
135.79509652
 20
104.66672851
  0
VERTEX
  8
0
 10
135.87439393
 20
104.75178137
  0
VERTEX
  8
0
 10
135.97586051
 20
104.82958663
  0
VERTEX
  8
0
 10
136.09949625
 20
104.90014427
  0
VERTEX
  8
0
 10
136.24530116
 20
104.96345429
  0
VERTEX
  8
0
 10
136.56845942
 20
105.06321555
  0
VERTEX
  8
0
 10
137.13547852
 20
105.20560982
  0
VERTEX
  8
0
 10
137.72125614
 20
105.36761528
  0
VERTEX
  8
0
 10
137.93676603
 20
105.44478103
  0
VERTEX
  8
0
 10
138.10068998
 20
105.51938881
  0
VERTEX
  8
0
 10
138.26845089
 20
105.61872373
  0
VERTEX
  8
0
 10
138.41361631
 20
105.72914324
  0
VERTEX
  8
0
 10
138.53618622
 20
105.85064734
  0
VERTEX
  8
0
 10
138.63616064
 20
105.98323601
  0
VERTEX
  8
0
 10
138.71226058
 20
106.12712244
  0
VERTEX
  8
0
 10
138.76661767
 20
106.27910914
  0
VERTEX
  8
0
 10
138.79923193
 20
106.43919611
  0
VERTEX
  8
0
 10
138.81010335
 20
106.60738335
  0
VERTEX
  8
0
 10
138.79667395
 20
106.79347646
  0
VERTEX
  8
0
 10
138.75638575
 20
106.97317462
  0
VERTEX
  8
0
 10
138.68923875
 20
107.14647783
  0
VERTEX
  8
0
 10
138.59523295
 20
107.31338608
  0
VERTEX
  8
0
 10
138.47543418
 20
107.46878342
  0
VERTEX
  8
0
 10
138.33090826
 20
107.60414324
  0
VERTEX
  8
0
 10
138.16165519
 20
107.71946555
  0
VERTEX
  8
0
 10
137.96767497
 20
107.81475034
  0
VERTEX
  8
0
 10
137.75557572
 20
107.88935811
  0
VERTEX
  8
0
 10
137.53196556
 20
107.94264938
  0
VERTEX
  8
0
 10
137.29684448
 20
107.97462414
  0
VERTEX
  8
0
 10
137.05021249
 20
107.98528240
  0
VERTEX
  8
0
 10
136.78055867
 20
107.97398465
  0
VERTEX
  8
0
 10
136.52753172
 20
107.94009140
  0
VERTEX
  8
0
 10
136.29113165
 20
107.88360266
  0
VERTEX
  8
0
 10
136.07135846
 20
107.80451841
  0
VERTEX
  8
0
 10
135.87055696
 20
107.70518349
  0
VERTEX
  8
0
 10
135.69448261
 20
107.58453206
  0
VERTEX
  8
0
 10
135.54313541
 20
107.44256412
  0
VERTEX
  8
0
 10
135.41651535
 20
107.27927967
  0
VERTEX
  8
0
 10
135.31547511
 20
107.09958151
  0
VERTEX
  8
0
 10
135.24086733
 20
106.90837244
  0
VERTEX
  8
0
 10
135.19269202
 20
106.70565245
  0
VERTEX
  8
0
 10
135.17094918
 20
106.49142155
  0
VERTEX
  8
0
 10
135.80532845
 20
106.44367257
  0
VERTEX
  8
0
 10
135.84625614
 20
106.66621691
  0
VERTEX
  8
0
 10
135.91787961
 20
106.85977080
  0
VERTEX
  8
0
 10
136.02019884
 20
107.02433424
  0
VERTEX
  8
0
 10
136.15321385
 20
107.15990723
  0
VERTEX
  8
0
 10
136.31756412
 20
107.26585027
  0
VERTEX
  8
0
 10
136.51729980
 20
107.34152387
  0
VERTEX
  8
0
 10
136.75242088
 20
107.38692803
  0
VERTEX
  8
0
 10
137.02292736
 20
107.40206275
  0
VERTEX
  8
0
 10
137.30281310
 20
107.38820702
  0
VERTEX
  8
0
 10
137.54219748
 20
107.34663983
  0
VERTEX
  8
0
 10
137.74108049
 20
107.27736118
  0
VERTEX
  8
0
 10
137.89946215
 20
107.18037107
  0
VERTEX
  8
0
 10
138.01883459
 20
107.06547510
  0
VERTEX
  8
0
 10
138.10410062
 20
106.93906821
  0
VERTEX
  8
0
 10
138.15526024
 20
106.80115040
  0
VERTEX
  8
0
 10
138.17231344
 20
106.65172169
  0
VERTEX
  8
0
 10
138.16016303
 20
106.52296998
  0
VERTEX
  8
0
 10
138.12371180
 20
106.40615552
  0
VERTEX
  8
0
 10
138.06295976
 20
106.30127830
  0
VERTEX
  8
0
 10
137.97790689
 20
106.20833833
  0
VERTEX
  8
0
 10
137.84403923
 20
106.12072749
  0
VERTEX
  8
0
 10
137.63343213
 20
106.03183765
  0
VERTEX
  8
0
 10
137.34608561
 20
105.94166882
  0
VERTEX
  8
0
 10
136.98199966
 20
105.85022101
  0
VERTEX
  8
0
 10
136.30072408
 20
105.68054161
  0
VERTEX
  8
0
 10
136.05537108
 20
105.60401534
  0
VERTEX
  8
0
 10
135.87354127
 20
105.53303137
  0
VERTEX
  8
0
 10
135.66954230
 20
105.42559618
  0
VERTEX
  8
0
 10
135.49410744
 20
105.30451841
  0
VERTEX
  8
0
 10
135.34723670
 20
105.16979809
  0
VERTEX
  8
0
 10
135.22893009
 20
105.02143519
  0
VERTEX
  8
0
 10
135.13790860
 20
104.86198772
  0
VERTEX
  8
0
 10
135.07289325
 20
104.69060300
  0
VERTEX
  8
0
 10
135.03388404
 20
104.50728103
  0
VERTEX
  8
0
 10
135.02088097
 20
104.31202182
  0
VERTEX
  8
0
 10
135.03516303
 20
104.11527046
  0
VERTEX
  8
0
 10
135.07800921
 20
103.92406139
  0
VERTEX
  8
0
 10
135.14941951
 20
103.73839461
  0
VERTEX
  8
0
 10
135.24939393
 20
103.55827012
  0
VERTEX
  8
0
 10
135.37622715
 20
103.39221452
  0
VERTEX
  8
0
 10
135.52821385
 20
103.24534379
  0
VERTEX
  8
0
 10
135.70535403
 20
103.11765791
  0
VERTEX
  8
0
 10
135.90764768
 20
103.00915689
  0
VERTEX
  8
0
 10
136.12763404
 20
102.92410402
  0
VERTEX
  8
0
 10
136.36126296
 20
102.86335197
  0
VERTEX
  8
0
 10
136.60853445
 20
102.82690075
  0
VERTEX
  8
0
 10
136.86944850
 20
102.81475034
  0
VERTEX
  8
0
 10
137.19516474
 20
102.82711391
  0
VERTEX
  8
0
 10
137.49359584
 20
102.86420463
  0
VERTEX
  8
0
 10
137.76474182
 20
102.92602251
  0
VERTEX
  8
0
 10
138.00860266
 20
103.01256753
  0
VERTEX
  8
0
 10
138.22496521
 20
103.12383970
  0
VERTEX
  8
0
 10
138.41702695
 20
103.25983901
  0
VERTEX
  8
0
 10
138.58478786
 20
103.42056548
  0
VERTEX
  8
0
 10
138.72824796
 20
103.60601910
  0
VERTEX
  8
0
 10
138.84250444
 20
103.81193656
  0
VERTEX
  8
0
 10
138.92606515
 20
104.03064392
  0
VERTEX
  8
0
 10
138.97893009
 20
104.26214120
  0
VERTEX
  8
0
 10
139.00109925
 20
104.50642837
  0
SEQEND
  0
POLYLINE
  8
Default Layer
 62
256
 66
   1
 39
0.000000
 70
    1
  0
VERTEX
  8
0
 10
131.71596965
 20
104.06645566
  0
VERTEX
  8
0
 10
131.08159039
 20
103.98801091
  0
VERTEX
  8
0
 10
131.17261187
 20
103.72560470
  0
VERTEX
  8
0
 10
131.29560812
 20
103.49432060
  0
VERTEX
  8
0
 10
131.45057913
 20
103.29415859
  0
VERTEX
  8
0
 10
131.63752490
 20
103.12511869
  0
VERTEX
  8
0
 10
131.85452695
 20
102.99082469
  0
VERTEX
  8
0
 10
132.09966678
 20
102.89490040
  0
VERTEX
  8
0
 10
132.37294441
 20
102.83734583
  0
VERTEX
  8
0
 10
132.67435983
 20
102.81816098
  0
VERTEX
  8
0
 10
132.86791371
 20
102.82578163
  0
VERTEX
  8
0
 10
133.05123568
 20
102.84864358
  0
VERTEX
  8
0
 10
133.22432572
 20
102.88674684
  0
VERTEX
  8
0
 10
133.38718384
 20
102.94009140
  0
VERTEX
  8
0
 10
133.53981003
 20
103.00867726
  0
VERTEX
  8
0
 10
133.68220430
 20
103.09250443
  0
VERTEX
  8
0
 10
133.81436665
 20
103.19157290
  0
VERTEX
  8
0
 10
133.93629707
 20
103.30588267
  0
VERTEX
  8
0
 10
134.04501126
 20
103.43479425
  0
VERTEX
  8
0
 10
134.13923022
 20
103.57596282
  0
VERTEX
  8
0
 10
134.21895396
 20
103.72938838
  0
VERTEX
  8
0
 10
134.28418247
 20
103.89507094
  0
VERTEX
  8
0
 10
134.33491576
 20
104.07301048
  0
VERTEX
  8
0
 10
134.37115382
 20
104.26320702
  0
VERTEX
  8
0
 10
134.39289666
 20
104.46566055
  0
VERTEX
  8
0
 10
134.40014427
 20
104.68037107
  0
VERTEX
  8
0
 10
134.39279008
 20
104.90248908
  0
VERTEX
  8
0
 10
134.37072749
 20
105.11181719
  0
VERTEX
  8
0
 10
134.33395652
 20
105.30835538
  0
VERTEX
  8
0
 10
134.28247715
 20
105.49210368
  0
VERTEX
  8
0
 10
134.21628940
 20
105.66306207
  0
VERTEX
  8
0
 10
134.13539325
 20
105.82123055
  0
VERTEX
  8
0
 10
134.03978871
 20
105.96660914
  0
VERTEX
  8
0
 10
133.92947579
 20
106.09919781
  0
VERTEX
  8
0
 10
133.80743878
 20
106.21750443
  0
VERTEX
  8
0
 10
133.67666201
 20
106.32003683
  0
VERTEX
  8
0
 10
133.53714547
 20
106.40679502
  0
VERTEX
  8
0
 10
133.38888916
 20
106.47777899
  0
VERTEX
  8
0
 10
133.23189308
 20
106.53298874
  0
VERTEX
  8
0
 10
133.06615723
 20
106.57242428
  0
VERTEX
  8
0
 10
132.89168162
 20
106.59608560
  0
VERTEX
  8
0
 10
132.70846624
 20
106.60397271
  0
VERTEX
  8
0
 10
132.53100631
 20
106.59624548
  0
VERTEX
  8
0
 10
132.36185983
 20
106.57306377
  0
VERTEX
  8
0
 10
132.20102678
 20
106.53442760
  0
VERTEX
  8
0
 10
132.04850717
 20
106.48033697
  0
VERTEX
  8
0
 10
131.90430099
 20
106.41079186
  0
VERTEX
  8
0
 10
131.76840826
 20
106.32579229
  0
VERTEX
  8
0
 10
131.64082896
 20
106.22533825
  0
VERTEX
  8
0
 10
131.52156310
 20
106.10942974
  0
VERTEX
  8
0
 10
131.41364828
 20
105.97950562
  0
VERTEX
  8
0
 10
131.32012210
 20
105.83700477
  0
VERTEX
  8
0
 10
131.24098457
 20
105.68192718
  0
VERTEX
  8
0
 10
131.17623568
 20
105.51427285
  0
VERTEX
  8
0
 10
131.12587543
 20
105.33404178
  0
VERTEX
  8
0
 10
131.08990382
 20
105.14123397
  0
VERTEX
  8
0
 10
131.06832086
 20
104.93584942
  0
VERTEX
  8
0
 10
131.06112654
 20
104.71788813
  0
VERTEX
  8
0
 10
131.06453718
 20
104.55417735
  0
VERTEX
  8
0
 10
133.76576501
 20
104.55417735
  0
VERTEX
  8
0
 10
133.76756274
 20
104.41007067
  0
VERTEX
  8
0
 10
133.75322835
 20
104.27431164
  0
VERTEX
  8
0
 10
133.68328206
 20
104.02819849
  0
VERTEX
  8
0
 10
133.57016388
 20
103.81656181
  0
VERTEX
  8
0
 10
133.42811153
 20
103.64012551
  0
VERTEX
  8
0
 10
133.26695873
 20
103.50135504
  0
VERTEX
  8
0
 10
133.08704741
 20
103.40223328
  0
VERTEX
  8
0
 10
132.88837756
 20
103.34276023
  0
VERTEX
  8
0
 10
132.67094918
 20
103.32293588
  0
VERTEX
  8
0
 10
132.50830423
 20
103.33402046
  0
VERTEX
  8
0
 10
132.35802285
 20
103.36727421
  0
VERTEX
  8
0
 10
132.22010505
 20
103.42269713
  0
VERTEX
  8
0
 10
132.09455082
 20
103.50028922
  0
VERTEX
  8
0
 10
131.98136017
 20
103.60218212
  0
VERTEX
  8
0
 10
131.88053309
 20
103.73050750
  0
VERTEX
  8
0
 10
131.79206958
 20
103.88526534
  0
VERTEX
  8
0
 10
131.71596965
 20
104.06645566
  0
SEQEND
  0
POLYLINE
  8
Default Layer
 62
256
 66
   1
 39
0.000000
 70
    1
  0
VERTEX
  8
0
 10
133.73165860
 20
105.05895225
  0
VERTEX
  8
0
 10
131.70914837
 20
105.05895225
  0
VERTEX
  8
0
 10
131.73899148
 20
105.27318315
  0
VERTEX
  8
0
 10
131.78759311
 20
105.45884993
  0
VERTEX
  8
0
 10
131.85495328
 20
105.61595259
  0
VERTEX
  8
0
 10
131.94107197
 20
105.74449113
  0
VERTEX
  8
0
 10
132.09860096
 20
105.89967530
  0
VERTEX
  8
0
 10
132.27787279
 20
106.01052114
  0
VERTEX
  8
0
 10
132.47888745
 20
106.07702864
  0
VERTEX
  8
0
 10
132.70164496
 20
106.09919781
  0
VERTEX
  8
0
 10
132.90479127
 20
106.08150511
  0
VERTEX
  8
0
 10
133.09131071
 20
106.02842701
  0
VERTEX
  8
0
 10
133.26120328
 20
105.93996350
  0
VERTEX
  8
0
 10
133.41446897
 20
105.81611459
  0
VERTEX
  8
0
 10
133.54172852
 20
105.66263574
  0
VERTEX
  8
0
 10
133.63701330
 20
105.48528240
  0
VERTEX
  8
0
 10
133.70032333
 20
105.28405457
  0
VERTEX
  8
0
 10
133.73165860
 20
105.05895225
  0
SEQEND
  0
POLYLINE
  8
Default Layer
 62
256
 66
   1
 39
0.000000
 70
    1
  0
VERTEX
  8
0
 10
128.97040348
 20
103.44912960
  0
VERTEX
  8
0
 10
128.88172681
 20
102.90683765
  0
VERTEX
  8
0
 10
129.12729298
 20
102.86590995
  0
VERTEX
  8
0
 10
129.34557401
 20
102.85226739
  0
VERTEX
  8
0
 10
129.64229980
 20
102.87869986
  0
VERTEX
  8
0
 10
129.76252490
 20
102.91174045
  0
VERTEX
  8
0
 10
129.86399148
 20
102.95799727
  0
VERTEX
  8
0
 10
130.02088097
 20
103.07992769
  0
VERTEX
  8
0
 10
130.07886187
 20
103.15304331
  0
VERTEX
  8
0
 10
130.12320021
 20
103.23425920
  0
VERTEX
  8
0
 10
130.15602763
 20
103.34489188
  0
VERTEX
  8
0
 10
130.17947579
 20
103.50284720
  0
VERTEX
  8
0
 10
130.19823431
 20
103.96072578
  0
VERTEX
  8
0
 10
130.19823431
 20
106.04462755
  0
VERTEX
  8
0
 10
130.64843895
 20
106.04462755
  0
VERTEX
  8
0
 10
130.64843895
 20
106.52211732
  0
VERTEX
  8
0
 10
130.19823431
 20
106.52211732
  0
VERTEX
  8
0
 10
130.19823431
 20
107.41911596
  0
VERTEX
  8
0
 10
129.58772954
 20
107.78746521
  0
VERTEX
  8
0
 10
129.58772954
 20
106.52211732
  0
VERTEX
  8
0
 10
128.97040348
 20
106.52211732
  0
VERTEX
  8
0
 10
128.97040348
 20
106.04462755
  0
VERTEX
  8
0
 10
129.58772954
 20
106.04462755
  0
VERTEX
  8
0
 10
129.58772954
 20
103.92661937
  0
VERTEX
  8
0
 10
129.58005560
 20
103.71089631
  0
VERTEX
  8
0
 10
129.55703377
 20
103.58896589
  0
VERTEX
  8
0
 10
129.51354809
 20
103.52160573
  0
VERTEX
  8
0
 10
129.45130389
 20
103.46959345
  0
VERTEX
  8
0
 10
129.36092190
 20
103.43633970
  0
VERTEX
  8
0
 10
129.23984414
 20
103.42525511
  0
VERTEX
  8
0
 10
128.97040348
 20
103.44912960
  0
SEQEND
  0
POLYLINE
  8
Default Layer
 62
256
 66
   1
 39
0.000000
 70
    1
  0
VERTEX
  8
0
 10
125.07886187
 20
102.90001637
  0
VERTEX
  8
0
 10
125.07886187
 20
107.30997544
  0
VERTEX
  8
0
 10
126.72620157
 20
107.30997544
  0
VERTEX
  8
0
 10
126.72620157
 20
107.90001637
  0
VERTEX
  8
0
 10
122.76303650
 20
107.90001637
  0
VERTEX
  8
0
 10
122.76303650
 20
107.30997544
  0
VERTEX
  8
0
 10
124.41719748
 20
107.30997544
  0
VERTEX
  8
0
 10
124.41719748
 20
102.90001637
  0
VERTEX
  8
0
 10
125.07886187
 20
102.90001637
  0
SEQEND
  0
POLYLINE
  8
Default Layer
 62
256
 66
   1
 39
0.000000
 70
    1
  0
VERTEX
  8
0
 10
122.15935300
 20
107.19401364
  0
VERTEX
  8
0
 10
122.15935300
 20
107.90001637
  0
VERTEX
  8
0
 10
121.54543759
 20
107.90001637
  0
VERTEX
  8
0
 10
121.54543759
 20
107.19401364
  0
VERTEX
  8
0
 10
122.15935300
 20
107.19401364
  0
SEQEND
  0
POLYLINE
  8
Default Layer
 62
256
 66
   1
 39
0.000000
 70
    1
  0
VERTEX
  8
0
 10
122.15935300
 20
102.90001637
  0
VERTEX
  8
0
 10
122.15935300
 20
106.52211732
  0
VERTEX
  8
0
 10
121.54543759
 20
106.52211732
  0
VERTEX
  8
0
 10
121.54543759
 20
102.90001637
  0
VERTEX
  8
0
 10
122.15935300
 20
102.90001637
  0
SEQEND
  0
POLYLINE
  8
Default Layer
 62
256
 66
   1
 39
0.000000
 70
    1
  0
VERTEX
  8
0
 10
120.61092190
 20
102.90001637
  0
VERTEX
  8
0
 10
120.61092190
 20
106.52211732
  0
VERTEX
  8
0
 10
120.06180867
 20
106.52211732
  0
VERTEX
  8
0
 10
120.06180867
 20
106.01393178
  0
VERTEX
  8
0
 10
119.96950819
 20
106.14033867
  0
VERTEX
  8
0
 10
119.86313882
 20
106.25352933
  0
VERTEX
  8
0
 10
119.74270055
 20
106.35350375
  0
VERTEX
  8
0
 10
119.60819339
 20
106.44026193
  0
VERTEX
  8
0
 10
119.46174898
 20
106.51188540
  0
VERTEX
  8
0
 10
119.30549898
 20
106.56304502
  0
VERTEX
  8
0
 10
119.13944339
 20
106.59374079
  0
VERTEX
  8
0
 10
118.96358220
 20
106.60397271
  0
VERTEX
  8
0
 10
118.77152047
 20
106.59352762
  0
VERTEX
  8
0
 10
118.59779093
 20
106.56219236
  0
VERTEX
  8
0
 10
118.44239359
 20
106.50996691
  0
VERTEX
  8
0
 10
118.30532845
 20
106.43685129
  0
VERTEX
  8
0
 10
118.18531651
 20
106.34497714
  0
VERTEX
  8
0
 10
118.08448943
 20
106.23647612
  0
VERTEX
  8
0
 10
118.00284721
 20
106.11134822
  0
VERTEX
  8
0
 10
117.94038984
 20
105.96959345
  0
VERTEX
  8
0
 10
117.82890451
 20
106.11827609
  0
VERTEX
  8
0
 10
117.70931890
 20
106.24713437
  0
VERTEX
  8
0
 10
117.58163302
 20
106.35616831
  0
VERTEX
  8
0
 10
117.44584687
 20
106.44537789
  0
VERTEX
  8
0
 10
117.30196044
 20
106.51476313
  0
VERTEX
  8
0
 10
117.14997374
 20
106.56432401
  0
VERTEX
  8
0
 10
116.98988677
 20
106.59406053
  0
VERTEX
  8
0
 10
116.82169953
 20
106.60397271
  0
VERTEX
  8
0
 10
116.56781992
 20
106.58521418
  0
VERTEX
  8
0
 10
116.34506242
 20
106.52893860
  0
VERTEX
  8
0
 10
116.15342702
 20
106.43514597
  0
VERTEX
  8
0
 10
115.99291371
 20
106.30383628
  0
VERTEX
  8
0
 10
115.86608049
 20
106.13522271
  0
VERTEX
  8
0
 10
115.77548534
 20
105.92610777
  0
VERTEX
  8
0
 10
115.72112824
 20
105.67649147
  0
VERTEX
  8
0
 10
115.70300921
 20
105.38637380
  0
VERTEX
  8
0
 10
115.70300921
 20
102.90001637
  0
VERTEX
  8
0
 10
116.31351399
 20
102.90001637
  0
VERTEX
  8
0
 10
116.31351399
 20
105.18173533
  0
VERTEX
  8
0
 10
116.32886187
 20
105.49807230
  0
VERTEX
  8
0
 10
116.37490553
 20
105.71038472
  0
VERTEX
  8
0
 10
116.45761358
 20
105.85789495
  0
VERTEX
  8
0
 10
116.58977592
 20
105.97300409
  0
VERTEX
  8
0
 10
116.76030798
 20
106.04718553
  0
VERTEX
  8
0
 10
116.95812517
 20
106.07191268
  0
VERTEX
  8
0
 10
117.14102081
 20
106.05592530
  0
VERTEX
  8
0
 10
117.30771590
 20
106.00796316
  0
VERTEX
  8
0
 10
117.45821044
 20
105.92802626
  0
VERTEX
  8
0
 10
117.59250444
 20
105.81611459
  0
VERTEX
  8
0
 10
117.70292395
 20
105.67073601
  0
VERTEX
  8
0
 10
117.78179502
 20
105.48698772
  0
VERTEX
  8
0
 10
117.82911767
 20
105.26486971
  0
VERTEX
  8
0
 10
117.84489189
 20
105.00438199
  0
VERTEX
  8
0
 10
117.84489189
 20
102.90001637
  0
VERTEX
  8
0
 10
118.45880730
 20
102.90001637
  0
VERTEX
  8
0
 10
118.45880730
 20
105.25335879
  0
VERTEX
  8
0
 10
118.46818657
 20
105.44520736
  0
VERTEX
  8
0
 10
118.49632436
 20
105.61147612
  0
VERTEX
  8
0
 10
118.54322067
 20
105.75216507
  0
VERTEX
  8
0
 10
118.60887551
 20
105.86727421
  0
VERTEX
  8
0
 10
118.69584687
 20
105.95680354
  0
VERTEX
  8
0
 10
118.80669270
 20
106.02075307
  0
VERTEX
  8
0
 10
118.94141303
 20
106.05912278
  0
VERTEX
  8
0
 10
119.10000785
 20
106.07191268
  0
VERTEX
  8
0
 10
119.22726740
 20
106.06338608
  0
VERTEX
  8
0
 10
119.34983732
 20
106.03780627
  0
VERTEX
  8
0
 10
119.46771760
 20
105.99517326
  0
VERTEX
  8
0
 10
119.58090826
 20
105.93548704
  0
VERTEX
  8
0
 10
119.68258800
 20
105.85938710
  0
VERTEX
  8
0
 10
119.76934618
 20
105.76751296
  0
VERTEX
  8
0
 10
119.84118281
 20
105.65986459
  0
VERTEX
  8
0
 10
119.89809789
 20
105.53644201
  0
VERTEX
  8
0
 10
119.94137040
 20
105.39063710
  0
VERTEX
  8
0
 10
119.97227933
 20
105.21584174
  0
VERTEX
  8
0
 10
119.99700648
 20
104.77927967
  0
VERTEX
  8
0
 10
119.99700648
 20
102.90001637
  0
VERTEX
  8
0
 10
120.61092190
 20
102.90001637
  0
SEQEND
  0
POLYLINE
  8
Default Layer
 62
256
 66
   1
 39
0.000000
 70
    1
  0
VERTEX
  8
0
 10
112.31283186
 20
104.06645566
  0
VERTEX
  8
0
 10
111.67845260
 20
103.98801091
  0
VERTEX
  8
0
 10
111.76947408
 20
103.72560470
  0
VERTEX
  8
0
 10
111.89247033
 20
103.49432060
  0
VERTEX
  8
0
 10
112.04744134
 20
103.29415859
  0
VERTEX
  8
0
 10
112.23438711
 20
103.12511869
  0
VERTEX
  8
0
 10
112.45138916
 20
102.99082469
  0
VERTEX
  8
0
 10
112.69652899
 20
102.89490040
  0
VERTEX
  8
0
 10
112.96980662
 20
102.83734583
  0
VERTEX
  8
0
 10
113.27122204
 20
102.81816098
  0
VERTEX
  8
0
 10
113.46477592
 20
102.82578163
  0
VERTEX
  8
0
 10
113.64809789
 20
102.84864358
  0
VERTEX
  8
0
 10
113.82118793
 20
102.88674684
  0
VERTEX
  8
0
 10
113.98404605
 20
102.94009140
  0
VERTEX
  8
0
 10
114.13667224
 20
103.00867726
  0
VERTEX
  8
0
 10
114.27906651
 20
103.09250443
  0
VERTEX
  8
0
 10
114.41122886
 20
103.19157290
  0
VERTEX
  8
0
 10
114.53315928
 20
103.30588267
  0
VERTEX
  8
0
 10
114.64187347
 20
103.43479425
  0
VERTEX
  8
0
 10
114.73609243
 20
103.57596282
  0
VERTEX
  8
0
 10
114.81581617
 20
103.72938838
  0
VERTEX
  8
0
 10
114.88104468
 20
103.89507094
  0
VERTEX
  8
0
 10
114.93177797
 20
104.07301048
  0
VERTEX
  8
0
 10
114.96801603
 20
104.26320702
  0
VERTEX
  8
0
 10
114.98975887
 20
104.46566055
  0
VERTEX
  8
0
 10
114.99700648
 20
104.68037107
  0
VERTEX
  8
0
 10
114.98965229
 20
104.90248908
  0
VERTEX
  8
0
 10
114.96758970
 20
105.11181719
  0
VERTEX
  8
0
 10
114.93081873
 20
105.30835538
  0
VERTEX
  8
0
 10
114.87933936
 20
105.49210368
  0
VERTEX
  8
0
 10
114.81315161
 20
105.66306207
  0
VERTEX
  8
0
 10
114.73225546
 20
105.82123055
  0
VERTEX
  8
0
 10
114.63665092
 20
105.96660914
  0
VERTEX
  8
0
 10
114.52633800
 20
106.09919781
  0
VERTEX
  8
0
 10
114.40430099
 20
106.21750443
  0
VERTEX
  8
0
 10
114.27352422
 20
106.32003683
  0
VERTEX
  8
0
 10
114.13400768
 20
106.40679502
  0
VERTEX
  8
0
 10
113.98575137
 20
106.47777899
  0
VERTEX
  8
0
 10
113.82875529
 20
106.53298874
  0
VERTEX
  8
0
 10
113.66301944
 20
106.57242428
  0
VERTEX
  8
0
 10
113.48854383
 20
106.59608560
  0
VERTEX
  8
0
 10
113.30532845
 20
106.60397271
  0
VERTEX
  8
0
 10
113.12786852
 20
106.59624548
  0
VERTEX
  8
0
 10
112.95872204
 20
106.57306377
  0
VERTEX
  8
0
 10
112.79788899
 20
106.53442760
  0
VERTEX
  8
0
 10
112.64536938
 20
106.48033697
  0
VERTEX
  8
0
 10
112.50116320
 20
106.41079186
  0
VERTEX
  8
0
 10
112.36527047
 20
106.32579229
  0
VERTEX
  8
0
 10
112.23769117
 20
106.22533825
  0
VERTEX
  8
0
 10
112.11842531
 20
106.10942974
  0
VERTEX
  8
0
 10
112.01051049
 20
105.97950562
  0
VERTEX
  8
0
 10
111.91698431
 20
105.83700477
  0
VERTEX
  8
0
 10
111.83784678
 20
105.68192718
  0
VERTEX
  8
0
 10
111.77309789
 20
105.51427285
  0
VERTEX
  8
0
 10
111.72273764
 20
105.33404178
  0
VERTEX
  8
0
 10
111.68676603
 20
105.14123397
  0
VERTEX
  8
0
 10
111.66518307
 20
104.93584942
  0
VERTEX
  8
0
 10
111.65798875
 20
104.71788813
  0
VERTEX
  8
0
 10
111.66139939
 20
104.55417735
  0
VERTEX
  8
0
 10
114.36262722
 20
104.55417735
  0
VERTEX
  8
0
 10
114.36442495
 20
104.41007067
  0
VERTEX
  8
0
 10
114.35009056
 20
104.27431164
  0
VERTEX
  8
0
 10
114.28014427
 20
104.02819849
  0
VERTEX
  8
0
 10
114.16702609
 20
103.81656181
  0
VERTEX
  8
0
 10
114.02497374
 20
103.64012551
  0
VERTEX
  8
0
 10
113.86382094
 20
103.50135504
  0
VERTEX
  8
0
 10
113.68390962
 20
103.40223328
  0
VERTEX
  8
0
 10
113.48523977
 20
103.34276023
  0
VERTEX
  8
0
 10
113.26781139
 20
103.32293588
  0
VERTEX
  8
0
 10
113.10516644
 20
103.33402046
  0
VERTEX
  8
0
 10
112.95488506
 20
103.36727421
  0
VERTEX
  8
0
 10
112.81696726
 20
103.42269713
  0
VERTEX
  8
0
 10
112.69141303
 20
103.50028922
  0
VERTEX
  8
0
 10
112.57822238
 20
103.60218212
  0
VERTEX
  8
0
 10
112.47739530
 20
103.73050750
  0
VERTEX
  8
0
 10
112.38893179
 20
103.88526534
  0
VERTEX
  8
0
 10
112.31283186
 20
104.06645566
  0
SEQEND
  0
POLYLINE
  8
Default Layer
 62
256
 66
   1
 39
0.000000
 70
    1
  0
VERTEX
  8
0
 10
114.32852081
 20
105.05895225
  0
VERTEX
  8
0
 10
112.30601058
 20
105.05895225
  0
VERTEX
  8
0
 10
112.33585369
 20
105.27318315
  0
VERTEX
  8
0
 10
112.38445532
 20
105.45884993
  0
VERTEX
  8
0
 10
112.45181549
 20
105.61595259
  0
VERTEX
  8
0
 10
112.53793418
 20
105.74449113
  0
VERTEX
  8
0
 10
112.69546317
 20
105.89967530
  0
VERTEX
  8
0
 10
112.87473500
 20
106.01052114
  0
VERTEX
  8
0
 10
113.07574966
 20
106.07702864
  0
VERTEX
  8
0
 10
113.29850717
 20
106.09919781
  0
VERTEX
  8
0
 10
113.50165348
 20
106.08150511
  0
VERTEX
  8
0
 10
113.68817292
 20
106.02842701
  0
VERTEX
  8
0
 10
113.85806549
 20
105.93996350
  0
VERTEX
  8
0
 10
114.01133118
 20
105.81611459
  0
VERTEX
  8
0
 10
114.13859073
 20
105.66263574
  0
VERTEX
  8
0
 10
114.23387551
 20
105.48528240
  0
VERTEX
  8
0
 10
114.29718554
 20
105.28405457
  0
VERTEX
  8
0
 10
114.32852081
 20
105.05895225
  0
SEQEND
  0
POLYLINE
  8
Preview Toolpath Layer
 62
256
 66
   1
 39
0.000000
 70
    1
  0
VERTEX
  8
0
 10
91.71331811
 20
77.73837600
 42
0.27748109
  0
VERTEX
  8
0
 10
92.41651002
 20
78.36330343
  0
VERTEX
  8
0
 10
92.32971448
 20
78.37695666
 42
-0.25404614
  0
VERTEX
  8
0
 10
91.71331811
 20
77.73837600
  0
SEQEND
  0
POLYLINE
  8
Preview Toolpath Layer
 62
256
 66
   1
 39
0.000000
 70
    1
  0
VERTEX
  8
0
 10
90.59800000
 20
80.77733270
  0
VERTEX
  8
0
 10
90.75182297
 20
80.85424418
 42
0.26289273
  0
VERTEX
  8
0
 10
90.20980487
 20
80.40773735
  0
VERTEX
  8
0
 10
90.29356210
 20
80.39631591
 42
-0.17643394
  0
VERTEX
  8
0
 10
90.59800000
 20
80.77733270
  0
SEQEND
  0
POLYLINE
  8
Preview Toolpath Layer
 62
256
 66
   1
 39
0.000000
 70
    0
  0
VERTEX
  8
0
 10
90.72987719
 20
79.28362417
 42
0.18111275
  0
VERTEX
  8
0
 10
90.11007286
 20
78.93703694
 42
0.42417210
  0
VERTEX
  8
0
 10
90.39746858
 20
77.89628101
 42
-0.65233535
  0
VERTEX
  8
0
 10
90.70075872
 20
79.17271998
 42
0.04023790
  0
VERTEX
  8
0
 10
91.99853196
 20
79.56441767
 42
0.59559039
  0
VERTEX
  8
0
 10
92.06157094
 20
80.74324990
 42
-0.62179872
  0
VERTEX
  8
0
 10
91.81674947
 20
79.59682900
  0
VERTEX
  8
0
 10
90.72987719
 20
79.28362417
  0
VERTEX
  8
0
 10
90.70228756
 20
79.37974291
 42
0.16131701
  0
VERTEX
  8
0
 10
90.02616051
 20
78.99377765
 42
0.46492546
  0
VERTEX
  8
0
 10
90.50465672
 20
77.71462114
 42
0.19628728
  0
VERTEX
  8
0
 10
91.99902493
 20
77.73017055
 42
0.23040352
  0
VERTEX
  8
0
 10
92.54534696
 20
78.44426660
  0
VERTEX
  8
0
 10
92.25893206
 20
78.48932063
 42
-0.29623478
  0
VERTEX
  8
0
 10
91.59898230
 20
77.80594868
 42
-0.17568594
  0
VERTEX
  8
0
 10
90.60336206
 20
77.87812793
 42
-0.40517077
  0
VERTEX
  8
0
 10
90.27252688
 20
78.76249770
 42
-0.19267890
  0
VERTEX
  8
0
 10
90.72793821
 20
79.07648446
 42
0.04024216
  0
VERTEX
  8
0
 10
92.04372187
 20
79.47449446
 42
0.32467314
  0
VERTEX
  8
0
 10
92.46363531
 20
80.31000184
 42
0.32467314
  0
VERTEX
  8
0
 10
91.79936784
 20
80.96814210
 42
0.20698343
  0
VERTEX
  8
0
 10
90.38218098
 20
80.79869678
 42
0.19856767
  0
VERTEX
  8
0
 10
90.08383549
 20
80.32398952
  0
VERTEX
  8
0
 10
90.36307478
 20
80.28591143
 42
-0.27839015
  0
VERTEX
  8
0
 10
90.93159163
 20
80.82172784
 42
-0.18739811
  0
VERTEX
  8
0
 10
91.93847564
 20
80.70868740
 42
-0.66368062
  0
VERTEX
  8
0
 10
91.78895833
 20
79.69288967
  0
VERTEX
  8
0
 10
90.70228756
 20
79.37974291
  0
SEQEND
  0
POLYLINE
  8
Preview Toolpath Layer
 62
256
 66
   1
 39
0.000000
 70
    1
  0
VERTEX
  8
0
 10
94.36866603
 20
77.74768472
  0
VERTEX
  8
0
 10
94.41208922
 20
77.73853943
 42
-0.21636705
  0
VERTEX
  8
0
 10
93.75396960
 20
78.37831537
  0
VERTEX
  8
0
 10
93.64378933
 20
78.36469093
 42
0.21971173
  0
VERTEX
  8
0
 10
94.36866603
 20
77.74768472
  0
SEQEND
  0
POLYLINE
  8
Preview Toolpath Layer
 62
256
 66
   1
 39
0.000000
 70
    1
  0
VERTEX
  8
0
 10
93.52650104
 20
79.41717683
  0
VERTEX
  8
0
 10
93.78927460
 20
79.41717683
 42
-0.34389676
  0
VERTEX
  8
0
 10
93.64201503
 20
79.70797547
 42
-0.11006568
  0
VERTEX
  8
0
 10
93.82770583
 20
80.36145988
 42
-0.13104962
  0
VERTEX
  8
0
 10
94.20304531
 20
80.75454680
 42
0.20194148
  0
VERTEX
  8
0
 10
93.62153911
 20
80.02768757
 42
0.07994634
  0
VERTEX
  8
0
 10
93.52650104
 20
79.41717683
  0
SEQEND
  0
POLYLINE
  8
Preview Toolpath Layer
 62
256
 66
   1
 39
0.000000
 70
    1
  0
VERTEX
  8
0
 10
95.92455353
 20
79.49198386
  0
VERTEX
  8
0
 10
93.90204330
 20
79.49198386
 42
-0.47215524
  0
VERTEX
  8
0
 10
93.74014485
 20
79.68872613
 42
-0.10896257
  0
VERTEX
  8
0
 10
93.91078346
 20
80.30579925
 42
-0.35018858
  0
VERTEX
  8
0
 10
95.27867987
 20
80.81215316
 42
-0.35018858
  0
VERTEX
  8
0
 10
96.07553397
 20
79.59045008
 42
-0.29727251
  0
VERTEX
  8
0
 10
95.92455353
 20
79.49198386
  0
SEQEND
  0
POLYLINE
  8
Preview Toolpath Layer
 62
256
 66
   1
 39
0.000000
 70
    0
  0
VERTEX
  8
0
 10
96.21832396
 20
79.40868437
  0
VERTEX
  8
0
 10
96.21634452
 20
79.43771613
  0
VERTEX
  8
0
 10
96.20667473
 20
79.42247346
  0
VERTEX
  8
0
 10
96.21832396
 20
79.40868437
  0
VERTEX
  8
0
 10
96.14718000
 20
79.33840964
 42
-0.20896873
  0
VERTEX
  8
0
 10
96.22337842
 20
79.14033476
 42
-0.30624632
  0
VERTEX
  8
0
 10
95.39867032
 20
77.76335190
 42
0.31424206
  0
VERTEX
  8
0
 10
96.30119931
 20
78.90113347
 42
0.16155925
  0
VERTEX
  8
0
 10
96.09815713
 20
80.28474034
 42
0.18916401
  0
VERTEX
  8
0
 10
95.45250371
 20
80.83756401
 42
-0.31396487
  0
VERTEX
  8
0
 10
96.17767021
 20
79.57855583
 42
-0.22902166
  0
VERTEX
  8
0
 10
96.02033382
 20
79.40989974
 42
-0.14006648
  0
VERTEX
  8
0
 10
96.14718000
 20
79.33840964
  0
VERTEX
  8
0
 10
96.07603605
 20
79.26813491
 42
-0.20896873
  0
VERTEX
  8
0
 10
96.12347860
 20
79.14480980
 42
-0.53168004
  0
VERTEX
  8
0
 10
94.47656333
 20
77.81801073
 42
-0.22945527
  0
VERTEX
  8
0
 10
93.81242408
 20
78.48630525
  0
VERTEX
  8
0
 10
93.49722328
 20
78.44732881
 42
0.33164457
  0
VERTEX
  8
0
 10
94.86583692
 20
77.58158456
 42
0.40294434
  0
VERTEX
  8
0
 10
96.40039379
 20
78.88607184
 42
0.16187505
  0
VERTEX
  8
0
 10
96.18500431
 20
80.33550031
 42
0.42709483
  0
VERTEX
  8
0
 10
94.05663155
 20
80.78797453
 42
0.25382646
  0
VERTEX
  8
0
 10
93.41947269
 20
79.31717683
  0
VERTEX
  8
0
 10
95.95865995
 20
79.31717683
 42
-0.20051026
  0
VERTEX
  8
0
 10
96.07603605
 20
79.26813491
  0
SEQEND
  0
POLYLINE
  8
Preview Toolpath Layer
 62
256
 66
   1
 39
0.000000
 70
    0
  0
VERTEX
  8
0
 10
97.88206876
 20
80.88138799
 42
0.41421356
  0
VERTEX
  8
0
 10
97.91125203
 20
80.85220471
 42
0.41421356
  0
VERTEX
  8
0
 10
97.94043531
 20
80.88138799
  0
VERTEX
  8
0
 10
97.91125203
 20
80.92004726
  0
VERTEX
  8
0
 10
97.88206876
 20
80.88138799
  0
VERTEX
  8
0
 10
97.80643005
 20
80.94680042
 42
-0.10260675
  0
VERTEX
  8
0
 10
97.72096645
 20
80.88138799
 42
-0.28810118
  0
VERTEX
  8
0
 10
97.87098358
 20
80.64264310
  0
VERTEX
  8
0
 10
97.86989535
 20
78.50064440
 42
-0.07944227
  0
VERTEX
  8
0
 10
97.81856183
 20
78.08190027
 42
-0.29711323
  0
VERTEX
  8
0
 10
97.23472629
 20
77.75932087
 42
0.41421356
  0
VERTEX
  8
0
 10
97.20863999
 20
77.76172252
 42
0.41421356
  0
VERTEX
  8
0
 10
97.20623835
 20
77.73563623
 42
0.24507246
  0
VERTEX
  8
0
 10
97.84227783
 20
77.86053824
 42
0.19175591
  0
VERTEX
  8
0
 10
97.93388418
 20
78.13368087
 42
0.02047558
  0
VERTEX
  8
0
 10
97.95152049
 20
80.64264310
 42
-0.28810118
  0
VERTEX
  8
0
 10
98.10153762
 20
80.88138799
 42
-0.28810118
  0
VERTEX
  8
0
 10
97.95152049
 20
81.12013287
  0
VERTEX
  8
0
 10
97.95152049
 20
81.86753045
  0
VERTEX
  8
0
 10
97.87098358
 20
81.91612254
  0
VERTEX
  8
0
 10
97.87098358
 20
81.12013287
 42
-0.18016845
  0
VERTEX
  8
0
 10
97.80643005
 20
80.94680042
  0
VERTEX
  8
0
 10
97.73079135
 20
81.01221286
 42
-0.21779171
  0
VERTEX
  8
0
 10
97.60599965
 20
80.95514893
  0
VERTEX
  8
0
 10
97.15365752
 20
80.95514893
  0
VERTEX
  8
0
 10
97.15365752
 20
80.80762704
  0
VERTEX
  8
0
 10
97.60599965
 20
80.80762704
 42
-0.41421356
  0
VERTEX
  8
0
 10
97.77098358
 20
80.64264310
  0
VERTEX
  8
0
 10
97.77030603
 20
78.50969797
 42
-0.07944227
  0
VERTEX
  8
0
 10
97.72676081
 20
78.12155594
 42
-0.33782753
  0
VERTEX
  8
0
 10
97.12676373
 20
77.86927897
  0
VERTEX
  8
0
 10
97.09066854
 20
77.64854301
 42
0.25739697
  0
VERTEX
  8
0
 10
97.91657413
 20
77.79163029
 42
0.19175591
  0
VERTEX
  8
0
 10
98.03346068
 20
78.12129592
 42
0.02047558
  0
VERTEX
  8
0
 10
98.05152049
 20
80.64264310
 42
-0.27133037
  0
VERTEX
  8
0
 10
98.13582040
 20
80.78655206
 42
-0.12844718
  0
VERTEX
  8
0
 10
98.50172512
 20
80.80762704
  0
VERTEX
  8
0
 10
98.50172512
 20
80.95514893
 42
-0.12844718
  0
VERTEX
  8
0
 10
98.13582040
 20
80.97622391
 42
-0.27133037
  0
VERTEX
  8
0
 10
98.05152049
 20
81.12013287
  0
VERTEX
  8
0
 10
98.05152049
 20
81.92398710
  0
VERTEX
  8
0
 10
97.77098358
 20
82.09324959
  0
VERTEX
  8
0
 10
97.77098358
 20
81.12013287
 42
-0.18016845
  0
VERTEX
  8
0
 10
97.73079135
 20
81.01221286
  0
SEQEND
  0
POLYLINE
  8
Preview Toolpath Layer
 62
256
 66
   1
 39
0.000000
 70
    0
  0
VERTEX
  8
0
 10
99.66271919
 20
78.34914610
  0
VERTEX
  8
0
 10
99.65584033
 20
78.37088700
  0
VERTEX
  8
0
 10
99.65584033
 20
78.34522632
  0
VERTEX
  8
0
 10
99.66271919
 20
78.34914610
  0
VERTEX
  8
0
 10
99.71128310
 20
78.26173015
  0
VERTEX
  8
0
 10
99.80520764
 20
78.29278585
 42
-0.13681755
  0
VERTEX
  8
0
 10
99.64030392
 20
79.16294878
 42
-0.01560597
  0
VERTEX
  8
0
 10
99.63978788
 20
80.85514893
  0
VERTEX
  8
0
 10
99.55584033
 20
80.85514893
  0
VERTEX
  8
0
 10
99.55584033
 20
77.76301585
  0
VERTEX
  8
0
 10
99.57498570
 20
77.76301585
  0
VERTEX
  8
0
 10
99.57498570
 20
78.03009194
 42
-0.27237655
  0
VERTEX
  8
0
 10
99.71128310
 20
78.26173015
  0
SEQEND
  0
POLYLINE
  8
Preview Toolpath Layer
 62
256
 66
   1
 39
0.000000
 70
    0
  0
VERTEX
  8
0
 10
101.15591756
 20
77.71630374
  0
VERTEX
  8
0
 10
100.94399154
 20
77.68785730
 42
0.23806908
  0
VERTEX
  8
0
 10
101.78842044
 20
78.00717187
 42
0.10512922
  0
VERTEX
  8
0
 10
101.92743253
 20
78.35002068
  0
VERTEX
  8
0
 10
101.96243454
 20
78.88459675
  0
VERTEX
  8
0
 10
101.96243454
 20
80.85514893
  0
VERTEX
  8
0
 10
101.87848699
 20
80.85514893
 42
-0.02879715
  0
VERTEX
  8
0
 10
101.84052697
 20
78.44792785
 42
-0.29780615
  0
VERTEX
  8
0
 10
101.15591756
 20
77.71630374
  0
VERTEX
  8
0
 10
101.14261405
 20
77.81541488
 42
-0.46726725
  0
VERTEX
  8
0
 10
99.76568898
 20
78.75990967
  0
VERTEX
  8
0
 10
99.74010917
 20
79.16918661
 42
-0.01560597
  0
VERTEX
  8
0
 10
99.73978788
 20
80.95514893
  0
VERTEX
  8
0
 10
99.45584033
 20
80.95514893
  0
VERTEX
  8
0
 10
99.45584033
 20
77.66301585
  0
VERTEX
  8
0
 10
99.67498570
 20
77.66301585
  0
VERTEX
  8
0
 10
99.67498570
 20
78.03009194
 42
-0.31379435
  0
VERTEX
  8
0
 10
99.78269369
 20
78.18481481
 42
-0.31379435
  0
VERTEX
  8
0
 10
99.96518566
 20
78.13751934
 42
0.48895806
  0
VERTEX
  8
0
 10
101.86914070
 20
77.94631740
 42
0.10512922
  0
VERTEX
  8
0
 10
102.02648340
 20
78.33225453
  0
VERTEX
  8
0
 10
102.06243454
 20
78.88132644
  0
VERTEX
  8
0
 10
102.06243454
 20
80.95514893
  0
VERTEX
  8
0
 10
101.77848699
 20
80.95514893
  0
VERTEX
  8
0
 10
101.77821119
 20
79.10172947
  0
VERTEX
  8
0
 10
101.72824337
 20
78.39970290
 42
-0.27541819
  0
VERTEX
  8
0
 10
101.14261405
 20
77.81541488
  0
SEQEND
  0
POLYLINE
  8
Preview Toolpath Layer
 62
256
 66
   1
 39
0.000000
 70
    0
  0
VERTEX
  8
0
 10
103.42009681
 20
77.76301585
  0
VERTEX
  8
0
 10
103.50404436
 20
77.76301585
  0
VERTEX
  8
0
 10
103.50443972
 20
79.71577582
 42
-0.17213018
  0
VERTEX
  8
0
 10
103.71258119
 20
80.56393665
 42
-0.22426373
  0
VERTEX
  8
0
 10
104.45700723
 20
80.92882989
 42
0.24734253
  0
VERTEX
  8
0
 10
103.59402529
 20
80.61485470
 42
0.10499965
  0
VERTEX
  8
0
 10
103.45194546
 20
80.27496716
  0
VERTEX
  8
0
 10
103.42009681
 20
79.71761582
  0
VERTEX
  8
0
 10
103.42009681
 20
77.76301585
  0
VERTEX
  8
0
 10
103.32009681
 20
77.76301585
  0
VERTEX
  8
0
 10
103.32009681
 20
77.66301585
  0
VERTEX
  8
0
 10
103.60404436
 20
77.66301585
  0
VERTEX
  8
0
 10
103.60429052
 20
79.71031523
 42
-0.19469303
  0
VERTEX
  8
0
 10
103.83540971
 20
80.55588103
 42
-0.55807940
  0
VERTEX
  8
0
 10
105.57555988
 20
80.09278275
 42
-0.06915701
  0
VERTEX
  8
0
 10
105.64956475
 20
79.47620381
  0
VERTEX
  8
0
 10
105.64956475
 20
77.66301585
  0
VERTEX
  8
0
 10
105.93351230
 20
77.66301585
  0
VERTEX
  8
0
 10
105.93351230
 20
80.95514893
  0
VERTEX
  8
0
 10
105.71095630
 20
80.95514893
 42
-0.13766611
  0
VERTEX
  8
0
 10
105.68686399
 20
80.51928173
 42
-0.51126209
  0
VERTEX
  8
0
 10
105.42020131
 20
80.49834899
 42
0.41825490
  0
VERTEX
  8
0
 10
103.65222914
 20
80.81512171
 42
0.18522171
  0
VERTEX
  8
0
 10
103.35279750
 20
80.29273264
  0
VERTEX
  8
0
 10
103.32009681
 20
79.72047063
  0
VERTEX
  8
0
 10
103.32009681
 20
77.76301585
  0
SEQEND
  0
POLYLINE
  8
Preview Toolpath Layer
 62
256
 66
   1
 39
0.000000
 70
    0
  0
VERTEX
  8
0
 10
105.71608541
 20
80.28220992
  0
VERTEX
  8
0
 10
105.73351230
 20
80.24118324
  0
VERTEX
  8
0
 10
105.73351230
 20
80.29200939
  0
VERTEX
  8
0
 10
105.71608541
 20
80.28220992
  0
VERTEX
  8
0
 10
105.66947704
 20
80.37068399
  0
VERTEX
  8
0
 10
105.58179663
 20
80.34257490
 42
-0.09534890
  0
VERTEX
  8
0
 10
105.73146786
 20
79.81079491
 42
-0.02702355
  0
VERTEX
  8
0
 10
105.74956475
 20
77.76301585
  0
VERTEX
  8
0
 10
105.83351230
 20
77.76301585
  0
VERTEX
  8
0
 10
105.83351230
 20
80.85514893
  0
VERTEX
  8
0
 10
105.81095630
 20
80.85514893
  0
VERTEX
  8
0
 10
105.81095630
 20
80.60512605
 42
-0.27835680
  0
VERTEX
  8
0
 10
105.66947704
 20
80.37068399
  0
SEQEND
  0
POLYLINE
  8
Preview Toolpath Layer
 62
256
 66
   1
 39
0.000000
 70
    0
  0
VERTEX
  8
0
 10
107.29799586
 20
77.76301585
  0
VERTEX
  8
0
 10
107.38194341
 20
77.76301585
  0
VERTEX
  8
0
 10
107.38194341
 20
80.85514893
  0
VERTEX
  8
0
 10
107.29799586
 20
80.85514893
  0
VERTEX
  8
0
 10
107.29799586
 20
77.76301585
  0
VERTEX
  8
0
 10
107.19799586
 20
77.76301585
  0
VERTEX
  8
0
 10
107.19799586
 20
77.66301585
  0
VERTEX
  8
0
 10
107.48194341
 20
77.66301585
  0
VERTEX
  8
0
 10
107.48194341
 20
80.95514893
  0
VERTEX
  8
0
 10
107.19799586
 20
80.95514893
  0
VERTEX
  8
0
 10
107.19799586
 20
77.76301585
  0
SEQEND
  0
POLYLINE
  8
Preview Toolpath Layer
 62
256
 66
   1
 39
0.000000
 70
    0
  0
VERTEX
  8
0
 10
107.38194341
 20
82.05701312
  0
VERTEX
  8
0
 10
107.38194341
 20
82.23304798
  0
VERTEX
  8
0
 10
107.29799586
 20
82.23304798
  0
VERTEX
  8
0
 10
107.29799586
 20
82.05701312
  0
VERTEX
  8
0
 10
107.38194341
 20
82.05701312
  0
VERTEX
  8
0
 10
107.38194341
 20
81.95701312
  0
VERTEX
  8
0
 10
107.48194341
 20
81.95701312
  0
VERTEX
  8
0
 10
107.48194341
 20
82.33304798
  0
VERTEX
  8
0
 10
107.19799586
 20
82.33304798
  0
VERTEX
  8
0
 10
107.19799586
 20
81.95701312
  0
VERTEX
  8
0
 10
107.38194341
 20
81.95701312
  0
SEQEND
  0
POLYLINE
  8
Preview Toolpath Layer
 62
256
 66
   1
 39
0.000000
 70
    0
  0
VERTEX
  8
0
 10
109.00440786
 20
81.92535552
 42
-0.22972195
  0
VERTEX
  8
0
 10
109.29873802
 20
82.04723738
  0
VERTEX
  8
0
 10
109.26920908
 20
82.13304798
  0
VERTEX
  8
0
 10
109.00440786
 20
82.13304798
  0
VERTEX
  8
0
 10
109.00440786
 20
81.92535552
  0
VERTEX
  8
0
 10
108.90440786
 20
81.92535552
  0
VERTEX
  8
0
 10
108.90440786
 20
77.76301585
  0
VERTEX
  8
0
 10
109.01222990
 20
77.76301585
  0
VERTEX
  8
0
 10
109.01222990
 20
81.68288867
 42
-0.30425088
  0
VERTEX
  8
0
 10
109.17662004
 20
81.92803633
 42
-0.30425088
  0
VERTEX
  8
0
 10
109.46582249
 20
81.86901567
  0
VERTEX
  8
0
 10
109.34055255
 20
82.23304798
  0
VERTEX
  8
0
 10
108.90440786
 20
82.23304798
  0
VERTEX
  8
0
 10
108.90440786
 20
81.92535552
  0
SEQEND
  0
POLYLINE
  8
Preview Toolpath Layer
 62
256
 66
   1
 39
0.000000
 70
    0
  0
VERTEX
  8
0
 10
113.04592703
 20
81.99697899
  0
VERTEX
  8
0
 10
113.04592703
 20
82.13304798
  0
VERTEX
  8
0
 10
112.67782899
 20
82.13304798
  0
VERTEX
  8
0
 10
112.66814276
 20
82.10407304
 42
-0.29187802
  0
VERTEX
  8
0
 10
113.04592703
 20
81.99697899
  0
VERTEX
  8
0
 10
112.97118238
 20
81.93054679
 42
-0.18367115
  0
VERTEX
  8
0
 10
113.03810500
 20
81.75451213
  0
VERTEX
  8
0
 10
113.03810500
 20
77.76301585
  0
VERTEX
  8
0
 10
113.14592703
 20
77.76301585
  0
VERTEX
  8
0
 10
113.14592703
 20
82.23304798
  0
VERTEX
  8
0
 10
112.60581890
 20
82.23304798
  0
VERTEX
  8
0
 10
111.24495385
 20
78.13632640
 42
-0.51374230
  0
VERTEX
  8
0
 10
110.83461069
 20
78.00506660
  0
VERTEX
  8
0
 10
110.91864787
 20
77.76301585
  0
VERTEX
  8
0
 10
111.13717641
 20
77.76301585
  0
VERTEX
  8
0
 10
112.52222190
 20
81.83975352
 42
-0.57505340
  0
VERTEX
  8
0
 10
112.97118238
 20
81.93054679
  0
VERTEX
  8
0
 10
112.89643773
 20
81.86411459
 42
-0.18367115
  0
VERTEX
  8
0
 10
112.93810500
 20
81.75451213
  0
VERTEX
  8
0
 10
112.93810500
 20
77.66301585
  0
VERTEX
  8
0
 10
113.24592703
 20
77.66301585
  0
VERTEX
  8
0
 10
113.24592703
 20
82.33304798
  0
VERTEX
  8
0
 10
112.53380882
 20
82.33304798
  0
VERTEX
  8
0
 10
111.14978299
 20
78.16702668
 42
-0.32433978
  0
VERTEX
  8
0
 10
110.99346187
 20
78.05269474
 42
-0.32433978
  0
VERTEX
  8
0
 10
110.83618235
 20
78.16570464
  0
VERTEX
  8
0
 10
109.41189602
 20
82.33304798
  0
VERTEX
  8
0
 10
108.80440786
 20
82.33304798
  0
VERTEX
  8
0
 10
108.80440786
 20
77.66301585
  0
VERTEX
  8
0
 10
109.11222990
 20
77.66301585
  0
VERTEX
  8
0
 10
109.11222990
 20
81.68288867
 42
-0.36608063
  0
VERTEX
  8
0
 10
109.24977576
 20
81.84557503
 42
-0.36608063
  0
VERTEX
  8
0
 10
109.43307145
 20
81.73700060
  0
VERTEX
  8
0
 10
110.84751115
 20
77.66301585
  0
VERTEX
  8
0
 10
111.20881576
 20
77.66301585
  0
VERTEX
  8
0
 10
112.61690657
 20
81.80758501
 42
-0.57505340
  0
VERTEX
  8
0
 10
112.89643773
 20
81.86411459
  0
SEQEND
  0
POLYLINE
  8
Preview Toolpath Layer
 62
256
 66
   1
 39
0.000000
 70
    0
  0
VERTEX
  8
0
 10
116.92747487
 20
80.88138799
 42
0.41421356
  0
VERTEX
  8
0
 10
116.89829160
 20
80.91057126
 42
0.41421356
  0
VERTEX
  8
0
 10
116.86910832
 20
80.88138799
  0
VERTEX
  8
0
 10
116.89829160
 20
80.84272872
  0
VERTEX
  8
0
 10
116.92747487
 20
80.88138799
  0
VERTEX
  8
0
 10
117.00311358
 20
80.81597555
 42
-0.10260675
  0
VERTEX
  8
0
 10
117.08857718
 20
80.88138799
 42
-0.28810118
  0
VERTEX
  8
0
 10
116.93856005
 20
81.12013287
  0
VERTEX
  8
0
 10
116.92380055
 20
81.78854311
 42
0.34155915
  0
VERTEX
  8
0
 10
116.49266393
 20
82.28628927
 42
0.10595223
  0
VERTEX
  8
0
 10
115.93683912
 20
82.28851422
  0
VERTEX
  8
0
 10
115.93945430
 20
82.27330748
 42
-0.22733252
  0
VERTEX
  8
0
 10
116.66897968
 20
82.08389903
 42
-0.20094631
  0
VERTEX
  8
0
 10
116.84013601
 20
81.02442677
 42
-0.19037367
  0
VERTEX
  8
0
 10
116.70800601
 20
80.88138799
 42
-0.28810118
  0
VERTEX
  8
0
 10
116.85802314
 20
80.64264310
  0
VERTEX
  8
0
 10
116.85802314
 20
77.76301585
  0
VERTEX
  8
0
 10
116.93856005
 20
77.76301585
  0
VERTEX
  8
0
 10
116.93856005
 20
80.64264310
 42
-0.18016845
  0
VERTEX
  8
0
 10
117.00311358
 20
80.81597555
  0
VERTEX
  8
0
 10
117.07875228
 20
80.75056311
  0
VERTEX
  8
0
 10
117.13493411
 20
80.79268437
 42
-0.10763428
  0
VERTEX
  8
0
 10
117.58085200
 20
80.80762704
  0
VERTEX
  8
0
 10
117.58085200
 20
80.95514893
 42
-0.12844718
  0
VERTEX
  8
0
 10
117.12285996
 20
80.97622391
 42
-0.27133037
  0
VERTEX
  8
0
 10
117.03856005
 20
81.12013287
  0
VERTEX
  8
0
 10
117.02325672
 20
81.80176448
 42
0.33846241
  0
VERTEX
  8
0
 10
116.51767257
 20
82.38421657
 42
0.10595223
  0
VERTEX
  8
0
 10
115.82022399
 20
82.37659208
  0
VERTEX
  8
0
 10
115.85660428
 20
82.16504743
 42
-0.23406918
  0
VERTEX
  8
0
 10
116.59655934
 20
82.01494038
 42
-0.20051623
  0
VERTEX
  8
0
 10
116.73694817
 20
81.03944885
 42
-0.27133037
  0
VERTEX
  8
0
 10
116.59303921
 20
80.95514893
  0
VERTEX
  8
0
 10
116.05202042
 20
80.95514893
  0
VERTEX
  8
0
 10
116.05202042
 20
80.80762704
  0
VERTEX
  8
0
 10
116.59303921
 20
80.80762704
 42
-0.41421356
  0
VERTEX
  8
0
 10
116.75802314
 20
80.64264310
  0
VERTEX
  8
0
 10
116.75802314
 20
77.66301585
  0
VERTEX
  8
0
 10
117.03856005
 20
77.66301585
  0
VERTEX
  8
0
 10
117.03856005
 20
80.64264310
 42
-0.18016845
  0
VERTEX
  8
0
 10
117.07875228
 20
80.75056311
  0
SEQEND
  0
POLYLINE
  8
Preview Toolpath Layer
 62
256
 66
   1
 39
0.000000
 70
    0
  0
VERTEX
  8
0
 10
118.45523068
 20
78.98089783
 42
-0.20464702
  0
VERTEX
  8
0
 10
118.82582897
 20
80.53856412
 42
-0.09893831
  0
VERTEX
  8
0
 10
119.23505270
 20
80.84614195
 42
0.28653804
  0
VERTEX
  8
0
 10
118.36214027
 20
79.72667850
 42
0.10815657
  0
VERTEX
  8
0
 10
118.44057156
 20
78.56324754
 42
0.23326103
  0
VERTEX
  8
0
 10
119.13275895
 20
77.82717694
 42
-0.24331086
  0
VERTEX
  8
0
 10
118.45523068
 20
78.98089783
  0
VERTEX
  8
0
 10
118.55506937
 20
78.98657556
 42
-0.20262127
  0
VERTEX
  8
0
 10
118.89449133
 20
80.46586281
 42
-0.60695112
  0
VERTEX
  8
0
 10
120.91830285
 20
79.94966724
 42
-0.17708499
  0
VERTEX
  8
0
 10
120.79823627
 20
78.36846574
 42
-0.31188801
  0
VERTEX
  8
0
 10
119.60030128
 20
77.76786644
 42
-0.31188801
  0
VERTEX
  8
0
 10
118.61484887
 20
78.67596958
 42
-0.03459108
  0
VERTEX
  8
0
 10
118.55506937
 20
78.98657556
  0
SEQEND
  0
POLYLINE
  8
Preview Toolpath Layer
 62
256
 66
   1
 39
0.000000
 70
    0
  0
VERTEX
  8
0
 10
120.29674322
 20
80.85055418
  0
VERTEX
  8
0
 10
120.28505281
 20
80.85351866
 42
-0.27747444
  0
VERTEX
  8
0
 10
121.07803070
 20
79.65040991
 42
-0.14957400
  0
VERTEX
  8
0
 10
120.88098086
 20
78.31231119
 42
-0.15588234
  0
VERTEX
  8
0
 10
120.31151273
 20
77.77361648
 42
0.29401791
  0
VERTEX
  8
0
 10
121.17128563
 20
78.91630254
 42
0.17817530
  0
VERTEX
  8
0
 10
120.92853134
 20
80.37366644
 42
0.15801616
  0
VERTEX
  8
0
 10
120.29674322
 20
80.85055418
  0
VERTEX
  8
0
 10
120.33871218
 20
80.94132095
 42
0.29778838
  0
VERTEX
  8
0
 10
118.66366835
 20
80.59604842
 42
0.19985909
  0
VERTEX
  8
0
 10
118.23533672
 20
79.36122566
 42
0.08390513
  0
VERTEX
  8
0
 10
118.34555501
 20
78.53121939
 42
0.26235116
  0
VERTEX
  8
0
 10
119.35076333
 20
77.63279242
 42
0.26825146
  0
VERTEX
  8
0
 10
120.87570928
 20
78.01814517
 42
0.19640766
  0
VERTEX
  8
0
 10
121.29803692
 20
79.30853207
 42
0.15140985
  0
VERTEX
  8
0
 10
121.01165783
 20
80.43068740
 42
0.15744308
  0
VERTEX
  8
0
 10
120.33871218
 20
80.94132095
  0
SEQEND
  0
POLYLINE
  8
Preview Toolpath Layer
 62
256
 66
   1
 39
0.000000
 70
    1
  0
VERTEX
  8
0
 10
125.87771102
 20
77.73837600
 42
0.27748109
  0
VERTEX
  8
0
 10
126.58090292
 20
78.36330343
  0
VERTEX
  8
0
 10
126.49410739
 20
78.37695666
 42
-0.25404614
  0
VERTEX
  8
0
 10
125.87771102
 20
77.73837600
  0
SEQEND
  0
POLYLINE
  8
Preview Toolpath Layer
 62
256
 66
   1
 39
0.000000
 70
    1
  0
VERTEX
  8
0
 10
124.76239291
 20
80.77733270
  0
VERTEX
  8
0
 10
124.91621587
 20
80.85424418
 42
0.26289273
  0
VERTEX
  8
0
 10
124.37419778
 20
80.40773735
  0
VERTEX
  8
0
 10
124.45795500
 20
80.39631591
 42
-0.17643394
  0
VERTEX
  8
0
 10
124.76239291
 20
80.77733270
  0
SEQEND
  0
POLYLINE
  8
Preview Toolpath Layer
 62
256
 66
   1
 39
0.000000
 70
    0
  0
VERTEX
  8
0
 10
124.89427010
 20
79.28362417
 42
0.18111275
  0
VERTEX
  8
0
 10
124.27446577
 20
78.93703694
 42
0.42417210
  0
VERTEX
  8
0
 10
124.56186149
 20
77.89628101
 42
-0.65233535
  0
VERTEX
  8
0
 10
124.86515163
 20
79.17271998
 42
0.04023790
  0
VERTEX
  8
0
 10
126.16292487
 20
79.56441767
 42
0.59559039
  0
VERTEX
  8
0
 10
126.22596384
 20
80.74324990
 42
-0.62179872
  0
VERTEX
  8
0
 10
125.98114238
 20
79.59682900
  0
VERTEX
  8
0
 10
124.89427010
 20
79.28362417
  0
VERTEX
  8
0
 10
124.86668046
 20
79.37974291
 42
0.16131701
  0
VERTEX
  8
0
 10
124.19055342
 20
78.99377765
 42
0.46492546
  0
VERTEX
  8
0
 10
124.66904963
 20
77.71462114
 42
0.19628728
  0
VERTEX
  8
0
 10
126.16341783
 20
77.73017055
 42
0.23040352
  0
VERTEX
  8
0
 10
126.70973986
 20
78.44426660
  0
VERTEX
  8
0
 10
126.42332497
 20
78.48932063
 42
-0.29623478
  0
VERTEX
  8
0
 10
125.76337521
 20
77.80594868
 42
-0.17568594
  0
VERTEX
  8
0
 10
124.76775497
 20
77.87812793
 42
-0.40517077
  0
VERTEX
  8
0
 10
124.43691979
 20
78.76249770
 42
-0.19267890
  0
VERTEX
  8
0
 10
124.89233112
 20
79.07648446
 42
0.04024216
  0
VERTEX
  8
0
 10
126.20811478
 20
79.47449446
 42
0.32467314
  0
VERTEX
  8
0
 10
126.62802822
 20
80.31000184
 42
0.32467314
  0
VERTEX
  8
0
 10
125.96376074
 20
80.96814210
 42
0.20698343
  0
VERTEX
  8
0
 10
124.54657389
 20
80.79869678
 42
0.19856767
  0
VERTEX
  8
0
 10
124.24822839
 20
80.32398952
  0
VERTEX
  8
0
 10
124.52746769
 20
80.28591143
 42
-0.27839015
  0
VERTEX
  8
0
 10
125.09598454
 20
80.82172784
 42
-0.18739811
  0
VERTEX
  8
0
 10
126.10286855
 20
80.70868740
 42
-0.66368062
  0
VERTEX
  8
0
 10
125.95335124
 20
79.69288967
  0
VERTEX
  8
0
 10
124.86668046
 20
79.37974291
  0
SEQEND
  0
POLYLINE
  8
Preview Toolpath Layer
 62
256
 66
   1
 39
0.000000
 70
    0
  0
VERTEX
  8
0
 10
127.87439422
 20
77.76301585
  0
VERTEX
  8
0
 10
127.95834177
 20
77.76301585
  0
VERTEX
  8
0
 10
127.95873713
 20
79.71577582
 42
-0.17213018
  0
VERTEX
  8
0
 10
128.16687860
 20
80.56393665
 42
-0.22426373
  0
VERTEX
  8
0
 10
128.91130464
 20
80.92882989
 42
0.24734253
  0
VERTEX
  8
0
 10
128.04832269
 20
80.61485470
 42
0.10499965
  0
VERTEX
  8
0
 10
127.90624287
 20
80.27496716
  0
VERTEX
  8
0
 10
127.87439422
 20
79.71761582
  0
VERTEX
  8
0
 10
127.87439422
 20
77.76301585
  0
VERTEX
  8
0
 10
127.77439422
 20
77.76301585
  0
VERTEX
  8
0
 10
127.77439422
 20
77.66301585
  0
VERTEX
  8
0
 10
128.05834177
 20
77.66301585
  0
VERTEX
  8
0
 10
128.05858793
 20
79.71031523
 42
-0.19469303
  0
VERTEX
  8
0
 10
128.28970712
 20
80.55588103
 42
-0.55807940
  0
VERTEX
  8
0
 10
130.02985728
 20
80.09278275
 42
-0.06915701
  0
VERTEX
  8
0
 10
130.10386216
 20
79.47620381
  0
VERTEX
  8
0
 10
130.10386216
 20
77.66301585
  0
VERTEX
  8
0
 10
130.38780971
 20
77.66301585
  0
VERTEX
  8
0
 10
130.38780971
 20
80.95514893
  0
VERTEX
  8
0
 10
130.16525370
 20
80.95514893
 42
-0.13766611
  0
VERTEX
  8
0
 10
130.14116140
 20
80.51928173
 42
-0.51126209
  0
VERTEX
  8
0
 10
129.87449871
 20
80.49834899
 42
0.41825490
  0
VERTEX
  8
0
 10
128.10652655
 20
80.81512171
 42
0.18522171
  0
VERTEX
  8
0
 10
127.80709491
 20
80.29273264
  0
VERTEX
  8
0
 10
127.77439422
 20
79.72047063
  0
VERTEX
  8
0
 10
127.77439422
 20
77.76301585
  0
SEQEND
  0
POLYLINE
  8
Preview Toolpath Layer
 62
256
 66
   1
 39
0.000000
 70
    0
  0
VERTEX
  8
0
 10
130.17038282
 20
80.28220992
  0
VERTEX
  8
0
 10
130.18780971
 20
80.24118324
  0
VERTEX
  8
0
 10
130.18780971
 20
80.29200939
  0
VERTEX
  8
0
 10
130.17038282
 20
80.28220992
  0
VERTEX
  8
0
 10
130.12377445
 20
80.37068399
  0
VERTEX
  8
0
 10
130.03609404
 20
80.34257490
 42
-0.09534890
  0
VERTEX
  8
0
 10
130.18576527
 20
79.81079491
 42
-0.02702355
  0
VERTEX
  8
0
 10
130.20386216
 20
77.76301585
  0
VERTEX
  8
0
 10
130.28780971
 20
77.76301585
  0
VERTEX
  8
0
 10
130.28780971
 20
80.85514893
  0
VERTEX
  8
0
 10
130.26525370
 20
80.85514893
  0
VERTEX
  8
0
 10
130.26525370
 20
80.60512605
 42
-0.27835680
  0
VERTEX
  8
0
 10
130.12377445
 20
80.37068399
  0
SEQEND
  0
POLYLINE
  8
Preview Toolpath Layer
 62
256
 66
   1
 39
0.000000
 70
    1
  0
VERTEX
  8
0
 10
132.41777926
 20
77.74768472
  0
VERTEX
  8
0
 10
132.46120245
 20
77.73853943
 42
-0.21636705
  0
VERTEX
  8
0
 10
131.80308283
 20
78.37831537
  0
VERTEX
  8
0
 10
131.69290256
 20
78.36469093
 42
0.21971173
  0
VERTEX
  8
0
 10
132.41777926
 20
77.74768472
  0
SEQEND
  0
POLYLINE
  8
Preview Toolpath Layer
 62
256
 66
   1
 39
0.000000
 70
    1
  0
VERTEX
  8
0
 10
131.57561427
 20
79.41717683
  0
VERTEX
  8
0
 10
131.83838783
 20
79.41717683
 42
-0.34389676
  0
VERTEX
  8
0
 10
131.69112826
 20
79.70797547
 42
-0.11006568
  0
VERTEX
  8
0
 10
131.87681906
 20
80.36145988
 42
-0.13104962
  0
VERTEX
  8
0
 10
132.25215854
 20
80.75454680
 42
0.20194148
  0
VERTEX
  8
0
 10
131.67065234
 20
80.02768757
 42
0.07994634
  0
VERTEX
  8
0
 10
131.57561427
 20
79.41717683
  0
SEQEND
  0
POLYLINE
  8
Preview Toolpath Layer
 62
256
 66
   1
 39
0.000000
 70
    1
  0
VERTEX
  8
0
 10
133.97366677
 20
79.49198386
  0
VERTEX
  8
0
 10
131.95115654
 20
79.49198386
 42
-0.47215524
  0
VERTEX
  8
0
 10
131.78925809
 20
79.68872613
 42
-0.10896257
  0
VERTEX
  8
0
 10
131.95989670
 20
80.30579925
 42
-0.35018858
  0
VERTEX
  8
0
 10
133.32779310
 20
80.81215316
 42
-0.35018858
  0
VERTEX
  8
0
 10
134.12464720
 20
79.59045008
 42
-0.29727251
  0
VERTEX
  8
0
 10
133.97366677
 20
79.49198386
  0
SEQEND
  0
POLYLINE
  8
Preview Toolpath Layer
 62
256
 66
   1
 39
0.000000
 70
    0
  0
VERTEX
  8
0
 10
134.26743719
 20
79.40868437
  0
VERTEX
  8
0
 10
134.26545775
 20
79.43771613
  0
VERTEX
  8
0
 10
134.25578796
 20
79.42247346
  0
VERTEX
  8
0
 10
134.26743719
 20
79.40868437
  0
VERTEX
  8
0
 10
134.19629324
 20
79.33840964
 42
-0.20896873
  0
VERTEX
  8
0
 10
134.27249165
 20
79.14033476
 42
-0.30624632
  0
VERTEX
  8
0
 10
133.44778355
 20
77.76335190
 42
0.31424206
  0
VERTEX
  8
0
 10
134.35031254
 20
78.90113347
 42
0.16155925
  0
VERTEX
  8
0
 10
134.14727037
 20
80.28474034
 42
0.18916401
  0
VERTEX
  8
0
 10
133.50161694
 20
80.83756401
 42
-0.31396487
  0
VERTEX
  8
0
 10
134.22678344
 20
79.57855583
 42
-0.22902166
  0
VERTEX
  8
0
 10
134.06944706
 20
79.40989974
 42
-0.14006648
  0
VERTEX
  8
0
 10
134.19629324
 20
79.33840964
  0
VERTEX
  8
0
 10
134.12514928
 20
79.26813491
 42
-0.20896873
  0
VERTEX
  8
0
 10
134.17259183
 20
79.14480980
 42
-0.53168004
  0
VERTEX
  8
0
 10
132.52567656
 20
77.81801073
 42
-0.22945527
  0
VERTEX
  8
0
 10
131.86153732
 20
78.48630525
  0
VERTEX
  8
0
 10
131.54633652
 20
78.44732881
 42
0.33164457
  0
VERTEX
  8
0
 10
132.91495015
 20
77.58158456
 42
0.40294434
  0
VERTEX
  8
0
 10
134.44950703
 20
78.88607184
 42
0.16187505
  0
VERTEX
  8
0
 10
134.23411754
 20
80.33550031
 42
0.42709483
  0
VERTEX
  8
0
 10
132.10574478
 20
80.78797453
 42
0.25382646
  0
VERTEX
  8
0
 10
131.46858592
 20
79.31717683
  0
VERTEX
  8
0
 10
134.00777318
 20
79.31717683
 42
-0.20051026
  0
VERTEX
  8
0
 10
134.12514928
 20
79.26813491
  0
SEQEND
  0
POLYLINE
  8
Preview Toolpath Layer
 62
256
 66
   1
 39
0.000000
 70
    0
  0
VERTEX
  8
0
 10
137.06627507
 20
82.13304798
  0
VERTEX
  8
0
 10
136.97928493
 20
82.13304798
  0
VERTEX
  8
0
 10
137.02278000
 20
82.06214458
  0
VERTEX
  8
0
 10
137.06627507
 20
82.13304798
  0
VERTEX
  8
0
 10
137.14500104
 20
82.07138582
 42
-0.23054721
  0
VERTEX
  8
0
 10
137.35361220
 20
82.17297492
  0
VERTEX
  8
0
 10
138.73596796
 20
82.17297492
  0
VERTEX
  8
0
 10
138.73596796
 20
82.23304798
  0
VERTEX
  8
0
 10
135.30277076
 20
82.23304798
  0
VERTEX
  8
0
 10
135.30277076
 20
82.17297492
  0
VERTEX
  8
0
 10
136.69194780
 20
82.17297492
 42
-0.41421356
  0
VERTEX
  8
0
 10
136.95693174
 20
81.90799099
  0
VERTEX
  8
0
 10
136.95693174
 20
77.76301585
  0
VERTEX
  8
0
 10
137.08862826
 20
77.76301585
  0
VERTEX
  8
0
 10
137.08862826
 20
81.90799099
 42
-0.16765592
  0
VERTEX
  8
0
 10
137.14500104
 20
82.07138582
  0
VERTEX
  8
0
 10
137.22372700
 20
82.00972365
 42
-0.23054721
  0
VERTEX
  8
0
 10
137.35361220
 20
82.07297492
  0
VERTEX
  8
0
 10
138.83596796
 20
82.07297492
  0
VERTEX
  8
0
 10
138.83596796
 20
82.33304798
  0
VERTEX
  8
0
 10
135.20277076
 20
82.33304798
  0
VERTEX
  8
0
 10
135.20277076
 20
82.07297492
  0
VERTEX
  8
0
 10
136.69194780
 20
82.07297492
 42
-0.41421356
  0
VERTEX
  8
0
 10
136.85693174
 20
81.90799099
  0
VERTEX
  8
0
 10
136.85693174
 20
77.66301585
  0
VERTEX
  8
0
 10
137.18862826
 20
77.66301585
  0
VERTEX
  8
0
 10
137.18862826
 20
81.90799099
 42
-0.16765592
  0
VERTEX
  8
0
 10
137.22372700
 20
82.00972365
  0
SEQEND
  0
POLYLINE
  8
Preview Toolpath Layer
 62
256
 66
   1
 39
0.000000
 70
    0
  0
VERTEX
  8
0
 10
132.97166487
 20
69.39992802
  0
VERTEX
  8
0
 10
132.97166487
 20
69.57596287
  0
VERTEX
  8
0
 10
132.88771733
 20
69.57596287
  0
VERTEX
  8
0
 10
132.88771733
 20
69.39992802
  0
VERTEX
  8
0
 10
132.97166487
 20
69.39992802
  0
VERTEX
  8
0
 10
132.97166487
 20
69.29992802
  0
VERTEX
  8
0
 10
133.07166487
 20
69.29992802
  0
VERTEX
  8
0
 10
133.07166487
 20
69.67596287
  0
VERTEX
  8
0
 10
132.78771733
 20
69.67596287
  0
VERTEX
  8
0
 10
132.78771733
 20
69.29992802
  0
VERTEX
  8
0
 10
132.97166487
 20
69.29992802
  0
SEQEND
  0
POLYLINE
  8
Preview Toolpath Layer
 62
256
 66
   1
 39
0.000000
 70
    0
  0
VERTEX
  8
0
 10
132.88771733
 20
65.10593074
  0
VERTEX
  8
0
 10
132.97166487
 20
65.10593074
  0
VERTEX
  8
0
 10
132.97166487
 20
68.19806383
  0
VERTEX
  8
0
 10
132.88771733
 20
68.19806383
  0
VERTEX
  8
0
 10
132.88771733
 20
65.10593074
  0
VERTEX
  8
0
 10
132.78771733
 20
65.10593074
  0
VERTEX
  8
0
 10
132.78771733
 20
65.00593074
  0
VERTEX
  8
0
 10
133.07166487
 20
65.00593074
  0
VERTEX
  8
0
 10
133.07166487
 20
68.29806383
  0
VERTEX
  8
0
 10
132.78771733
 20
68.29806383
  0
VERTEX
  8
0
 10
132.78771733
 20
65.10593074
  0
SEQEND
  0
POLYLINE
  8
Preview Toolpath Layer
 62
256
 66
   1
 39
0.000000
 70
    0
  0
VERTEX
  8
0
 10
129.00981828
 20
65.10593074
  0
VERTEX
  8
0
 10
129.09376583
 20
65.10593074
  0
VERTEX
  8
0
 10
129.09416119
 20
67.05869071
 42
-0.17213018
  0
VERTEX
  8
0
 10
129.30230266
 20
67.90685155
 42
-0.22426373
  0
VERTEX
  8
0
 10
130.04672870
 20
68.27174478
 42
0.24734253
  0
VERTEX
  8
0
 10
129.18374675
 20
67.95776959
 42
0.10499965
  0
VERTEX
  8
0
 10
129.04166693
 20
67.61788205
  0
VERTEX
  8
0
 10
129.00981828
 20
67.06053071
  0
VERTEX
  8
0
 10
129.00981828
 20
65.10593074
  0
VERTEX
  8
0
 10
128.90981828
 20
65.10593074
  0
VERTEX
  8
0
 10
128.90981828
 20
65.00593074
  0
VERTEX
  8
0
 10
129.19376583
 20
65.00593074
  0
VERTEX
  8
0
 10
129.19401199
 20
67.05323012
 42
-0.19469303
  0
VERTEX
  8
0
 10
129.42513118
 20
67.89879592
 42
-0.55807940
  0
VERTEX
  8
0
 10
131.16528134
 20
67.43569764
 42
-0.06915701
  0
VERTEX
  8
0
 10
131.23928622
 20
66.81911870
  0
VERTEX
  8
0
 10
131.23928622
 20
65.00593074
  0
VERTEX
  8
0
 10
131.52323377
 20
65.00593074
  0
VERTEX
  8
0
 10
131.52323377
 20
68.29806383
  0
VERTEX
  8
0
 10
131.30067776
 20
68.29806383
 42
-0.13766611
  0
VERTEX
  8
0
 10
131.27658546
 20
67.86219663
 42
-0.51126209
  0
VERTEX
  8
0
 10
131.00992277
 20
67.84126388
 42
0.41825490
  0
VERTEX
  8
0
 10
129.24195061
 20
68.15803661
 42
0.18522171
  0
VERTEX
  8
0
 10
128.94251897
 20
67.63564753
  0
VERTEX
  8
0
 10
128.90981828
 20
67.06338553
  0
VERTEX
  8
0
 10
128.90981828
 20
65.10593074
  0
SEQEND
  0
POLYLINE
  8
Preview Toolpath Layer
 62
256
 66
   1
 39
0.000000
 70
    0
  0
VERTEX
  8
0
 10
131.30580688
 20
67.62512482
  0
VERTEX
  8
0
 10
131.32323377
 20
67.58409814
  0
VERTEX
  8
0
 10
131.32323377
 20
67.63492428
  0
VERTEX
  8
0
 10
131.30580688
 20
67.62512482
  0
VERTEX
  8
0
 10
131.25919851
 20
67.71359888
  0
VERTEX
  8
0
 10
131.17151810
 20
67.68548979
 42
-0.09534890
  0
VERTEX
  8
0
 10
131.32118933
 20
67.15370981
 42
-0.02702355
  0
VERTEX
  8
0
 10
131.33928622
 20
65.10593074
  0
VERTEX
  8
0
 10
131.42323377
 20
65.10593074
  0
VERTEX
  8
0
 10
131.42323377
 20
68.19806383
  0
VERTEX
  8
0
 10
131.40067776
 20
68.19806383
  0
VERTEX
  8
0
 10
131.40067776
 20
67.94804094
 42
-0.27835680
  0
VERTEX
  8
0
 10
131.25919851
 20
67.71359888
  0
SEQEND
  0
POLYLINE
  8
Preview Toolpath Layer
 62
256
 66
   1
 39
0.000000
 70
    0
  0
VERTEX
  8
0
 10
125.25244066
 20
65.69206099
  0
VERTEX
  8
0
 10
125.24556180
 20
65.71380190
  0
VERTEX
  8
0
 10
125.24556180
 20
65.68814121
  0
VERTEX
  8
0
 10
125.25244066
 20
65.69206099
  0
VERTEX
  8
0
 10
125.30100456
 20
65.60464505
  0
VERTEX
  8
0
 10
125.39492910
 20
65.63570074
 42
-0.13681755
  0
VERTEX
  8
0
 10
125.23002538
 20
66.50586368
 42
-0.01560597
  0
VERTEX
  8
0
 10
125.22950935
 20
68.19806383
  0
VERTEX
  8
0
 10
125.14556180
 20
68.19806383
  0
VERTEX
  8
0
 10
125.14556180
 20
65.10593074
  0
VERTEX
  8
0
 10
125.16470717
 20
65.10593074
  0
VERTEX
  8
0
 10
125.16470717
 20
65.37300684
 42
-0.27237655
  0
VERTEX
  8
0
 10
125.30100456
 20
65.60464505
  0
SEQEND
  0
POLYLINE
  8
Preview Toolpath Layer
 62
256
 66
   1
 39
0.000000
 70
    0
  0
VERTEX
  8
0
 10
126.74563903
 20
65.05921864
  0
VERTEX
  8
0
 10
126.53371301
 20
65.03077219
 42
0.23806908
  0
VERTEX
  8
0
 10
127.37814191
 20
65.35008676
 42
0.10512922
  0
VERTEX
  8
0
 10
127.51715400
 20
65.69293557
  0
VERTEX
  8
0
 10
127.55215601
 20
66.22751164
  0
VERTEX
  8
0
 10
127.55215601
 20
68.19806383
  0
VERTEX
  8
0
 10
127.46820846
 20
68.19806383
 42
-0.02879715
  0
VERTEX
  8
0
 10
127.43024843
 20
65.79084274
 42
-0.29780615
  0
VERTEX
  8
0
 10
126.74563903
 20
65.05921864
  0
VERTEX
  8
0
 10
126.73233552
 20
65.15832977
 42
-0.46726725
  0
VERTEX
  8
0
 10
125.35541045
 20
66.10282456
  0
VERTEX
  8
0
 10
125.32983064
 20
66.51210151
 42
-0.01560597
  0
VERTEX
  8
0
 10
125.32950935
 20
68.29806383
  0
VERTEX
  8
0
 10
125.04556180
 20
68.29806383
  0
VERTEX
  8
0
 10
125.04556180
 20
65.00593074
  0
VERTEX
  8
0
 10
125.26470717
 20
65.00593074
  0
VERTEX
  8
0
 10
125.26470717
 20
65.37300684
 42
-0.31379435
  0
VERTEX
  8
0
 10
125.37241516
 20
65.52772970
 42
-0.31379435
  0
VERTEX
  8
0
 10
125.55490713
 20
65.48043423
 42
0.48895806
  0
VERTEX
  8
0
 10
127.45886216
 20
65.28923230
 42
0.10512922
  0
VERTEX
  8
0
 10
127.61620487
 20
65.67516942
  0
VERTEX
  8
0
 10
127.65215601
 20
66.22424134
  0
VERTEX
  8
0
 10
127.65215601
 20
68.29806383
  0
VERTEX
  8
0
 10
127.36820846
 20
68.29806383
  0
VERTEX
  8
0
 10
127.36793266
 20
66.44464436
  0
VERTEX
  8
0
 10
127.31796484
 20
65.74261779
 42
-0.27541819
  0
VERTEX
  8
0
 10
126.73233552
 20
65.15832977
  0
SEQEND
  0
POLYLINE
  8
Preview Toolpath Layer
 62
256
 66
   1
 39
0.000000
 70
    0
  0
VERTEX
  8
0
 10
123.47179022
 20
68.22430288
 42
0.41421356
  0
VERTEX
  8
0
 10
123.50097350
 20
68.19511960
 42
0.41421356
  0
VERTEX
  8
0
 10
123.53015678
 20
68.22430288
  0
VERTEX
  8
0
 10
123.50097350
 20
68.26296215
  0
VERTEX
  8
0
 10
123.47179022
 20
68.22430288
  0
VERTEX
  8
0
 10
123.39615152
 20
68.28971532
 42
-0.10260675
  0
VERTEX
  8
0
 10
123.31068792
 20
68.22430288
 42
-0.28810118
  0
VERTEX
  8
0
 10
123.46070505
 20
67.98555800
  0
VERTEX
  8
0
 10
123.45961682
 20
65.84355929
 42
-0.07944227
  0
VERTEX
  8
0
 10
123.40828330
 20
65.42481516
 42
-0.29711323
  0
VERTEX
  8
0
 10
122.82444776
 20
65.10223577
 42
0.41421356
  0
VERTEX
  8
0
 10
122.79836146
 20
65.10463741
 42
0.41421356
  0
VERTEX
  8
0
 10
122.79595982
 20
65.07855112
 42
0.24507246
  0
VERTEX
  8
0
 10
123.43199930
 20
65.20345313
 42
0.19175591
  0
VERTEX
  8
0
 10
123.52360565
 20
65.47659576
 42
0.02047558
  0
VERTEX
  8
0
 10
123.54124195
 20
67.98555800
 42
-0.28810118
  0
VERTEX
  8
0
 10
123.69125908
 20
68.22430288
 42
-0.28810118
  0
VERTEX
  8
0
 10
123.54124195
 20
68.46304776
  0
VERTEX
  8
0
 10
123.54124195
 20
69.21044534
  0
VERTEX
  8
0
 10
123.46070505
 20
69.25903744
  0
VERTEX
  8
0
 10
123.46070505
 20
68.46304776
 42
-0.18016845
  0
VERTEX
  8
0
 10
123.39615152
 20
68.28971532
  0
VERTEX
  8
0
 10
123.32051282
 20
68.35512775
 42
-0.21779171
  0
VERTEX
  8
0
 10
123.19572111
 20
68.29806383
  0
VERTEX
  8
0
 10
122.74337899
 20
68.29806383
  0
VERTEX
  8
0
 10
122.74337899
 20
68.15054193
  0
VERTEX
  8
0
 10
123.19572111
 20
68.15054193
 42
-0.41421356
  0
VERTEX
  8
0
 10
123.36070505
 20
67.98555800
  0
VERTEX
  8
0
 10
123.36002749
 20
65.85261287
 42
-0.07944227
  0
VERTEX
  8
0
 10
123.31648228
 20
65.46447084
 42
-0.33782753
  0
VERTEX
  8
0
 10
122.71648520
 20
65.21219387
  0
VERTEX
  8
0
 10
122.68039001
 20
64.99145790
 42
0.25739697
  0
VERTEX
  8
0
 10
123.50629560
 20
65.13454518
 42
0.19175591
  0
VERTEX
  8
0
 10
123.62318214
 20
65.46421081
 42
0.02047558
  0
VERTEX
  8
0
 10
123.64124195
 20
67.98555800
 42
-0.27133037
  0
VERTEX
  8
0
 10
123.72554187
 20
68.12946695
 42
-0.12844718
  0
VERTEX
  8
0
 10
124.09144659
 20
68.15054193
  0
VERTEX
  8
0
 10
124.09144659
 20
68.29806383
 42
-0.12844718
  0
VERTEX
  8
0
 10
123.72554187
 20
68.31913881
 42
-0.27133037
  0
VERTEX
  8
0
 10
123.64124195
 20
68.46304776
  0
VERTEX
  8
0
 10
123.64124195
 20
69.26690199
  0
VERTEX
  8
0
 10
123.36070505
 20
69.43616448
  0
VERTEX
  8
0
 10
123.36070505
 20
68.46304776
 42
-0.18016845
  0
VERTEX
  8
0
 10
123.32051282
 20
68.35512775
  0
SEQEND
  0
POLYLINE
  8
Preview Toolpath Layer
 62
256
 66
   1
 39
0.000000
 70
    1
  0
VERTEX
  8
0
 10
119.95838750
 20
65.09059961
  0
VERTEX
  8
0
 10
120.00181069
 20
65.08145432
 42
-0.21636705
  0
VERTEX
  8
0
 10
119.34369107
 20
65.72123026
  0
VERTEX
  8
0
 10
119.23351080
 20
65.70760582
 42
0.21971173
  0
VERTEX
  8
0
 10
119.95838750
 20
65.09059961
  0
SEQEND
  0
POLYLINE
  8
Preview Toolpath Layer
 62
256
 66
   1
 39
0.000000
 70
    1
  0
VERTEX
  8
0
 10
119.11622251
 20
66.76009173
  0
VERTEX
  8
0
 10
119.37899607
 20
66.76009173
 42
-0.34389676
  0
VERTEX
  8
0
 10
119.23173650
 20
67.05089037
 42
-0.11006568
  0
VERTEX
  8
0
 10
119.41742730
 20
67.70437478
 42
-0.13104962
  0
VERTEX
  8
0
 10
119.79276678
 20
68.09746170
 42
0.20194148
  0
VERTEX
  8
0
 10
119.21126058
 20
67.37060247
 42
0.07994634
  0
VERTEX
  8
0
 10
119.11622251
 20
66.76009173
  0
SEQEND
  0
POLYLINE
  8
Preview Toolpath Layer
 62
256
 66
   1
 39
0.000000
 70
    1
  0
VERTEX
  8
0
 10
121.51427500
 20
66.83489875
  0
VERTEX
  8
0
 10
119.49176477
 20
66.83489875
 42
-0.47215524
  0
VERTEX
  8
0
 10
119.32986632
 20
67.03164102
 42
-0.10896257
  0
VERTEX
  8
0
 10
119.50050493
 20
67.64871414
 42
-0.35018858
  0
VERTEX
  8
0
 10
120.86840134
 20
68.15506805
 42
-0.35018858
  0
VERTEX
  8
0
 10
121.66525544
 20
66.93336497
 42
-0.29727251
  0
VERTEX
  8
0
 10
121.51427500
 20
66.83489875
  0
SEQEND
  0
POLYLINE
  8
Preview Toolpath Layer
 62
256
 66
   1
 39
0.000000
 70
    0
  0
VERTEX
  8
0
 10
121.80804543
 20
66.75159926
  0
VERTEX
  8
0
 10
121.80606599
 20
66.78063102
  0
VERTEX
  8
0
 10
121.79639620
 20
66.76538836
  0
VERTEX
  8
0
 10
121.80804543
 20
66.75159926
  0
VERTEX
  8
0
 10
121.73690147
 20
66.68132453
 42
-0.20896873
  0
VERTEX
  8
0
 10
121.81309989
 20
66.48324965
 42
-0.30624632
  0
VERTEX
  8
0
 10
120.98839179
 20
65.10626680
 42
0.31424206
  0
VERTEX
  8
0
 10
121.89092077
 20
66.24404836
 42
0.16155925
  0
VERTEX
  8
0
 10
121.68787860
 20
67.62765524
 42
0.18916401
  0
VERTEX
  8
0
 10
121.04222517
 20
68.18047890
 42
-0.31396487
  0
VERTEX
  8
0
 10
121.76739167
 20
66.92147072
 42
-0.22902166
  0
VERTEX
  8
0
 10
121.61005529
 20
66.75281464
 42
-0.14006648
  0
VERTEX
  8
0
 10
121.73690147
 20
66.68132453
  0
VERTEX
  8
0
 10
121.66575751
 20
66.61104980
 42
-0.20896873
  0
VERTEX
  8
0
 10
121.71320007
 20
66.48772469
 42
-0.53168004
  0
VERTEX
  8
0
 10
120.06628480
 20
65.16092562
 42
-0.22945527
  0
VERTEX
  8
0
 10
119.40214555
 20
65.82922014
  0
VERTEX
  8
0
 10
119.08694475
 20
65.79024370
 42
0.33164457
  0
VERTEX
  8
0
 10
120.45555839
 20
64.92449946
 42
0.40294434
  0
VERTEX
  8
0
 10
121.99011526
 20
66.22898673
 42
0.16187505
  0
VERTEX
  8
0
 10
121.77472577
 20
67.67841521
 42
0.42709483
  0
VERTEX
  8
0
 10
119.64635302
 20
68.13088943
 42
0.25382646
  0
VERTEX
  8
0
 10
119.00919415
 20
66.66009173
  0
VERTEX
  8
0
 10
121.54838141
 20
66.66009173
 42
-0.20051026
  0
VERTEX
  8
0
 10
121.66575751
 20
66.61104980
  0
SEQEND
  0
POLYLINE
  8
Preview Toolpath Layer
 62
256
 66
   1
 39
0.000000
 70
    1
  0
VERTEX
  8
0
 10
117.30303958
 20
65.08129089
 42
0.27748109
  0
VERTEX
  8
0
 10
118.00623148
 20
65.70621832
  0
VERTEX
  8
0
 10
117.91943595
 20
65.71987155
 42
-0.25404614
  0
VERTEX
  8
0
 10
117.30303958
 20
65.08129089
  0
SEQEND
  0
POLYLINE
  8
Preview Toolpath Layer
 62
256
 66
   1
 39
0.000000
 70
    1
  0
VERTEX
  8
0
 10
116.18772147
 20
68.12024760
  0
VERTEX
  8
0
 10
116.34154443
 20
68.19715908
 42
0.26289273
  0
VERTEX
  8
0
 10
115.79952634
 20
67.75065224
  0
VERTEX
  8
0
 10
115.88328357
 20
67.73923080
 42
-0.17643394
  0
VERTEX
  8
0
 10
116.18772147
 20
68.12024760
  0
SEQEND
  0
POLYLINE
  8
Preview Toolpath Layer
 62
256
 66
   1
 39
0.000000
 70
    0
  0
VERTEX
  8
0
 10
116.31959866
 20
66.62653906
 42
0.18111275
  0
VERTEX
  8
0
 10
115.69979433
 20
66.27995183
 42
0.42417210
  0
VERTEX
  8
0
 10
115.98719005
 20
65.23919590
 42
-0.65233535
  0
VERTEX
  8
0
 10
116.29048019
 20
66.51563488
 42
0.04023790
  0
VERTEX
  8
0
 10
117.58825343
 20
66.90733257
 42
0.59559039
  0
VERTEX
  8
0
 10
117.65129241
 20
68.08616479
 42
-0.62179872
  0
VERTEX
  8
0
 10
117.40647094
 20
66.93974389
  0
VERTEX
  8
0
 10
116.31959866
 20
66.62653906
  0
VERTEX
  8
0
 10
116.29200902
 20
66.72265780
 42
0.16131701
  0
VERTEX
  8
0
 10
115.61588198
 20
66.33669255
 42
0.46492546
  0
VERTEX
  8
0
 10
116.09437819
 20
65.05753604
 42
0.19628728
  0
VERTEX
  8
0
 10
117.58874639
 20
65.07308545
 42
0.23040352
  0
VERTEX
  8
0
 10
118.13506843
 20
65.78718149
  0
VERTEX
  8
0
 10
117.84865353
 20
65.83223552
 42
-0.29623478
  0
VERTEX
  8
0
 10
117.18870377
 20
65.14886357
 42
-0.17568594
  0
VERTEX
  8
0
 10
116.19308353
 20
65.22104282
 42
-0.40517077
  0
VERTEX
  8
0
 10
115.86224835
 20
66.10541259
 42
-0.19267890
  0
VERTEX
  8
0
 10
116.31765968
 20
66.41939936
 42
0.04024216
  0
VERTEX
  8
0
 10
117.63344334
 20
66.81740935
 42
0.32467314
  0
VERTEX
  8
0
 10
118.05335678
 20
67.65291673
 42
0.32467314
  0
VERTEX
  8
0
 10
117.38908931
 20
68.31105699
 42
0.20698343
  0
VERTEX
  8
0
 10
115.97190245
 20
68.14161167
 42
0.19856767
  0
VERTEX
  8
0
 10
115.67355695
 20
67.66690441
  0
VERTEX
  8
0
 10
115.95279625
 20
67.62882633
 42
-0.27839015
  0
VERTEX
  8
0
 10
116.52131310
 20
68.16464273
 42
-0.18739811
  0
VERTEX
  8
0
 10
117.52819711
 20
68.05160229
 42
-0.66368062
  0
VERTEX
  8
0
 10
117.37867980
 20
67.03580456
  0
VERTEX
  8
0
 10
116.29200902
 20
66.72265780
  0
SEQEND
  0
POLYLINE
  8
Preview Toolpath Layer
 62
256
 66
   1
 39
0.000000
 70
    0
  0
VERTEX
  8
0
 10
125.39859983
 20
56.21849437
 42
0.41421356
  0
VERTEX
  8
0
 10
125.42778311
 20
56.18931109
 42
0.41421356
  0
VERTEX
  8
0
 10
125.45696639
 20
56.21849437
  0
VERTEX
  8
0
 10
125.42778311
 20
56.25715364
  0
VERTEX
  8
0
 10
125.39859983
 20
56.21849437
  0
VERTEX
  8
0
 10
125.32296113
 20
56.28390681
 42
-0.10260675
  0
VERTEX
  8
0
 10
125.23749753
 20
56.21849437
 42
-0.28810118
  0
VERTEX
  8
0
 10
125.38751466
 20
55.97974948
  0
VERTEX
  8
0
 10
125.38642642
 20
53.83775078
 42
-0.07944227
  0
VERTEX
  8
0
 10
125.33509291
 20
53.41900665
 42
-0.29711323
  0
VERTEX
  8
0
 10
124.75125736
 20
53.09642726
 42
0.41421356
  0
VERTEX
  8
0
 10
124.72517107
 20
53.09882890
 42
0.41421356
  0
VERTEX
  8
0
 10
124.72276943
 20
53.07274261
 42
0.24507246
  0
VERTEX
  8
0
 10
125.35880891
 20
53.19764462
 42
0.19175591
  0
VERTEX
  8
0
 10
125.45041526
 20
53.47078725
 42
0.02047558
  0
VERTEX
  8
0
 10
125.46805156
 20
55.97974948
 42
-0.28810118
  0
VERTEX
  8
0
 10
125.61806869
 20
56.21849437
 42
-0.28810118
  0
VERTEX
  8
0
 10
125.46805156
 20
56.45723925
  0
VERTEX
  8
0
 10
125.46805156
 20
57.20463683
  0
VERTEX
  8
0
 10
125.38751466
 20
57.25322893
  0
VERTEX
  8
0
 10
125.38751466
 20
56.45723925
 42
-0.18016845
  0
VERTEX
  8
0
 10
125.32296113
 20
56.28390681
  0
VERTEX
  8
0
 10
125.24732243
 20
56.34931924
 42
-0.21779171
  0
VERTEX
  8
0
 10
125.12253072
 20
56.29225532
  0
VERTEX
  8
0
 10
124.67018860
 20
56.29225532
  0
VERTEX
  8
0
 10
124.67018860
 20
56.14473342
  0
VERTEX
  8
0
 10
125.12253072
 20
56.14473342
 42
-0.41421356
  0
VERTEX
  8
0
 10
125.28751466
 20
55.97974948
  0
VERTEX
  8
0
 10
125.28683710
 20
53.84680436
 42
-0.07944227
  0
VERTEX
  8
0
 10
125.24329189
 20
53.45866233
 42
-0.33782753
  0
VERTEX
  8
0
 10
124.64329480
 20
53.20638536
  0
VERTEX
  8
0
 10
124.60719962
 20
52.98564939
 42
0.25739697
  0
VERTEX
  8
0
 10
125.43310520
 20
53.12873667
 42
0.19175591
  0
VERTEX
  8
0
 10
125.54999175
 20
53.45840230
 42
0.02047558
  0
VERTEX
  8
0
 10
125.56805156
 20
55.97974948
 42
-0.27133037
  0
VERTEX
  8
0
 10
125.65235148
 20
56.12365844
 42
-0.12844718
  0
VERTEX
  8
0
 10
126.01825620
 20
56.14473342
  0
VERTEX
  8
0
 10
126.01825620
 20
56.29225532
 42
-0.12844718
  0
VERTEX
  8
0
 10
125.65235148
 20
56.31333030
 42
-0.27133037
  0
VERTEX
  8
0
 10
125.56805156
 20
56.45723925
  0
VERTEX
  8
0
 10
125.56805156
 20
57.26109348
  0
VERTEX
  8
0
 10
125.28751466
 20
57.43035597
  0
VERTEX
  8
0
 10
125.28751466
 20
56.45723925
 42
-0.18016845
  0
VERTEX
  8
0
 10
125.24732243
 20
56.34931924
  0
SEQEND
  0
POLYLINE
  8
Preview Toolpath Layer
 62
256
 66
   1
 39
0.000000
 70
    1
  0
VERTEX
  8
0
 10
128.08695761
 20
56.26732948
 42
0.21558185
  0
VERTEX
  8
0
 10
127.27240035
 20
56.00496046
  0
VERTEX
  8
0
 10
127.15298861
 20
55.82885830
 42
0.10404603
  0
VERTEX
  8
0
 10
127.04508628
 20
55.12135673
  0
VERTEX
  8
0
 10
127.04508628
 20
53.10012223
  0
VERTEX
  8
0
 10
127.12903383
 20
53.10012223
  0
VERTEX
  8
0
 10
127.13113247
 20
55.16378359
  0
VERTEX
  8
0
 10
127.19962232
 20
55.62951165
 42
-0.33060464
  0
VERTEX
  8
0
 10
128.08695761
 20
56.26732948
  0
SEQEND
  0
POLYLINE
  8
Preview Toolpath Layer
 62
256
 66
   1
 39
0.000000
 70
    0
  0
VERTEX
  8
0
 10
129.29554634
 20
55.72315228
 42
-0.08079545
  0
VERTEX
  8
0
 10
129.36532305
 20
55.58438416
  0
VERTEX
  8
0
 10
129.36532305
 20
55.77422083
  0
VERTEX
  8
0
 10
129.29554634
 20
55.72315228
  0
VERTEX
  8
0
 10
129.24646068
 20
55.81027632
 42
-0.10337421
  0
VERTEX
  8
0
 10
129.14311985
 20
55.77750855
 42
-0.16668953
  0
VERTEX
  8
0
 10
129.38137550
 20
54.81672084
  0
VERTEX
  8
0
 10
129.38137550
 20
53.10012223
  0
VERTEX
  8
0
 10
129.46532305
 20
53.10012223
  0
VERTEX
  8
0
 10
129.46532305
 20
57.57015436
  0
VERTEX
  8
0
 10
129.38137550
 20
57.57015436
  0
VERTEX
  8
0
 10
129.38137550
 20
56.04114103
 42
-0.27077165
  0
VERTEX
  8
0
 10
129.24646068
 20
55.81027632
 42
0.32374338
  0
VERTEX
  8
0
 10
129.19552488
 20
55.89825231
 42
0.32374338
  0
VERTEX
  8
0
 10
129.09602512
 20
55.87741899
 42
-0.16056729
  0
VERTEX
  8
0
 10
128.78669576
 20
56.12712974
 42
0.35363173
  0
VERTEX
  8
0
 10
127.19923859
 20
56.07524728
  0
VERTEX
  8
0
 10
127.06117855
 20
55.87164358
 42
0.10404603
  0
VERTEX
  8
0
 10
126.94508628
 20
55.12480717
  0
VERTEX
  8
0
 10
126.94508628
 20
53.00012223
  0
VERTEX
  8
0
 10
127.22903383
 20
53.00012223
  0
VERTEX
  8
0
 10
127.23034048
 20
55.15122292
  0
VERTEX
  8
0
 10
127.29196845
 20
55.59114248
 42
-0.24953304
  0
VERTEX
  8
0
 10
127.80820773
 20
56.12040001
 42
-0.38669719
  0
VERTEX
  8
0
 10
129.17350122
 20
55.52765799
 42
-0.09262714
  0
VERTEX
  8
0
 10
129.28137550
 20
54.81672084
  0
VERTEX
  8
0
 10
129.28137550
 20
53.00012223
  0
VERTEX
  8
0
 10
129.56532305
 20
53.00012223
  0
VERTEX
  8
0
 10
129.56532305
 20
57.67015436
  0
VERTEX
  8
0
 10
129.28137550
 20
57.67015436
  0
VERTEX
  8
0
 10
129.28137550
 20
56.04114103
 42
-0.27077165
  0
VERTEX
  8
0
 10
129.19737502
 20
55.89740036
  0
SEQEND
  0
POLYLINE
  8
Preview Toolpath Layer
 62
256
 66
   1
 39
0.000000
 70
    1
  0
VERTEX
  8
0
 10
131.02298533
 20
55.55005831
  0
VERTEX
  8
0
 10
131.08095475
 20
55.68496408
  0
VERTEX
  8
0
 10
131.02298533
 20
55.71614660
  0
VERTEX
  8
0
 10
131.02298533
 20
55.55005831
  0
SEQEND
  0
POLYLINE
  8
Preview Toolpath Layer
 62
256
 66
   1
 39
0.000000
 70
    1
  0
VERTEX
  8
0
 10
133.36322222
 20
55.05074157
 42
-0.19611103
  0
VERTEX
  8
0
 10
133.05005792
 20
53.55124207
 42
-0.61472903
  0
VERTEX
  8
0
 10
131.14060790
 20
54.05563171
 42
-0.17668086
  0
VERTEX
  8
0
 10
131.26183648
 20
55.59727706
 42
-0.62043236
  0
VERTEX
  8
0
 10
133.21164226
 20
55.57172417
 42
-0.08448271
  0
VERTEX
  8
0
 10
133.36322222
 20
55.05074157
  0
SEQEND
  0
POLYLINE
  8
Preview Toolpath Layer
 62
256
 66
   1
 39
0.000000
 70
    1
  0
VERTEX
  8
0
 10
133.54220092
 20
55.11266034
 42
0.16256468
  0
VERTEX
  8
0
 10
133.10712594
 20
55.97312399
 42
0.14199157
  0
VERTEX
  8
0
 10
132.57923921
 20
56.24024982
 42
-0.30854216
  0
VERTEX
  8
0
 10
133.46602193
 20
55.03358232
 42
-0.14244445
  0
VERTEX
  8
0
 10
133.28136979
 20
53.71265995
 42
-0.20968002
  0
VERTEX
  8
0
 10
132.56156858
 20
53.12777717
 42
0.28736147
  0
VERTEX
  8
0
 10
133.49463120
 20
54.04720269
 42
0.12271261
  0
VERTEX
  8
0
 10
133.54220092
 20
55.11266034
  0
SEQEND
  0
POLYLINE
  8
Preview Toolpath Layer
 62
256
 66
   1
 39
0.000000
 70
    1
  0
VERTEX
  8
0
 10
132.79685108
 20
51.69118274
 42
0.29353870
  0
VERTEX
  8
0
 10
133.42086102
 20
52.22153989
 42
0.42791437
  0
VERTEX
  8
0
 10
133.29337549
 20
52.08217336
 42
-0.19179280
  0
VERTEX
  8
0
 10
132.79685108
 20
51.69118274
  0
SEQEND
  0
POLYLINE
  8
Preview Toolpath Layer
 62
256
 66
   1
 39
0.000000
 70
    0
  0
VERTEX
  8
0
 10
131.10433224
 20
53.62795645
 42
-0.07995948
  0
VERTEX
  8
0
 10
131.02298533
 20
53.79714688
  0
VERTEX
  8
0
 10
131.02298533
 20
53.56621471
  0
VERTEX
  8
0
 10
131.10433224
 20
53.62795645
  0
VERTEX
  8
0
 10
131.15305123
 20
53.54062685
 42
-0.10803869
  0
VERTEX
  8
0
 10
131.26139948
 20
53.57338774
 42
-0.16750809
  0
VERTEX
  8
0
 10
130.96647183
 20
54.70624638
 42
-0.17083468
  0
VERTEX
  8
0
 10
131.25009453
 20
55.75696466
 42
-0.32877391
  0
VERTEX
  8
0
 10
130.97991917
 20
55.91791980
 42
-0.09988767
  0
VERTEX
  8
0
 10
130.95918390
 20
56.19225532
  0
VERTEX
  8
0
 10
130.92298533
 20
56.19225532
  0
VERTEX
  8
0
 10
130.92298533
 20
53.33423171
 42
0.06961182
  0
VERTEX
  8
0
 10
131.01161544
 20
52.40590233
 42
0.26885057
  0
VERTEX
  8
0
 10
131.73558860
 20
51.70918382
 42
-0.26836305
  0
VERTEX
  8
0
 10
131.06339796
 20
52.48972689
 42
-0.04833022
  0
VERTEX
  8
0
 10
131.01721195
 20
53.30421862
 42
-0.27697157
  0
VERTEX
  8
0
 10
131.15305123
 20
53.54062685
 42
0.32333479
  0
VERTEX
  8
0
 10
131.20387422
 20
53.45231576
 42
0.32333479
  0
VERTEX
  8
0
 10
131.30368732
 20
53.47278939
 42
-0.16132620
  0
VERTEX
  8
0
 10
131.59793092
 20
53.23254552
 42
0.47485899
  0
VERTEX
  8
0
 10
133.47310124
 20
53.73306297
 42
0.24396170
  0
VERTEX
  8
0
 10
133.41616768
 20
55.74492060
 42
0.53111522
  0
VERTEX
  8
0
 10
131.34204134
 20
55.90524090
 42
-0.49283101
  0
VERTEX
  8
0
 10
131.08224208
 20
55.93655358
 42
-0.13456768
  0
VERTEX
  8
0
 10
131.05918390
 20
56.29225532
  0
VERTEX
  8
0
 10
130.82298533
 20
56.29225532
  0
VERTEX
  8
0
 10
130.82298533
 20
53.33122734
 42
0.06961182
  0
VERTEX
  8
0
 10
130.91509213
 20
52.37868246
 42
0.28510872
  0
VERTEX
  8
0
 10
131.82469023
 20
51.57891012
 42
0.15781857
  0
VERTEX
  8
0
 10
133.05612897
 20
51.67790988
 42
0.28281053
  0
VERTEX
  8
0
 10
133.54886291
 20
52.34165497
  0
VERTEX
  8
0
 10
133.25900325
 20
52.29859010
 42
-0.19860885
  0
VERTEX
  8
0
 10
132.99323384
 20
51.89473859
 42
-0.28777704
  0
VERTEX
  8
0
 10
131.52065280
 20
51.93023694
 42
-0.17091726
  0
VERTEX
  8
0
 10
131.16268289
 20
52.50166438
 42
-0.04908363
  0
VERTEX
  8
0
 10
131.11719416
 20
53.30610507
 42
-0.27697157
  0
VERTEX
  8
0
 10
131.20177022
 20
53.45329724
  0
SEQEND
  0
POLYLINE
  8
Preview Toolpath Layer
 62
256
 66
   1
 39
0.000000
 70
    0
  0
VERTEX
  8
0
 10
134.81452694
 20
53.10012223
  0
VERTEX
  8
0
 10
134.89847448
 20
53.10012223
  0
VERTEX
  8
0
 10
134.89847448
 20
56.19225532
  0
VERTEX
  8
0
 10
134.81452694
 20
56.19225532
  0
VERTEX
  8
0
 10
134.81452694
 20
53.10012223
  0
VERTEX
  8
0
 10
134.71452694
 20
53.10012223
  0
VERTEX
  8
0
 10
134.71452694
 20
53.00012223
  0
VERTEX
  8
0
 10
134.99847448
 20
53.00012223
  0
VERTEX
  8
0
 10
134.99847448
 20
56.29225532
  0
VERTEX
  8
0
 10
134.71452694
 20
56.29225532
  0
VERTEX
  8
0
 10
134.71452694
 20
53.10012223
  0
SEQEND
  0
POLYLINE
  8
Preview Toolpath Layer
 62
256
 66
   1
 39
0.000000
 70
    0
  0
VERTEX
  8
0
 10
138.62610250
 20
53.20012223
  0
VERTEX
  8
0
 10
138.63544583
 20
53.21259047
  0
VERTEX
  8
0
 10
138.62610250
 20
53.20012223
  0
VERTEX
  8
0
 10
138.54737653
 20
53.26178440
 42
-0.23054721
  0
VERTEX
  8
0
 10
138.33876538
 20
53.16019529
  0
VERTEX
  8
0
 10
136.14126636
 20
53.16019529
  0
VERTEX
  8
0
 10
136.14126636
 20
53.10012223
  0
VERTEX
  8
0
 10
138.73544583
 20
53.10012223
  0
VERTEX
  8
0
 10
138.73544583
 20
57.57015436
  0
VERTEX
  8
0
 10
138.60374931
 20
57.57015436
  0
VERTEX
  8
0
 10
138.60374931
 20
53.42517923
 42
-0.16765592
  0
VERTEX
  8
0
 10
138.54737653
 20
53.26178440
  0
VERTEX
  8
0
 10
138.46865057
 20
53.32344656
 42
-0.23054721
  0
VERTEX
  8
0
 10
138.33876538
 20
53.26019529
  0
VERTEX
  8
0
 10
136.04126636
 20
53.26019529
  0
VERTEX
  8
0
 10
136.04126636
 20
53.00012223
  0
VERTEX
  8
0
 10
138.83544583
 20
53.00012223
  0
VERTEX
  8
0
 10
138.83544583
 20
57.67015436
  0
VERTEX
  8
0
 10
138.50374931
 20
57.67015436
  0
VERTEX
  8
0
 10
138.50374931
 20
53.42517923
 42
-0.16765592
  0
VERTEX
  8
0
 10
138.46865057
 20
53.32344656
  0
SEQEND
  0
POLYLINE
  8
Preview Toolpath Layer
 62
256
 66
   1
 39
0.000000
 70
    0
  0
VERTEX
  8
0
 10
134.81452694
 20
57.39411950
  0
VERTEX
  8
0
 10
134.89847448
 20
57.39411950
  0
VERTEX
  8
0
 10
134.89847448
 20
57.57015436
  0
VERTEX
  8
0
 10
134.81452694
 20
57.57015436
  0
VERTEX
  8
0
 10
134.81452694
 20
57.39411950
  0
VERTEX
  8
0
 10
134.71452694
 20
57.39411950
  0
VERTEX
  8
0
 10
134.71452694
 20
57.29411950
  0
VERTEX
  8
0
 10
134.99847448
 20
57.29411950
  0
VERTEX
  8
0
 10
134.99847448
 20
57.67015436
  0
VERTEX
  8
0
 10
134.71452694
 20
57.67015436
  0
VERTEX
  8
0
 10
134.71452694
 20
57.39411950
  0
SEQEND
  0
POLYLINE
  8
Preview Toolpath Layer
 62
256
 66
   1
 39
0.000000
 70
    0
  0
VERTEX
  8
0
 10
134.59412933
 20
69.26827042
 42
-0.22972195
  0
VERTEX
  8
0
 10
134.88845949
 20
69.39015227
  0
VERTEX
  8
0
 10
134.85893055
 20
69.47596287
  0
VERTEX
  8
0
 10
134.59412933
 20
69.47596287
  0
VERTEX
  8
0
 10
134.59412933
 20
69.26827042
  0
VERTEX
  8
0
 10
134.49412933
 20
69.26827042
  0
VERTEX
  8
0
 10
134.49412933
 20
65.10593074
  0
VERTEX
  8
0
 10
134.60195137
 20
65.10593074
  0
VERTEX
  8
0
 10
134.60195137
 20
69.02580356
 42
-0.30425088
  0
VERTEX
  8
0
 10
134.76634151
 20
69.27095122
 42
-0.30425088
  0
VERTEX
  8
0
 10
135.05554396
 20
69.21193056
  0
VERTEX
  8
0
 10
134.93027402
 20
69.57596287
  0
VERTEX
  8
0
 10
134.49412933
 20
69.57596287
  0
VERTEX
  8
0
 10
134.49412933
 20
69.26827042
  0
SEQEND
  0
POLYLINE
  8
Preview Toolpath Layer
 62
256
 66
   1
 39
0.000000
 70
    0
  0
VERTEX
  8
0
 10
138.63564850
 20
69.33989388
  0
VERTEX
  8
0
 10
138.63564850
 20
69.47596287
  0
VERTEX
  8
0
 10
138.26755046
 20
69.47596287
  0
VERTEX
  8
0
 10
138.25786423
 20
69.44698794
 42
-0.29187802
  0
VERTEX
  8
0
 10
138.63564850
 20
69.33989388
  0
VERTEX
  8
0
 10
138.56090385
 20
69.27346168
 42
-0.18367115
  0
VERTEX
  8
0
 10
138.62782647
 20
69.09742703
  0
VERTEX
  8
0
 10
138.62782647
 20
65.10593074
  0
VERTEX
  8
0
 10
138.73564850
 20
65.10593074
  0
VERTEX
  8
0
 10
138.73564850
 20
69.57596287
  0
VERTEX
  8
0
 10
138.19554037
 20
69.57596287
  0
VERTEX
  8
0
 10
136.83467532
 20
65.47924130
 42
-0.51374230
  0
VERTEX
  8
0
 10
136.42433216
 20
65.34798150
  0
VERTEX
  8
0
 10
136.50836934
 20
65.10593074
  0
VERTEX
  8
0
 10
136.72689788
 20
65.10593074
  0
VERTEX
  8
0
 10
138.11194337
 20
69.18266841
 42
-0.57505340
  0
VERTEX
  8
0
 10
138.56090385
 20
69.27346168
  0
VERTEX
  8
0
 10
138.48615920
 20
69.20702948
 42
-0.18367115
  0
VERTEX
  8
0
 10
138.52782647
 20
69.09742703
  0
VERTEX
  8
0
 10
138.52782647
 20
65.00593074
  0
VERTEX
  8
0
 10
138.83564850
 20
65.00593074
  0
VERTEX
  8
0
 10
138.83564850
 20
69.67596287
  0
VERTEX
  8
0
 10
138.12353028
 20
69.67596287
  0
VERTEX
  8
0
 10
136.73950446
 20
65.50994158
 42
-0.32433978
  0
VERTEX
  8
0
 10
136.58318334
 20
65.39560963
 42
-0.32433978
  0
VERTEX
  8
0
 10
136.42590382
 20
65.50861954
  0
VERTEX
  8
0
 10
135.00161749
 20
69.67596287
  0
VERTEX
  8
0
 10
134.39412933
 20
69.67596287
  0
VERTEX
  8
0
 10
134.39412933
 20
65.00593074
  0
VERTEX
  8
0
 10
134.70195137
 20
65.00593074
  0
VERTEX
  8
0
 10
134.70195137
 20
69.02580356
 42
-0.36608063
  0
VERTEX
  8
0
 10
134.83949723
 20
69.18848992
 42
-0.36608063
  0
VERTEX
  8
0
 10
135.02279292
 20
69.07991550
  0
VERTEX
  8
0
 10
136.43723262
 20
65.00593074
  0
VERTEX
  8
0
 10
136.79853723
 20
65.00593074
  0
VERTEX
  8
0
 10
138.20662804
 20
69.15049990
 42
-0.57505340
  0
VERTEX
  8
0
 10
138.48615920
 20
69.20702948
  0
SEQEND
  0
POLYLINE
  8
Preview Toolpath Layer
 62
256
 66
   1
 39
0.000000
 70
    1
  0
VERTEX
  8
0
 10
138.63554716
 20
92.80979927
  0
VERTEX
  8
0
 10
138.63554716
 20
92.97466269
  0
VERTEX
  8
0
 10
138.55375318
 20
92.89223098
  0
VERTEX
  8
0
 10
138.63554716
 20
92.80979927
  0
SEQEND
  0
POLYLINE
  8
Preview Toolpath Layer
 62
256
 66
   1
 39
0.000000
 70
    0
  0
VERTEX
  8
0
 10
135.44327765
 20
92.80979927
  0
VERTEX
  8
0
 10
135.52507162
 20
92.89223098
  0
VERTEX
  8
0
 10
135.44327765
 20
92.97466269
  0
VERTEX
  8
0
 10
135.44327765
 20
92.80979927
  0
VERTEX
  8
0
 10
135.34327765
 20
92.80979927
  0
VERTEX
  8
0
 10
135.34327765
 20
90.50544138
  0
VERTEX
  8
0
 10
135.47497417
 20
90.50544138
  0
VERTEX
  8
0
 10
135.47497417
 20
92.59721052
 42
-0.41421356
  0
VERTEX
  8
0
 10
135.73995810
 20
92.86219445
  0
VERTEX
  8
0
 10
138.33886670
 20
92.86219445
 42
-0.41421356
  0
VERTEX
  8
0
 10
138.60385063
 20
92.59721052
  0
VERTEX
  8
0
 10
138.60385063
 20
90.50544138
  0
VERTEX
  8
0
 10
138.73554716
 20
90.50544138
  0
VERTEX
  8
0
 10
138.73554716
 20
94.97547351
  0
VERTEX
  8
0
 10
138.60385063
 20
94.97547351
  0
VERTEX
  8
0
 10
138.60385063
 20
93.18725144
 42
-0.41421356
  0
VERTEX
  8
0
 10
138.33886670
 20
92.92226751
  0
VERTEX
  8
0
 10
135.73995810
 20
92.92226751
 42
-0.41421356
  0
VERTEX
  8
0
 10
135.47497417
 20
93.18725144
  0
VERTEX
  8
0
 10
135.47497417
 20
94.97547351
  0
VERTEX
  8
0
 10
135.34327765
 20
94.97547351
  0
VERTEX
  8
0
 10
135.34327765
 20
92.80979927
  0
VERTEX
  8
0
 10
135.24327765
 20
92.80979927
  0
VERTEX
  8
0
 10
135.24327765
 20
90.40544138
  0
VERTEX
  8
0
 10
135.57497417
 20
90.40544138
  0
VERTEX
  8
0
 10
135.57497417
 20
92.59721052
 42
-0.41421356
  0
VERTEX
  8
0
 10
135.73995810
 20
92.76219445
  0
VERTEX
  8
0
 10
138.33886670
 20
92.76219445
 42
-0.41421356
  0
VERTEX
  8
0
 10
138.50385063
 20
92.59721052
  0
VERTEX
  8
0
 10
138.50385063
 20
90.40544138
  0
VERTEX
  8
0
 10
138.83554716
 20
90.40544138
  0
VERTEX
  8
0
 10
138.83554716
 20
95.07547351
  0
VERTEX
  8
0
 10
138.50385063
 20
95.07547351
  0
VERTEX
  8
0
 10
138.50385063
 20
93.18725144
 42
-0.41421356
  0
VERTEX
  8
0
 10
138.33886670
 20
93.02226751
  0
VERTEX
  8
0
 10
135.73995810
 20
93.02226751
 42
-0.41421356
  0
VERTEX
  8
0
 10
135.57497417
 20
93.18725144
  0
VERTEX
  8
0
 10
135.57497417
 20
95.07547351
  0
VERTEX
  8
0
 10
135.24327765
 20
95.07547351
  0
VERTEX
  8
0
 10
135.24327765
 20
92.80979927
  0
SEQEND
  0
POLYLINE
  8
Preview Toolpath Layer
 62
256
 66
   1
 39
0.000000
 70
    0
  0
VERTEX
  8
0
 10
131.27541015
 20
91.72332336
 42
-0.20464702
  0
VERTEX
  8
0
 10
131.64600844
 20
93.28098966
 42
-0.09893831
  0
VERTEX
  8
0
 10
132.05523217
 20
93.58856748
 42
0.28653804
  0
VERTEX
  8
0
 10
131.18231974
 20
92.46910403
 42
0.10815657
  0
VERTEX
  8
0
 10
131.26075103
 20
91.30567307
 42
0.23326103
  0
VERTEX
  8
0
 10
131.95293841
 20
90.56960247
 42
-0.24331086
  0
VERTEX
  8
0
 10
131.27541015
 20
91.72332336
  0
VERTEX
  8
0
 10
131.37524883
 20
91.72900109
 42
-0.20262127
  0
VERTEX
  8
0
 10
131.71467079
 20
93.20828834
 42
-0.60695112
  0
VERTEX
  8
0
 10
133.73848232
 20
92.69209277
 42
-0.17708499
  0
VERTEX
  8
0
 10
133.61841574
 20
91.11089127
 42
-0.31188801
  0
VERTEX
  8
0
 10
132.42048075
 20
90.51029197
 42
-0.31188801
  0
VERTEX
  8
0
 10
131.43502834
 20
91.41839511
 42
-0.03459108
  0
VERTEX
  8
0
 10
131.37524883
 20
91.72900109
  0
SEQEND
  0
POLYLINE
  8
Preview Toolpath Layer
 62
256
 66
   1
 39
0.000000
 70
    0
  0
VERTEX
  8
0
 10
133.11692268
 20
93.59297972
  0
VERTEX
  8
0
 10
133.10523227
 20
93.59594419
 42
-0.27747444
  0
VERTEX
  8
0
 10
133.89821016
 20
92.39283544
 42
-0.14957400
  0
VERTEX
  8
0
 10
133.70116032
 20
91.05473672
 42
-0.15588234
  0
VERTEX
  8
0
 10
133.13169219
 20
90.51604201
 42
0.29401791
  0
VERTEX
  8
0
 10
133.99146510
 20
91.65872807
 42
0.17817530
  0
VERTEX
  8
0
 10
133.74871080
 20
93.11609197
 42
0.15801616
  0
VERTEX
  8
0
 10
133.11692268
 20
93.59297972
  0
VERTEX
  8
0
 10
133.15889164
 20
93.68374648
 42
0.29778838
  0
VERTEX
  8
0
 10
131.48384782
 20
93.33847395
 42
0.19985909
  0
VERTEX
  8
0
 10
131.05551618
 20
92.10365119
 42
0.08390513
  0
VERTEX
  8
0
 10
131.16573448
 20
91.27364492
 42
0.26235116
  0
VERTEX
  8
0
 10
132.17094280
 20
90.37521796
 42
0.26825146
  0
VERTEX
  8
0
 10
133.69588874
 20
90.76057070
 42
0.19640766
  0
VERTEX
  8
0
 10
134.11821639
 20
92.05095760
 42
0.15140985
  0
VERTEX
  8
0
 10
133.83183730
 20
93.17311293
 42
0.15744308
  0
VERTEX
  8
0
 10
133.15889164
 20
93.68374648
  0
SEQEND
  0
POLYLINE
  8
Preview Toolpath Layer
 62
256
 66
   1
 39
0.000000
 70
    0
  0
VERTEX
  8
0
 10
127.61932431
 20
91.09157163
  0
VERTEX
  8
0
 10
127.61244545
 20
91.11331254
  0
VERTEX
  8
0
 10
127.61244545
 20
91.08765185
  0
VERTEX
  8
0
 10
127.61932431
 20
91.09157163
  0
VERTEX
  8
0
 10
127.66788821
 20
91.00415569
  0
VERTEX
  8
0
 10
127.76181275
 20
91.03521138
 42
-0.13681755
  0
VERTEX
  8
0
 10
127.59690903
 20
91.90537431
 42
-0.01560597
  0
VERTEX
  8
0
 10
127.59639299
 20
93.59757447
  0
VERTEX
  8
0
 10
127.51244545
 20
93.59757447
  0
VERTEX
  8
0
 10
127.51244545
 20
90.50544138
  0
VERTEX
  8
0
 10
127.53159081
 20
90.50544138
  0
VERTEX
  8
0
 10
127.53159081
 20
90.77251747
 42
-0.27237655
  0
VERTEX
  8
0
 10
127.66788821
 20
91.00415569
  0
SEQEND
  0
POLYLINE
  8
Preview Toolpath Layer
 62
256
 66
   1
 39
0.000000
 70
    0
  0
VERTEX
  8
0
 10
129.11252268
 20
90.45872928
  0
VERTEX
  8
0
 10
128.90059665
 20
90.43028283
 42
0.23806908
  0
VERTEX
  8
0
 10
129.74502555
 20
90.74959740
 42
0.10512922
  0
VERTEX
  8
0
 10
129.88403765
 20
91.09244621
  0
VERTEX
  8
0
 10
129.91903965
 20
91.62702228
  0
VERTEX
  8
0
 10
129.91903965
 20
93.59757447
  0
VERTEX
  8
0
 10
129.83509211
 20
93.59757447
 42
-0.02879715
  0
VERTEX
  8
0
 10
129.79713208
 20
91.19035338
 42
-0.29780615
  0
VERTEX
  8
0
 10
129.11252268
 20
90.45872928
  0
VERTEX
  8
0
 10
129.09921917
 20
90.55784041
 42
-0.46726725
  0
VERTEX
  8
0
 10
127.72229410
 20
91.50233520
  0
VERTEX
  8
0
 10
127.69671429
 20
91.91161214
 42
-0.01560597
  0
VERTEX
  8
0
 10
127.69639299
 20
93.69757447
  0
VERTEX
  8
0
 10
127.41244545
 20
93.69757447
  0
VERTEX
  8
0
 10
127.41244545
 20
90.40544138
  0
VERTEX
  8
0
 10
127.63159081
 20
90.40544138
  0
VERTEX
  8
0
 10
127.63159081
 20
90.77251747
 42
-0.31379435
  0
VERTEX
  8
0
 10
127.73929881
 20
90.92724034
 42
-0.31379435
  0
VERTEX
  8
0
 10
127.92179077
 20
90.87994487
 42
0.48895806
  0
VERTEX
  8
0
 10
129.82574581
 20
90.68874294
 42
0.10512922
  0
VERTEX
  8
0
 10
129.98308851
 20
91.07468006
  0
VERTEX
  8
0
 10
130.01903965
 20
91.62375198
  0
VERTEX
  8
0
 10
130.01903965
 20
93.69757447
  0
VERTEX
  8
0
 10
129.73509211
 20
93.69757447
  0
VERTEX
  8
0
 10
129.73481630
 20
91.84415500
  0
VERTEX
  8
0
 10
129.68484849
 20
91.14212843
 42
-0.27541819
  0
VERTEX
  8
0
 10
129.09921917
 20
90.55784041
  0
SEQEND
  0
POLYLINE
  8
Preview Toolpath Layer
 62
256
 66
   1
 39
0.000000
 70
    1
  0
VERTEX
  8
0
 10
125.21924945
 20
93.54096544
  0
VERTEX
  8
0
 10
125.26847483
 20
93.52810735
 42
0.24328659
  0
VERTEX
  8
0
 10
124.95672564
 20
93.67633315
  0
VERTEX
  8
0
 10
124.72079787
 20
93.63904757
 42
0.39068485
  0
VERTEX
  8
0
 10
124.65426787
 20
93.60065448
 42
0.39068485
  0
VERTEX
  8
0
 10
124.68715239
 20
93.53123634
 42
-0.13776760
  0
VERTEX
  8
0
 10
125.21924945
 20
93.54096544
  0
SEQEND
  0
POLYLINE
  8
Preview Toolpath Layer
 62
256
 66
   1
 39
0.000000
 70
    0
  0
VERTEX
  8
0
 10
125.92749804
 20
92.95218626
  0
VERTEX
  8
0
 10
125.92749804
 20
93.00032851
 42
0.33572228
  0
VERTEX
  8
0
 10
125.90928256
 20
92.97625738
 42
0.33572228
  0
VERTEX
  8
0
 10
125.92749804
 20
92.95218626
  0
VERTEX
  8
0
 10
125.83006630
 20
92.92467585
 42
-0.08116989
  0
VERTEX
  8
0
 10
125.94355050
 20
92.13677395
  0
VERTEX
  8
0
 10
125.94355050
 20
90.50544138
  0
VERTEX
  8
0
 10
126.02749804
 20
90.50544138
  0
VERTEX
  8
0
 10
126.02749804
 20
93.59757447
  0
VERTEX
  8
0
 10
126.00494204
 20
93.59757447
 42
-0.11786841
  0
VERTEX
  8
0
 10
125.97629233
 20
93.19360103
 42
-0.24665162
  0
VERTEX
  8
0
 10
125.77540940
 20
93.05084340
  0
VERTEX
  8
0
 10
125.83006630
 20
92.92467585
  0
VERTEX
  8
0
 10
125.73427975
 20
92.89762997
 42
-0.08109010
  0
VERTEX
  8
0
 10
125.84355050
 20
92.13677395
  0
VERTEX
  8
0
 10
125.84355050
 20
90.40544138
  0
VERTEX
  8
0
 10
126.12749804
 20
90.40544138
  0
VERTEX
  8
0
 10
126.12749804
 20
93.69757447
  0
VERTEX
  8
0
 10
125.90494204
 20
93.69757447
  0
VERTEX
  8
0
 10
125.90494204
 20
93.31344517
 42
-0.33362055
  0
VERTEX
  8
0
 10
125.78598983
 20
93.15501291
 42
-0.33362055
  0
VERTEX
  8
0
 10
125.60066054
 20
93.22503765
 42
0.10692679
  0
VERTEX
  8
0
 10
125.25354504
 20
93.68564035
 42
0.29190181
  0
VERTEX
  8
0
 10
124.53216047
 20
93.66139591
  0
VERTEX
  8
0
 10
124.62959265
 20
93.39895761
 42
-0.45889893
  0
VERTEX
  8
0
 10
125.73427975
 20
92.89762997
  0
SEQEND
  0
POLYLINE
  8
Preview Toolpath Layer
 62
256
 66
   1
 39
0.000000
 70
    1
  0
VERTEX
  8
0
 10
123.16924110
 20
90.48080153
 42
0.27748109
  0
VERTEX
  8
0
 10
123.87243300
 20
91.10572896
  0
VERTEX
  8
0
 10
123.78563747
 20
91.11938219
 42
-0.25404614
  0
VERTEX
  8
0
 10
123.16924110
 20
90.48080153
  0
SEQEND
  0
POLYLINE
  8
Preview Toolpath Layer
 62
256
 66
   1
 39
0.000000
 70
    1
  0
VERTEX
  8
0
 10
122.05392299
 20
93.51975823
  0
VERTEX
  8
0
 10
122.20774595
 20
93.59666972
 42
0.26289273
  0
VERTEX
  8
0
 10
121.66572786
 20
93.15016288
  0
VERTEX
  8
0
 10
121.74948508
 20
93.13874144
 42
-0.17643394
  0
VERTEX
  8
0
 10
122.05392299
 20
93.51975823
  0
SEQEND
  0
POLYLINE
  8
Preview Toolpath Layer
 62
256
 66
   1
 39
0.000000
 70
    0
  0
VERTEX
  8
0
 10
122.18580018
 20
92.02604970
 42
0.18111275
  0
VERTEX
  8
0
 10
121.56599585
 20
91.67946247
 42
0.42417210
  0
VERTEX
  8
0
 10
121.85339157
 20
90.63870654
 42
-0.65233535
  0
VERTEX
  8
0
 10
122.15668171
 20
91.91514552
 42
0.04023790
  0
VERTEX
  8
0
 10
123.45445495
 20
92.30684321
 42
0.59559039
  0
VERTEX
  8
0
 10
123.51749392
 20
93.48567543
 42
-0.62179872
  0
VERTEX
  8
0
 10
123.27267246
 20
92.33925453
  0
VERTEX
  8
0
 10
122.18580018
 20
92.02604970
  0
VERTEX
  8
0
 10
122.15821054
 20
92.12216844
 42
0.16131701
  0
VERTEX
  8
0
 10
121.48208350
 20
91.73620318
 42
0.46492546
  0
VERTEX
  8
0
 10
121.96057971
 20
90.45704667
 42
0.19628728
  0
VERTEX
  8
0
 10
123.45494791
 20
90.47259608
 42
0.23040352
  0
VERTEX
  8
0
 10
124.00126994
 20
91.18669213
  0
VERTEX
  8
0
 10
123.71485505
 20
91.23174616
 42
-0.29623478
  0
VERTEX
  8
0
 10
123.05490529
 20
90.54837421
 42
-0.17568594
  0
VERTEX
  8
0
 10
122.05928505
 20
90.62055346
 42
-0.40517077
  0
VERTEX
  8
0
 10
121.72844987
 20
91.50492323
 42
-0.19267890
  0
VERTEX
  8
0
 10
122.18386120
 20
91.81891000
 42
0.04024216
  0
VERTEX
  8
0
 10
123.49964486
 20
92.21691999
 42
0.32467314
  0
VERTEX
  8
0
 10
123.91955830
 20
93.05242737
 42
0.32467314
  0
VERTEX
  8
0
 10
123.25529082
 20
93.71056763
 42
0.20698343
  0
VERTEX
  8
0
 10
121.83810397
 20
93.54112231
 42
0.19856767
  0
VERTEX
  8
0
 10
121.53975847
 20
93.06641505
  0
VERTEX
  8
0
 10
121.81899777
 20
93.02833697
 42
-0.27839015
  0
VERTEX
  8
0
 10
122.38751462
 20
93.56415337
 42
-0.18739811
  0
VERTEX
  8
0
 10
123.39439863
 20
93.45111293
 42
-0.66368062
  0
VERTEX
  8
0
 10
123.24488132
 20
92.43531520
  0
VERTEX
  8
0
 10
122.15821054
 20
92.12216844
  0
SEQEND
  0
POLYLINE
  8
Preview Toolpath Layer
 62
256
 66
   1
 39
0.000000
 70
    0
  0
VERTEX
  8
0
 10
124.79152475
 20
107.53503243
  0
VERTEX
  8
0
 10
124.70453460
 20
107.53503243
  0
VERTEX
  8
0
 10
124.74802968
 20
107.46412903
  0
VERTEX
  8
0
 10
124.79152475
 20
107.53503243
  0
VERTEX
  8
0
 10
124.87025071
 20
107.47337027
 42
-0.23054721
  0
VERTEX
  8
0
 10
125.07886187
 20
107.57495937
  0
VERTEX
  8
0
 10
126.46121764
 20
107.57495937
  0
VERTEX
  8
0
 10
126.46121764
 20
107.63503243
  0
VERTEX
  8
0
 10
123.02802043
 20
107.63503243
  0
VERTEX
  8
0
 10
123.02802043
 20
107.57495937
  0
VERTEX
  8
0
 10
124.41719748
 20
107.57495937
 42
-0.41421356
  0
VERTEX
  8
0
 10
124.68218141
 20
107.30997544
  0
VERTEX
  8
0
 10
124.68218141
 20
103.16500030
  0
VERTEX
  8
0
 10
124.81387794
 20
103.16500030
  0
VERTEX
  8
0
 10
124.81387794
 20
107.30997544
 42
-0.16765592
  0
VERTEX
  8
0
 10
124.87025071
 20
107.47337027
  0
VERTEX
  8
0
 10
124.94897668
 20
107.41170810
 42
-0.23054721
  0
VERTEX
  8
0
 10
125.07886187
 20
107.47495937
  0
VERTEX
  8
0
 10
126.56121764
 20
107.47495937
  0
VERTEX
  8
0
 10
126.56121764
 20
107.73503243
  0
VERTEX
  8
0
 10
122.92802043
 20
107.73503243
  0
VERTEX
  8
0
 10
122.92802043
 20
107.47495937
  0
VERTEX
  8
0
 10
124.41719748
 20
107.47495937
 42
-0.41421356
  0
VERTEX
  8
0
 10
124.58218141
 20
107.30997544
  0
VERTEX
  8
0
 10
124.58218141
 20
103.06500030
  0
VERTEX
  8
0
 10
124.91387794
 20
103.06500030
  0
VERTEX
  8
0
 10
124.91387794
 20
107.30997544
 42
-0.16765592
  0
VERTEX
  8
0
 10
124.94897668
 20
107.41170810
  0
SEQEND
  0
POLYLINE
  8
Preview Toolpath Layer
 62
256
 66
   1
 39
0.000000
 70
    0
  0
VERTEX
  8
0
 10
121.81042152
 20
103.16500030
  0
VERTEX
  8
0
 10
121.89436907
 20
103.16500030
  0
VERTEX
  8
0
 10
121.89436907
 20
106.25713339
  0
VERTEX
  8
0
 10
121.81042152
 20
106.25713339
  0
VERTEX
  8
0
 10
121.81042152
 20
103.16500030
  0
VERTEX
  8
0
 10
121.71042152
 20
103.16500030
  0
VERTEX
  8
0
 10
121.71042152
 20
103.06500030
  0
VERTEX
  8
0
 10
121.99436907
 20
103.06500030
  0
VERTEX
  8
0
 10
121.99436907
 20
106.35713339
  0
VERTEX
  8
0
 10
121.71042152
 20
106.35713339
  0
VERTEX
  8
0
 10
121.71042152
 20
103.16500030
  0
SEQEND
  0
POLYLINE
  8
Preview Toolpath Layer
 62
256
 66
   1
 39
0.000000
 70
    1
  0
VERTEX
  8
0
 10
116.88337055
 20
106.32961445
 42
0.37994071
  0
VERTEX
  8
0
 10
116.02890353
 20
105.84447845
 42
0.07616785
  0
VERTEX
  8
0
 10
115.96799315
 20
105.37810719
  0
VERTEX
  8
0
 10
115.96799315
 20
103.16500030
  0
VERTEX
  8
0
 10
116.04853005
 20
103.16500030
  0
VERTEX
  8
0
 10
116.04884138
 20
105.19457659
 42
-0.16485503
  0
VERTEX
  8
0
 10
116.22648188
 20
105.98748902
 42
-0.23041567
  0
VERTEX
  8
0
 10
116.88337055
 20
106.32961445
  0
SEQEND
  0
POLYLINE
  8
Preview Toolpath Layer
 62
256
 66
   1
 39
0.000000
 70
    0
  0
VERTEX
  8
0
 10
118.12831039
 20
105.60161918
  0
VERTEX
  8
0
 10
118.13466259
 20
105.66060903
 42
0.30481945
  0
VERTEX
  8
0
 10
118.11166338
 20
105.63324871
 42
0.30481945
  0
VERTEX
  8
0
 10
118.12831039
 20
105.60161918
  0
VERTEX
  8
0
 10
118.03027917
 20
105.56918927
 42
-0.10216643
  0
VERTEX
  8
0
 10
118.10987582
 20
105.00438199
  0
VERTEX
  8
0
 10
118.10987582
 20
103.16500030
  0
VERTEX
  8
0
 10
118.19382337
 20
103.16500030
  0
VERTEX
  8
0
 10
118.19526561
 20
105.28096792
 42
-0.21471288
  0
VERTEX
  8
0
 10
118.50577935
 20
106.14144056
 42
-0.17336572
  0
VERTEX
  8
0
 10
119.03156564
 20
106.32895948
 42
0.36794538
  0
VERTEX
  8
0
 10
118.17355686
 20
105.84369815
 42
-0.23993705
  0
VERTEX
  8
0
 10
117.97573130
 20
105.70697687
  0
VERTEX
  8
0
 10
118.03027917
 20
105.56918927
  0
VERTEX
  8
0
 10
117.93624876
 20
105.53808287
 42
-0.10532007
  0
VERTEX
  8
0
 10
118.00987582
 20
105.00438199
  0
VERTEX
  8
0
 10
118.00987582
 20
103.06500030
  0
VERTEX
  8
0
 10
118.29382337
 20
103.06500030
  0
VERTEX
  8
0
 10
118.29472134
 20
105.27054875
 42
-0.16225387
  0
VERTEX
  8
0
 10
118.49053594
 20
105.98223266
 42
-0.14807483
  0
VERTEX
  8
0
 10
118.77834441
 20
106.18328329
 42
-0.50280600
  0
VERTEX
  8
0
 10
120.13699926
 20
105.22517158
 42
-0.02800181
  0
VERTEX
  8
0
 10
120.16199042
 20
103.06500030
  0
VERTEX
  8
0
 10
120.44593796
 20
103.06500030
  0
VERTEX
  8
0
 10
120.44593796
 20
106.35713339
  0
VERTEX
  8
0
 10
120.22679260
 20
106.35713339
 42
-0.13816367
  0
VERTEX
  8
0
 10
120.20253237
 20
105.92781246
 42
-0.51431378
  0
VERTEX
  8
0
 10
119.93480555
 20
105.90862315
 42
0.39748550
  0
VERTEX
  8
0
 10
118.39572254
 20
106.29609444
 42
0.17106967
  0
VERTEX
  8
0
 10
118.08556397
 20
105.89120869
 42
-0.53089367
  0
VERTEX
  8
0
 10
117.81359779
 20
105.86403079
 42
0.40786082
  0
VERTEX
  8
0
 10
116.24310919
 20
106.29535478
 42
0.26853867
  0
VERTEX
  8
0
 10
115.86799315
 20
105.38122686
  0
VERTEX
  8
0
 10
115.86799315
 20
103.06500030
  0
VERTEX
  8
0
 10
116.14853005
 20
103.06500030
  0
VERTEX
  8
0
 10
116.14872389
 20
105.18973054
 42
-0.18905900
  0
VERTEX
  8
0
 10
116.34925531
 20
105.98230630
 42
-0.56057361
  0
VERTEX
  8
0
 10
117.93624876
 20
105.53808287
  0
SEQEND
  0
POLYLINE
  8
Preview Toolpath Layer
 62
256
 66
   1
 39
0.000000
 70
    0
  0
VERTEX
  8
0
 10
120.22935646
 20
105.68967724
  0
VERTEX
  8
0
 10
120.24593796
 20
105.64698863
  0
VERTEX
  8
0
 10
120.24593796
 20
105.69879741
  0
VERTEX
  8
0
 10
120.22935646
 20
105.68967724
  0
VERTEX
  8
0
 10
120.18345093
 20
105.77851801
 42
-0.09994835
  0
VERTEX
  8
0
 10
120.08257836
 20
105.74976308
 42
-0.11563115
  0
VERTEX
  8
0
 10
120.23683923
 20
105.23082658
 42
-0.02782846
  0
VERTEX
  8
0
 10
120.26199042
 20
103.16500030
  0
VERTEX
  8
0
 10
120.34593796
 20
103.16500030
  0
VERTEX
  8
0
 10
120.34593796
 20
106.25713339
  0
VERTEX
  8
0
 10
120.32679260
 20
106.25713339
  0
VERTEX
  8
0
 10
120.32679260
 20
106.01393178
 42
-0.28049344
  0
VERTEX
  8
0
 10
120.18345093
 20
105.77851801
  0
SEQEND
  0
POLYLINE
  8
Preview Toolpath Layer
 62
256
 66
   1
 39
0.000000
 70
    0
  0
VERTEX
  8
0
 10
121.89436907
 20
107.45899757
  0
VERTEX
  8
0
 10
121.89436907
 20
107.63503243
  0
VERTEX
  8
0
 10
121.81042152
 20
107.63503243
  0
VERTEX
  8
0
 10
121.81042152
 20
107.45899757
  0
VERTEX
  8
0
 10
121.89436907
 20
107.45899757
  0
VERTEX
  8
0
 10
121.89436907
 20
107.35899757
  0
VERTEX
  8
0
 10
121.99436907
 20
107.35899757
  0
VERTEX
  8
0
 10
121.99436907
 20
107.73503243
  0
VERTEX
  8
0
 10
121.71042152
 20
107.73503243
  0
VERTEX
  8
0
 10
121.71042152
 20
107.35899757
  0
VERTEX
  8
0
 10
121.89436907
 20
107.35899757
  0
SEQEND
  0
POLYLINE
  8
Preview Toolpath Layer
 62
256
 66
   1
 39
0.000000
 70
    0
  0
VERTEX
  8
0
 10
129.86379865
 20
106.28337244
 42
0.41421356
  0
VERTEX
  8
0
 10
129.89298193
 20
106.25418916
 42
0.41421356
  0
VERTEX
  8
0
 10
129.92216520
 20
106.28337244
  0
VERTEX
  8
0
 10
129.89298193
 20
106.32203171
  0
VERTEX
  8
0
 10
129.86379865
 20
106.28337244
  0
VERTEX
  8
0
 10
129.78815995
 20
106.34878487
 42
-0.10260675
  0
VERTEX
  8
0
 10
129.70269634
 20
106.28337244
 42
-0.28810118
  0
VERTEX
  8
0
 10
129.85271347
 20
106.04462755
  0
VERTEX
  8
0
 10
129.85162524
 20
103.90262885
 42
-0.07944227
  0
VERTEX
  8
0
 10
129.80029173
 20
103.48388472
 42
-0.29711323
  0
VERTEX
  8
0
 10
129.21645618
 20
103.16130533
 42
0.41421356
  0
VERTEX
  8
0
 10
129.19036989
 20
103.16370697
 42
0.41421356
  0
VERTEX
  8
0
 10
129.18796824
 20
103.13762068
 42
0.24507246
  0
VERTEX
  8
0
 10
129.82400773
 20
103.26252269
 42
0.19175591
  0
VERTEX
  8
0
 10
129.91561407
 20
103.53566532
 42
0.02047558
  0
VERTEX
  8
0
 10
129.93325038
 20
106.04462755
 42
-0.28810118
  0
VERTEX
  8
0
 10
130.08326751
 20
106.28337244
 42
-0.28810118
  0
VERTEX
  8
0
 10
129.93325038
 20
106.52211732
  0
VERTEX
  8
0
 10
129.93325038
 20
107.26951490
  0
VERTEX
  8
0
 10
129.85271347
 20
107.31810700
  0
VERTEX
  8
0
 10
129.85271347
 20
106.52211732
 42
-0.18016845
  0
VERTEX
  8
0
 10
129.78815995
 20
106.34878487
  0
VERTEX
  8
0
 10
129.71252125
 20
106.41419731
 42
-0.21779171
  0
VERTEX
  8
0
 10
129.58772954
 20
106.35713339
  0
VERTEX
  8
0
 10
129.13538742
 20
106.35713339
  0
VERTEX
  8
0
 10
129.13538742
 20
106.20961149
  0
VERTEX
  8
0
 10
129.58772954
 20
106.20961149
 42
-0.41421356
  0
VERTEX
  8
0
 10
129.75271347
 20
106.04462755
  0
VERTEX
  8
0
 10
129.75203592
 20
103.91168242
 42
-0.07944227
  0
VERTEX
  8
0
 10
129.70849071
 20
103.52354040
 42
-0.33782753
  0
VERTEX
  8
0
 10
129.10849362
 20
103.27126343
  0
VERTEX
  8
0
 10
129.07239843
 20
103.05052746
 42
0.25739697
  0
VERTEX
  8
0
 10
129.89830402
 20
103.19361474
 42
0.19175591
  0
VERTEX
  8
0
 10
130.01519057
 20
103.52328037
 42
0.02047558
  0
VERTEX
  8
0
 10
130.03325038
 20
106.04462755
 42
-0.27133037
  0
VERTEX
  8
0
 10
130.11755029
 20
106.18853651
 42
-0.12844718
  0
VERTEX
  8
0
 10
130.48345502
 20
106.20961149
  0
VERTEX
  8
0
 10
130.48345502
 20
106.35713339
 42
-0.12844718
  0
VERTEX
  8
0
 10
130.11755029
 20
106.37820837
 42
-0.27133037
  0
VERTEX
  8
0
 10
130.03325038
 20
106.52211732
  0
VERTEX
  8
0
 10
130.03325038
 20
107.32597155
  0
VERTEX
  8
0
 10
129.75271347
 20
107.49523404
  0
VERTEX
  8
0
 10
129.75271347
 20
106.52211732
 42
-0.18016845
  0
VERTEX
  8
0
 10
129.71252125
 20
106.41419731
  0
SEQEND
  0
POLYLINE
  8
Preview Toolpath Layer
 62
256
 66
   1
 39
0.000000
 70
    1
  0
VERTEX
  8
0
 10
132.17577109
 20
103.14966917
  0
VERTEX
  8
0
 10
132.21919428
 20
103.14052388
 42
-0.21636705
  0
VERTEX
  8
0
 10
131.56107467
 20
103.78029982
  0
VERTEX
  8
0
 10
131.45089439
 20
103.76667538
 42
0.21971173
  0
VERTEX
  8
0
 10
132.17577109
 20
103.14966917
  0
SEQEND
  0
POLYLINE
  8
Preview Toolpath Layer
 62
256
 66
   1
 39
0.000000
 70
    1
  0
VERTEX
  8
0
 10
131.33360610
 20
104.81916128
  0
VERTEX
  8
0
 10
131.59637966
 20
104.81916128
 42
-0.34389676
  0
VERTEX
  8
0
 10
131.44912009
 20
105.10995992
 42
-0.11006568
  0
VERTEX
  8
0
 10
131.63481089
 20
105.76344434
 42
-0.13104962
  0
VERTEX
  8
0
 10
132.01015037
 20
106.15653126
 42
0.20194148
  0
VERTEX
  8
0
 10
131.42864417
 20
105.42967203
 42
0.07994634
  0
VERTEX
  8
0
 10
131.33360610
 20
104.81916128
  0
SEQEND
  0
POLYLINE
  8
Preview Toolpath Layer
 62
256
 66
   1
 39
0.000000
 70
    1
  0
VERTEX
  8
0
 10
133.73165860
 20
104.89396831
  0
VERTEX
  8
0
 10
131.70914837
 20
104.89396831
 42
-0.47215524
  0
VERTEX
  8
0
 10
131.54724992
 20
105.09071058
 42
-0.10896257
  0
VERTEX
  8
0
 10
131.71788853
 20
105.70778370
 42
-0.35018858
  0
VERTEX
  8
0
 10
133.08578494
 20
106.21413761
 42
-0.35018858
  0
VERTEX
  8
0
 10
133.88263903
 20
104.99243453
 42
-0.29727251
  0
VERTEX
  8
0
 10
133.73165860
 20
104.89396831
  0
SEQEND
  0
POLYLINE
  8
Preview Toolpath Layer
 62
256
 66
   1
 39
0.000000
 70
    0
  0
VERTEX
  8
0
 10
134.02542902
 20
104.81066882
  0
VERTEX
  8
0
 10
134.02344959
 20
104.83970058
  0
VERTEX
  8
0
 10
134.01377980
 20
104.82445791
  0
VERTEX
  8
0
 10
134.02542902
 20
104.81066882
  0
VERTEX
  8
0
 10
133.95428507
 20
104.74039409
 42
-0.20896873
  0
VERTEX
  8
0
 10
134.03048348
 20
104.54231921
 42
-0.30624632
  0
VERTEX
  8
0
 10
133.20577539
 20
103.16533636
 42
0.31424206
  0
VERTEX
  8
0
 10
134.10830437
 20
104.30311792
 42
0.16155925
  0
VERTEX
  8
0
 10
133.90526220
 20
105.68672480
 42
0.18916401
  0
VERTEX
  8
0
 10
133.25960877
 20
106.23954846
 42
-0.31396487
  0
VERTEX
  8
0
 10
133.98477527
 20
104.98054028
 42
-0.22902166
  0
VERTEX
  8
0
 10
133.82743889
 20
104.81188420
 42
-0.14006648
  0
VERTEX
  8
0
 10
133.95428507
 20
104.74039409
  0
VERTEX
  8
0
 10
133.88314111
 20
104.67011936
 42
-0.20896873
  0
VERTEX
  8
0
 10
133.93058366
 20
104.54679425
 42
-0.53168004
  0
VERTEX
  8
0
 10
132.28366839
 20
103.21999518
 42
-0.22945527
  0
VERTEX
  8
0
 10
131.61952915
 20
103.88828970
  0
VERTEX
  8
0
 10
131.30432835
 20
103.84931326
 42
0.33164457
  0
VERTEX
  8
0
 10
132.67294198
 20
102.98356901
 42
0.40294434
  0
VERTEX
  8
0
 10
134.20749886
 20
104.28805629
 42
0.16187505
  0
VERTEX
  8
0
 10
133.99210937
 20
105.73748476
 42
0.42709483
  0
VERTEX
  8
0
 10
131.86373661
 20
106.18995899
 42
0.25382646
  0
VERTEX
  8
0
 10
131.22657775
 20
104.71916128
  0
VERTEX
  8
0
 10
133.76576501
 20
104.71916128
 42
-0.20051026
  0
VERTEX
  8
0
 10
133.88314111
 20
104.67011936
  0
SEQEND
  0
POLYLINE
  8
Preview Toolpath Layer
 62
256
 66
   1
 39
0.000000
 70
    0
  0
VERTEX
  8
0
 10
136.47454276
 20
103.18054818
 42
-0.37602191
  0
VERTEX
  8
0
 10
135.39681537
 20
104.29804932
 42
-0.17320259
  0
VERTEX
  8
0
 10
135.61772903
 20
104.86359714
 42
-0.12846917
  0
VERTEX
  8
0
 10
136.17574508
 20
105.21914637
  0
VERTEX
  8
0
 10
137.63647361
 20
105.61909870
 42
0.17755142
  0
VERTEX
  8
0
 10
138.41007688
 20
106.12728635
 42
0.46826002
  0
VERTEX
  8
0
 10
137.86239221
 20
107.56949076
 42
0.21720237
  0
VERTEX
  8
0
 10
136.00486610
 20
107.47599044
 42
0.23079553
  0
VERTEX
  8
0
 10
135.48028913
 20
106.73387139
  0
VERTEX
  8
0
 10
135.58804876
 20
106.72576045
 42
-0.32896599
  0
VERTEX
  8
0
 10
136.73761829
 20
107.65149819
 42
-0.19371786
  0
VERTEX
  8
0
 10
138.08322018
 20
107.37128851
 42
-0.64148741
  0
VERTEX
  8
0
 10
137.70459466
 20
105.77658801
 42
0.03733694
  0
VERTEX
  8
0
 10
135.98637483
 20
105.29165657
 42
0.14437801
  0
VERTEX
  8
0
 10
135.45539710
 20
104.88041643
 42
0.37729657
  0
VERTEX
  8
0
 10
135.69212482
 20
103.45544096
 42
0.17503231
  0
VERTEX
  8
0
 10
136.87161339
 20
103.08073631
 42
0.10554300
  0
VERTEX
  8
0
 10
137.90322264
 20
103.25634529
 42
0.25873193
  0
VERTEX
  8
0
 10
138.70801912
 20
104.26605805
  0
VERTEX
  8
0
 10
138.58697684
 20
104.27664098
 42
-0.26633971
  0
VERTEX
  8
0
 10
137.74450175
 20
103.30129854
 42
-0.13888125
  0
VERTEX
  8
0
 10
136.47454276
 20
103.18054818
  0
VERTEX
  8
0
 10
136.50065359
 20
103.27707913
 42
-0.37339147
  0
VERTEX
  8
0
 10
135.49563476
 20
104.28272848
 42
-0.17305320
  0
VERTEX
  8
0
 10
135.68466422
 20
104.78930259
 42
-0.13101585
  0
VERTEX
  8
0
 10
136.20199425
 20
105.12265294
  0
VERTEX
  8
0
 10
137.66846896
 20
105.52419354
 42
0.17765537
  0
VERTEX
  8
0
 10
138.49539668
 20
106.07292444
 42
0.46761378
  0
VERTEX
  8
0
 10
137.90212396
 20
107.66204716
 42
0.21814099
  0
VERTEX
  8
0
 10
135.95418033
 20
107.56248363
 42
0.24764437
  0
VERTEX
  8
0
 10
135.36355000
 20
106.64237534
  0
VERTEX
  8
0
 10
135.66988030
 20
106.61931822
 42
-0.35445801
  0
VERTEX
  8
0
 10
136.74320451
 20
107.55165434
 42
-0.19109902
  0
VERTEX
  8
0
 10
138.01387332
 20
107.29923983
 42
-0.64825295
  0
VERTEX
  8
0
 10
137.67773925
 20
105.87291447
 42
0.03735922
  0
VERTEX
  8
0
 10
135.94379355
 20
105.38274692
 42
0.14396235
  0
VERTEX
  8
0
 10
135.36993267
 20
104.93363428
 42
0.37808182
  0
VERTEX
  8
0
 10
135.63026787
 20
103.37615420
 42
0.17491191
  0
VERTEX
  8
0
 10
136.87079640
 20
102.98035816
 42
0.10536043
  0
VERTEX
  8
0
 10
137.94299110
 20
103.16434810
 42
0.27768413
  0
VERTEX
  8
0
 10
138.82183026
 20
104.35648884
  0
VERTEX
  8
0
 10
138.50771735
 20
104.38395226
 42
-0.27938480
  0
VERTEX
  8
0
 10
137.71545727
 20
103.39698771
 42
-0.13885774
  0
VERTEX
  8
0
 10
136.50065359
 20
103.27707913
  0
SEQEND
  0
POLYLINE
  8
Preview Toolpath Layer
 62
256
 66
   1
 39
0.000000
 70
    1
  0
VERTEX
  8
0
 10
112.77263330
 20
103.14966917
  0
VERTEX
  8
0
 10
112.81605649
 20
103.14052388
 42
-0.21636705
  0
VERTEX
  8
0
 10
112.15793688
 20
103.78029982
  0
VERTEX
  8
0
 10
112.04775660
 20
103.76667538
 42
0.21971173
  0
VERTEX
  8
0
 10
112.77263330
 20
103.14966917
  0
SEQEND
  0
POLYLINE
  8
Preview Toolpath Layer
 62
256
 66
   1
 39
0.000000
 70
    1
  0
VERTEX
  8
0
 10
111.93046831
 20
104.81916128
  0
VERTEX
  8
0
 10
112.19324187
 20
104.81916128
 42
-0.34389676
  0
VERTEX
  8
0
 10
112.04598230
 20
105.10995992
 42
-0.11006568
  0
VERTEX
  8
0
 10
112.23167310
 20
105.76344434
 42
-0.13104962
  0
VERTEX
  8
0
 10
112.60701258
 20
106.15653126
 42
0.20194148
  0
VERTEX
  8
0
 10
112.02550638
 20
105.42967203
 42
0.07994634
  0
VERTEX
  8
0
 10
111.93046831
 20
104.81916128
  0
SEQEND
  0
POLYLINE
  8
Preview Toolpath Layer
 62
256
 66
   1
 39
0.000000
 70
    1
  0
VERTEX
  8
0
 10
114.32852081
 20
104.89396831
  0
VERTEX
  8
0
 10
112.30601058
 20
104.89396831
 42
-0.47215524
  0
VERTEX
  8
0
 10
112.14411213
 20
105.09071058
 42
-0.10896257
  0
VERTEX
  8
0
 10
112.31475074
 20
105.70778370
 42
-0.35018858
  0
VERTEX
  8
0
 10
113.68264715
 20
106.21413761
 42
-0.35018858
  0
VERTEX
  8
0
 10
114.47950124
 20
104.99243453
 42
-0.29727251
  0
VERTEX
  8
0
 10
114.32852081
 20
104.89396831
  0
SEQEND
  0
POLYLINE
  8
Preview Toolpath Layer
 62
256
 66
   1
 39
0.000000
 70
    0
  0
VERTEX
  8
0
 10
114.62229123
 20
104.81066882
  0
VERTEX
  8
0
 10
114.62031180
 20
104.83970058
  0
VERTEX
  8
0
 10
114.61064201
 20
104.82445791
  0
VERTEX
  8
0
 10
114.62229123
 20
104.81066882
  0
VERTEX
  8
0
 10
114.55114728
 20
104.74039409
 42
-0.20896873
  0
VERTEX
  8
0
 10
114.62734569
 20
104.54231921
 42
-0.30624632
  0
VERTEX
  8
0
 10
113.80263760
 20
103.16533636
 42
0.31424206
  0
VERTEX
  8
0
 10
114.70516658
 20
104.30311792
 42
0.16155925
  0
VERTEX
  8
0
 10
114.50212441
 20
105.68672480
 42
0.18916401
  0
VERTEX
  8
0
 10
113.85647098
 20
106.23954846
 42
-0.31396487
  0
VERTEX
  8
0
 10
114.58163748
 20
104.98054028
 42
-0.22902166
  0
VERTEX
  8
0
 10
114.42430110
 20
104.81188420
 42
-0.14006648
  0
VERTEX
  8
0
 10
114.55114728
 20
104.74039409
  0
VERTEX
  8
0
 10
114.48000332
 20
104.67011936
 42
-0.20896873
  0
VERTEX
  8
0
 10
114.52744587
 20
104.54679425
 42
-0.53168004
  0
VERTEX
  8
0
 10
112.88053060
 20
103.21999518
 42
-0.22945527
  0
VERTEX
  8
0
 10
112.21639136
 20
103.88828970
  0
VERTEX
  8
0
 10
111.90119056
 20
103.84931326
 42
0.33164457
  0
VERTEX
  8
0
 10
113.26980419
 20
102.98356901
 42
0.40294434
  0
VERTEX
  8
0
 10
114.80436107
 20
104.28805629
 42
0.16187505
  0
VERTEX
  8
0
 10
114.58897158
 20
105.73748476
 42
0.42709483
  0
VERTEX
  8
0
 10
112.46059882
 20
106.18995899
 42
0.25382646
  0
VERTEX
  8
0
 10
111.82343996
 20
104.71916128
  0
VERTEX
  8
0
 10
114.36262722
 20
104.71916128
 42
-0.20051026
  0
VERTEX
  8
0
 10
114.48000332
 20
104.67011936
  0
SEQEND
  0
POLYLINE
  8
Default Layer
 62
256
 66
   1
 39
0.000000
 70
    1
  0
VERTEX
  8
0
 10
9.00000000
 20
3.00000000
  0
VERTEX
  8
0
 10
9.02031645
 20
3.20153488
  0
VERTEX
  8
0
 10
9.07858496
 20
3.38924513
  0
VERTEX
  8
0
 10
9.17078429
 20
3.55910951
  0
VERTEX
  8
0
 10
9.29289322
 20
3.70710678
  0
VERTEX
  8
0
 10
9.44089049
 20
3.82921571
  0
VERTEX
  8
0
 10
9.61075487
 20
3.92141504
  0
VERTEX
  8
0
 10
9.79846512
 20
3.97968355
  0
VERTEX
  8
0
 10
10.00000000
 20
4.00000000
  0
VERTEX
  8
0
 10
10.20153488
 20
3.97968355
  0
VERTEX
  8
0
 10
10.38924513
 20
3.92141504
  0
VERTEX
  8
0
 10
10.55910951
 20
3.82921571
  0
VERTEX
  8
0
 10
10.70710678
 20
3.70710678
  0
VERTEX
  8
0
 10
10.82921571
 20
3.55910951
  0
VERTEX
  8
0
 10
10.92141504
 20
3.38924513
  0
VERTEX
  8
0
 10
10.97968355
 20
3.20153488
  0
VERTEX
  8
0
 10
11.00000000
 20
3.00000000
  0
VERTEX
  8
0
 10
10.97968355
 20
2.79846512
  0
VERTEX
  8
0
 10
10.92141504
 20
2.61075487
  0
VERTEX
  8
0
 10
10.82921571
 20
2.44089049
  0
VERTEX
  8
0
 10
10.70710678
 20
2.29289322
  0
VERTEX
  8
0
 10
10.55910951
 20
2.17078429
  0
VERTEX
  8
0
 10
10.38924513
 20
2.07858496
  0
VERTEX
  8
0
 10
10.20153488
 20
2.02031645
  0
VERTEX
  8
0
 10
10.00000000
 20
2.00000000
  0
VERTEX
  8
0
 10
9.79846512
 20
2.02031645
  0
VERTEX
  8
0
 10
9.61075487
 20
2.07858496
  0
VERTEX
  8
0
 10
9.44089049
 20
2.17078429
  0
VERTEX
  8
0
 10
9.29289322
 20
2.29289322
  0
VERTEX
  8
0
 10
9.17078429
 20
2.44089049
  0
VERTEX
  8
0
 10
9.07858496
 20
2.61075487
  0
VERTEX
  8
0
 10
9.02031645
 20
2.79846512
  0
VERTEX
  8
0
 10
9.00000000
 20
3.00000000
  0
SEQEND
  0
POLYLINE
  8
Default Layer
 62
256
 66
   1
 39
0.000000
 70
    1
  0
VERTEX
  8
0
 10
83.50000000
 20
3.00000000
  0
VERTEX
  8
0
 10
83.52031645
 20
3.20153488
  0
VERTEX
  8
0
 10
83.57858496
 20
3.38924513
  0
VERTEX
  8
0
 10
83.67078429
 20
3.55910951
  0
VERTEX
  8
0
 10
83.79289322
 20
3.70710678
  0
VERTEX
  8
0
 10
83.94089049
 20
3.82921571
  0
VERTEX
  8
0
 10
84.11075487
 20
3.92141504
  0
VERTEX
  8
0
 10
84.29846512
 20
3.97968355
  0
VERTEX
  8
0
 10
84.50000000
 20
4.00000000
  0
VERTEX
  8
0
 10
84.70153488
 20
3.97968355
  0
VERTEX
  8
0
 10
84.88924513
 20
3.92141504
  0
VERTEX
  8
0
 10
85.05910951
 20
3.82921571
  0
VERTEX
  8
0
 10
85.20710678
 20
3.70710678
  0
VERTEX
  8
0
 10
85.32921571
 20
3.55910951
  0
VERTEX
  8
0
 10
85.42141504
 20
3.38924513
  0
VERTEX
  8
0
 10
85.47968355
 20
3.20153488
  0
VERTEX
  8
0
 10
85.50000000
 20
3.00000000
  0
VERTEX
  8
0
 10
85.47968355
 20
2.79846512
  0
VERTEX
  8
0
 10
85.42141504
 20
2.61075487
  0
VERTEX
  8
0
 10
85.32921571
 20
2.44089049
  0
VERTEX
  8
0
 10
85.20710678
 20
2.29289322
  0
VERTEX
  8
0
 10
85.05910951
 20
2.17078429
  0
VERTEX
  8
0
 10
84.88924513
 20
2.07858496
  0
VERTEX
  8
0
 10
84.70153488
 20
2.02031645
  0
VERTEX
  8
0
 10
84.50000000
 20
2.00000000
  0
VERTEX
  8
0
 10
84.29846512
 20
2.02031645
  0
VERTEX
  8
0
 10
84.11075487
 20
2.07858496
  0
VERTEX
  8
0
 10
83.94089049
 20
2.17078429
  0
VERTEX
  8
0
 10
83.79289322
 20
2.29289322
  0
VERTEX
  8
0
 10
83.67078429
 20
2.44089049
  0
VERTEX
  8
0
 10
83.57858496
 20
2.61075487
  0
VERTEX
  8
0
 10
83.52031645
 20
2.79846512
  0
VERTEX
  8
0
 10
83.50000000
 20
3.00000000
  0
SEQEND
  0
POLYLINE
  8
Default Layer
 62
256
 66
   1
 39
0.000000
 70
    1
  0
VERTEX
  8
0
 10
158.00000000
 20
3.00000000
  0
VERTEX
  8
0
 10
158.02031645
 20
3.20153488
  0
VERTEX
  8
0
 10
158.07858496
 20
3.38924513
  0
VERTEX
  8
0
 10
158.17078429
 20
3.55910951
  0
VERTEX
  8
0
 10
158.29289322
 20
3.70710678
  0
VERTEX
  8
0
 10
158.44089049
 20
3.82921571
  0
VERTEX
  8
0
 10
158.61075487
 20
3.92141504
  0
VERTEX
  8
0
 10
158.79846512
 20
3.97968355
  0
VERTEX
  8
0
 10
159.00000000
 20
4.00000000
  0
VERTEX
  8
0
 10
159.20153488
 20
3.97968355
  0
VERTEX
  8
0
 10
159.38924513
 20
3.92141504
  0
VERTEX
  8
0
 10
159.55910951
 20
3.82921571
  0
VERTEX
  8
0
 10
159.70710678
 20
3.70710678
  0
VERTEX
  8
0
 10
159.82921571
 20
3.55910951
  0
VERTEX
  8
0
 10
159.92141504
 20
3.38924513
  0
VERTEX
  8
0
 10
159.97968355
 20
3.20153488
  0
VERTEX
  8
0
 10
160.00000000
 20
3.00000000
  0
VERTEX
  8
0
 10
159.97968355
 20
2.79846512
  0
VERTEX
  8
0
 10
159.92141504
 20
2.61075487
  0
VERTEX
  8
0
 10
159.82921571
 20
2.44089049
  0
VERTEX
  8
0
 10
159.70710678
 20
2.29289322
  0
VERTEX
  8
0
 10
159.55910951
 20
2.17078429
  0
VERTEX
  8
0
 10
159.38924513
 20
2.07858496
  0
VERTEX
  8
0
 10
159.20153488
 20
2.02031645
  0
VERTEX
  8
0
 10
159.00000000
 20
2.00000000
  0
VERTEX
  8
0
 10
158.79846512
 20
2.02031645
  0
VERTEX
  8
0
 10
158.61075487
 20
2.07858496
  0
VERTEX
  8
0
 10
158.44089049
 20
2.17078429
  0
VERTEX
  8
0
 10
158.29289322
 20
2.29289322
  0
VERTEX
  8
0
 10
158.17078429
 20
2.44089049
  0
VERTEX
  8
0
 10
158.07858496
 20
2.61075487
  0
VERTEX
  8
0
 10
158.02031645
 20
2.79846512
  0
VERTEX
  8
0
 10
158.00000000
 20
3.00000000
  0
SEQEND
  0
POLYLINE
  8
Preview Toolpath Layer
 62
256
 66
   1
 39
0.000000
 70
    1
  0
VERTEX
  8
0
 10
9.75380126
 20
3.00000000
 42
0.30334697
  0
VERTEX
  8
0
 10
9.90582649
 20
2.77232701
 42
0.30334697
  0
VERTEX
  8
0
 10
10.17434638
 20
2.82565362
 42
0.41421356
  0
VERTEX
  8
0
 10
10.17434638
 20
3.17434638
 42
0.41421356
  0
VERTEX
  8
0
 10
9.82565362
 20
3.17434638
 42
0.20062331
  0
VERTEX
  8
0
 10
9.75380126
 20
3.00000000
  0
SEQEND
  0
POLYLINE
  8
Preview Toolpath Layer
 62
256
 66
   1
 39
0.000000
 70
    1
  0
VERTEX
  8
0
 10
84.25380126
 20
3.00000000
 42
0.30334697
  0
VERTEX
  8
0
 10
84.40582649
 20
2.77232701
 42
0.30334697
  0
VERTEX
  8
0
 10
84.67434638
 20
2.82565362
 42
0.41421356
  0
VERTEX
  8
0
 10
84.67434638
 20
3.17434638
 42
0.41421356
  0
VERTEX
  8
0
 10
84.32565362
 20
3.17434638
 42
0.20062331
  0
VERTEX
  8
0
 10
84.25380126
 20
3.00000000
  0
SEQEND
  0
POLYLINE
  8
Preview Toolpath Layer
 62
256
 66
   1
 39
0.000000
 70
    1
  0
VERTEX
  8
0
 10
158.75380126
 20
3.00000000
 42
0.30334697
  0
VERTEX
  8
0
 10
158.90582649
 20
2.77232701
 42
0.30334697
  0
VERTEX
  8
0
 10
159.17434638
 20
2.82565362
 42
0.41421356
  0
VERTEX
  8
0
 10
159.17434638
 20
3.17434638
 42
0.41421356
  0
VERTEX
  8
0
 10
158.82565362
 20
3.17434638
 42
0.20062331
  0
VERTEX
  8
0
 10
158.75380126
 20
3.00000000
  0
SEQEND
  0
POLYLINE
  8
Preview Toolpath Layer
 62
256
 66
   1
 39
0.000000
 70
    1
  0
VERTEX
  8
0
 10
150.04730952
 20
54.59975000
 42
0.38471784
  0
VERTEX
  8
0
 10
149.10776179
 20
55.64113783
 42
0.38471784
  0
VERTEX
  8
0
 10
147.97633095
 20
54.81222117
 42
0.35830222
  0
VERTEX
  8
0
 10
148.59490829
 20
53.63543833
 42
0.35830222
  0
VERTEX
  8
0
 10
149.86909223
 20
54.01479447
 42
0.15009646
  0
VERTEX
  8
0
 10
150.04730952
 20
54.59975000
  0
SEQEND
  0
POLYLINE
  8
Preview Toolpath Layer
 62
256
 66
   1
 39
0.000000
 70
    1
  0
VERTEX
  8
0
 10
150.04717779
 20
67.29952660
 42
0.38471784
  0
VERTEX
  8
0
 10
149.10763005
 20
68.34091443
 42
0.38471784
  0
VERTEX
  8
0
 10
147.97619922
 20
67.51199776
 42
0.35830222
  0
VERTEX
  8
0
 10
148.59477656
 20
66.33521492
 42
0.35830222
  0
VERTEX
  8
0
 10
149.86896049
 20
66.71457107
 42
0.15009646
  0
VERTEX
  8
0
 10
150.04717779
 20
67.29952660
  0
SEQEND
  0
POLYLINE
  8
Preview Toolpath Layer
 62
256
 66
   1
 39
0.000000
 70
    1
  0
VERTEX
  8
0
 10
150.04774665
 20
79.99963298
 42
0.38471784
  0
VERTEX
  8
0
 10
149.10819891
 20
81.04102081
 42
0.38471784
  0
VERTEX
  8
0
 10
147.97676808
 20
80.21210415
 42
0.35830222
  0
VERTEX
  8
0
 10
148.59534542
 20
79.03532130
 42
0.35830222
  0
VERTEX
  8
0
 10
149.86952935
 20
79.41467745
 42
0.15009646
  0
VERTEX
  8
0
 10
150.04774665
 20
79.99963298
  0
SEQEND
  0
POLYLINE
  8
Preview Toolpath Layer
 62
256
 66
   1
 39
0.000000
 70
    1
  0
VERTEX
  8
0
 10
150.04777858
 20
92.69961170
 42
0.38471784
  0
VERTEX
  8
0
 10
149.10823085
 20
93.74099953
 42
0.38471784
  0
VERTEX
  8
0
 10
147.97680001
 20
92.91208287
 42
0.35830222
  0
VERTEX
  8
0
 10
148.59537735
 20
91.73530003
 42
0.35830222
  0
VERTEX
  8
0
 10
149.86956129
 20
92.11465617
 42
0.15009646
  0
VERTEX
  8
0
 10
150.04777858
 20
92.69961170
  0
SEQEND
  0
POLYLINE
  8
Preview Toolpath Layer
 62
256
 66
   1
 39
0.000000
 70
    1
  0
VERTEX
  8
0
 10
150.04738737
 20
105.39967553
 42
0.38471784
  0
VERTEX
  8
0
 10
149.10783963
 20
106.44106336
 42
0.38471784
  0
VERTEX
  8
0
 10
147.97640880
 20
105.61214670
 42
0.35830222
  0
VERTEX
  8
0
 10
148.59498614
 20
104.43536386
 42
0.35830222
  0
VERTEX
  8
0
 10
149.86917007
 20
104.81472000
 42
0.15009646
  0
VERTEX
  8
0
 10
150.04738737
 20
105.39967553
  0
SEQEND
  0
POLYLINE
  8
Preview Toolpath Layer
 62
256
 66
   1
 39
0.000000
 70
    1
  0
VERTEX
  8
0
 10
169.75039920
 20
-0.00026596
 42
-0.41421356
  0
VERTEX
  8
0
 10
169.00039920
 20
-0.75026596
  0
VERTEX
  8
0
 10
0.00039920
 20
-0.75026596
 42
-0.41421356
  0
VERTEX
  8
0
 10
-0.74960080
 20
-0.00026596
  0
VERTEX
  8
0
 10
-0.74960080
 20
127.99973404
 42
-0.41421356
  0
VERTEX
  8
0
 10
0.00039920
 20
128.74973404
  0
VERTEX
  8
0
 10
169.00039920
 20
128.74973404
 42
-0.41421356
  0
VERTEX
  8
0
 10
169.75039920
 20
127.99973404
  0
VERTEX
  8
0
 10
169.75039920
 20
-0.00026596
  0
SEQEND
  0
ENDSEC
  0
EOF
