  0
SECTION
  2
HEADER
  9
$ACADVER
  1
AC1014
  9
$ACADMAINTVER
 70
     9
  9
$DWGCODEPAGE
  3
UNDEFINED
  9
$INSBASE
 10
0.0
 20
0.0
 30
0.0
  9
$EXTMIN
 10
1.000000000000000E+20
 20
1.000000000000000E+20
 30
1.000000000000000E+20
  9
$EXTMAX
 10
-1.000000000000000E+20
 20
-1.000000000000000E+20
 30
-1.000000000000000E+20
  9
$LIMMIN
 10
0.0
 20
0.0
  9
$LIMMAX
 10
12.0
 20
9.0
  9
$ORTHOMODE
 70
     0
  9
$REGENMODE
 70
     1
  9
$FILLMODE
 70
     1
  9
$QTEXTMODE
 70
     0
  9
$MIRRTEXT
 70
     1
  9
$DRAGMODE
 70
     2
  9
$LTSCALE
 40
1.0
  9
$OSMODE
 70
    37
  9
$ATTMODE
 70
     1
  9
$TEXTSIZE
 40
0.2
  9
$TRACEWID
 40
0.05
  9
$TEXTSTYLE
  7
STANDARD
  9
$CLAYER
  8
0
  9
$CELTYPE
  6
BYLAYER
  9
$CECOLOR
 62
   256
  9
$CELTSCALE
 40
1.0
  9
$DELOBJ
 70
     1
  9
$DISPSILH
 70
     0
  9
$DIMSCALE
 40
1.0
  9
$DIMASZ
 40
0.18
  9
$DIMEXO
 40
0.0625
  9
$DIMDLI
 40
0.38
  9
$DIMRND
 40
0.0
  9
$DIMDLE
 40
0.0
  9
$DIMEXE
 40
0.18
  9
$DIMTP
 40
0.0
  9
$DIMTM
 40
0.0
  9
$DIMTXT
 40
0.18
  9
$DIMCEN
 40
0.09
  9
$DIMTSZ
 40
0.0
  9
$DIMTOL
 70
     0
  9
$DIMLIM
 70
     0
  9
$DIMTIH
 70
     1
  9
$DIMTOH
 70
     1
  9
$DIMSE1
 70
     0
  9
$DIMSE2
 70
     0
  9
$DIMTAD
 70
     0
  9
$DIMZIN
 70
     0
  9
$DIMBLK
  1

  9
$DIMASO
 70
     1
  9
$DIMSHO
 70
     1
  9
$DIMPOST
  1

  9
$DIMAPOST
  1

  9
$DIMALT
 70
     0
  9
$DIMALTD
 70
     2
  9
$DIMALTF
 40
25.4
  9
$DIMLFAC
 40
1.0
  9
$DIMTOFL
 70
     0
  9
$DIMTVP
 40
0.0
  9
$DIMTIX
 70
     0
  9
$DIMSOXD
 70
     0
  9
$DIMSAH
 70
     0
  9
$DIMBLK1
  1

  9
$DIMBLK2
  1

  9
$DIMSTYLE
  2
STANDARD
  9
$DIMCLRD
 70
     0
  9
$DIMCLRE
 70
     0
  9
$DIMCLRT
 70
     0
  9
$DIMTFAC
 40
1.0
  9
$DIMGAP
 40
0.09
  9
$DIMJUST
 70
     0
  9
$DIMSD1
 70
     0
  9
$DIMSD2
 70
     0
  9
$DIMTOLJ
 70
     1
  9
$DIMTZIN
 70
     0
  9
$DIMALTZ
 70
     0
  9
$DIMALTTZ
 70
     0
  9
$DIMFIT
 70
     3
  9
$DIMUPT
 70
     0
  9
$DIMUNIT
 70
     2
  9
$DIMDEC
 70
     4
  9
$DIMTDEC
 70
     4
  9
$DIMALTU
 70
     2
  9
$DIMALTTD
 70
     2
  9
$DIMTXSTY
  7
STANDARD
  9
$DIMAUNIT
 70
     0
  9
$LUNITS
 70
     2
  9
$LUPREC
 70
     4
  9
$SKETCHINC
 40
0.1
  9
$FILLETRAD
 40
0.5
  9
$AUNITS
 70
     0
  9
$AUPREC
 70
     0
  9
$MENU
  1
.
  9
$ELEVATION
 40
0.0
  9
$PELEVATION
 40
0.0
  9
$THICKNESS
 40
0.0
  9
$LIMCHECK
 70
     0
  9
$CHAMFERA
 40
0.5
  9
$CHAMFERB
 40
0.5
  9
$CHAMFERC
 40
1.0
  9
$CHAMFERD
 40
0.0
  9
$SKPOLY
 70
     0
  9
$TDCREATE
 40
2456985.934884259
  9
$TDUPDATE
 40
2456985.934884259
  9
$TDINDWG
 40
0.0000000116
  9
$TDUSRTIMER
 40
0.0000000116
  9
$USRTIMER
 70
     1
  9
$ANGBASE
 50
0.0
  9
$ANGDIR
 70
     0
  9
$PDMODE
 70
     0
  9
$PDSIZE
 40
0.0
  9
$PLINEWID
 40
0.0
  9
$COORDS
 70
     1
  9
$SPLFRAME
 70
     0
  9
$SPLINETYPE
 70
     6
  9
$SPLINESEGS
 70
     8
  9
$ATTDIA
 70
     0
  9
$ATTREQ
 70
     1
  9
$HANDLING
 70
     1
  9
$HANDSEED
  5
429
  9
$SURFTAB1
 70
     6
  9
$SURFTAB2
 70
     6
  9
$SURFTYPE
 70
     6
  9
$SURFU
 70
     6
  9
$SURFV
 70
     6
  9
$UCSNAME
  2

  9
$UCSORG
 10
0.0
 20
0.0
 30
0.0
  9
$UCSXDIR
 10
1.0
 20
0.0
 30
0.0
  9
$UCSYDIR
 10
0.0
 20
1.0
 30
0.0
  9
$PUCSNAME
  2

  9
$PUCSORG
 10
0.0
 20
0.0
 30
0.0
  9
$PUCSXDIR
 10
1.0
 20
0.0
 30
0.0
  9
$PUCSYDIR
 10
0.0
 20
1.0
 30
0.0
  9
$USERI1
 70
     0
  9
$USERI2
 70
     0
  9
$USERI3
 70
     0
  9
$USERI4
 70
     0
  9
$USERI5
 70
     0
  9
$USERR1
 40
0.0
  9
$USERR2
 40
0.0
  9
$USERR3
 40
0.0
  9
$USERR4
 40
0.0
  9
$USERR5
 40
0.0
  9
$WORLDVIEW
 70
     1
  9
$SHADEDGE
 70
     3
  9
$SHADEDIF
 70
    70
  9
$TILEMODE
 70
     1
  9
$MAXACTVP
 70
    64
  9
$PINSBASE
 10
0.0
 20
0.0
 30
0.0
  9
$PLIMCHECK
 70
     0
  9
$PEXTMIN
 10
1.000000000000000E+20
 20
1.000000000000000E+20
 30
1.000000000000000E+20
  9
$PEXTMAX
 10
-1.000000000000000E+20
 20
-1.000000000000000E+20
 30
-1.000000000000000E+20
  9
$PLIMMIN
 10
0.0
 20
0.0
  9
$PLIMMAX
 10
12.0
 20
9.0
  9
$UNITMODE
 70
     0
  9
$VISRETAIN
 70
     1
  9
$PLINEGEN
 70
     0
  9
$PSLTSCALE
 70
     1
  9
$TREEDEPTH
 70
  3020
  9
$PICKSTYLE
 70
     1
  9
$CMLSTYLE
  2
STANDARD
  9
$CMLJUST
 70
     0
  9
$CMLSCALE
 40
1.0
  9
$PROXYGRAPHICS
 70
     1
  9
$MEASUREMENT
 70
     0
  0
ENDSEC
  0
SECTION
  2
CLASSES
  0
CLASS
  1
ACDBDICTIONARYWDFLT
  2
AcDbDictionaryWithDefault
  3
ObjectDBX Classes
 90
        0
280
     0
281
     0
  0
CLASS
  1
VISUALSTYLE
  2
AcDbVisualStyle
  3
ObjectDBX Classes
 90
     4095
280
     0
281
     0
  0
CLASS
  1
MATERIAL
  2
AcDbMaterial
  3
ObjectDBX Classes
 90
     1153
280
     0
281
     0
  0
CLASS
  1
SUN
  2
AcDbSun
  3
SCENEOE
 90
     1024
280
     0
281
     0
  0
CLASS
  1
DICTIONARYVAR
  2
AcDbDictionaryVar
  3
ObjectDBX Classes
 90
        0
280
     0
281
     0
  0
CLASS
  1
XRECORD
  2
AcDbXrecord
  3
AutoCAD 2000
 90
        0
280
     0
281
     0
  0
CLASS
  1
LWPOLYLINE
  2
AcDbPolyline
  3
AutoCAD 2000
 90
        0
280
     0
281
     1
  0
CLASS
  1
HATCH
  2
AcDbHatch
  3
AutoCAD 2000
 90
        0
280
     0
281
     1
  0
CLASS
  1
ACDBPLACEHOLDER
  2
AcDbPlaceHolder
  3
ObjectDBX Classes
 90
        0
280
     0
281
     0
  0
CLASS
  1
LAYOUT
  2
AcDbLayout
  3
ObjectDBX Classes
 90
        0
280
     0
281
     0
  0
ENDSEC
  0
SECTION
  2
TABLES
  0
TABLE
  2
VPORT
  5
8
330
0
100
AcDbSymbolTable
 70
     1
  0
VPORT
  5
29
330
8
100
AcDbSymbolTableRecord
100
AcDbViewportTableRecord
  2
*ACTIVE
 70
     0
 10
0.0
 20
0.0
 11
1.0
 21
1.0
 12
0.0
 22
0.0
 13
0.0
 23
0.0
 14
0.5
 24
0.5
 15
0.5
 25
0.5
 16
0.0
 26
0.0
 36
1.0
 17
173.2138888455854
 27
-11.56847089988582
 37
0.0
 40
483.8647194623675
 41
1.757091207593241
 42
50.0
 43
0.0
 44
0.0
 50
0.0
 51
0.0
 71
     0
 72
   100
 73
     1
 74
     3
 75
     0
 76
     0
 77
     0
 78
     0
  0
ENDTAB
  0
TABLE
  2
LTYPE
  5
5
330
0
100
AcDbSymbolTable
 70
     1
  0
LTYPE
  5
14
330
5
100
AcDbSymbolTableRecord
100
AcDbLinetypeTableRecord
  2
BYBLOCK
 70
     0
  3

 72
    65
 73
     0
 40
0.0
  0
LTYPE
  5
15
330
5
100
AcDbSymbolTableRecord
100
AcDbLinetypeTableRecord
  2
BYLAYER
 70
     0
  3

 72
    65
 73
     0
 40
0.0
  0
LTYPE
  5
16
330
5
100
AcDbSymbolTableRecord
100
AcDbLinetypeTableRecord
  2
CONTINUOUS
 70
     0
  3
Solid line
 72
    65
 73
     0
 40
0.0
  0
ENDTAB
  0
TABLE
  2
LAYER
  5
2
330
0
100
AcDbSymbolTable
 70
     2
  0
LAYER
  5
10
330
2
100
AcDbSymbolTableRecord
100
AcDbLayerTableRecord
  2
0
 70
     0
 62
     7
  6
CONTINUOUS
  0
LAYER
  5
40
330
2
100
AcDbSymbolTableRecord
100
AcDbLayerTableRecord
  2
LAYER_1
 70
     0
 62
     7
  6
CONTINUOUS
  0
ENDTAB
  0
TABLE
  2
STYLE
  5
3
330
0
100
AcDbSymbolTable
 70
     1
  0
STYLE
  5
11
330
3
100
AcDbSymbolTableRecord
100
AcDbTextStyleTableRecord
  2
STANDARD
 70
     0
 40
0.0
 41
1.0
 50
0.0
 71
     0
 42
0.2
  3
txt
  4

  0
ENDTAB
  0
TABLE
  2
VIEW
  5
6
330
0
100
AcDbSymbolTable
 70
     0
  0
ENDTAB
  0
TABLE
  2
UCS
  5
7
330
0
100
AcDbSymbolTable
 70
     0
  0
ENDTAB
  0
TABLE
  2
APPID
  5
9
330
0
100
AcDbSymbolTable
 70
     1
  0
APPID
  5
12
330
9
100
AcDbSymbolTableRecord
100
AcDbRegAppTableRecord
  2
ACAD
 70
     0
  0
ENDTAB
  0
TABLE
  2
DIMSTYLE
  5
A
330
0
100
AcDbSymbolTable
 70
     1
  0
DIMSTYLE
105
27
330
A
100
AcDbSymbolTableRecord
100
AcDbDimStyleTableRecord
  2
STANDARD
 70
     0
  3

  4

  5

  6

  7

 40
1.0
 41
0.18
 42
0.0625
 43
0.38
 44
0.18
 45
0.0
 46
0.0
 47
0.0
 48
0.0
140
0.18
141
0.09
142
0.0
143
25.4
144
1.0
145
0.0
146
1.0
147
0.09
 71
     0
 72
     0
 73
     1
 74
     1
 75
     0
 76
     0
 77
     0
 78
     0
170
     0
171
     2
172
     0
173
     0
174
     0
175
     0
176
     0
177
     0
178
     0
270
     2
271
     4
272
     4
273
     2
274
     2
340
11
275
     0
280
     0
281
     0
282
     0
283
     1
284
     0
285
     0
286
     0
287
     3
288
     0
  0
ENDTAB
  0
TABLE
  2
BLOCK_RECORD
  5
1
330
0
100
AcDbSymbolTable
 70
    27
  0
BLOCK_RECORD
  5
1F
330
1
100
AcDbSymbolTableRecord
100
AcDbBlockTableRecord
  2
*MODEL_SPACE
  0
BLOCK_RECORD
  5
1B
330
1
100
AcDbSymbolTableRecord
100
AcDbBlockTableRecord
  2
*PAPER_SPACE
  0
BLOCK_RECORD
  5
41
330
1
100
AcDbSymbolTableRecord
100
AcDbBlockTableRecord
  2
BLOCK_2
  0
BLOCK_RECORD
  5
45
330
1
100
AcDbSymbolTableRecord
100
AcDbBlockTableRecord
  2
BLOCK_3
  0
BLOCK_RECORD
  5
D2
330
1
100
AcDbSymbolTableRecord
100
AcDbBlockTableRecord
  2
BLOCK_4
  0
BLOCK_RECORD
  5
D6
330
1
100
AcDbSymbolTableRecord
100
AcDbBlockTableRecord
  2
BLOCK_5
  0
BLOCK_RECORD
  5
DA
330
1
100
AcDbSymbolTableRecord
100
AcDbBlockTableRecord
  2
BLOCK_6
  0
BLOCK_RECORD
  5
DE
330
1
100
AcDbSymbolTableRecord
100
AcDbBlockTableRecord
  2
BLOCK_7
  0
BLOCK_RECORD
  5
E2
330
1
100
AcDbSymbolTableRecord
100
AcDbBlockTableRecord
  2
BLOCK_8
  0
BLOCK_RECORD
  5
172
330
1
100
AcDbSymbolTableRecord
100
AcDbBlockTableRecord
  2
BLOCK_9
  0
BLOCK_RECORD
  5
176
330
1
100
AcDbSymbolTableRecord
100
AcDbBlockTableRecord
  2
BLOCK_10
  0
BLOCK_RECORD
  5
17A
330
1
100
AcDbSymbolTableRecord
100
AcDbBlockTableRecord
  2
BLOCK_11
  0
BLOCK_RECORD
  5
20A
330
1
100
AcDbSymbolTableRecord
100
AcDbBlockTableRecord
  2
BLOCK_12
  0
BLOCK_RECORD
  5
20E
330
1
100
AcDbSymbolTableRecord
100
AcDbBlockTableRecord
  2
BLOCK_13
  0
BLOCK_RECORD
  5
212
330
1
100
AcDbSymbolTableRecord
100
AcDbBlockTableRecord
  2
BLOCK_14
  0
BLOCK_RECORD
  5
2A3
330
1
100
AcDbSymbolTableRecord
100
AcDbBlockTableRecord
  2
BLOCK_15
  0
BLOCK_RECORD
  5
2A7
330
1
100
AcDbSymbolTableRecord
100
AcDbBlockTableRecord
  2
BLOCK_16
  0
BLOCK_RECORD
  5
2AB
330
1
100
AcDbSymbolTableRecord
100
AcDbBlockTableRecord
  2
BLOCK_17
  0
BLOCK_RECORD
  5
2AF
330
1
100
AcDbSymbolTableRecord
100
AcDbBlockTableRecord
  2
BLOCK_18
  0
BLOCK_RECORD
  5
347
330
1
100
AcDbSymbolTableRecord
100
AcDbBlockTableRecord
  2
BLOCK_19
  0
BLOCK_RECORD
  5
350
330
1
100
AcDbSymbolTableRecord
100
AcDbBlockTableRecord
  2
BLOCK_20
  0
BLOCK_RECORD
  5
354
330
1
100
AcDbSymbolTableRecord
100
AcDbBlockTableRecord
  2
BLOCK_21
  0
BLOCK_RECORD
  5
38D
330
1
100
AcDbSymbolTableRecord
100
AcDbBlockTableRecord
  2
BLOCK_22
  0
BLOCK_RECORD
  5
393
330
1
100
AcDbSymbolTableRecord
100
AcDbBlockTableRecord
  2
BLOCK_23
  0
BLOCK_RECORD
  5
3B0
330
1
100
AcDbSymbolTableRecord
100
AcDbBlockTableRecord
  2
BLOCK_24
  0
BLOCK_RECORD
  5
3B4
330
1
100
AcDbSymbolTableRecord
100
AcDbBlockTableRecord
  2
BLOCK_25
  0
BLOCK_RECORD
  5
3D5
330
1
100
AcDbSymbolTableRecord
100
AcDbBlockTableRecord
  2
BLOCK_26
  0
BLOCK_RECORD
  5
3E0
330
1
100
AcDbSymbolTableRecord
100
AcDbBlockTableRecord
  2
BLOCK_27
  0
ENDTAB
  0
ENDSEC
  0
SECTION
  2
BLOCKS
  0
BLOCK
  5
20
330
1F
100
AcDbEntity
  8
0
100
AcDbBlockBegin
  2
*MODEL_SPACE
 70
     0
 10
0.0
 20
0.0
 30
0.0
  3
*MODEL_SPACE
  1

  0
ENDBLK
  5
21
330
1F
100
AcDbEntity
  8
0
100
AcDbBlockEnd
  0
BLOCK
  5
1C
330
1B
100
AcDbEntity
 67
     1
  8
0
100
AcDbBlockBegin
  2
*PAPER_SPACE
 70
     0
 10
0.0
 20
0.0
 30
0.0
  3
*PAPER_SPACE
  1

  0
ENDBLK
  5
1D
330
1B
100
AcDbEntity
 67
     1
  8
0
100
AcDbBlockEnd
  0
BLOCK
  5
43
330
41
100
AcDbEntity
  8
0
100
AcDbBlockBegin
  2
BLOCK_2
 70
     0
 10
0.0
 20
0.0
 30
0.0
  3
BLOCK_2
  1

  0
INSERT
  5
46
330
41
100
AcDbEntity
  8
LAYER_1
100
AcDbBlockReference
  2
BLOCK_3
 10
0.0
 20
0.0
 30
0.0
  0
POLYLINE
  5
CB
330
41
100
AcDbEntity
  8
LAYER_1
 62
   250
100
AcDb2dPolyline
 66
     1
 10
0.0
 20
0.0
 30
0.0
  0
VERTEX
  5
CC
330
CB
100
AcDbEntity
  8
LAYER_1
 62
   250
100
AcDbVertex
100
AcDb2dVertex
 10
200.9999668165081
 20
202.256032062241
 30
0.0
  0
VERTEX
  5
CD
330
CB
100
AcDbEntity
  8
LAYER_1
 62
   250
100
AcDbVertex
100
AcDb2dVertex
 10
165.0000891238303
 20
202.256032062241
 30
0.0
  0
VERTEX
  5
CE
330
CB
100
AcDbEntity
  8
LAYER_1
 62
   250
100
AcDbVertex
100
AcDb2dVertex
 10
165.0000891238303
 20
206.2559675157497
 30
0.0
  0
VERTEX
  5
CF
330
CB
100
AcDbEntity
  8
LAYER_1
 62
   250
100
AcDbVertex
100
AcDb2dVertex
 10
200.9999668165081
 20
206.2559675157497
 30
0.0
  0
VERTEX
  5
D0
330
CB
100
AcDbEntity
  8
LAYER_1
 62
   250
100
AcDbVertex
100
AcDb2dVertex
 10
200.9999668165081
 20
202.256032062241
 30
0.0
  0
SEQEND
  5
D1
330
CB
100
AcDbEntity
  8
LAYER_1
 62
   250
  0
ENDBLK
  5
44
330
41
100
AcDbEntity
  8
0
100
AcDbBlockEnd
  0
BLOCK
  5
47
330
45
100
AcDbEntity
  8
0
100
AcDbBlockBegin
  2
BLOCK_3
 70
     0
 10
0.0
 20
0.0
 30
0.0
  3
BLOCK_3
  1

  0
POLYLINE
  5
49
330
45
100
AcDbEntity
  8
LAYER_1
 62
   250
100
AcDb2dPolyline
 66
     1
 10
0.0
 20
0.0
 30
0.0
  0
VERTEX
  5
4A
330
49
100
AcDbEntity
  8
LAYER_1
 62
   250
100
AcDbVertex
100
AcDb2dVertex
 10
284.9999943731944
 20
217.9029608297212
 30
0.0
  0
VERTEX
  5
4B
330
49
100
AcDbEntity
  8
LAYER_1
 62
   250
100
AcDbVertex
100
AcDb2dVertex
 10
284.9999943731944
 20
202.9028501012948
 30
0.0
  0
VERTEX
  5
4C
330
49
100
AcDbEntity
  8
LAYER_1
 62
   250
100
AcDbVertex
100
AcDb2dVertex
 10
287.9999740413974
 20
202.9028501012948
 30
0.0
  0
VERTEX
  5
4D
330
49
100
AcDbEntity
  8
LAYER_1
 62
   250
100
AcDbVertex
100
AcDb2dVertex
 10
287.9999740413974
 20
187.9029157617528
 30
0.0
  0
VERTEX
  5
4E
330
49
100
AcDbEntity
  8
LAYER_1
 62
   250
100
AcDbVertex
100
AcDb2dVertex
 10
284.9999943731944
 20
187.9029157617528
 30
0.0
  0
VERTEX
  5
4F
330
49
100
AcDbEntity
  8
LAYER_1
 62
   250
100
AcDbVertex
100
AcDb2dVertex
 10
284.9999943731944
 20
172.9028050333264
 30
0.0
  0
VERTEX
  5
50
330
49
100
AcDbEntity
  8
LAYER_1
 62
   250
100
AcDbVertex
100
AcDb2dVertex
 10
287.9999740413974
 20
172.9028050333264
 30
0.0
  0
VERTEX
  5
51
330
49
100
AcDbEntity
  8
LAYER_1
 62
   250
100
AcDbVertex
100
AcDb2dVertex
 10
287.9999740413974
 20
157.9028354160075
 30
0.0
  0
VERTEX
  5
52
330
49
100
AcDbEntity
  8
LAYER_1
 62
   250
100
AcDbVertex
100
AcDb2dVertex
 10
284.9999943731944
 20
157.9028354160075
 30
0.0
  0
VERTEX
  5
53
330
49
100
AcDbEntity
  8
LAYER_1
 62
   250
100
AcDbVertex
100
AcDb2dVertex
 10
284.9999943731944
 20
142.9029010764655
 30
0.0
  0
VERTEX
  5
54
330
49
100
AcDbEntity
  8
LAYER_1
 62
   250
100
AcDbVertex
100
AcDb2dVertex
 10
287.9999740413974
 20
142.9029010764655
 30
0.0
  0
VERTEX
  5
55
330
49
100
AcDbEntity
  8
LAYER_1
 62
   250
100
AcDbVertex
100
AcDb2dVertex
 10
287.9999740413974
 20
127.9029667369235
 30
0.0
  0
VERTEX
  5
56
330
49
100
AcDbEntity
  8
LAYER_1
 62
   250
100
AcDbVertex
100
AcDb2dVertex
 10
284.9999943731944
 20
127.9029667369235
 30
0.0
  0
VERTEX
  5
57
330
49
100
AcDbEntity
  8
LAYER_1
 62
   250
100
AcDbVertex
100
AcDb2dVertex
 10
284.9999943731944
 20
112.9026796196127
 30
0.0
  0
VERTEX
  5
58
330
49
100
AcDbEntity
  8
LAYER_1
 62
   250
100
AcDbVertex
100
AcDb2dVertex
 10
287.9999740413974
 20
112.9026796196127
 30
0.0
  0
VERTEX
  5
59
330
49
100
AcDbEntity
  8
LAYER_1
 62
   250
100
AcDbVertex
100
AcDb2dVertex
 10
287.9999740413974
 20
97.90271000229379
 30
0.0
  0
VERTEX
  5
5A
330
49
100
AcDbEntity
  8
LAYER_1
 62
   250
100
AcDbVertex
100
AcDb2dVertex
 10
284.9999943731944
 20
97.90271000229379
 30
0.0
  0
VERTEX
  5
5B
330
49
100
AcDbEntity
  8
LAYER_1
 62
   250
100
AcDbVertex
100
AcDb2dVertex
 10
284.9999943731944
 20
82.90277775705209
 30
0.0
  0
SEQEND
  5
5C
330
49
100
AcDbEntity
  8
LAYER_1
 62
   250
  0
POLYLINE
  5
5D
330
45
100
AcDbEntity
  8
LAYER_1
 62
   250
100
AcDb2dPolyline
 66
     1
 10
0.0
 20
0.0
 30
0.0
  0
VERTEX
  5
5E
330
5D
100
AcDbEntity
  8
LAYER_1
 62
   250
100
AcDbVertex
100
AcDb2dVertex
 10
284.9999943731944
 20
217.9029608297212
 30
0.0
  0
VERTEX
  5
5F
330
5D
100
AcDbEntity
  8
LAYER_1
 62
   250
100
AcDbVertex
100
AcDb2dVertex
 10
9.000137219972231
 20
217.9029608297212
 30
0.0
  0
VERTEX
  5
60
330
5D
100
AcDbEntity
  8
LAYER_1
 62
   250
100
AcDbVertex
100
AcDb2dVertex
 10
9.000137219972231
 20
202.9028501012948
 30
0.0
  0
VERTEX
  5
61
330
5D
100
AcDbEntity
  8
LAYER_1
 62
   250
100
AcDbVertex
100
AcDb2dVertex
 10
12.00012416366657
 20
202.9028501012948
 30
0.0
  0
VERTEX
  5
62
330
5D
100
AcDbEntity
  8
LAYER_1
 62
   250
100
AcDbVertex
100
AcDb2dVertex
 10
12.00012416366657
 20
187.9029157617528
 30
0.0
  0
VERTEX
  5
63
330
5D
100
AcDbEntity
  8
LAYER_1
 62
   250
100
AcDbVertex
100
AcDb2dVertex
 10
9.000137219972231
 20
187.9029157617528
 30
0.0
  0
VERTEX
  5
64
330
5D
100
AcDbEntity
  8
LAYER_1
 62
   250
100
AcDbVertex
100
AcDb2dVertex
 10
9.000137219972231
 20
172.9028050333264
 30
0.0
  0
VERTEX
  5
65
330
5D
100
AcDbEntity
  8
LAYER_1
 62
   250
100
AcDbVertex
100
AcDb2dVertex
 10
12.00012416366657
 20
172.9028050333264
 30
0.0
  0
VERTEX
  5
66
330
5D
100
AcDbEntity
  8
LAYER_1
 62
   250
100
AcDbVertex
100
AcDb2dVertex
 10
12.00012416366657
 20
157.9028354160075
 30
0.0
  0
VERTEX
  5
67
330
5D
100
AcDbEntity
  8
LAYER_1
 62
   250
100
AcDbVertex
100
AcDb2dVertex
 10
9.000137219972231
 20
157.9028354160075
 30
0.0
  0
VERTEX
  5
68
330
5D
100
AcDbEntity
  8
LAYER_1
 62
   250
100
AcDbVertex
100
AcDb2dVertex
 10
9.000137219972231
 20
142.9029010764655
 30
0.0
  0
VERTEX
  5
69
330
5D
100
AcDbEntity
  8
LAYER_1
 62
   250
100
AcDbVertex
100
AcDb2dVertex
 10
12.00012416366657
 20
142.9029010764655
 30
0.0
  0
VERTEX
  5
6A
330
5D
100
AcDbEntity
  8
LAYER_1
 62
   250
100
AcDbVertex
100
AcDb2dVertex
 10
12.00012416366657
 20
127.9029667369235
 30
0.0
  0
VERTEX
  5
6B
330
5D
100
AcDbEntity
  8
LAYER_1
 62
   250
100
AcDbVertex
100
AcDb2dVertex
 10
9.000137219972231
 20
127.9029667369235
 30
0.0
  0
VERTEX
  5
6C
330
5D
100
AcDbEntity
  8
LAYER_1
 62
   250
100
AcDbVertex
100
AcDb2dVertex
 10
9.000137219972231
 20
112.9026796196127
 30
0.0
  0
VERTEX
  5
6D
330
5D
100
AcDbEntity
  8
LAYER_1
 62
   250
100
AcDbVertex
100
AcDb2dVertex
 10
12.00012416366657
 20
112.9026796196127
 30
0.0
  0
VERTEX
  5
6E
330
5D
100
AcDbEntity
  8
LAYER_1
 62
   250
100
AcDbVertex
100
AcDb2dVertex
 10
12.00012416366657
 20
97.90271000229379
 30
0.0
  0
VERTEX
  5
6F
330
5D
100
AcDbEntity
  8
LAYER_1
 62
   250
100
AcDbVertex
100
AcDb2dVertex
 10
9.000137219972231
 20
97.90271000229379
 30
0.0
  0
VERTEX
  5
70
330
5D
100
AcDbEntity
  8
LAYER_1
 62
   250
100
AcDbVertex
100
AcDb2dVertex
 10
9.000137219972231
 20
82.90277775705209
 30
0.0
  0
VERTEX
  5
71
330
5D
100
AcDbEntity
  8
LAYER_1
 62
   250
100
AcDbVertex
100
AcDb2dVertex
 10
284.9999943731944
 20
82.90277775705209
 30
0.0
  0
SEQEND
  5
72
330
5D
100
AcDbEntity
  8
LAYER_1
 62
   250
  0
POLYLINE
  5
73
330
45
100
AcDbEntity
  8
LAYER_1
 62
   250
100
AcDb2dPolyline
 66
     1
 10
0.0
 20
0.0
 30
0.0
  0
VERTEX
  5
74
330
73
100
AcDbEntity
  8
LAYER_1
 62
   250
100
AcDbVertex
100
AcDb2dVertex
 10
81.00003348907254
 20
82.90277775705209
 30
0.0
  0
VERTEX
  5
75
330
73
100
AcDbEntity
  8
LAYER_1
 62
   250
100
AcDbVertex
100
AcDb2dVertex
 10
81.00003348907254
 20
97.90271000229379
 30
0.0
  0
VERTEX
  5
76
330
73
100
AcDbEntity
  8
LAYER_1
 62
   250
100
AcDbVertex
100
AcDb2dVertex
 10
78.00004662116413
 20
97.90271000229379
 30
0.0
  0
VERTEX
  5
77
330
73
100
AcDbEntity
  8
LAYER_1
 62
   250
100
AcDbVertex
100
AcDb2dVertex
 10
78.00004662116413
 20
112.9026796196127
 30
0.0
  0
VERTEX
  5
78
330
73
100
AcDbEntity
  8
LAYER_1
 62
   250
100
AcDbVertex
100
AcDb2dVertex
 10
81.00003348907254
 20
112.9026796196127
 30
0.0
  0
VERTEX
  5
79
330
73
100
AcDbEntity
  8
LAYER_1
 62
   250
100
AcDbVertex
100
AcDb2dVertex
 10
81.00003348907254
 20
127.9029667369235
 30
0.0
  0
VERTEX
  5
7A
330
73
100
AcDbEntity
  8
LAYER_1
 62
   250
100
AcDbVertex
100
AcDb2dVertex
 10
78.00004662116413
 20
127.9029667369235
 30
0.0
  0
VERTEX
  5
7B
330
73
100
AcDbEntity
  8
LAYER_1
 62
   250
100
AcDbVertex
100
AcDb2dVertex
 10
78.00004662116413
 20
142.9029010764655
 30
0.0
  0
VERTEX
  5
7C
330
73
100
AcDbEntity
  8
LAYER_1
 62
   250
100
AcDbVertex
100
AcDb2dVertex
 10
81.00003348907254
 20
142.9029010764655
 30
0.0
  0
VERTEX
  5
7D
330
73
100
AcDbEntity
  8
LAYER_1
 62
   250
100
AcDbVertex
100
AcDb2dVertex
 10
81.00003348907254
 20
157.9028354160075
 30
0.0
  0
VERTEX
  5
7E
330
73
100
AcDbEntity
  8
LAYER_1
 62
   250
100
AcDbVertex
100
AcDb2dVertex
 10
78.00004662116413
 20
157.9028354160075
 30
0.0
  0
VERTEX
  5
7F
330
73
100
AcDbEntity
  8
LAYER_1
 62
   250
100
AcDbVertex
100
AcDb2dVertex
 10
78.00004662116413
 20
172.9028050333264
 30
0.0
  0
VERTEX
  5
80
330
73
100
AcDbEntity
  8
LAYER_1
 62
   250
100
AcDbVertex
100
AcDb2dVertex
 10
81.00003348907254
 20
172.9028050333264
 30
0.0
  0
VERTEX
  5
81
330
73
100
AcDbEntity
  8
LAYER_1
 62
   250
100
AcDbVertex
100
AcDb2dVertex
 10
81.00003348907254
 20
187.9029157617528
 30
0.0
  0
VERTEX
  5
82
330
73
100
AcDbEntity
  8
LAYER_1
 62
   250
100
AcDbVertex
100
AcDb2dVertex
 10
78.00004662116413
 20
187.9029157617528
 30
0.0
  0
VERTEX
  5
83
330
73
100
AcDbEntity
  8
LAYER_1
 62
   250
100
AcDbVertex
100
AcDb2dVertex
 10
78.00004662116413
 20
202.9028501012948
 30
0.0
  0
VERTEX
  5
84
330
73
100
AcDbEntity
  8
LAYER_1
 62
   250
100
AcDbVertex
100
AcDb2dVertex
 10
81.00003348907254
 20
202.9028501012948
 30
0.0
  0
VERTEX
  5
85
330
73
100
AcDbEntity
  8
LAYER_1
 62
   250
100
AcDbVertex
100
AcDb2dVertex
 10
81.00003348907254
 20
217.9029608297212
 30
0.0
  0
SEQEND
  5
86
330
73
100
AcDbEntity
  8
LAYER_1
 62
   250
  0
POLYLINE
  5
87
330
45
100
AcDbEntity
  8
LAYER_1
 62
   250
100
AcDb2dPolyline
 66
     1
 10
0.0
 20
0.0
 30
0.0
  0
VERTEX
  5
88
330
87
100
AcDbEntity
  8
LAYER_1
 62
   250
100
AcDbVertex
100
AcDb2dVertex
 10
147.00016791638
 20
217.9029608297212
 30
0.0
  0
VERTEX
  5
89
330
87
100
AcDbEntity
  8
LAYER_1
 62
   250
100
AcDbVertex
100
AcDb2dVertex
 10
147.00016791638
 20
202.9028501012948
 30
0.0
  0
VERTEX
  5
8A
330
87
100
AcDbEntity
  8
LAYER_1
 62
   250
100
AcDbVertex
100
AcDb2dVertex
 10
150.0001547842884
 20
202.9028501012948
 30
0.0
  0
VERTEX
  5
8B
330
87
100
AcDbEntity
  8
LAYER_1
 62
   250
100
AcDbVertex
100
AcDb2dVertex
 10
150.0001547842884
 20
187.9029157617528
 30
0.0
  0
VERTEX
  5
8C
330
87
100
AcDbEntity
  8
LAYER_1
 62
   250
100
AcDbVertex
100
AcDb2dVertex
 10
147.00016791638
 20
187.9029157617528
 30
0.0
  0
VERTEX
  5
8D
330
87
100
AcDbEntity
  8
LAYER_1
 62
   250
100
AcDbVertex
100
AcDb2dVertex
 10
147.00016791638
 20
172.9028050333264
 30
0.0
  0
VERTEX
  5
8E
330
87
100
AcDbEntity
  8
LAYER_1
 62
   250
100
AcDbVertex
100
AcDb2dVertex
 10
150.0001547842884
 20
172.9028050333264
 30
0.0
  0
VERTEX
  5
8F
330
87
100
AcDbEntity
  8
LAYER_1
 62
   250
100
AcDbVertex
100
AcDb2dVertex
 10
150.0001547842884
 20
157.9028354160075
 30
0.0
  0
VERTEX
  5
90
330
87
100
AcDbEntity
  8
LAYER_1
 62
   250
100
AcDbVertex
100
AcDb2dVertex
 10
147.00016791638
 20
157.9028354160075
 30
0.0
  0
VERTEX
  5
91
330
87
100
AcDbEntity
  8
LAYER_1
 62
   250
100
AcDbVertex
100
AcDb2dVertex
 10
147.00016791638
 20
142.9029010764655
 30
0.0
  0
VERTEX
  5
92
330
87
100
AcDbEntity
  8
LAYER_1
 62
   250
100
AcDbVertex
100
AcDb2dVertex
 10
150.0001547842884
 20
142.9029010764655
 30
0.0
  0
VERTEX
  5
93
330
87
100
AcDbEntity
  8
LAYER_1
 62
   250
100
AcDbVertex
100
AcDb2dVertex
 10
150.0001547842884
 20
127.9029667369235
 30
0.0
  0
VERTEX
  5
94
330
87
100
AcDbEntity
  8
LAYER_1
 62
   250
100
AcDbVertex
100
AcDb2dVertex
 10
147.00016791638
 20
127.9029667369235
 30
0.0
  0
VERTEX
  5
95
330
87
100
AcDbEntity
  8
LAYER_1
 62
   250
100
AcDbVertex
100
AcDb2dVertex
 10
147.00016791638
 20
112.9026796196127
 30
0.0
  0
VERTEX
  5
96
330
87
100
AcDbEntity
  8
LAYER_1
 62
   250
100
AcDbVertex
100
AcDb2dVertex
 10
150.0001547842884
 20
112.9026796196127
 30
0.0
  0
VERTEX
  5
97
330
87
100
AcDbEntity
  8
LAYER_1
 62
   250
100
AcDbVertex
100
AcDb2dVertex
 10
150.0001547842884
 20
97.90271000229379
 30
0.0
  0
VERTEX
  5
98
330
87
100
AcDbEntity
  8
LAYER_1
 62
   250
100
AcDbVertex
100
AcDb2dVertex
 10
147.00016791638
 20
97.90271000229379
 30
0.0
  0
VERTEX
  5
99
330
87
100
AcDbEntity
  8
LAYER_1
 62
   250
100
AcDbVertex
100
AcDb2dVertex
 10
147.00016791638
 20
82.90277775705209
 30
0.0
  0
SEQEND
  5
9A
330
87
100
AcDbEntity
  8
LAYER_1
 62
   250
  0
POLYLINE
  5
9B
330
45
100
AcDbEntity
  8
LAYER_1
 62
   250
100
AcDb2dPolyline
 66
     1
 10
0.0
 20
0.0
 30
0.0
  0
VERTEX
  5
9C
330
9B
100
AcDbEntity
  8
LAYER_1
 62
   250
100
AcDbVertex
100
AcDb2dVertex
 10
218.9998880239585
 20
82.90277775705209
 30
0.0
  0
VERTEX
  5
9D
330
9B
100
AcDbEntity
  8
LAYER_1
 62
   250
100
AcDbVertex
100
AcDb2dVertex
 10
218.9998880239585
 20
97.90271000229379
 30
0.0
  0
VERTEX
  5
9E
330
9B
100
AcDbEntity
  8
LAYER_1
 62
   250
100
AcDbVertex
100
AcDb2dVertex
 10
215.9999011560501
 20
97.90271000229379
 30
0.0
  0
VERTEX
  5
9F
330
9B
100
AcDbEntity
  8
LAYER_1
 62
   250
100
AcDbVertex
100
AcDb2dVertex
 10
215.9999011560501
 20
112.9026796196127
 30
0.0
  0
VERTEX
  5
A0
330
9B
100
AcDbEntity
  8
LAYER_1
 62
   250
100
AcDbVertex
100
AcDb2dVertex
 10
218.9998880239585
 20
112.9026796196127
 30
0.0
  0
VERTEX
  5
A1
330
9B
100
AcDbEntity
  8
LAYER_1
 62
   250
100
AcDbVertex
100
AcDb2dVertex
 10
218.9998880239585
 20
127.9029667369235
 30
0.0
  0
VERTEX
  5
A2
330
9B
100
AcDbEntity
  8
LAYER_1
 62
   250
100
AcDbVertex
100
AcDb2dVertex
 10
215.9999011560501
 20
127.9029667369235
 30
0.0
  0
VERTEX
  5
A3
330
9B
100
AcDbEntity
  8
LAYER_1
 62
   250
100
AcDbVertex
100
AcDb2dVertex
 10
215.9999011560501
 20
142.9029010764655
 30
0.0
  0
VERTEX
  5
A4
330
9B
100
AcDbEntity
  8
LAYER_1
 62
   250
100
AcDbVertex
100
AcDb2dVertex
 10
218.9998880239585
 20
142.9029010764655
 30
0.0
  0
VERTEX
  5
A5
330
9B
100
AcDbEntity
  8
LAYER_1
 62
   250
100
AcDbVertex
100
AcDb2dVertex
 10
218.9998880239585
 20
157.9028354160075
 30
0.0
  0
VERTEX
  5
A6
330
9B
100
AcDbEntity
  8
LAYER_1
 62
   250
100
AcDbVertex
100
AcDb2dVertex
 10
215.9999011560501
 20
157.9028354160075
 30
0.0
  0
VERTEX
  5
A7
330
9B
100
AcDbEntity
  8
LAYER_1
 62
   250
100
AcDbVertex
100
AcDb2dVertex
 10
215.9999011560501
 20
172.9028050333264
 30
0.0
  0
VERTEX
  5
A8
330
9B
100
AcDbEntity
  8
LAYER_1
 62
   250
100
AcDbVertex
100
AcDb2dVertex
 10
218.9998880239585
 20
172.9028050333264
 30
0.0
  0
VERTEX
  5
A9
330
9B
100
AcDbEntity
  8
LAYER_1
 62
   250
100
AcDbVertex
100
AcDb2dVertex
 10
218.9998880239585
 20
187.9029157617528
 30
0.0
  0
VERTEX
  5
AA
330
9B
100
AcDbEntity
  8
LAYER_1
 62
   250
100
AcDbVertex
100
AcDb2dVertex
 10
215.9999011560501
 20
187.9029157617528
 30
0.0
  0
VERTEX
  5
AB
330
9B
100
AcDbEntity
  8
LAYER_1
 62
   250
100
AcDbVertex
100
AcDb2dVertex
 10
215.9999011560501
 20
202.9028501012948
 30
0.0
  0
VERTEX
  5
AC
330
9B
100
AcDbEntity
  8
LAYER_1
 62
   250
100
AcDbVertex
100
AcDb2dVertex
 10
218.9998880239585
 20
202.9028501012948
 30
0.0
  0
VERTEX
  5
AD
330
9B
100
AcDbEntity
  8
LAYER_1
 62
   250
100
AcDbVertex
100
AcDb2dVertex
 10
218.9998880239585
 20
217.9029608297212
 30
0.0
  0
SEQEND
  5
AE
330
9B
100
AcDbEntity
  8
LAYER_1
 62
   250
  0
POLYLINE
  5
AF
330
45
100
AcDbEntity
  8
LAYER_1
 62
   250
100
AcDb2dPolyline
 66
     1
 10
0.0
 20
0.0
 30
0.0
  0
VERTEX
  5
B0
330
AF
100
AcDbEntity
  8
LAYER_1
 62
   250
100
AcDbVertex
100
AcDb2dVertex
 10
30.00039860361104
 20
88.90274939856857
 30
0.0
  0
VERTEX
  5
B1
330
AF
100
AcDbEntity
  8
LAYER_1
 62
   250
100
AcDbVertex
100
AcDb2dVertex
 10
30.00039860361104
 20
91.63712988436427
 30
0.0
  0
VERTEX
  5
B2
330
AF
100
AcDbEntity
  8
LAYER_1
 62
   250
100
AcDbVertex
100
AcDb2dVertex
 10
60.00065458036688
 20
91.63712988436427
 30
0.0
  0
VERTEX
  5
B3
330
AF
100
AcDbEntity
  8
LAYER_1
 62
   250
100
AcDbVertex
100
AcDb2dVertex
 10
60.00065458036688
 20
88.90274939856857
 30
0.0
  0
VERTEX
  5
B4
330
AF
100
AcDbEntity
  8
LAYER_1
 62
   250
100
AcDbVertex
100
AcDb2dVertex
 10
30.00039860361104
 20
88.90274939856857
 30
0.0
  0
SEQEND
  5
B5
330
AF
100
AcDbEntity
  8
LAYER_1
 62
   250
  0
POLYLINE
  5
B6
330
45
100
AcDbEntity
  8
LAYER_1
 62
   250
100
AcDb2dPolyline
 66
     1
 10
0.0
 20
0.0
 30
0.0
  0
VERTEX
  5
B7
330
B6
100
AcDbEntity
  8
LAYER_1
 62
   250
100
AcDbVertex
100
AcDb2dVertex
 10
99.00048386317613
 20
88.90274939856857
 30
0.0
  0
VERTEX
  5
B8
330
B6
100
AcDbEntity
  8
LAYER_1
 62
   250
100
AcDbVertex
100
AcDb2dVertex
 10
99.00048386317613
 20
91.90273626647698
 30
0.0
  0
VERTEX
  5
B9
330
B6
100
AcDbEntity
  8
LAYER_1
 62
   250
100
AcDbVertex
100
AcDb2dVertex
 10
129.000387820037
 20
91.90273626647698
 30
0.0
  0
VERTEX
  5
BA
330
B6
100
AcDbEntity
  8
LAYER_1
 62
   250
100
AcDbVertex
100
AcDb2dVertex
 10
129.000387820037
 20
88.90274939856857
 30
0.0
  0
VERTEX
  5
BB
330
B6
100
AcDbEntity
  8
LAYER_1
 62
   250
100
AcDbVertex
100
AcDb2dVertex
 10
99.00048386317613
 20
88.90274939856857
 30
0.0
  0
SEQEND
  5
BC
330
B6
100
AcDbEntity
  8
LAYER_1
 62
   250
  0
POLYLINE
  5
BD
330
45
100
AcDbEntity
  8
LAYER_1
 62
   250
100
AcDb2dPolyline
 66
     1
 10
0.0
 20
0.0
 30
0.0
  0
VERTEX
  5
BE
330
BD
100
AcDbEntity
  8
LAYER_1
 62
   250
100
AcDbVertex
100
AcDb2dVertex
 10
168.0000759917388
 20
88.90274939856857
 30
0.0
  0
VERTEX
  5
BF
330
BD
100
AcDbEntity
  8
LAYER_1
 62
   250
100
AcDbVertex
100
AcDb2dVertex
 10
168.0000759917388
 20
91.63712988436427
 30
0.0
  0
VERTEX
  5
C0
330
BD
100
AcDbEntity
  8
LAYER_1
 62
   250
100
AcDbVertex
100
AcDb2dVertex
 10
198.0002974485916
 20
91.63712988436427
 30
0.0
  0
VERTEX
  5
C1
330
BD
100
AcDbEntity
  8
LAYER_1
 62
   250
100
AcDbVertex
100
AcDb2dVertex
 10
198.0002974485916
 20
88.90274939856857
 30
0.0
  0
VERTEX
  5
C2
330
BD
100
AcDbEntity
  8
LAYER_1
 62
   250
100
AcDbVertex
100
AcDb2dVertex
 10
168.0000759917388
 20
88.90274939856857
 30
0.0
  0
SEQEND
  5
C3
330
BD
100
AcDbEntity
  8
LAYER_1
 62
   250
  0
POLYLINE
  5
C4
330
45
100
AcDbEntity
  8
LAYER_1
 62
   250
100
AcDb2dPolyline
 66
     1
 10
0.0
 20
0.0
 30
0.0
  0
VERTEX
  5
C5
330
C4
100
AcDbEntity
  8
LAYER_1
 62
   250
100
AcDbVertex
100
AcDb2dVertex
 10
237.0001620091777
 20
88.90274939856857
 30
0.0
  0
VERTEX
  5
C6
330
C4
100
AcDbEntity
  8
LAYER_1
 62
   250
100
AcDbVertex
100
AcDb2dVertex
 10
237.0001620091777
 20
91.90273626647698
 30
0.0
  0
VERTEX
  5
C7
330
C4
100
AcDbEntity
  8
LAYER_1
 62
   250
100
AcDbVertex
100
AcDb2dVertex
 10
267.0000659660386
 20
91.90273626647698
 30
0.0
  0
VERTEX
  5
C8
330
C4
100
AcDbEntity
  8
LAYER_1
 62
   250
100
AcDbVertex
100
AcDb2dVertex
 10
267.0000659660386
 20
88.90274939856857
 30
0.0
  0
VERTEX
  5
C9
330
C4
100
AcDbEntity
  8
LAYER_1
 62
   250
100
AcDbVertex
100
AcDb2dVertex
 10
237.0001620091777
 20
88.90274939856857
 30
0.0
  0
SEQEND
  5
CA
330
C4
100
AcDbEntity
  8
LAYER_1
 62
   250
  0
ENDBLK
  5
48
330
45
100
AcDbEntity
  8
0
100
AcDbBlockEnd
  0
BLOCK
  5
D4
330
D2
100
AcDbEntity
  8
0
100
AcDbBlockBegin
  2
BLOCK_4
 70
     0
 10
0.0
 20
0.0
 30
0.0
  3
BLOCK_4
  1

  0
INSERT
  5
D7
330
D2
100
AcDbEntity
  8
LAYER_1
100
AcDbBlockReference
  2
BLOCK_5
 10
0.0
 20
0.0
 30
0.0
  0
ENDBLK
  5
D5
330
D2
100
AcDbEntity
  8
0
100
AcDbBlockEnd
  0
BLOCK
  5
D8
330
D6
100
AcDbEntity
  8
0
100
AcDbBlockBegin
  2
BLOCK_5
 70
     0
 10
0.0
 20
0.0
 30
0.0
  3
BLOCK_5
  1

  0
INSERT
  5
DB
330
D6
100
AcDbEntity
  8
LAYER_1
100
AcDbBlockReference
  2
BLOCK_6
 10
0.0
 20
0.0
 30
0.0
  0
INSERT
  5
173
330
D6
100
AcDbEntity
  8
LAYER_1
100
AcDbBlockReference
  2
BLOCK_9
 10
0.0
 20
0.0
 30
0.0
  0
INSERT
  5
20B
330
D6
100
AcDbEntity
  8
LAYER_1
100
AcDbBlockReference
  2
BLOCK_12
 10
0.0
 20
0.0
 30
0.0
  0
ENDBLK
  5
D9
330
D6
100
AcDbEntity
  8
0
100
AcDbBlockEnd
  0
BLOCK
  5
DC
330
DA
100
AcDbEntity
  8
0
100
AcDbBlockBegin
  2
BLOCK_6
 70
     0
 10
0.0
 20
0.0
 30
0.0
  3
BLOCK_6
  1

  0
INSERT
  5
DF
330
DA
100
AcDbEntity
  8
LAYER_1
100
AcDbBlockReference
  2
BLOCK_7
 10
0.0
 20
0.0
 30
0.0
  0
POLYLINE
  5
16B
330
DA
100
AcDbEntity
  8
LAYER_1
 62
   250
100
AcDb2dPolyline
 66
     1
 10
0.0
 20
0.0
 30
0.0
  0
VERTEX
  5
16C
330
16B
100
AcDbEntity
  8
LAYER_1
 62
   250
100
AcDbVertex
100
AcDb2dVertex
 10
556.2881868053723
 20
80.21146934252383
 30
0.0
  0
VERTEX
  5
16D
330
16B
100
AcDbEntity
  8
LAYER_1
 62
   250
100
AcDbVertex
100
AcDb2dVertex
 10
484.2877593233725
 20
80.21146934252383
 30
0.0
  0
VERTEX
  5
16E
330
16B
100
AcDbEntity
  8
LAYER_1
 62
   250
100
AcDbVertex
100
AcDb2dVertex
 10
484.2877593233725
 20
215.2116545094933
 30
0.0
  0
VERTEX
  5
16F
330
16B
100
AcDbEntity
  8
LAYER_1
 62
   250
100
AcDbVertex
100
AcDb2dVertex
 10
556.2881868053723
 20
215.2116545094933
 30
0.0
  0
VERTEX
  5
170
330
16B
100
AcDbEntity
  8
LAYER_1
 62
   250
100
AcDbVertex
100
AcDb2dVertex
 10
556.2881868053723
 20
80.21146934252383
 30
0.0
  0
SEQEND
  5
171
330
16B
100
AcDbEntity
  8
LAYER_1
 62
   250
  0
ENDBLK
  5
DD
330
DA
100
AcDbEntity
  8
0
100
AcDbBlockEnd
  0
BLOCK
  5
E0
330
DE
100
AcDbEntity
  8
0
100
AcDbBlockBegin
  2
BLOCK_7
 70
     0
 10
0.0
 20
0.0
 30
0.0
  3
BLOCK_7
  1

  0
INSERT
  5
E3
330
DE
100
AcDbEntity
  8
LAYER_1
100
AcDbBlockReference
  2
BLOCK_8
 10
0.0
 20
0.0
 30
0.0
  0
POLYLINE
  5
164
330
DE
100
AcDbEntity
  8
LAYER_1
 62
   250
100
AcDb2dPolyline
 66
     1
 10
0.0
 20
0.0
 30
0.0
  0
VERTEX
  5
165
330
164
100
AcDbEntity
  8
LAYER_1
 62
   250
100
AcDbVertex
100
AcDb2dVertex
 10
492.5043065435404
 20
147.0035898607371
 30
0.0
  0
VERTEX
  5
166
330
164
100
AcDbEntity
  8
LAYER_1
 62
   250
100
AcDbVertex
100
AcDb2dVertex
 10
512.7208015384862
 20
147.0035898607371
 30
0.0
  0
VERTEX
  5
167
330
164
100
AcDbEntity
  8
LAYER_1
 62
   250
100
AcDbVertex
100
AcDb2dVertex
 10
512.7208015384862
 20
170.457808151259
 30
0.0
  0
VERTEX
  5
168
330
164
100
AcDbEntity
  8
LAYER_1
 62
   250
100
AcDbVertex
100
AcDb2dVertex
 10
492.5043065435404
 20
170.457808151259
 30
0.0
  0
VERTEX
  5
169
330
164
100
AcDbEntity
  8
LAYER_1
 62
   250
100
AcDbVertex
100
AcDb2dVertex
 10
492.5043065435404
 20
147.0035898607371
 30
0.0
  0
SEQEND
  5
16A
330
164
100
AcDbEntity
  8
LAYER_1
 62
   250
  0
ENDBLK
  5
E1
330
DE
100
AcDbEntity
  8
0
100
AcDbBlockEnd
  0
BLOCK
  5
E4
330
E2
100
AcDbEntity
  8
0
100
AcDbBlockBegin
  2
BLOCK_8
 70
     0
 10
0.0
 20
0.0
 30
0.0
  3
BLOCK_8
  1

  0
POLYLINE
  5
E6
330
E2
100
AcDbEntity
  8
LAYER_1
 62
   250
100
AcDb2dPolyline
 66
     1
 10
0.0
 20
0.0
 30
0.0
  0
VERTEX
  5
E7
330
E6
100
AcDbEntity
  8
LAYER_1
 62
   250
100
AcDbVertex
100
AcDb2dVertex
 10
498.2211057087782
 20
187.4697046616938
 30
0.0
  0
VERTEX
  5
E8
330
E6
100
AcDbEntity
  8
LAYER_1
 62
   250
100
AcDbVertex
100
AcDb2dVertex
 10
492.5043065435404
 20
187.4697046616938
 30
0.0
  0
VERTEX
  5
E9
330
E6
100
AcDbEntity
  8
LAYER_1
 62
   250
100
AcDbVertex
100
AcDb2dVertex
 10
492.5043065435404
 20
197.9730982826188
 30
0.0
  0
VERTEX
  5
EA
330
E6
100
AcDbEntity
  8
LAYER_1
 62
   250
100
AcDbVertex
100
AcDb2dVertex
 10
498.2211057087782
 20
197.9730982826188
 30
0.0
  0
VERTEX
  5
EB
330
E6
100
AcDbEntity
  8
LAYER_1
 62
   250
100
AcDbVertex
100
AcDb2dVertex
 10
498.2211057087782
 20
187.4697046616938
 30
0.0
  0
SEQEND
  5
EC
330
E6
100
AcDbEntity
  8
LAYER_1
 62
   250
  0
POLYLINE
  5
ED
330
E2
100
AcDbEntity
  8
LAYER_1
 62
   250
100
AcDb2dPolyline
 66
     1
 10
0.0
 20
0.0
 30
0.0
  0
VERTEX
  5
EE
330
ED
100
AcDbEntity
  8
LAYER_1
 62
   250
100
AcDbVertex
100
AcDb2dVertex
 10
505.4709712625209
 20
187.4697046616938
 30
0.0
  0
VERTEX
  5
EF
330
ED
100
AcDbEntity
  8
LAYER_1
 62
   250
100
AcDbVertex
100
AcDb2dVertex
 10
499.7541720972838
 20
187.4697046616938
 30
0.0
  0
VERTEX
  5
F0
330
ED
100
AcDbEntity
  8
LAYER_1
 62
   250
100
AcDbVertex
100
AcDb2dVertex
 10
499.7541720972838
 20
197.9730982826188
 30
0.0
  0
VERTEX
  5
F1
330
ED
100
AcDbEntity
  8
LAYER_1
 62
   250
100
AcDbVertex
100
AcDb2dVertex
 10
505.4709712625209
 20
197.9730982826188
 30
0.0
  0
VERTEX
  5
F2
330
ED
100
AcDbEntity
  8
LAYER_1
 62
   250
100
AcDbVertex
100
AcDb2dVertex
 10
505.4709712625209
 20
187.4697046616938
 30
0.0
  0
SEQEND
  5
F3
330
ED
100
AcDbEntity
  8
LAYER_1
 62
   250
  0
POLYLINE
  5
F4
330
E2
100
AcDbEntity
  8
LAYER_1
 62
   250
100
AcDb2dPolyline
 66
     1
 10
0.0
 20
0.0
 30
0.0
  0
VERTEX
  5
F5
330
F4
100
AcDbEntity
  8
LAYER_1
 62
   250
100
AcDbVertex
100
AcDb2dVertex
 10
512.7173795940431
 20
187.4697046616938
 30
0.0
  0
VERTEX
  5
F6
330
F4
100
AcDbEntity
  8
LAYER_1
 62
   250
100
AcDbVertex
100
AcDb2dVertex
 10
507.0005804288052
 20
187.4697046616938
 30
0.0
  0
VERTEX
  5
F7
330
F4
100
AcDbEntity
  8
LAYER_1
 62
   250
100
AcDbVertex
100
AcDb2dVertex
 10
507.0005804288052
 20
197.9730982826188
 30
0.0
  0
VERTEX
  5
F8
330
F4
100
AcDbEntity
  8
LAYER_1
 62
   250
100
AcDbVertex
100
AcDb2dVertex
 10
512.7173795940431
 20
197.9730982826188
 30
0.0
  0
VERTEX
  5
F9
330
F4
100
AcDbEntity
  8
LAYER_1
 62
   250
100
AcDbVertex
100
AcDb2dVertex
 10
512.7173795940431
 20
187.4697046616938
 30
0.0
  0
SEQEND
  5
FA
330
F4
100
AcDbEntity
  8
LAYER_1
 62
   250
  0
POLYLINE
  5
FB
330
E2
100
AcDbEntity
  8
LAYER_1
 62
   250
100
AcDb2dPolyline
 66
     1
 10
0.0
 20
0.0
 30
0.0
  0
VERTEX
  5
FC
330
FB
100
AcDbEntity
  8
LAYER_1
 62
   250
100
AcDbVertex
100
AcDb2dVertex
 10
498.2211057087782
 20
175.4966035782642
 30
0.0
  0
VERTEX
  5
FD
330
FB
100
AcDbEntity
  8
LAYER_1
 62
   250
100
AcDbVertex
100
AcDb2dVertex
 10
492.5043065435404
 20
175.4966035782642
 30
0.0
  0
VERTEX
  5
FE
330
FB
100
AcDbEntity
  8
LAYER_1
 62
   250
100
AcDbVertex
100
AcDb2dVertex
 10
492.5043065435404
 20
185.9999971991892
 30
0.0
  0
VERTEX
  5
FF
330
FB
100
AcDbEntity
  8
LAYER_1
 62
   250
100
AcDbVertex
100
AcDb2dVertex
 10
498.2211057087782
 20
185.9999971991892
 30
0.0
  0
VERTEX
  5
100
330
FB
100
AcDbEntity
  8
LAYER_1
 62
   250
100
AcDbVertex
100
AcDb2dVertex
 10
498.2211057087782
 20
175.4966035782642
 30
0.0
  0
SEQEND
  5
101
330
FB
100
AcDbEntity
  8
LAYER_1
 62
   250
  0
POLYLINE
  5
102
330
E2
100
AcDbEntity
  8
LAYER_1
 62
   250
100
AcDb2dPolyline
 66
     1
 10
0.0
 20
0.0
 30
0.0
  0
VERTEX
  5
103
330
102
100
AcDbEntity
  8
LAYER_1
 62
   250
100
AcDbVertex
100
AcDb2dVertex
 10
505.4709712625209
 20
175.4966035782642
 30
0.0
  0
VERTEX
  5
104
330
102
100
AcDbEntity
  8
LAYER_1
 62
   250
100
AcDbVertex
100
AcDb2dVertex
 10
499.7541720972838
 20
175.4966035782642
 30
0.0
  0
VERTEX
  5
105
330
102
100
AcDbEntity
  8
LAYER_1
 62
   250
100
AcDbVertex
100
AcDb2dVertex
 10
499.7541720972838
 20
185.9999971991892
 30
0.0
  0
VERTEX
  5
106
330
102
100
AcDbEntity
  8
LAYER_1
 62
   250
100
AcDbVertex
100
AcDb2dVertex
 10
505.4709712625209
 20
185.9999971991892
 30
0.0
  0
VERTEX
  5
107
330
102
100
AcDbEntity
  8
LAYER_1
 62
   250
100
AcDbVertex
100
AcDb2dVertex
 10
505.4709712625209
 20
175.4966035782642
 30
0.0
  0
SEQEND
  5
108
330
102
100
AcDbEntity
  8
LAYER_1
 62
   250
  0
POLYLINE
  5
109
330
E2
100
AcDbEntity
  8
LAYER_1
 62
   250
100
AcDb2dPolyline
 66
     1
 10
0.0
 20
0.0
 30
0.0
  0
VERTEX
  5
10A
330
109
100
AcDbEntity
  8
LAYER_1
 62
   250
100
AcDbVertex
100
AcDb2dVertex
 10
512.7173795940431
 20
175.4966035782642
 30
0.0
  0
VERTEX
  5
10B
330
109
100
AcDbEntity
  8
LAYER_1
 62
   250
100
AcDbVertex
100
AcDb2dVertex
 10
507.0005804288052
 20
175.4966035782642
 30
0.0
  0
VERTEX
  5
10C
330
109
100
AcDbEntity
  8
LAYER_1
 62
   250
100
AcDbVertex
100
AcDb2dVertex
 10
507.0005804288052
 20
185.9999971991892
 30
0.0
  0
VERTEX
  5
10D
330
109
100
AcDbEntity
  8
LAYER_1
 62
   250
100
AcDbVertex
100
AcDb2dVertex
 10
512.7173795940431
 20
185.9999971991892
 30
0.0
  0
VERTEX
  5
10E
330
109
100
AcDbEntity
  8
LAYER_1
 62
   250
100
AcDbVertex
100
AcDb2dVertex
 10
512.7173795940431
 20
175.4966035782642
 30
0.0
  0
SEQEND
  5
10F
330
109
100
AcDbEntity
  8
LAYER_1
 62
   250
  0
POLYLINE
  5
110
330
E2
100
AcDbEntity
  8
LAYER_1
 62
   250
100
AcDb2dPolyline
 66
     1
 10
0.0
 20
0.0
 30
0.0
  0
VERTEX
  5
111
330
110
100
AcDbEntity
  8
LAYER_1
 62
   250
100
AcDbVertex
100
AcDb2dVertex
 10
512.7173795940431
 20
119.607856115216
 30
0.0
  0
VERTEX
  5
112
330
110
100
AcDbEntity
  8
LAYER_1
 62
   250
100
AcDbVertex
100
AcDb2dVertex
 10
492.5043065435404
 20
119.607856115216
 30
0.0
  0
VERTEX
  5
113
330
110
100
AcDbEntity
  8
LAYER_1
 62
   250
100
AcDbVertex
100
AcDb2dVertex
 10
492.5043065435404
 20
143.0617216279692
 30
0.0
  0
VERTEX
  5
114
330
110
100
AcDbEntity
  8
LAYER_1
 62
   250
100
AcDbVertex
100
AcDb2dVertex
 10
512.7173795940431
 20
143.0617216279692
 30
0.0
  0
VERTEX
  5
115
330
110
100
AcDbEntity
  8
LAYER_1
 62
   250
100
AcDbVertex
100
AcDb2dVertex
 10
512.7173795940431
 20
119.607856115216
 30
0.0
  0
SEQEND
  5
116
330
110
100
AcDbEntity
  8
LAYER_1
 62
   250
  0
POLYLINE
  5
117
330
E2
100
AcDbEntity
  8
LAYER_1
 62
   250
100
AcDb2dPolyline
 66
     1
 10
0.0
 20
0.0
 30
0.0
  0
VERTEX
  5
118
330
117
100
AcDbEntity
  8
LAYER_1
 62
   250
100
AcDbVertex
100
AcDb2dVertex
 10
512.7173795940431
 20
92.21141681415743
 30
0.0
  0
VERTEX
  5
119
330
117
100
AcDbEntity
  8
LAYER_1
 62
   250
100
AcDbVertex
100
AcDb2dVertex
 10
492.5043065435404
 20
92.21141681415743
 30
0.0
  0
VERTEX
  5
11A
330
117
100
AcDbEntity
  8
LAYER_1
 62
   250
100
AcDbVertex
100
AcDb2dVertex
 10
492.5043065435404
 20
115.6615076047847
 30
0.0
  0
VERTEX
  5
11B
330
117
100
AcDbEntity
  8
LAYER_1
 62
   250
100
AcDbVertex
100
AcDb2dVertex
 10
512.7173795940431
 20
115.6615076047847
 30
0.0
  0
VERTEX
  5
11C
330
117
100
AcDbEntity
  8
LAYER_1
 62
   250
100
AcDbVertex
100
AcDb2dVertex
 10
512.7173795940431
 20
92.21141681415743
 30
0.0
  0
SEQEND
  5
11D
330
117
100
AcDbEntity
  8
LAYER_1
 62
   250
  0
POLYLINE
  5
11E
330
E2
100
AcDbEntity
  8
LAYER_1
 62
   250
100
AcDb2dPolyline
 66
     1
 10
0.0
 20
0.0
 30
0.0
  0
VERTEX
  5
11F
330
11E
100
AcDbEntity
  8
LAYER_1
 62
   250
100
AcDbVertex
100
AcDb2dVertex
 10
542.3513831977455
 20
187.4697046616938
 30
0.0
  0
VERTEX
  5
120
330
11E
100
AcDbEntity
  8
LAYER_1
 62
   250
100
AcDbVertex
100
AcDb2dVertex
 10
548.0716395852046
 20
187.4697046616938
 30
0.0
  0
VERTEX
  5
121
330
11E
100
AcDbEntity
  8
LAYER_1
 62
   250
100
AcDbVertex
100
AcDb2dVertex
 10
548.0716395852046
 20
197.9730982826188
 30
0.0
  0
VERTEX
  5
122
330
11E
100
AcDbEntity
  8
LAYER_1
 62
   250
100
AcDbVertex
100
AcDb2dVertex
 10
542.3513831977455
 20
197.9730982826188
 30
0.0
  0
VERTEX
  5
123
330
11E
100
AcDbEntity
  8
LAYER_1
 62
   250
100
AcDbVertex
100
AcDb2dVertex
 10
542.3513831977455
 20
187.4697046616938
 30
0.0
  0
SEQEND
  5
124
330
11E
100
AcDbEntity
  8
LAYER_1
 62
   250
  0
POLYLINE
  5
125
330
E2
100
AcDbEntity
  8
LAYER_1
 62
   250
100
AcDb2dPolyline
 66
     1
 10
0.0
 20
0.0
 30
0.0
  0
VERTEX
  5
126
330
125
100
AcDbEntity
  8
LAYER_1
 62
   250
100
AcDbVertex
100
AcDb2dVertex
 10
535.104974866224
 20
187.4697046616938
 30
0.0
  0
VERTEX
  5
127
330
125
100
AcDbEntity
  8
LAYER_1
 62
   250
100
AcDbVertex
100
AcDb2dVertex
 10
540.8217740314611
 20
187.4697046616938
 30
0.0
  0
VERTEX
  5
128
330
125
100
AcDbEntity
  8
LAYER_1
 62
   250
100
AcDbVertex
100
AcDb2dVertex
 10
540.8217740314611
 20
197.9730982826188
 30
0.0
  0
VERTEX
  5
129
330
125
100
AcDbEntity
  8
LAYER_1
 62
   250
100
AcDbVertex
100
AcDb2dVertex
 10
535.104974866224
 20
197.9730982826188
 30
0.0
  0
VERTEX
  5
12A
330
125
100
AcDbEntity
  8
LAYER_1
 62
   250
100
AcDbVertex
100
AcDb2dVertex
 10
535.104974866224
 20
187.4697046616938
 30
0.0
  0
SEQEND
  5
12B
330
125
100
AcDbEntity
  8
LAYER_1
 62
   250
  0
POLYLINE
  5
12C
330
E2
100
AcDbEntity
  8
LAYER_1
 62
   250
100
AcDb2dPolyline
 66
     1
 10
0.0
 20
0.0
 30
0.0
  0
VERTEX
  5
12D
330
12C
100
AcDbEntity
  8
LAYER_1
 62
   250
100
AcDbVertex
100
AcDb2dVertex
 10
527.8551093124805
 20
187.4697046616938
 30
0.0
  0
VERTEX
  5
12E
330
12C
100
AcDbEntity
  8
LAYER_1
 62
   250
100
AcDbVertex
100
AcDb2dVertex
 10
533.5753656999397
 20
187.4697046616938
 30
0.0
  0
VERTEX
  5
12F
330
12C
100
AcDbEntity
  8
LAYER_1
 62
   250
100
AcDbVertex
100
AcDb2dVertex
 10
533.5753656999397
 20
197.9730982826188
 30
0.0
  0
VERTEX
  5
130
330
12C
100
AcDbEntity
  8
LAYER_1
 62
   250
100
AcDbVertex
100
AcDb2dVertex
 10
527.8551093124805
 20
197.9730982826188
 30
0.0
  0
VERTEX
  5
131
330
12C
100
AcDbEntity
  8
LAYER_1
 62
   250
100
AcDbVertex
100
AcDb2dVertex
 10
527.8551093124805
 20
187.4697046616938
 30
0.0
  0
SEQEND
  5
132
330
12C
100
AcDbEntity
  8
LAYER_1
 62
   250
  0
POLYLINE
  5
133
330
E2
100
AcDbEntity
  8
LAYER_1
 62
   250
100
AcDb2dPolyline
 66
     1
 10
0.0
 20
0.0
 30
0.0
  0
VERTEX
  5
134
330
133
100
AcDbEntity
  8
LAYER_1
 62
   250
100
AcDbVertex
100
AcDb2dVertex
 10
542.3513831977455
 20
175.4966035782642
 30
0.0
  0
VERTEX
  5
135
330
133
100
AcDbEntity
  8
LAYER_1
 62
   250
100
AcDbVertex
100
AcDb2dVertex
 10
548.0716395852046
 20
175.4966035782642
 30
0.0
  0
VERTEX
  5
136
330
133
100
AcDbEntity
  8
LAYER_1
 62
   250
100
AcDbVertex
100
AcDb2dVertex
 10
548.0716395852046
 20
185.9999971991892
 30
0.0
  0
VERTEX
  5
137
330
133
100
AcDbEntity
  8
LAYER_1
 62
   250
100
AcDbVertex
100
AcDb2dVertex
 10
542.3513831977455
 20
185.9999971991892
 30
0.0
  0
VERTEX
  5
138
330
133
100
AcDbEntity
  8
LAYER_1
 62
   250
100
AcDbVertex
100
AcDb2dVertex
 10
542.3513831977455
 20
175.4966035782642
 30
0.0
  0
SEQEND
  5
139
330
133
100
AcDbEntity
  8
LAYER_1
 62
   250
  0
POLYLINE
  5
13A
330
E2
100
AcDbEntity
  8
LAYER_1
 62
   250
100
AcDb2dPolyline
 66
     1
 10
0.0
 20
0.0
 30
0.0
  0
VERTEX
  5
13B
330
13A
100
AcDbEntity
  8
LAYER_1
 62
   250
100
AcDbVertex
100
AcDb2dVertex
 10
535.104974866224
 20
175.4966035782642
 30
0.0
  0
VERTEX
  5
13C
330
13A
100
AcDbEntity
  8
LAYER_1
 62
   250
100
AcDbVertex
100
AcDb2dVertex
 10
540.8217740314611
 20
175.4966035782642
 30
0.0
  0
VERTEX
  5
13D
330
13A
100
AcDbEntity
  8
LAYER_1
 62
   250
100
AcDbVertex
100
AcDb2dVertex
 10
540.8217740314611
 20
185.9999971991892
 30
0.0
  0
VERTEX
  5
13E
330
13A
100
AcDbEntity
  8
LAYER_1
 62
   250
100
AcDbVertex
100
AcDb2dVertex
 10
535.104974866224
 20
185.9999971991892
 30
0.0
  0
VERTEX
  5
13F
330
13A
100
AcDbEntity
  8
LAYER_1
 62
   250
100
AcDbVertex
100
AcDb2dVertex
 10
535.104974866224
 20
175.4966035782642
 30
0.0
  0
SEQEND
  5
140
330
13A
100
AcDbEntity
  8
LAYER_1
 62
   250
  0
POLYLINE
  5
141
330
E2
100
AcDbEntity
  8
LAYER_1
 62
   250
100
AcDb2dPolyline
 66
     1
 10
0.0
 20
0.0
 30
0.0
  0
VERTEX
  5
142
330
141
100
AcDbEntity
  8
LAYER_1
 62
   250
100
AcDbVertex
100
AcDb2dVertex
 10
527.8551093124805
 20
175.4966035782642
 30
0.0
  0
VERTEX
  5
143
330
141
100
AcDbEntity
  8
LAYER_1
 62
   250
100
AcDbVertex
100
AcDb2dVertex
 10
533.5753656999397
 20
175.4966035782642
 30
0.0
  0
VERTEX
  5
144
330
141
100
AcDbEntity
  8
LAYER_1
 62
   250
100
AcDbVertex
100
AcDb2dVertex
 10
533.5753656999397
 20
185.9999971991892
 30
0.0
  0
VERTEX
  5
145
330
141
100
AcDbEntity
  8
LAYER_1
 62
   250
100
AcDbVertex
100
AcDb2dVertex
 10
527.8551093124805
 20
185.9999971991892
 30
0.0
  0
VERTEX
  5
146
330
141
100
AcDbEntity
  8
LAYER_1
 62
   250
100
AcDbVertex
100
AcDb2dVertex
 10
527.8551093124805
 20
175.4966035782642
 30
0.0
  0
SEQEND
  5
147
330
141
100
AcDbEntity
  8
LAYER_1
 62
   250
  0
POLYLINE
  5
148
330
E2
100
AcDbEntity
  8
LAYER_1
 62
   250
100
AcDb2dPolyline
 66
     1
 10
0.0
 20
0.0
 30
0.0
  0
VERTEX
  5
149
330
148
100
AcDbEntity
  8
LAYER_1
 62
   250
100
AcDbVertex
100
AcDb2dVertex
 10
527.8551093124805
 20
119.607856115216
 30
0.0
  0
VERTEX
  5
14A
330
148
100
AcDbEntity
  8
LAYER_1
 62
   250
100
AcDbVertex
100
AcDb2dVertex
 10
548.0716395852046
 20
119.607856115216
 30
0.0
  0
VERTEX
  5
14B
330
148
100
AcDbEntity
  8
LAYER_1
 62
   250
100
AcDbVertex
100
AcDb2dVertex
 10
548.0716395852046
 20
143.0617216279692
 30
0.0
  0
VERTEX
  5
14C
330
148
100
AcDbEntity
  8
LAYER_1
 62
   250
100
AcDbVertex
100
AcDb2dVertex
 10
527.8551093124805
 20
143.0617216279692
 30
0.0
  0
VERTEX
  5
14D
330
148
100
AcDbEntity
  8
LAYER_1
 62
   250
100
AcDbVertex
100
AcDb2dVertex
 10
527.8551093124805
 20
119.607856115216
 30
0.0
  0
SEQEND
  5
14E
330
148
100
AcDbEntity
  8
LAYER_1
 62
   250
  0
POLYLINE
  5
14F
330
E2
100
AcDbEntity
  8
LAYER_1
 62
   250
100
AcDb2dPolyline
 66
     1
 10
0.0
 20
0.0
 30
0.0
  0
VERTEX
  5
150
330
14F
100
AcDbEntity
  8
LAYER_1
 62
   250
100
AcDbVertex
100
AcDb2dVertex
 10
527.8551093124805
 20
92.21141681415743
 30
0.0
  0
VERTEX
  5
151
330
14F
100
AcDbEntity
  8
LAYER_1
 62
   250
100
AcDbVertex
100
AcDb2dVertex
 10
548.0716395852046
 20
92.21141681415743
 30
0.0
  0
VERTEX
  5
152
330
14F
100
AcDbEntity
  8
LAYER_1
 62
   250
100
AcDbVertex
100
AcDb2dVertex
 10
548.0716395852046
 20
115.6615076047847
 30
0.0
  0
VERTEX
  5
153
330
14F
100
AcDbEntity
  8
LAYER_1
 62
   250
100
AcDbVertex
100
AcDb2dVertex
 10
527.8551093124805
 20
115.6615076047847
 30
0.0
  0
VERTEX
  5
154
330
14F
100
AcDbEntity
  8
LAYER_1
 62
   250
100
AcDbVertex
100
AcDb2dVertex
 10
527.8551093124805
 20
92.21141681415743
 30
0.0
  0
SEQEND
  5
155
330
14F
100
AcDbEntity
  8
LAYER_1
 62
   250
  0
POLYLINE
  5
156
330
E2
100
AcDbEntity
  8
LAYER_1
 62
   250
100
AcDb2dPolyline
 66
     1
 10
0.0
 20
0.0
 30
0.0
  0
VERTEX
  5
157
330
156
100
AcDbEntity
  8
LAYER_1
 62
   250
100
AcDbVertex
100
AcDb2dVertex
 10
527.8551093124805
 20
147.0035898607371
 30
0.0
  0
VERTEX
  5
158
330
156
100
AcDbEntity
  8
LAYER_1
 62
   250
100
AcDbVertex
100
AcDb2dVertex
 10
548.0716395852046
 20
147.0035898607371
 30
0.0
  0
VERTEX
  5
159
330
156
100
AcDbEntity
  8
LAYER_1
 62
   250
100
AcDbVertex
100
AcDb2dVertex
 10
548.0716395852046
 20
170.457808151259
 30
0.0
  0
VERTEX
  5
15A
330
156
100
AcDbEntity
  8
LAYER_1
 62
   250
100
AcDbVertex
100
AcDb2dVertex
 10
527.8551093124805
 20
170.457808151259
 30
0.0
  0
VERTEX
  5
15B
330
156
100
AcDbEntity
  8
LAYER_1
 62
   250
100
AcDbVertex
100
AcDb2dVertex
 10
527.8551093124805
 20
147.0035898607371
 30
0.0
  0
SEQEND
  5
15C
330
156
100
AcDbEntity
  8
LAYER_1
 62
   250
  0
POLYLINE
  5
15D
330
E2
100
AcDbEntity
  8
LAYER_1
 62
   250
100
AcDb2dPolyline
 66
     1
 10
0.0
 20
0.0
 30
0.0
  0
VERTEX
  5
15E
330
15D
100
AcDbEntity
  8
LAYER_1
 62
   250
100
AcDbVertex
100
AcDb2dVertex
 10
521.2605284807962
 20
92.21141681415743
 30
0.0
  0
VERTEX
  5
15F
330
15D
100
AcDbEntity
  8
LAYER_1
 62
   250
100
AcDbVertex
100
AcDb2dVertex
 10
519.3160879257267
 20
92.21141681415743
 30
0.0
  0
VERTEX
  5
160
330
15D
100
AcDbEntity
  8
LAYER_1
 62
   250
100
AcDbVertex
100
AcDb2dVertex
 10
519.3160879257267
 20
197.9730982826188
 30
0.0
  0
VERTEX
  5
161
330
15D
100
AcDbEntity
  8
LAYER_1
 62
   250
100
AcDbVertex
100
AcDb2dVertex
 10
521.2605284807962
 20
197.9730982826188
 30
0.0
  0
VERTEX
  5
162
330
15D
100
AcDbEntity
  8
LAYER_1
 62
   250
100
AcDbVertex
100
AcDb2dVertex
 10
521.2605284807962
 20
92.21141681415743
 30
0.0
  0
SEQEND
  5
163
330
15D
100
AcDbEntity
  8
LAYER_1
 62
   250
  0
ENDBLK
  5
E5
330
E2
100
AcDbEntity
  8
0
100
AcDbBlockEnd
  0
BLOCK
  5
174
330
172
100
AcDbEntity
  8
0
100
AcDbBlockBegin
  2
BLOCK_9
 70
     0
 10
0.0
 20
0.0
 30
0.0
  3
BLOCK_9
  1

  0
INSERT
  5
177
330
172
100
AcDbEntity
  8
LAYER_1
100
AcDbBlockReference
  2
BLOCK_10
 10
0.0
 20
0.0
 30
0.0
  0
POLYLINE
  5
203
330
172
100
AcDbEntity
  8
LAYER_1
 62
   250
100
AcDb2dPolyline
 66
     1
 10
0.0
 20
0.0
 30
0.0
  0
VERTEX
  5
204
330
203
100
AcDbEntity
  8
LAYER_1
 62
   250
100
AcDbVertex
100
AcDb2dVertex
 10
406.2876754539836
 20
80.21146934252383
 30
0.0
  0
VERTEX
  5
205
330
203
100
AcDbEntity
  8
LAYER_1
 62
   250
100
AcDbVertex
100
AcDb2dVertex
 10
334.2879450827151
 20
80.21146934252383
 30
0.0
  0
VERTEX
  5
206
330
203
100
AcDbEntity
  8
LAYER_1
 62
   250
100
AcDbVertex
100
AcDb2dVertex
 10
334.2879450827151
 20
215.2116545094933
 30
0.0
  0
VERTEX
  5
207
330
203
100
AcDbEntity
  8
LAYER_1
 62
   250
100
AcDbVertex
100
AcDb2dVertex
 10
406.2876754539836
 20
215.2116545094933
 30
0.0
  0
VERTEX
  5
208
330
203
100
AcDbEntity
  8
LAYER_1
 62
   250
100
AcDbVertex
100
AcDb2dVertex
 10
406.2876754539836
 20
80.21146934252383
 30
0.0
  0
SEQEND
  5
209
330
203
100
AcDbEntity
  8
LAYER_1
 62
   250
  0
ENDBLK
  5
175
330
172
100
AcDbEntity
  8
0
100
AcDbBlockEnd
  0
BLOCK
  5
178
330
176
100
AcDbEntity
  8
0
100
AcDbBlockBegin
  2
BLOCK_10
 70
     0
 10
0.0
 20
0.0
 30
0.0
  3
BLOCK_10
  1

  0
INSERT
  5
17B
330
176
100
AcDbEntity
  8
LAYER_1
100
AcDbBlockReference
  2
BLOCK_11
 10
0.0
 20
0.0
 30
0.0
  0
POLYLINE
  5
1FC
330
176
100
AcDbEntity
  8
LAYER_1
 62
   250
100
AcDb2dPolyline
 66
     1
 10
0.0
 20
0.0
 30
0.0
  0
VERTEX
  5
1FD
330
1FC
100
AcDbEntity
  8
LAYER_1
 62
   250
100
AcDbVertex
100
AcDb2dVertex
 10
342.5038304699298
 20
147.0035898607371
 30
0.0
  0
VERTEX
  5
1FE
330
1FC
100
AcDbEntity
  8
LAYER_1
 62
   250
100
AcDbVertex
100
AcDb2dVertex
 10
362.7203254648756
 20
147.0035898607371
 30
0.0
  0
VERTEX
  5
1FF
330
1FC
100
AcDbEntity
  8
LAYER_1
 62
   250
100
AcDbVertex
100
AcDb2dVertex
 10
362.7203254648756
 20
170.457808151259
 30
0.0
  0
VERTEX
  5
200
330
1FC
100
AcDbEntity
  8
LAYER_1
 62
   250
100
AcDbVertex
100
AcDb2dVertex
 10
342.5038304699298
 20
170.457808151259
 30
0.0
  0
VERTEX
  5
201
330
1FC
100
AcDbEntity
  8
LAYER_1
 62
   250
100
AcDbVertex
100
AcDb2dVertex
 10
342.5038304699298
 20
147.0035898607371
 30
0.0
  0
SEQEND
  5
202
330
1FC
100
AcDbEntity
  8
LAYER_1
 62
   250
  0
ENDBLK
  5
179
330
176
100
AcDbEntity
  8
0
100
AcDbBlockEnd
  0
BLOCK
  5
17C
330
17A
100
AcDbEntity
  8
0
100
AcDbBlockBegin
  2
BLOCK_11
 70
     0
 10
0.0
 20
0.0
 30
0.0
  3
BLOCK_11
  1

  0
POLYLINE
  5
17E
330
17A
100
AcDbEntity
  8
LAYER_1
 62
   250
100
AcDb2dPolyline
 66
     1
 10
0.0
 20
0.0
 30
0.0
  0
VERTEX
  5
17F
330
17E
100
AcDbEntity
  8
LAYER_1
 62
   250
100
AcDbVertex
100
AcDb2dVertex
 10
348.2205943573894
 20
187.4697046616938
 30
0.0
  0
VERTEX
  5
180
330
17E
100
AcDbEntity
  8
LAYER_1
 62
   250
100
AcDbVertex
100
AcDb2dVertex
 10
342.5038304699298
 20
187.4697046616938
 30
0.0
  0
VERTEX
  5
181
330
17E
100
AcDbEntity
  8
LAYER_1
 62
   250
100
AcDbVertex
100
AcDb2dVertex
 10
342.5038304699298
 20
197.9730982826188
 30
0.0
  0
VERTEX
  5
182
330
17E
100
AcDbEntity
  8
LAYER_1
 62
   250
100
AcDbVertex
100
AcDb2dVertex
 10
348.2205943573894
 20
197.9730982826188
 30
0.0
  0
VERTEX
  5
183
330
17E
100
AcDbEntity
  8
LAYER_1
 62
   250
100
AcDbVertex
100
AcDb2dVertex
 10
348.2205943573894
 20
187.4697046616938
 30
0.0
  0
SEQEND
  5
184
330
17E
100
AcDbEntity
  8
LAYER_1
 62
   250
  0
POLYLINE
  5
185
330
17A
100
AcDbEntity
  8
LAYER_1
 62
   250
100
AcDb2dPolyline
 66
     1
 10
0.0
 20
0.0
 30
0.0
  0
VERTEX
  5
186
330
185
100
AcDbEntity
  8
LAYER_1
 62
   250
100
AcDbVertex
100
AcDb2dVertex
 10
355.4711654666877
 20
187.4697046616938
 30
0.0
  0
VERTEX
  5
187
330
185
100
AcDbEntity
  8
LAYER_1
 62
   250
100
AcDbVertex
100
AcDb2dVertex
 10
349.7536519103743
 20
187.4697046616938
 30
0.0
  0
VERTEX
  5
188
330
185
100
AcDbEntity
  8
LAYER_1
 62
   250
100
AcDbVertex
100
AcDb2dVertex
 10
349.7536519103743
 20
197.9730982826188
 30
0.0
  0
VERTEX
  5
189
330
185
100
AcDbEntity
  8
LAYER_1
 62
   250
100
AcDbVertex
100
AcDb2dVertex
 10
355.4711654666877
 20
197.9730982826188
 30
0.0
  0
VERTEX
  5
18A
330
185
100
AcDbEntity
  8
LAYER_1
 62
   250
100
AcDbVertex
100
AcDb2dVertex
 10
355.4711654666877
 20
187.4697046616938
 30
0.0
  0
SEQEND
  5
18B
330
185
100
AcDbEntity
  8
LAYER_1
 62
   250
  0
POLYLINE
  5
18C
330
17A
100
AcDbEntity
  8
LAYER_1
 62
   250
100
AcDb2dPolyline
 66
     1
 10
0.0
 20
0.0
 30
0.0
  0
VERTEX
  5
18D
330
18C
100
AcDbEntity
  8
LAYER_1
 62
   250
100
AcDbVertex
100
AcDb2dVertex
 10
362.7175737982098
 20
187.4697046616938
 30
0.0
  0
VERTEX
  5
18E
330
18C
100
AcDbEntity
  8
LAYER_1
 62
   250
100
AcDbVertex
100
AcDb2dVertex
 10
357.0001043551947
 20
187.4697046616938
 30
0.0
  0
VERTEX
  5
18F
330
18C
100
AcDbEntity
  8
LAYER_1
 62
   250
100
AcDbVertex
100
AcDb2dVertex
 10
357.0001043551947
 20
197.9730982826188
 30
0.0
  0
VERTEX
  5
190
330
18C
100
AcDbEntity
  8
LAYER_1
 62
   250
100
AcDbVertex
100
AcDb2dVertex
 10
362.7175737982098
 20
197.9730982826188
 30
0.0
  0
VERTEX
  5
191
330
18C
100
AcDbEntity
  8
LAYER_1
 62
   250
100
AcDbVertex
100
AcDb2dVertex
 10
362.7175737982098
 20
187.4697046616938
 30
0.0
  0
SEQEND
  5
192
330
18C
100
AcDbEntity
  8
LAYER_1
 62
   250
  0
POLYLINE
  5
193
330
17A
100
AcDbEntity
  8
LAYER_1
 62
   250
100
AcDb2dPolyline
 66
     1
 10
0.0
 20
0.0
 30
0.0
  0
VERTEX
  5
194
330
193
100
AcDbEntity
  8
LAYER_1
 62
   250
100
AcDbVertex
100
AcDb2dVertex
 10
348.2205943573894
 20
175.4966035782642
 30
0.0
  0
VERTEX
  5
195
330
193
100
AcDbEntity
  8
LAYER_1
 62
   250
100
AcDbVertex
100
AcDb2dVertex
 10
342.5038304699298
 20
175.4966035782642
 30
0.0
  0
VERTEX
  5
196
330
193
100
AcDbEntity
  8
LAYER_1
 62
   250
100
AcDbVertex
100
AcDb2dVertex
 10
342.5038304699298
 20
185.9999971991892
 30
0.0
  0
VERTEX
  5
197
330
193
100
AcDbEntity
  8
LAYER_1
 62
   250
100
AcDbVertex
100
AcDb2dVertex
 10
348.2205943573894
 20
185.9999971991892
 30
0.0
  0
VERTEX
  5
198
330
193
100
AcDbEntity
  8
LAYER_1
 62
   250
100
AcDbVertex
100
AcDb2dVertex
 10
348.2205943573894
 20
175.4966035782642
 30
0.0
  0
SEQEND
  5
199
330
193
100
AcDbEntity
  8
LAYER_1
 62
   250
  0
POLYLINE
  5
19A
330
17A
100
AcDbEntity
  8
LAYER_1
 62
   250
100
AcDb2dPolyline
 66
     1
 10
0.0
 20
0.0
 30
0.0
  0
VERTEX
  5
19B
330
19A
100
AcDbEntity
  8
LAYER_1
 62
   250
100
AcDbVertex
100
AcDb2dVertex
 10
355.4711654666877
 20
175.4966035782642
 30
0.0
  0
VERTEX
  5
19C
330
19A
100
AcDbEntity
  8
LAYER_1
 62
   250
100
AcDbVertex
100
AcDb2dVertex
 10
349.7536519103743
 20
175.4966035782642
 30
0.0
  0
VERTEX
  5
19D
330
19A
100
AcDbEntity
  8
LAYER_1
 62
   250
100
AcDbVertex
100
AcDb2dVertex
 10
349.7536519103743
 20
185.9999971991892
 30
0.0
  0
VERTEX
  5
19E
330
19A
100
AcDbEntity
  8
LAYER_1
 62
   250
100
AcDbVertex
100
AcDb2dVertex
 10
355.4711654666877
 20
185.9999971991892
 30
0.0
  0
VERTEX
  5
19F
330
19A
100
AcDbEntity
  8
LAYER_1
 62
   250
100
AcDbVertex
100
AcDb2dVertex
 10
355.4711654666877
 20
175.4966035782642
 30
0.0
  0
SEQEND
  5
1A0
330
19A
100
AcDbEntity
  8
LAYER_1
 62
   250
  0
POLYLINE
  5
1A1
330
17A
100
AcDbEntity
  8
LAYER_1
 62
   250
100
AcDb2dPolyline
 66
     1
 10
0.0
 20
0.0
 30
0.0
  0
VERTEX
  5
1A2
330
1A1
100
AcDbEntity
  8
LAYER_1
 62
   250
100
AcDbVertex
100
AcDb2dVertex
 10
362.7175737982098
 20
175.4966035782642
 30
0.0
  0
VERTEX
  5
1A3
330
1A1
100
AcDbEntity
  8
LAYER_1
 62
   250
100
AcDbVertex
100
AcDb2dVertex
 10
357.0001043551947
 20
175.4966035782642
 30
0.0
  0
VERTEX
  5
1A4
330
1A1
100
AcDbEntity
  8
LAYER_1
 62
   250
100
AcDbVertex
100
AcDb2dVertex
 10
357.0001043551947
 20
185.9999971991892
 30
0.0
  0
VERTEX
  5
1A5
330
1A1
100
AcDbEntity
  8
LAYER_1
 62
   250
100
AcDbVertex
100
AcDb2dVertex
 10
362.7175737982098
 20
185.9999971991892
 30
0.0
  0
VERTEX
  5
1A6
330
1A1
100
AcDbEntity
  8
LAYER_1
 62
   250
100
AcDbVertex
100
AcDb2dVertex
 10
362.7175737982098
 20
175.4966035782642
 30
0.0
  0
SEQEND
  5
1A7
330
1A1
100
AcDbEntity
  8
LAYER_1
 62
   250
  0
POLYLINE
  5
1A8
330
17A
100
AcDbEntity
  8
LAYER_1
 62
   250
100
AcDb2dPolyline
 66
     1
 10
0.0
 20
0.0
 30
0.0
  0
VERTEX
  5
1A9
330
1A8
100
AcDbEntity
  8
LAYER_1
 62
   250
100
AcDbVertex
100
AcDb2dVertex
 10
362.7175737982098
 20
119.607856115216
 30
0.0
  0
VERTEX
  5
1AA
330
1A8
100
AcDbEntity
  8
LAYER_1
 62
   250
100
AcDbVertex
100
AcDb2dVertex
 10
342.5038304699298
 20
119.607856115216
 30
0.0
  0
VERTEX
  5
1AB
330
1A8
100
AcDbEntity
  8
LAYER_1
 62
   250
100
AcDbVertex
100
AcDb2dVertex
 10
342.5038304699298
 20
143.0617216279692
 30
0.0
  0
VERTEX
  5
1AC
330
1A8
100
AcDbEntity
  8
LAYER_1
 62
   250
100
AcDbVertex
100
AcDb2dVertex
 10
362.7175737982098
 20
143.0617216279692
 30
0.0
  0
VERTEX
  5
1AD
330
1A8
100
AcDbEntity
  8
LAYER_1
 62
   250
100
AcDbVertex
100
AcDb2dVertex
 10
362.7175737982098
 20
119.607856115216
 30
0.0
  0
SEQEND
  5
1AE
330
1A8
100
AcDbEntity
  8
LAYER_1
 62
   250
  0
POLYLINE
  5
1AF
330
17A
100
AcDbEntity
  8
LAYER_1
 62
   250
100
AcDb2dPolyline
 66
     1
 10
0.0
 20
0.0
 30
0.0
  0
VERTEX
  5
1B0
330
1AF
100
AcDbEntity
  8
LAYER_1
 62
   250
100
AcDbVertex
100
AcDb2dVertex
 10
362.7175737982098
 20
92.21141681415743
 30
0.0
  0
VERTEX
  5
1B1
330
1AF
100
AcDbEntity
  8
LAYER_1
 62
   250
100
AcDbVertex
100
AcDb2dVertex
 10
342.5038304699298
 20
92.21141681415743
 30
0.0
  0
VERTEX
  5
1B2
330
1AF
100
AcDbEntity
  8
LAYER_1
 62
   250
100
AcDbVertex
100
AcDb2dVertex
 10
342.5038304699298
 20
115.6615076047847
 30
0.0
  0
VERTEX
  5
1B3
330
1AF
100
AcDbEntity
  8
LAYER_1
 62
   250
100
AcDbVertex
100
AcDb2dVertex
 10
362.7175737982098
 20
115.6615076047847
 30
0.0
  0
VERTEX
  5
1B4
330
1AF
100
AcDbEntity
  8
LAYER_1
 62
   250
100
AcDbVertex
100
AcDb2dVertex
 10
362.7175737982098
 20
92.21141681415743
 30
0.0
  0
SEQEND
  5
1B5
330
1AF
100
AcDbEntity
  8
LAYER_1
 62
   250
  0
POLYLINE
  5
1B6
330
17A
100
AcDbEntity
  8
LAYER_1
 62
   250
100
AcDb2dPolyline
 66
     1
 10
0.0
 20
0.0
 30
0.0
  0
VERTEX
  5
1B7
330
1B6
100
AcDbEntity
  8
LAYER_1
 62
   250
100
AcDbVertex
100
AcDb2dVertex
 10
392.3515774019122
 20
187.4697046616938
 30
0.0
  0
VERTEX
  5
1B8
330
1B6
100
AcDbEntity
  8
LAYER_1
 62
   250
100
AcDbVertex
100
AcDb2dVertex
 10
398.0718337893707
 20
187.4697046616938
 30
0.0
  0
VERTEX
  5
1B9
330
1B6
100
AcDbEntity
  8
LAYER_1
 62
   250
100
AcDbVertex
100
AcDb2dVertex
 10
398.0718337893707
 20
197.9730982826188
 30
0.0
  0
VERTEX
  5
1BA
330
1B6
100
AcDbEntity
  8
LAYER_1
 62
   250
100
AcDbVertex
100
AcDb2dVertex
 10
392.3515774019122
 20
197.9730982826188
 30
0.0
  0
VERTEX
  5
1BB
330
1B6
100
AcDbEntity
  8
LAYER_1
 62
   250
100
AcDbVertex
100
AcDb2dVertex
 10
392.3515774019122
 20
187.4697046616938
 30
0.0
  0
SEQEND
  5
1BC
330
1B6
100
AcDbEntity
  8
LAYER_1
 62
   250
  0
POLYLINE
  5
1BD
330
17A
100
AcDbEntity
  8
LAYER_1
 62
   250
100
AcDb2dPolyline
 66
     1
 10
0.0
 20
0.0
 30
0.0
  0
VERTEX
  5
1BE
330
1BD
100
AcDbEntity
  8
LAYER_1
 62
   250
100
AcDbVertex
100
AcDb2dVertex
 10
385.1044987926127
 20
187.4697046616938
 30
0.0
  0
VERTEX
  5
1BF
330
1BD
100
AcDbEntity
  8
LAYER_1
 62
   250
100
AcDbVertex
100
AcDb2dVertex
 10
390.8219682356279
 20
187.4697046616938
 30
0.0
  0
VERTEX
  5
1C0
330
1BD
100
AcDbEntity
  8
LAYER_1
 62
   250
100
AcDbVertex
100
AcDb2dVertex
 10
390.8219682356279
 20
197.9730982826188
 30
0.0
  0
VERTEX
  5
1C1
330
1BD
100
AcDbEntity
  8
LAYER_1
 62
   250
100
AcDbVertex
100
AcDb2dVertex
 10
385.1044987926127
 20
197.9730982826188
 30
0.0
  0
VERTEX
  5
1C2
330
1BD
100
AcDbEntity
  8
LAYER_1
 62
   250
100
AcDbVertex
100
AcDb2dVertex
 10
385.1044987926127
 20
187.4697046616938
 30
0.0
  0
SEQEND
  5
1C3
330
1BD
100
AcDbEntity
  8
LAYER_1
 62
   250
  0
POLYLINE
  5
1C4
330
17A
100
AcDbEntity
  8
LAYER_1
 62
   250
100
AcDb2dPolyline
 66
     1
 10
0.0
 20
0.0
 30
0.0
  0
VERTEX
  5
1C5
330
1C4
100
AcDbEntity
  8
LAYER_1
 62
   250
100
AcDbVertex
100
AcDb2dVertex
 10
377.8553035166473
 20
187.4697046616938
 30
0.0
  0
VERTEX
  5
1C6
330
1C4
100
AcDbEntity
  8
LAYER_1
 62
   250
100
AcDbVertex
100
AcDb2dVertex
 10
383.5755599041065
 20
187.4697046616938
 30
0.0
  0
VERTEX
  5
1C7
330
1C4
100
AcDbEntity
  8
LAYER_1
 62
   250
100
AcDbVertex
100
AcDb2dVertex
 10
383.5755599041065
 20
197.9730982826188
 30
0.0
  0
VERTEX
  5
1C8
330
1C4
100
AcDbEntity
  8
LAYER_1
 62
   250
100
AcDbVertex
100
AcDb2dVertex
 10
377.8553035166473
 20
197.9730982826188
 30
0.0
  0
VERTEX
  5
1C9
330
1C4
100
AcDbEntity
  8
LAYER_1
 62
   250
100
AcDbVertex
100
AcDb2dVertex
 10
377.8553035166473
 20
187.4697046616938
 30
0.0
  0
SEQEND
  5
1CA
330
1C4
100
AcDbEntity
  8
LAYER_1
 62
   250
  0
POLYLINE
  5
1CB
330
17A
100
AcDbEntity
  8
LAYER_1
 62
   250
100
AcDb2dPolyline
 66
     1
 10
0.0
 20
0.0
 30
0.0
  0
VERTEX
  5
1CC
330
1CB
100
AcDbEntity
  8
LAYER_1
 62
   250
100
AcDbVertex
100
AcDb2dVertex
 10
392.3515774019122
 20
175.4966035782642
 30
0.0
  0
VERTEX
  5
1CD
330
1CB
100
AcDbEntity
  8
LAYER_1
 62
   250
100
AcDbVertex
100
AcDb2dVertex
 10
398.0718337893707
 20
175.4966035782642
 30
0.0
  0
VERTEX
  5
1CE
330
1CB
100
AcDbEntity
  8
LAYER_1
 62
   250
100
AcDbVertex
100
AcDb2dVertex
 10
398.0718337893707
 20
185.9999971991892
 30
0.0
  0
VERTEX
  5
1CF
330
1CB
100
AcDbEntity
  8
LAYER_1
 62
   250
100
AcDbVertex
100
AcDb2dVertex
 10
392.3515774019122
 20
185.9999971991892
 30
0.0
  0
VERTEX
  5
1D0
330
1CB
100
AcDbEntity
  8
LAYER_1
 62
   250
100
AcDbVertex
100
AcDb2dVertex
 10
392.3515774019122
 20
175.4966035782642
 30
0.0
  0
SEQEND
  5
1D1
330
1CB
100
AcDbEntity
  8
LAYER_1
 62
   250
  0
POLYLINE
  5
1D2
330
17A
100
AcDbEntity
  8
LAYER_1
 62
   250
100
AcDb2dPolyline
 66
     1
 10
0.0
 20
0.0
 30
0.0
  0
VERTEX
  5
1D3
330
1D2
100
AcDbEntity
  8
LAYER_1
 62
   250
100
AcDbVertex
100
AcDb2dVertex
 10
385.1044987926127
 20
175.4966035782642
 30
0.0
  0
VERTEX
  5
1D4
330
1D2
100
AcDbEntity
  8
LAYER_1
 62
   250
100
AcDbVertex
100
AcDb2dVertex
 10
390.8219682356279
 20
175.4966035782642
 30
0.0
  0
VERTEX
  5
1D5
330
1D2
100
AcDbEntity
  8
LAYER_1
 62
   250
100
AcDbVertex
100
AcDb2dVertex
 10
390.8219682356279
 20
185.9999971991892
 30
0.0
  0
VERTEX
  5
1D6
330
1D2
100
AcDbEntity
  8
LAYER_1
 62
   250
100
AcDbVertex
100
AcDb2dVertex
 10
385.1044987926127
 20
185.9999971991892
 30
0.0
  0
VERTEX
  5
1D7
330
1D2
100
AcDbEntity
  8
LAYER_1
 62
   250
100
AcDbVertex
100
AcDb2dVertex
 10
385.1044987926127
 20
175.4966035782642
 30
0.0
  0
SEQEND
  5
1D8
330
1D2
100
AcDbEntity
  8
LAYER_1
 62
   250
  0
POLYLINE
  5
1D9
330
17A
100
AcDbEntity
  8
LAYER_1
 62
   250
100
AcDb2dPolyline
 66
     1
 10
0.0
 20
0.0
 30
0.0
  0
VERTEX
  5
1DA
330
1D9
100
AcDbEntity
  8
LAYER_1
 62
   250
100
AcDbVertex
100
AcDb2dVertex
 10
377.8553035166473
 20
175.4966035782642
 30
0.0
  0
VERTEX
  5
1DB
330
1D9
100
AcDbEntity
  8
LAYER_1
 62
   250
100
AcDbVertex
100
AcDb2dVertex
 10
383.5755599041065
 20
175.4966035782642
 30
0.0
  0
VERTEX
  5
1DC
330
1D9
100
AcDbEntity
  8
LAYER_1
 62
   250
100
AcDbVertex
100
AcDb2dVertex
 10
383.5755599041065
 20
185.9999971991892
 30
0.0
  0
VERTEX
  5
1DD
330
1D9
100
AcDbEntity
  8
LAYER_1
 62
   250
100
AcDbVertex
100
AcDb2dVertex
 10
377.8553035166473
 20
185.9999971991892
 30
0.0
  0
VERTEX
  5
1DE
330
1D9
100
AcDbEntity
  8
LAYER_1
 62
   250
100
AcDbVertex
100
AcDb2dVertex
 10
377.8553035166473
 20
175.4966035782642
 30
0.0
  0
SEQEND
  5
1DF
330
1D9
100
AcDbEntity
  8
LAYER_1
 62
   250
  0
POLYLINE
  5
1E0
330
17A
100
AcDbEntity
  8
LAYER_1
 62
   250
100
AcDb2dPolyline
 66
     1
 10
0.0
 20
0.0
 30
0.0
  0
VERTEX
  5
1E1
330
1E0
100
AcDbEntity
  8
LAYER_1
 62
   250
100
AcDbVertex
100
AcDb2dVertex
 10
377.8553035166473
 20
119.607856115216
 30
0.0
  0
VERTEX
  5
1E2
330
1E0
100
AcDbEntity
  8
LAYER_1
 62
   250
100
AcDbVertex
100
AcDb2dVertex
 10
398.0718337893707
 20
119.607856115216
 30
0.0
  0
VERTEX
  5
1E3
330
1E0
100
AcDbEntity
  8
LAYER_1
 62
   250
100
AcDbVertex
100
AcDb2dVertex
 10
398.0718337893707
 20
143.0617216279692
 30
0.0
  0
VERTEX
  5
1E4
330
1E0
100
AcDbEntity
  8
LAYER_1
 62
   250
100
AcDbVertex
100
AcDb2dVertex
 10
377.8553035166473
 20
143.0617216279692
 30
0.0
  0
VERTEX
  5
1E5
330
1E0
100
AcDbEntity
  8
LAYER_1
 62
   250
100
AcDbVertex
100
AcDb2dVertex
 10
377.8553035166473
 20
119.607856115216
 30
0.0
  0
SEQEND
  5
1E6
330
1E0
100
AcDbEntity
  8
LAYER_1
 62
   250
  0
POLYLINE
  5
1E7
330
17A
100
AcDbEntity
  8
LAYER_1
 62
   250
100
AcDb2dPolyline
 66
     1
 10
0.0
 20
0.0
 30
0.0
  0
VERTEX
  5
1E8
330
1E7
100
AcDbEntity
  8
LAYER_1
 62
   250
100
AcDbVertex
100
AcDb2dVertex
 10
377.8553035166473
 20
92.21141681415743
 30
0.0
  0
VERTEX
  5
1E9
330
1E7
100
AcDbEntity
  8
LAYER_1
 62
   250
100
AcDbVertex
100
AcDb2dVertex
 10
398.0718337893707
 20
92.21141681415743
 30
0.0
  0
VERTEX
  5
1EA
330
1E7
100
AcDbEntity
  8
LAYER_1
 62
   250
100
AcDbVertex
100
AcDb2dVertex
 10
398.0718337893707
 20
115.6615076047847
 30
0.0
  0
VERTEX
  5
1EB
330
1E7
100
AcDbEntity
  8
LAYER_1
 62
   250
100
AcDbVertex
100
AcDb2dVertex
 10
377.8553035166473
 20
115.6615076047847
 30
0.0
  0
VERTEX
  5
1EC
330
1E7
100
AcDbEntity
  8
LAYER_1
 62
   250
100
AcDbVertex
100
AcDb2dVertex
 10
377.8553035166473
 20
92.21141681415743
 30
0.0
  0
SEQEND
  5
1ED
330
1E7
100
AcDbEntity
  8
LAYER_1
 62
   250
  0
POLYLINE
  5
1EE
330
17A
100
AcDbEntity
  8
LAYER_1
 62
   250
100
AcDb2dPolyline
 66
     1
 10
0.0
 20
0.0
 30
0.0
  0
VERTEX
  5
1EF
330
1EE
100
AcDbEntity
  8
LAYER_1
 62
   250
100
AcDbVertex
100
AcDb2dVertex
 10
377.8553035166473
 20
147.0035898607371
 30
0.0
  0
VERTEX
  5
1F0
330
1EE
100
AcDbEntity
  8
LAYER_1
 62
   250
100
AcDbVertex
100
AcDb2dVertex
 10
398.0718337893707
 20
147.0035898607371
 30
0.0
  0
VERTEX
  5
1F1
330
1EE
100
AcDbEntity
  8
LAYER_1
 62
   250
100
AcDbVertex
100
AcDb2dVertex
 10
398.0718337893707
 20
170.457808151259
 30
0.0
  0
VERTEX
  5
1F2
330
1EE
100
AcDbEntity
  8
LAYER_1
 62
   250
100
AcDbVertex
100
AcDb2dVertex
 10
377.8553035166473
 20
170.457808151259
 30
0.0
  0
VERTEX
  5
1F3
330
1EE
100
AcDbEntity
  8
LAYER_1
 62
   250
100
AcDbVertex
100
AcDb2dVertex
 10
377.8553035166473
 20
147.0035898607371
 30
0.0
  0
SEQEND
  5
1F4
330
1EE
100
AcDbEntity
  8
LAYER_1
 62
   250
  0
POLYLINE
  5
1F5
330
17A
100
AcDbEntity
  8
LAYER_1
 62
   250
100
AcDb2dPolyline
 66
     1
 10
0.0
 20
0.0
 30
0.0
  0
VERTEX
  5
1F6
330
1F5
100
AcDbEntity
  8
LAYER_1
 62
   250
100
AcDbVertex
100
AcDb2dVertex
 10
371.2600171294075
 20
92.21141681415743
 30
0.0
  0
VERTEX
  5
1F7
330
1F5
100
AcDbEntity
  8
LAYER_1
 62
   250
100
AcDbVertex
100
AcDb2dVertex
 10
369.3156118521155
 20
92.21141681415743
 30
0.0
  0
VERTEX
  5
1F8
330
1F5
100
AcDbEntity
  8
LAYER_1
 62
   250
100
AcDbVertex
100
AcDb2dVertex
 10
369.3156118521155
 20
197.9730982826188
 30
0.0
  0
VERTEX
  5
1F9
330
1F5
100
AcDbEntity
  8
LAYER_1
 62
   250
100
AcDbVertex
100
AcDb2dVertex
 10
371.2600171294075
 20
197.9730982826188
 30
0.0
  0
VERTEX
  5
1FA
330
1F5
100
AcDbEntity
  8
LAYER_1
 62
   250
100
AcDbVertex
100
AcDb2dVertex
 10
371.2600171294075
 20
92.21141681415743
 30
0.0
  0
SEQEND
  5
1FB
330
1F5
100
AcDbEntity
  8
LAYER_1
 62
   250
  0
ENDBLK
  5
17D
330
17A
100
AcDbEntity
  8
0
100
AcDbBlockEnd
  0
BLOCK
  5
20C
330
20A
100
AcDbEntity
  8
0
100
AcDbBlockBegin
  2
BLOCK_12
 70
     0
 10
0.0
 20
0.0
 30
0.0
  3
BLOCK_12
  1

  0
INSERT
  5
20F
330
20A
100
AcDbEntity
  8
LAYER_1
100
AcDbBlockReference
  2
BLOCK_13
 10
0.0
 20
0.0
 30
0.0
  0
POLYLINE
  5
29B
330
20A
100
AcDbEntity
  8
LAYER_1
 62
   250
100
AcDb2dPolyline
 66
     1
 10
0.0
 20
0.0
 30
0.0
  0
VERTEX
  5
29C
330
29B
100
AcDbEntity
  8
LAYER_1
 62
   250
100
AcDbVertex
100
AcDb2dVertex
 10
484.2877593233725
 20
80.21146934252383
 30
0.0
  0
VERTEX
  5
29D
330
29B
100
AcDbEntity
  8
LAYER_1
 62
   250
100
AcDbVertex
100
AcDb2dVertex
 10
406.2876754539836
 20
80.21146934252383
 30
0.0
  0
SEQEND
  5
29E
330
29B
100
AcDbEntity
  8
LAYER_1
 62
   250
  0
POLYLINE
  5
29F
330
20A
100
AcDbEntity
  8
LAYER_1
 62
   250
100
AcDb2dPolyline
 66
     1
 10
0.0
 20
0.0
 30
0.0
  0
VERTEX
  5
2A0
330
29F
100
AcDbEntity
  8
LAYER_1
 62
   250
100
AcDbVertex
100
AcDb2dVertex
 10
406.2876754539836
 20
215.2116545094933
 30
0.0
  0
VERTEX
  5
2A1
330
29F
100
AcDbEntity
  8
LAYER_1
 62
   250
100
AcDbVertex
100
AcDb2dVertex
 10
484.2877593233725
 20
215.2116545094933
 30
0.0
  0
SEQEND
  5
2A2
330
29F
100
AcDbEntity
  8
LAYER_1
 62
   250
  0
ENDBLK
  5
20D
330
20A
100
AcDbEntity
  8
0
100
AcDbBlockEnd
  0
BLOCK
  5
210
330
20E
100
AcDbEntity
  8
0
100
AcDbBlockBegin
  2
BLOCK_13
 70
     0
 10
0.0
 20
0.0
 30
0.0
  3
BLOCK_13
  1

  0
INSERT
  5
213
330
20E
100
AcDbEntity
  8
LAYER_1
100
AcDbBlockReference
  2
BLOCK_14
 10
0.0
 20
0.0
 30
0.0
  0
POLYLINE
  5
294
330
20E
100
AcDbEntity
  8
LAYER_1
 62
   250
100
AcDb2dPolyline
 66
     1
 10
0.0
 20
0.0
 30
0.0
  0
VERTEX
  5
295
330
294
100
AcDbEntity
  8
LAYER_1
 62
   250
100
AcDbVertex
100
AcDb2dVertex
 10
417.504244895624
 20
147.0035898607371
 30
0.0
  0
VERTEX
  5
296
330
294
100
AcDbEntity
  8
LAYER_1
 62
   250
100
AcDbVertex
100
AcDb2dVertex
 10
437.7207398905698
 20
147.0035898607371
 30
0.0
  0
VERTEX
  5
297
330
294
100
AcDbEntity
  8
LAYER_1
 62
   250
100
AcDbVertex
100
AcDb2dVertex
 10
437.7207398905698
 20
170.457808151259
 30
0.0
  0
VERTEX
  5
298
330
294
100
AcDbEntity
  8
LAYER_1
 62
   250
100
AcDbVertex
100
AcDb2dVertex
 10
417.504244895624
 20
170.457808151259
 30
0.0
  0
VERTEX
  5
299
330
294
100
AcDbEntity
  8
LAYER_1
 62
   250
100
AcDbVertex
100
AcDb2dVertex
 10
417.504244895624
 20
147.0035898607371
 30
0.0
  0
SEQEND
  5
29A
330
294
100
AcDbEntity
  8
LAYER_1
 62
   250
  0
ENDBLK
  5
211
330
20E
100
AcDbEntity
  8
0
100
AcDbBlockEnd
  0
BLOCK
  5
214
330
212
100
AcDbEntity
  8
0
100
AcDbBlockBegin
  2
BLOCK_14
 70
     0
 10
0.0
 20
0.0
 30
0.0
  3
BLOCK_14
  1

  0
POLYLINE
  5
216
330
212
100
AcDbEntity
  8
LAYER_1
 62
   250
100
AcDb2dPolyline
 66
     1
 10
0.0
 20
0.0
 30
0.0
  0
VERTEX
  5
217
330
216
100
AcDbEntity
  8
LAYER_1
 62
   250
100
AcDbVertex
100
AcDb2dVertex
 10
423.2210087830836
 20
187.4697046616938
 30
0.0
  0
VERTEX
  5
218
330
216
100
AcDbEntity
  8
LAYER_1
 62
   250
100
AcDbVertex
100
AcDb2dVertex
 10
417.504244895624
 20
187.4697046616938
 30
0.0
  0
VERTEX
  5
219
330
216
100
AcDbEntity
  8
LAYER_1
 62
   250
100
AcDbVertex
100
AcDb2dVertex
 10
417.504244895624
 20
197.9730982826188
 30
0.0
  0
VERTEX
  5
21A
330
216
100
AcDbEntity
  8
LAYER_1
 62
   250
100
AcDbVertex
100
AcDb2dVertex
 10
423.2210087830836
 20
197.9730982826188
 30
0.0
  0
VERTEX
  5
21B
330
216
100
AcDbEntity
  8
LAYER_1
 62
   250
100
AcDbVertex
100
AcDb2dVertex
 10
423.2210087830836
 20
187.4697046616938
 30
0.0
  0
SEQEND
  5
21C
330
216
100
AcDbEntity
  8
LAYER_1
 62
   250
  0
POLYLINE
  5
21D
330
212
100
AcDbEntity
  8
LAYER_1
 62
   250
100
AcDb2dPolyline
 66
     1
 10
0.0
 20
0.0
 30
0.0
  0
VERTEX
  5
21E
330
21D
100
AcDbEntity
  8
LAYER_1
 62
   250
100
AcDbVertex
100
AcDb2dVertex
 10
430.470874336827
 20
187.4697046616938
 30
0.0
  0
VERTEX
  5
21F
330
21D
100
AcDbEntity
  8
LAYER_1
 62
   250
100
AcDbVertex
100
AcDb2dVertex
 10
424.7540751715892
 20
187.4697046616938
 30
0.0
  0
VERTEX
  5
220
330
21D
100
AcDbEntity
  8
LAYER_1
 62
   250
100
AcDbVertex
100
AcDb2dVertex
 10
424.7540751715892
 20
197.9730982826188
 30
0.0
  0
VERTEX
  5
221
330
21D
100
AcDbEntity
  8
LAYER_1
 62
   250
100
AcDbVertex
100
AcDb2dVertex
 10
430.470874336827
 20
197.9730982826188
 30
0.0
  0
VERTEX
  5
222
330
21D
100
AcDbEntity
  8
LAYER_1
 62
   250
100
AcDbVertex
100
AcDb2dVertex
 10
430.470874336827
 20
187.4697046616938
 30
0.0
  0
SEQEND
  5
223
330
21D
100
AcDbEntity
  8
LAYER_1
 62
   250
  0
POLYLINE
  5
224
330
212
100
AcDbEntity
  8
LAYER_1
 62
   250
100
AcDb2dPolyline
 66
     1
 10
0.0
 20
0.0
 30
0.0
  0
VERTEX
  5
225
330
224
100
AcDbEntity
  8
LAYER_1
 62
   250
100
AcDbVertex
100
AcDb2dVertex
 10
437.7172826683485
 20
187.4697046616938
 30
0.0
  0
VERTEX
  5
226
330
224
100
AcDbEntity
  8
LAYER_1
 62
   250
100
AcDbVertex
100
AcDb2dVertex
 10
432.0005187808888
 20
187.4697046616938
 30
0.0
  0
VERTEX
  5
227
330
224
100
AcDbEntity
  8
LAYER_1
 62
   250
100
AcDbVertex
100
AcDb2dVertex
 10
432.0005187808888
 20
197.9730982826188
 30
0.0
  0
VERTEX
  5
228
330
224
100
AcDbEntity
  8
LAYER_1
 62
   250
100
AcDbVertex
100
AcDb2dVertex
 10
437.7172826683485
 20
197.9730982826188
 30
0.0
  0
VERTEX
  5
229
330
224
100
AcDbEntity
  8
LAYER_1
 62
   250
100
AcDbVertex
100
AcDb2dVertex
 10
437.7172826683485
 20
187.4697046616938
 30
0.0
  0
SEQEND
  5
22A
330
224
100
AcDbEntity
  8
LAYER_1
 62
   250
  0
POLYLINE
  5
22B
330
212
100
AcDbEntity
  8
LAYER_1
 62
   250
100
AcDb2dPolyline
 66
     1
 10
0.0
 20
0.0
 30
0.0
  0
VERTEX
  5
22C
330
22B
100
AcDbEntity
  8
LAYER_1
 62
   250
100
AcDbVertex
100
AcDb2dVertex
 10
423.2210087830836
 20
175.4966035782642
 30
0.0
  0
VERTEX
  5
22D
330
22B
100
AcDbEntity
  8
LAYER_1
 62
   250
100
AcDbVertex
100
AcDb2dVertex
 10
417.504244895624
 20
175.4966035782642
 30
0.0
  0
VERTEX
  5
22E
330
22B
100
AcDbEntity
  8
LAYER_1
 62
   250
100
AcDbVertex
100
AcDb2dVertex
 10
417.504244895624
 20
185.9999971991892
 30
0.0
  0
VERTEX
  5
22F
330
22B
100
AcDbEntity
  8
LAYER_1
 62
   250
100
AcDbVertex
100
AcDb2dVertex
 10
423.2210087830836
 20
185.9999971991892
 30
0.0
  0
VERTEX
  5
230
330
22B
100
AcDbEntity
  8
LAYER_1
 62
   250
100
AcDbVertex
100
AcDb2dVertex
 10
423.2210087830836
 20
175.4966035782642
 30
0.0
  0
SEQEND
  5
231
330
22B
100
AcDbEntity
  8
LAYER_1
 62
   250
  0
POLYLINE
  5
232
330
212
100
AcDbEntity
  8
LAYER_1
 62
   250
100
AcDb2dPolyline
 66
     1
 10
0.0
 20
0.0
 30
0.0
  0
VERTEX
  5
233
330
232
100
AcDbEntity
  8
LAYER_1
 62
   250
100
AcDbVertex
100
AcDb2dVertex
 10
430.470874336827
 20
175.4966035782642
 30
0.0
  0
VERTEX
  5
234
330
232
100
AcDbEntity
  8
LAYER_1
 62
   250
100
AcDbVertex
100
AcDb2dVertex
 10
424.7540751715892
 20
175.4966035782642
 30
0.0
  0
VERTEX
  5
235
330
232
100
AcDbEntity
  8
LAYER_1
 62
   250
100
AcDbVertex
100
AcDb2dVertex
 10
424.7540751715892
 20
185.9999971991892
 30
0.0
  0
VERTEX
  5
236
330
232
100
AcDbEntity
  8
LAYER_1
 62
   250
100
AcDbVertex
100
AcDb2dVertex
 10
430.470874336827
 20
185.9999971991892
 30
0.0
  0
VERTEX
  5
237
330
232
100
AcDbEntity
  8
LAYER_1
 62
   250
100
AcDbVertex
100
AcDb2dVertex
 10
430.470874336827
 20
175.4966035782642
 30
0.0
  0
SEQEND
  5
238
330
232
100
AcDbEntity
  8
LAYER_1
 62
   250
  0
POLYLINE
  5
239
330
212
100
AcDbEntity
  8
LAYER_1
 62
   250
100
AcDb2dPolyline
 66
     1
 10
0.0
 20
0.0
 30
0.0
  0
VERTEX
  5
23A
330
239
100
AcDbEntity
  8
LAYER_1
 62
   250
100
AcDbVertex
100
AcDb2dVertex
 10
437.7172826683485
 20
175.4966035782642
 30
0.0
  0
VERTEX
  5
23B
330
239
100
AcDbEntity
  8
LAYER_1
 62
   250
100
AcDbVertex
100
AcDb2dVertex
 10
432.0005187808888
 20
175.4966035782642
 30
0.0
  0
VERTEX
  5
23C
330
239
100
AcDbEntity
  8
LAYER_1
 62
   250
100
AcDbVertex
100
AcDb2dVertex
 10
432.0005187808888
 20
185.9999971991892
 30
0.0
  0
VERTEX
  5
23D
330
239
100
AcDbEntity
  8
LAYER_1
 62
   250
100
AcDbVertex
100
AcDb2dVertex
 10
437.7172826683485
 20
185.9999971991892
 30
0.0
  0
VERTEX
  5
23E
330
239
100
AcDbEntity
  8
LAYER_1
 62
   250
100
AcDbVertex
100
AcDb2dVertex
 10
437.7172826683485
 20
175.4966035782642
 30
0.0
  0
SEQEND
  5
23F
330
239
100
AcDbEntity
  8
LAYER_1
 62
   250
  0
POLYLINE
  5
240
330
212
100
AcDbEntity
  8
LAYER_1
 62
   250
100
AcDb2dPolyline
 66
     1
 10
0.0
 20
0.0
 30
0.0
  0
VERTEX
  5
241
330
240
100
AcDbEntity
  8
LAYER_1
 62
   250
100
AcDbVertex
100
AcDb2dVertex
 10
437.7172826683485
 20
119.607856115216
 30
0.0
  0
VERTEX
  5
242
330
240
100
AcDbEntity
  8
LAYER_1
 62
   250
100
AcDbVertex
100
AcDb2dVertex
 10
417.504244895624
 20
119.607856115216
 30
0.0
  0
VERTEX
  5
243
330
240
100
AcDbEntity
  8
LAYER_1
 62
   250
100
AcDbVertex
100
AcDb2dVertex
 10
417.504244895624
 20
143.0617216279692
 30
0.0
  0
VERTEX
  5
244
330
240
100
AcDbEntity
  8
LAYER_1
 62
   250
100
AcDbVertex
100
AcDb2dVertex
 10
437.7172826683485
 20
143.0617216279692
 30
0.0
  0
VERTEX
  5
245
330
240
100
AcDbEntity
  8
LAYER_1
 62
   250
100
AcDbVertex
100
AcDb2dVertex
 10
437.7172826683485
 20
119.607856115216
 30
0.0
  0
SEQEND
  5
246
330
240
100
AcDbEntity
  8
LAYER_1
 62
   250
  0
POLYLINE
  5
247
330
212
100
AcDbEntity
  8
LAYER_1
 62
   250
100
AcDb2dPolyline
 66
     1
 10
0.0
 20
0.0
 30
0.0
  0
VERTEX
  5
248
330
247
100
AcDbEntity
  8
LAYER_1
 62
   250
100
AcDbVertex
100
AcDb2dVertex
 10
437.7172826683485
 20
92.21141681415743
 30
0.0
  0
VERTEX
  5
249
330
247
100
AcDbEntity
  8
LAYER_1
 62
   250
100
AcDbVertex
100
AcDb2dVertex
 10
417.504244895624
 20
92.21141681415743
 30
0.0
  0
VERTEX
  5
24A
330
247
100
AcDbEntity
  8
LAYER_1
 62
   250
100
AcDbVertex
100
AcDb2dVertex
 10
417.504244895624
 20
115.6615076047847
 30
0.0
  0
VERTEX
  5
24B
330
247
100
AcDbEntity
  8
LAYER_1
 62
   250
100
AcDbVertex
100
AcDb2dVertex
 10
437.7172826683485
 20
115.6615076047847
 30
0.0
  0
VERTEX
  5
24C
330
247
100
AcDbEntity
  8
LAYER_1
 62
   250
100
AcDbVertex
100
AcDb2dVertex
 10
437.7172826683485
 20
92.21141681415743
 30
0.0
  0
SEQEND
  5
24D
330
247
100
AcDbEntity
  8
LAYER_1
 62
   250
  0
POLYLINE
  5
24E
330
212
100
AcDbEntity
  8
LAYER_1
 62
   250
100
AcDb2dPolyline
 66
     1
 10
0.0
 20
0.0
 30
0.0
  0
VERTEX
  5
24F
330
24E
100
AcDbEntity
  8
LAYER_1
 62
   250
100
AcDbVertex
100
AcDb2dVertex
 10
467.351321549829
 20
187.4697046616938
 30
0.0
  0
VERTEX
  5
250
330
24E
100
AcDbEntity
  8
LAYER_1
 62
   250
100
AcDbVertex
100
AcDb2dVertex
 10
473.0712251595098
 20
187.4697046616938
 30
0.0
  0
VERTEX
  5
251
330
24E
100
AcDbEntity
  8
LAYER_1
 62
   250
100
AcDbVertex
100
AcDb2dVertex
 10
473.0712251595098
 20
197.9730982826188
 30
0.0
  0
VERTEX
  5
252
330
24E
100
AcDbEntity
  8
LAYER_1
 62
   250
100
AcDbVertex
100
AcDb2dVertex
 10
467.351321549829
 20
197.9730982826188
 30
0.0
  0
VERTEX
  5
253
330
24E
100
AcDbEntity
  8
LAYER_1
 62
   250
100
AcDbVertex
100
AcDb2dVertex
 10
467.351321549829
 20
187.4697046616938
 30
0.0
  0
SEQEND
  5
254
330
24E
100
AcDbEntity
  8
LAYER_1
 62
   250
  0
POLYLINE
  5
255
330
212
100
AcDbEntity
  8
LAYER_1
 62
   250
100
AcDb2dPolyline
 66
     1
 10
0.0
 20
0.0
 30
0.0
  0
VERTEX
  5
256
330
255
100
AcDbEntity
  8
LAYER_1
 62
   250
100
AcDbVertex
100
AcDb2dVertex
 10
460.1049132183069
 20
187.4697046616938
 30
0.0
  0
VERTEX
  5
257
330
255
100
AcDbEntity
  8
LAYER_1
 62
   250
100
AcDbVertex
100
AcDb2dVertex
 10
465.8217123835448
 20
187.4697046616938
 30
0.0
  0
VERTEX
  5
258
330
255
100
AcDbEntity
  8
LAYER_1
 62
   250
100
AcDbVertex
100
AcDb2dVertex
 10
465.8217123835448
 20
197.9730982826188
 30
0.0
  0
VERTEX
  5
259
330
255
100
AcDbEntity
  8
LAYER_1
 62
   250
100
AcDbVertex
100
AcDb2dVertex
 10
460.1049132183069
 20
197.9730982826188
 30
0.0
  0
VERTEX
  5
25A
330
255
100
AcDbEntity
  8
LAYER_1
 62
   250
100
AcDbVertex
100
AcDb2dVertex
 10
460.1049132183069
 20
187.4697046616938
 30
0.0
  0
SEQEND
  5
25B
330
255
100
AcDbEntity
  8
LAYER_1
 62
   250
  0
POLYLINE
  5
25C
330
212
100
AcDbEntity
  8
LAYER_1
 62
   250
100
AcDb2dPolyline
 66
     1
 10
0.0
 20
0.0
 30
0.0
  0
VERTEX
  5
25D
330
25C
100
AcDbEntity
  8
LAYER_1
 62
   250
100
AcDbVertex
100
AcDb2dVertex
 10
452.8550476645642
 20
187.4697046616938
 30
0.0
  0
VERTEX
  5
25E
330
25C
100
AcDbEntity
  8
LAYER_1
 62
   250
100
AcDbVertex
100
AcDb2dVertex
 10
458.5752687742451
 20
187.4697046616938
 30
0.0
  0
VERTEX
  5
25F
330
25C
100
AcDbEntity
  8
LAYER_1
 62
   250
100
AcDbVertex
100
AcDb2dVertex
 10
458.5752687742451
 20
197.9730982826188
 30
0.0
  0
VERTEX
  5
260
330
25C
100
AcDbEntity
  8
LAYER_1
 62
   250
100
AcDbVertex
100
AcDb2dVertex
 10
452.8550476645642
 20
197.9730982826188
 30
0.0
  0
VERTEX
  5
261
330
25C
100
AcDbEntity
  8
LAYER_1
 62
   250
100
AcDbVertex
100
AcDb2dVertex
 10
452.8550476645642
 20
187.4697046616938
 30
0.0
  0
SEQEND
  5
262
330
25C
100
AcDbEntity
  8
LAYER_1
 62
   250
  0
POLYLINE
  5
263
330
212
100
AcDbEntity
  8
LAYER_1
 62
   250
100
AcDb2dPolyline
 66
     1
 10
0.0
 20
0.0
 30
0.0
  0
VERTEX
  5
264
330
263
100
AcDbEntity
  8
LAYER_1
 62
   250
100
AcDbVertex
100
AcDb2dVertex
 10
467.351321549829
 20
175.4966035782642
 30
0.0
  0
VERTEX
  5
265
330
263
100
AcDbEntity
  8
LAYER_1
 62
   250
100
AcDbVertex
100
AcDb2dVertex
 10
473.0712251595098
 20
175.4966035782642
 30
0.0
  0
VERTEX
  5
266
330
263
100
AcDbEntity
  8
LAYER_1
 62
   250
100
AcDbVertex
100
AcDb2dVertex
 10
473.0712251595098
 20
185.9999971991892
 30
0.0
  0
VERTEX
  5
267
330
263
100
AcDbEntity
  8
LAYER_1
 62
   250
100
AcDbVertex
100
AcDb2dVertex
 10
467.351321549829
 20
185.9999971991892
 30
0.0
  0
VERTEX
  5
268
330
263
100
AcDbEntity
  8
LAYER_1
 62
   250
100
AcDbVertex
100
AcDb2dVertex
 10
467.351321549829
 20
175.4966035782642
 30
0.0
  0
SEQEND
  5
269
330
263
100
AcDbEntity
  8
LAYER_1
 62
   250
  0
POLYLINE
  5
26A
330
212
100
AcDbEntity
  8
LAYER_1
 62
   250
100
AcDb2dPolyline
 66
     1
 10
0.0
 20
0.0
 30
0.0
  0
VERTEX
  5
26B
330
26A
100
AcDbEntity
  8
LAYER_1
 62
   250
100
AcDbVertex
100
AcDb2dVertex
 10
460.1049132183069
 20
175.4966035782642
 30
0.0
  0
VERTEX
  5
26C
330
26A
100
AcDbEntity
  8
LAYER_1
 62
   250
100
AcDbVertex
100
AcDb2dVertex
 10
465.8217123835448
 20
175.4966035782642
 30
0.0
  0
VERTEX
  5
26D
330
26A
100
AcDbEntity
  8
LAYER_1
 62
   250
100
AcDbVertex
100
AcDb2dVertex
 10
465.8217123835448
 20
185.9999971991892
 30
0.0
  0
VERTEX
  5
26E
330
26A
100
AcDbEntity
  8
LAYER_1
 62
   250
100
AcDbVertex
100
AcDb2dVertex
 10
460.1049132183069
 20
185.9999971991892
 30
0.0
  0
VERTEX
  5
26F
330
26A
100
AcDbEntity
  8
LAYER_1
 62
   250
100
AcDbVertex
100
AcDb2dVertex
 10
460.1049132183069
 20
175.4966035782642
 30
0.0
  0
SEQEND
  5
270
330
26A
100
AcDbEntity
  8
LAYER_1
 62
   250
  0
POLYLINE
  5
271
330
212
100
AcDbEntity
  8
LAYER_1
 62
   250
100
AcDb2dPolyline
 66
     1
 10
0.0
 20
0.0
 30
0.0
  0
VERTEX
  5
272
330
271
100
AcDbEntity
  8
LAYER_1
 62
   250
100
AcDbVertex
100
AcDb2dVertex
 10
452.8550476645642
 20
175.4966035782642
 30
0.0
  0
VERTEX
  5
273
330
271
100
AcDbEntity
  8
LAYER_1
 62
   250
100
AcDbVertex
100
AcDb2dVertex
 10
458.5752687742451
 20
175.4966035782642
 30
0.0
  0
VERTEX
  5
274
330
271
100
AcDbEntity
  8
LAYER_1
 62
   250
100
AcDbVertex
100
AcDb2dVertex
 10
458.5752687742451
 20
185.9999971991892
 30
0.0
  0
VERTEX
  5
275
330
271
100
AcDbEntity
  8
LAYER_1
 62
   250
100
AcDbVertex
100
AcDb2dVertex
 10
452.8550476645642
 20
185.9999971991892
 30
0.0
  0
VERTEX
  5
276
330
271
100
AcDbEntity
  8
LAYER_1
 62
   250
100
AcDbVertex
100
AcDb2dVertex
 10
452.8550476645642
 20
175.4966035782642
 30
0.0
  0
SEQEND
  5
277
330
271
100
AcDbEntity
  8
LAYER_1
 62
   250
  0
POLYLINE
  5
278
330
212
100
AcDbEntity
  8
LAYER_1
 62
   250
100
AcDb2dPolyline
 66
     1
 10
0.0
 20
0.0
 30
0.0
  0
VERTEX
  5
279
330
278
100
AcDbEntity
  8
LAYER_1
 62
   250
100
AcDbVertex
100
AcDb2dVertex
 10
452.8550476645642
 20
119.607856115216
 30
0.0
  0
VERTEX
  5
27A
330
278
100
AcDbEntity
  8
LAYER_1
 62
   250
100
AcDbVertex
100
AcDb2dVertex
 10
473.0712251595098
 20
119.607856115216
 30
0.0
  0
VERTEX
  5
27B
330
278
100
AcDbEntity
  8
LAYER_1
 62
   250
100
AcDbVertex
100
AcDb2dVertex
 10
473.0712251595098
 20
143.0617216279692
 30
0.0
  0
VERTEX
  5
27C
330
278
100
AcDbEntity
  8
LAYER_1
 62
   250
100
AcDbVertex
100
AcDb2dVertex
 10
452.8550476645642
 20
143.0617216279692
 30
0.0
  0
VERTEX
  5
27D
330
278
100
AcDbEntity
  8
LAYER_1
 62
   250
100
AcDbVertex
100
AcDb2dVertex
 10
452.8550476645642
 20
119.607856115216
 30
0.0
  0
SEQEND
  5
27E
330
278
100
AcDbEntity
  8
LAYER_1
 62
   250
  0
POLYLINE
  5
27F
330
212
100
AcDbEntity
  8
LAYER_1
 62
   250
100
AcDb2dPolyline
 66
     1
 10
0.0
 20
0.0
 30
0.0
  0
VERTEX
  5
280
330
27F
100
AcDbEntity
  8
LAYER_1
 62
   250
100
AcDbVertex
100
AcDb2dVertex
 10
452.8550476645642
 20
92.21141681415743
 30
0.0
  0
VERTEX
  5
281
330
27F
100
AcDbEntity
  8
LAYER_1
 62
   250
100
AcDbVertex
100
AcDb2dVertex
 10
473.0712251595098
 20
92.21141681415743
 30
0.0
  0
VERTEX
  5
282
330
27F
100
AcDbEntity
  8
LAYER_1
 62
   250
100
AcDbVertex
100
AcDb2dVertex
 10
473.0712251595098
 20
115.6615076047847
 30
0.0
  0
VERTEX
  5
283
330
27F
100
AcDbEntity
  8
LAYER_1
 62
   250
100
AcDbVertex
100
AcDb2dVertex
 10
452.8550476645642
 20
115.6615076047847
 30
0.0
  0
VERTEX
  5
284
330
27F
100
AcDbEntity
  8
LAYER_1
 62
   250
100
AcDbVertex
100
AcDb2dVertex
 10
452.8550476645642
 20
92.21141681415743
 30
0.0
  0
SEQEND
  5
285
330
27F
100
AcDbEntity
  8
LAYER_1
 62
   250
  0
POLYLINE
  5
286
330
212
100
AcDbEntity
  8
LAYER_1
 62
   250
100
AcDb2dPolyline
 66
     1
 10
0.0
 20
0.0
 30
0.0
  0
VERTEX
  5
287
330
286
100
AcDbEntity
  8
LAYER_1
 62
   250
100
AcDbVertex
100
AcDb2dVertex
 10
452.8550476645642
 20
147.0035898607371
 30
0.0
  0
VERTEX
  5
288
330
286
100
AcDbEntity
  8
LAYER_1
 62
   250
100
AcDbVertex
100
AcDb2dVertex
 10
473.0712251595098
 20
147.0035898607371
 30
0.0
  0
VERTEX
  5
289
330
286
100
AcDbEntity
  8
LAYER_1
 62
   250
100
AcDbVertex
100
AcDb2dVertex
 10
473.0712251595098
 20
170.457808151259
 30
0.0
  0
VERTEX
  5
28A
330
286
100
AcDbEntity
  8
LAYER_1
 62
   250
100
AcDbVertex
100
AcDb2dVertex
 10
452.8550476645642
 20
170.457808151259
 30
0.0
  0
VERTEX
  5
28B
330
286
100
AcDbEntity
  8
LAYER_1
 62
   250
100
AcDbVertex
100
AcDb2dVertex
 10
452.8550476645642
 20
147.0035898607371
 30
0.0
  0
SEQEND
  5
28C
330
286
100
AcDbEntity
  8
LAYER_1
 62
   250
  0
POLYLINE
  5
28D
330
212
100
AcDbEntity
  8
LAYER_1
 62
   250
100
AcDb2dPolyline
 66
     1
 10
0.0
 20
0.0
 30
0.0
  0
VERTEX
  5
28E
330
28D
100
AcDbEntity
  8
LAYER_1
 62
   250
100
AcDbVertex
100
AcDb2dVertex
 10
446.2597612773243
 20
92.21141681415743
 30
0.0
  0
VERTEX
  5
28F
330
28D
100
AcDbEntity
  8
LAYER_1
 62
   250
100
AcDbVertex
100
AcDb2dVertex
 10
444.3153560000323
 20
92.21141681415743
 30
0.0
  0
VERTEX
  5
290
330
28D
100
AcDbEntity
  8
LAYER_1
 62
   250
100
AcDbVertex
100
AcDb2dVertex
 10
444.3153560000323
 20
197.9730982826188
 30
0.0
  0
VERTEX
  5
291
330
28D
100
AcDbEntity
  8
LAYER_1
 62
   250
100
AcDbVertex
100
AcDb2dVertex
 10
446.2597612773243
 20
197.9730982826188
 30
0.0
  0
VERTEX
  5
292
330
28D
100
AcDbEntity
  8
LAYER_1
 62
   250
100
AcDbVertex
100
AcDb2dVertex
 10
446.2597612773243
 20
92.21141681415743
 30
0.0
  0
SEQEND
  5
293
330
28D
100
AcDbEntity
  8
LAYER_1
 62
   250
  0
ENDBLK
  5
215
330
212
100
AcDbEntity
  8
0
100
AcDbBlockEnd
  0
BLOCK
  5
2A5
330
2A3
100
AcDbEntity
  8
0
100
AcDbBlockBegin
  2
BLOCK_15
 70
     0
 10
0.0
 20
0.0
 30
0.0
  3
BLOCK_15
  1

  0
INSERT
  5
2A8
330
2A3
100
AcDbEntity
  8
LAYER_1
100
AcDbBlockReference
  2
BLOCK_16
 10
0.0
 20
0.0
 30
0.0
  0
POLYLINE
  5
33F
330
2A3
100
AcDbEntity
  8
LAYER_1
 62
   250
100
AcDb2dPolyline
 66
     1
 10
0.0
 20
0.0
 30
0.0
  0
VERTEX
  5
340
330
33F
100
AcDbEntity
  8
LAYER_1
 62
   250
100
AcDbVertex
100
AcDb2dVertex
 10
67.25619967304029
 20
-29.78164110366569
 30
0.0
  0
VERTEX
  5
341
330
33F
100
AcDbEntity
  8
LAYER_1
 62
   250
100
AcDbVertex
100
AcDb2dVertex
 10
31.25632276996361
 20
-29.78164110366569
 30
0.0
  0
VERTEX
  5
342
330
33F
100
AcDbEntity
  8
LAYER_1
 62
   250
100
AcDbVertex
100
AcDb2dVertex
 10
31.25632276996361
 20
-25.78152916022137
 30
0.0
  0
VERTEX
  5
343
330
33F
100
AcDbEntity
  8
LAYER_1
 62
   250
100
AcDbVertex
100
AcDb2dVertex
 10
67.25619967304029
 20
-25.78152916022137
 30
0.0
  0
VERTEX
  5
344
330
33F
100
AcDbEntity
  8
LAYER_1
 62
   250
100
AcDbVertex
100
AcDb2dVertex
 10
67.25619967304029
 20
-29.78164110366569
 30
0.0
  0
SEQEND
  5
345
330
33F
100
AcDbEntity
  8
LAYER_1
 62
   250
  0
ENDBLK
  5
2A6
330
2A3
100
AcDbEntity
  8
0
100
AcDbBlockEnd
  0
BLOCK
  5
2A9
330
2A7
100
AcDbEntity
  8
0
100
AcDbBlockBegin
  2
BLOCK_16
 70
     0
 10
0.0
 20
0.0
 30
0.0
  3
BLOCK_16
  1

  0
INSERT
  5
2AC
330
2A7
100
AcDbEntity
  8
LAYER_1
100
AcDbBlockReference
  2
BLOCK_17
 10
0.0
 20
0.0
 30
0.0
  0
POLYLINE
  5
338
330
2A7
100
AcDbEntity
  8
LAYER_1
 62
   250
100
AcDb2dPolyline
 66
     1
 10
0.0
 20
0.0
 30
0.0
  0
VERTEX
  5
339
330
338
100
AcDbEntity
  8
LAYER_1
 62
   250
100
AcDbVertex
100
AcDb2dVertex
 10
10.25637888632473
 20
-14.1347119409107
 30
0.0
  0
VERTEX
  5
33A
330
338
100
AcDbEntity
  8
LAYER_1
 62
   250
100
AcDbVertex
100
AcDb2dVertex
 10
88.2561077483991
 20
-14.1347119409107
 30
0.0
  0
VERTEX
  5
33B
330
338
100
AcDbEntity
  8
LAYER_1
 62
   250
100
AcDbVertex
100
AcDb2dVertex
 10
88.2561077483991
 20
-149.134724129383
 30
0.0
  0
VERTEX
  5
33C
330
338
100
AcDbEntity
  8
LAYER_1
 62
   250
100
AcDbVertex
100
AcDb2dVertex
 10
10.25637888632473
 20
-149.134724129383
 30
0.0
  0
VERTEX
  5
33D
330
338
100
AcDbEntity
  8
LAYER_1
 62
   250
100
AcDbVertex
100
AcDb2dVertex
 10
10.25637888632473
 20
-14.1347119409107
 30
0.0
  0
SEQEND
  5
33E
330
338
100
AcDbEntity
  8
LAYER_1
 62
   250
  0
ENDBLK
  5
2AA
330
2A7
100
AcDbEntity
  8
0
100
AcDbBlockEnd
  0
BLOCK
  5
2AD
330
2AB
100
AcDbEntity
  8
0
100
AcDbBlockBegin
  2
BLOCK_17
 70
     0
 10
0.0
 20
0.0
 30
0.0
  3
BLOCK_17
  1

  0
INSERT
  5
2B0
330
2AB
100
AcDbEntity
  8
LAYER_1
100
AcDbBlockReference
  2
BLOCK_18
 10
0.0
 20
0.0
 30
0.0
  0
POLYLINE
  5
331
330
2AB
100
AcDbEntity
  8
LAYER_1
 62
   250
100
AcDb2dPolyline
 66
     1
 10
0.0
 20
0.0
 30
0.0
  0
VERTEX
  5
332
330
331
100
AcDbEntity
  8
LAYER_1
 62
   250
100
AcDbVertex
100
AcDb2dVertex
 10
21.47224277240986
 20
-82.34277831274753
 30
0.0
  0
VERTEX
  5
333
330
331
100
AcDbEntity
  8
LAYER_1
 62
   250
100
AcDbVertex
100
AcDb2dVertex
 10
41.68877199198638
 20
-82.34277831274753
 30
0.0
  0
VERTEX
  5
334
330
331
100
AcDbEntity
  8
LAYER_1
 62
   250
100
AcDbVertex
100
AcDb2dVertex
 10
41.68877199198638
 20
-58.88855942972241
 30
0.0
  0
VERTEX
  5
335
330
331
100
AcDbEntity
  8
LAYER_1
 62
   250
100
AcDbVertex
100
AcDb2dVertex
 10
21.47224277240986
 20
-58.88855942972241
 30
0.0
  0
VERTEX
  5
336
330
331
100
AcDbEntity
  8
LAYER_1
 62
   250
100
AcDbVertex
100
AcDb2dVertex
 10
21.47224277240986
 20
-82.34277831274753
 30
0.0
  0
SEQEND
  5
337
330
331
100
AcDbEntity
  8
LAYER_1
 62
   250
  0
ENDBLK
  5
2AE
330
2AB
100
AcDbEntity
  8
0
100
AcDbBlockEnd
  0
BLOCK
  5
2B1
330
2AF
100
AcDbEntity
  8
0
100
AcDbBlockBegin
  2
BLOCK_18
 70
     0
 10
0.0
 20
0.0
 30
0.0
  3
BLOCK_18
  1

  0
POLYLINE
  5
2B3
330
2AF
100
AcDbEntity
  8
LAYER_1
 62
   250
100
AcDb2dPolyline
 66
     1
 10
0.0
 20
0.0
 30
0.0
  0
VERTEX
  5
2B4
330
2B3
100
AcDbEntity
  8
LAYER_1
 62
   250
100
AcDbVertex
100
AcDb2dVertex
 10
27.18904193764705
 20
-41.87669776730868
 30
0.0
  0
VERTEX
  5
2B5
330
2B3
100
AcDbEntity
  8
LAYER_1
 62
   250
100
AcDbVertex
100
AcDb2dVertex
 10
21.47224277240986
 20
-41.87669776730868
 30
0.0
  0
VERTEX
  5
2B6
330
2B3
100
AcDbEntity
  8
LAYER_1
 62
   250
100
AcDbVertex
100
AcDb2dVertex
 10
21.47224277240986
 20
-31.37326860326779
 30
0.0
  0
VERTEX
  5
2B7
330
2B3
100
AcDbEntity
  8
LAYER_1
 62
   250
100
AcDbVertex
100
AcDb2dVertex
 10
27.18904193764705
 20
-31.37326860326779
 30
0.0
  0
VERTEX
  5
2B8
330
2B3
100
AcDbEntity
  8
LAYER_1
 62
   250
100
AcDbVertex
100
AcDb2dVertex
 10
27.18904193764705
 20
-41.87669776730868
 30
0.0
  0
SEQEND
  5
2B9
330
2B3
100
AcDbEntity
  8
LAYER_1
 62
   250
  0
POLYLINE
  5
2BA
330
2AF
100
AcDbEntity
  8
LAYER_1
 62
   250
100
AcDb2dPolyline
 66
     1
 10
0.0
 20
0.0
 30
0.0
  0
VERTEX
  5
2BB
330
2BA
100
AcDbEntity
  8
LAYER_1
 62
   250
100
AcDbVertex
100
AcDb2dVertex
 10
34.43957776916781
 20
-41.87669776730868
 30
0.0
  0
VERTEX
  5
2BC
330
2BA
100
AcDbEntity
  8
LAYER_1
 62
   250
100
AcDbVertex
100
AcDb2dVertex
 10
28.72210832615294
 20
-41.87669776730868
 30
0.0
  0
VERTEX
  5
2BD
330
2BA
100
AcDbEntity
  8
LAYER_1
 62
   250
100
AcDbVertex
100
AcDb2dVertex
 10
28.72210832615294
 20
-31.37326860326779
 30
0.0
  0
VERTEX
  5
2BE
330
2BA
100
AcDbEntity
  8
LAYER_1
 62
   250
100
AcDbVertex
100
AcDb2dVertex
 10
34.43957776916781
 20
-31.37326860326779
 30
0.0
  0
VERTEX
  5
2BF
330
2BA
100
AcDbEntity
  8
LAYER_1
 62
   250
100
AcDbVertex
100
AcDb2dVertex
 10
34.43957776916781
 20
-41.87669776730868
 30
0.0
  0
SEQEND
  5
2C0
330
2BA
100
AcDbEntity
  8
LAYER_1
 62
   250
  0
POLYLINE
  5
2C1
330
2AF
100
AcDbEntity
  8
LAYER_1
 62
   250
100
AcDb2dPolyline
 66
     1
 10
0.0
 20
0.0
 30
0.0
  0
VERTEX
  5
2C2
330
2C1
100
AcDbEntity
  8
LAYER_1
 62
   250
100
AcDbVertex
100
AcDb2dVertex
 10
41.6859861006896
 20
-41.87669776730868
 30
0.0
  0
VERTEX
  5
2C3
330
2C1
100
AcDbEntity
  8
LAYER_1
 62
   250
100
AcDbVertex
100
AcDb2dVertex
 10
35.96851665767441
 20
-41.87669776730868
 30
0.0
  0
VERTEX
  5
2C4
330
2C1
100
AcDbEntity
  8
LAYER_1
 62
   250
100
AcDbVertex
100
AcDb2dVertex
 10
35.96851665767441
 20
-31.37326860326779
 30
0.0
  0
VERTEX
  5
2C5
330
2C1
100
AcDbEntity
  8
LAYER_1
 62
   250
100
AcDbVertex
100
AcDb2dVertex
 10
41.6859861006896
 20
-31.37326860326779
 30
0.0
  0
VERTEX
  5
2C6
330
2C1
100
AcDbEntity
  8
LAYER_1
 62
   250
100
AcDbVertex
100
AcDb2dVertex
 10
41.6859861006896
 20
-41.87669776730868
 30
0.0
  0
SEQEND
  5
2C7
330
2C1
100
AcDbEntity
  8
LAYER_1
 62
   250
  0
POLYLINE
  5
2C8
330
2AF
100
AcDbEntity
  8
LAYER_1
 62
   250
100
AcDb2dPolyline
 66
     1
 10
0.0
 20
0.0
 30
0.0
  0
VERTEX
  5
2C9
330
2C8
100
AcDbEntity
  8
LAYER_1
 62
   250
100
AcDbVertex
100
AcDb2dVertex
 10
27.18904193764705
 20
-53.8497638754266
 30
0.0
  0
VERTEX
  5
2CA
330
2C8
100
AcDbEntity
  8
LAYER_1
 62
   250
100
AcDbVertex
100
AcDb2dVertex
 10
21.47224277240986
 20
-53.8497638754266
 30
0.0
  0
VERTEX
  5
2CB
330
2C8
100
AcDbEntity
  8
LAYER_1
 62
   250
100
AcDbVertex
100
AcDb2dVertex
 10
21.47224277240986
 20
-43.34636998916355
 30
0.0
  0
VERTEX
  5
2CC
330
2C8
100
AcDbEntity
  8
LAYER_1
 62
   250
100
AcDbVertex
100
AcDb2dVertex
 10
27.18904193764705
 20
-43.34636998916355
 30
0.0
  0
VERTEX
  5
2CD
330
2C8
100
AcDbEntity
  8
LAYER_1
 62
   250
100
AcDbVertex
100
AcDb2dVertex
 10
27.18904193764705
 20
-53.8497638754266
 30
0.0
  0
SEQEND
  5
2CE
330
2C8
100
AcDbEntity
  8
LAYER_1
 62
   250
  0
POLYLINE
  5
2CF
330
2AF
100
AcDbEntity
  8
LAYER_1
 62
   250
100
AcDb2dPolyline
 66
     1
 10
0.0
 20
0.0
 30
0.0
  0
VERTEX
  5
2D0
330
2CF
100
AcDbEntity
  8
LAYER_1
 62
   250
100
AcDbVertex
100
AcDb2dVertex
 10
34.43957776916781
 20
-53.8497638754266
 30
0.0
  0
VERTEX
  5
2D1
330
2CF
100
AcDbEntity
  8
LAYER_1
 62
   250
100
AcDbVertex
100
AcDb2dVertex
 10
28.72210832615294
 20
-53.8497638754266
 30
0.0
  0
VERTEX
  5
2D2
330
2CF
100
AcDbEntity
  8
LAYER_1
 62
   250
100
AcDbVertex
100
AcDb2dVertex
 10
28.72210832615294
 20
-43.34636998916355
 30
0.0
  0
VERTEX
  5
2D3
330
2CF
100
AcDbEntity
  8
LAYER_1
 62
   250
100
AcDbVertex
100
AcDb2dVertex
 10
34.43957776916781
 20
-43.34636998916355
 30
0.0
  0
VERTEX
  5
2D4
330
2CF
100
AcDbEntity
  8
LAYER_1
 62
   250
100
AcDbVertex
100
AcDb2dVertex
 10
34.43957776916781
 20
-53.8497638754266
 30
0.0
  0
SEQEND
  5
2D5
330
2CF
100
AcDbEntity
  8
LAYER_1
 62
   250
  0
POLYLINE
  5
2D6
330
2AF
100
AcDbEntity
  8
LAYER_1
 62
   250
100
AcDb2dPolyline
 66
     1
 10
0.0
 20
0.0
 30
0.0
  0
VERTEX
  5
2D7
330
2D6
100
AcDbEntity
  8
LAYER_1
 62
   250
100
AcDbVertex
100
AcDb2dVertex
 10
41.6859861006896
 20
-53.8497638754266
 30
0.0
  0
VERTEX
  5
2D8
330
2D6
100
AcDbEntity
  8
LAYER_1
 62
   250
100
AcDbVertex
100
AcDb2dVertex
 10
35.96851665767441
 20
-53.8497638754266
 30
0.0
  0
VERTEX
  5
2D9
330
2D6
100
AcDbEntity
  8
LAYER_1
 62
   250
100
AcDbVertex
100
AcDb2dVertex
 10
35.96851665767441
 20
-43.34636998916355
 30
0.0
  0
VERTEX
  5
2DA
330
2D6
100
AcDbEntity
  8
LAYER_1
 62
   250
100
AcDbVertex
100
AcDb2dVertex
 10
41.6859861006896
 20
-43.34636998916355
 30
0.0
  0
VERTEX
  5
2DB
330
2D6
100
AcDbEntity
  8
LAYER_1
 62
   250
100
AcDbVertex
100
AcDb2dVertex
 10
41.6859861006896
 20
-53.8497638754266
 30
0.0
  0
SEQEND
  5
2DC
330
2D6
100
AcDbEntity
  8
LAYER_1
 62
   250
  0
POLYLINE
  5
2DD
330
2AF
100
AcDbEntity
  8
LAYER_1
 62
   250
100
AcDb2dPolyline
 66
     1
 10
0.0
 20
0.0
 30
0.0
  0
VERTEX
  5
2DE
330
2DD
100
AcDbEntity
  8
LAYER_1
 62
   250
100
AcDbVertex
100
AcDb2dVertex
 10
41.6859861006896
 20
-109.7386891392318
 30
0.0
  0
VERTEX
  5
2DF
330
2DD
100
AcDbEntity
  8
LAYER_1
 62
   250
100
AcDbVertex
100
AcDb2dVertex
 10
21.47224277240986
 20
-109.7386891392318
 30
0.0
  0
VERTEX
  5
2E0
330
2DD
100
AcDbEntity
  8
LAYER_1
 62
   250
100
AcDbVertex
100
AcDb2dVertex
 10
21.47224277240986
 20
-86.28464664509556
 30
0.0
  0
VERTEX
  5
2E1
330
2DD
100
AcDbEntity
  8
LAYER_1
 62
   250
100
AcDbVertex
100
AcDb2dVertex
 10
41.6859861006896
 20
-86.28464664509556
 30
0.0
  0
VERTEX
  5
2E2
330
2DD
100
AcDbEntity
  8
LAYER_1
 62
   250
100
AcDbVertex
100
AcDb2dVertex
 10
41.6859861006896
 20
-109.7386891392318
 30
0.0
  0
SEQEND
  5
2E3
330
2DD
100
AcDbEntity
  8
LAYER_1
 62
   250
  0
POLYLINE
  5
2E4
330
2AF
100
AcDbEntity
  8
LAYER_1
 62
   250
100
AcDb2dPolyline
 66
     1
 10
0.0
 20
0.0
 30
0.0
  0
VERTEX
  5
2E5
330
2E4
100
AcDbEntity
  8
LAYER_1
 62
   250
100
AcDbVertex
100
AcDb2dVertex
 10
41.6859861006896
 20
-137.134776354605
 30
0.0
  0
VERTEX
  5
2E6
330
2E4
100
AcDbEntity
  8
LAYER_1
 62
   250
100
AcDbVertex
100
AcDb2dVertex
 10
21.47224277240986
 20
-137.134776354605
 30
0.0
  0
VERTEX
  5
2E7
330
2E4
100
AcDbEntity
  8
LAYER_1
 62
   250
100
AcDbVertex
100
AcDb2dVertex
 10
21.47224277240986
 20
-113.6847202493566
 30
0.0
  0
VERTEX
  5
2E8
330
2E4
100
AcDbEntity
  8
LAYER_1
 62
   250
100
AcDbVertex
100
AcDb2dVertex
 10
41.6859861006896
 20
-113.6847202493566
 30
0.0
  0
VERTEX
  5
2E9
330
2E4
100
AcDbEntity
  8
LAYER_1
 62
   250
100
AcDbVertex
100
AcDb2dVertex
 10
41.6859861006896
 20
-137.134776354605
 30
0.0
  0
SEQEND
  5
2EA
330
2E4
100
AcDbEntity
  8
LAYER_1
 62
   250
  0
POLYLINE
  5
2EB
330
2AF
100
AcDbEntity
  8
LAYER_1
 62
   250
100
AcDb2dPolyline
 66
     1
 10
0.0
 20
0.0
 30
0.0
  0
VERTEX
  5
2EC
330
2EB
100
AcDbEntity
  8
LAYER_1
 62
   250
100
AcDbVertex
100
AcDb2dVertex
 10
71.32002498217012
 20
-41.87669776730868
 30
0.0
  0
VERTEX
  5
2ED
330
2EB
100
AcDbEntity
  8
LAYER_1
 62
   250
100
AcDbVertex
100
AcDb2dVertex
 10
77.04024414565073
 20
-41.87669776730868
 30
0.0
  0
VERTEX
  5
2EE
330
2EB
100
AcDbEntity
  8
LAYER_1
 62
   250
100
AcDbVertex
100
AcDb2dVertex
 10
77.04024414565073
 20
-31.37326860326779
 30
0.0
  0
VERTEX
  5
2EF
330
2EB
100
AcDbEntity
  8
LAYER_1
 62
   250
100
AcDbVertex
100
AcDb2dVertex
 10
71.32002498217012
 20
-31.37326860326779
 30
0.0
  0
VERTEX
  5
2F0
330
2EB
100
AcDbEntity
  8
LAYER_1
 62
   250
100
AcDbVertex
100
AcDb2dVertex
 10
71.32002498217012
 20
-41.87669776730868
 30
0.0
  0
SEQEND
  5
2F1
330
2EB
100
AcDbEntity
  8
LAYER_1
 62
   250
  0
POLYLINE
  5
2F2
330
2AF
100
AcDbEntity
  8
LAYER_1
 62
   250
100
AcDb2dPolyline
 66
     1
 10
0.0
 20
0.0
 30
0.0
  0
VERTEX
  5
2F3
330
2F2
100
AcDbEntity
  8
LAYER_1
 62
   250
100
AcDbVertex
100
AcDb2dVertex
 10
64.07291109509282
 20
-41.87669776730868
 30
0.0
  0
VERTEX
  5
2F4
330
2F2
100
AcDbEntity
  8
LAYER_1
 62
   250
100
AcDbVertex
100
AcDb2dVertex
 10
69.79041405283154
 20
-41.87669776730868
 30
0.0
  0
VERTEX
  5
2F5
330
2F2
100
AcDbEntity
  8
LAYER_1
 62
   250
100
AcDbVertex
100
AcDb2dVertex
 10
69.79041405283154
 20
-31.37326860326779
 30
0.0
  0
VERTEX
  5
2F6
330
2F2
100
AcDbEntity
  8
LAYER_1
 62
   250
100
AcDbVertex
100
AcDb2dVertex
 10
64.07291109509282
 20
-31.37326860326779
 30
0.0
  0
VERTEX
  5
2F7
330
2F2
100
AcDbEntity
  8
LAYER_1
 62
   250
100
AcDbVertex
100
AcDb2dVertex
 10
64.07291109509282
 20
-41.87669776730868
 30
0.0
  0
SEQEND
  5
2F8
330
2F2
100
AcDbEntity
  8
LAYER_1
 62
   250
  0
POLYLINE
  5
2F9
330
2AF
100
AcDbEntity
  8
LAYER_1
 62
   250
100
AcDb2dPolyline
 66
     1
 10
0.0
 20
0.0
 30
0.0
  0
VERTEX
  5
2FA
330
2F9
100
AcDbEntity
  8
LAYER_1
 62
   250
100
AcDbVertex
100
AcDb2dVertex
 10
56.82374966141649
 20
-41.87669776730868
 30
0.0
  0
VERTEX
  5
2FB
330
2F9
100
AcDbEntity
  8
LAYER_1
 62
   250
100
AcDbVertex
100
AcDb2dVertex
 10
62.54397220658622
 20
-41.87669776730868
 30
0.0
  0
VERTEX
  5
2FC
330
2F9
100
AcDbEntity
  8
LAYER_1
 62
   250
100
AcDbVertex
100
AcDb2dVertex
 10
62.54397220658622
 20
-31.37326860326779
 30
0.0
  0
VERTEX
  5
2FD
330
2F9
100
AcDbEntity
  8
LAYER_1
 62
   250
100
AcDbVertex
100
AcDb2dVertex
 10
56.82374966141649
 20
-31.37326860326779
 30
0.0
  0
VERTEX
  5
2FE
330
2F9
100
AcDbEntity
  8
LAYER_1
 62
   250
100
AcDbVertex
100
AcDb2dVertex
 10
56.82374966141649
 20
-41.87669776730868
 30
0.0
  0
SEQEND
  5
2FF
330
2F9
100
AcDbEntity
  8
LAYER_1
 62
   250
  0
POLYLINE
  5
300
330
2AF
100
AcDbEntity
  8
LAYER_1
 62
   250
100
AcDb2dPolyline
 66
     1
 10
0.0
 20
0.0
 30
0.0
  0
VERTEX
  5
301
330
300
100
AcDbEntity
  8
LAYER_1
 62
   250
100
AcDbVertex
100
AcDb2dVertex
 10
71.32002498217012
 20
-53.8497638754266
 30
0.0
  0
VERTEX
  5
302
330
300
100
AcDbEntity
  8
LAYER_1
 62
   250
100
AcDbVertex
100
AcDb2dVertex
 10
77.04024414565073
 20
-53.8497638754266
 30
0.0
  0
VERTEX
  5
303
330
300
100
AcDbEntity
  8
LAYER_1
 62
   250
100
AcDbVertex
100
AcDb2dVertex
 10
77.04024414565073
 20
-43.34636998916355
 30
0.0
  0
VERTEX
  5
304
330
300
100
AcDbEntity
  8
LAYER_1
 62
   250
100
AcDbVertex
100
AcDb2dVertex
 10
71.32002498217012
 20
-43.34636998916355
 30
0.0
  0
VERTEX
  5
305
330
300
100
AcDbEntity
  8
LAYER_1
 62
   250
100
AcDbVertex
100
AcDb2dVertex
 10
71.32002498217012
 20
-53.8497638754266
 30
0.0
  0
SEQEND
  5
306
330
300
100
AcDbEntity
  8
LAYER_1
 62
   250
  0
POLYLINE
  5
307
330
2AF
100
AcDbEntity
  8
LAYER_1
 62
   250
100
AcDb2dPolyline
 66
     1
 10
0.0
 20
0.0
 30
0.0
  0
VERTEX
  5
308
330
307
100
AcDbEntity
  8
LAYER_1
 62
   250
100
AcDbVertex
100
AcDb2dVertex
 10
64.07291109509282
 20
-53.8497638754266
 30
0.0
  0
VERTEX
  5
309
330
307
100
AcDbEntity
  8
LAYER_1
 62
   250
100
AcDbVertex
100
AcDb2dVertex
 10
69.79041405283154
 20
-53.8497638754266
 30
0.0
  0
VERTEX
  5
30A
330
307
100
AcDbEntity
  8
LAYER_1
 62
   250
100
AcDbVertex
100
AcDb2dVertex
 10
69.79041405283154
 20
-43.34636998916355
 30
0.0
  0
VERTEX
  5
30B
330
307
100
AcDbEntity
  8
LAYER_1
 62
   250
100
AcDbVertex
100
AcDb2dVertex
 10
64.07291109509282
 20
-43.34636998916355
 30
0.0
  0
VERTEX
  5
30C
330
307
100
AcDbEntity
  8
LAYER_1
 62
   250
100
AcDbVertex
100
AcDb2dVertex
 10
64.07291109509282
 20
-53.8497638754266
 30
0.0
  0
SEQEND
  5
30D
330
307
100
AcDbEntity
  8
LAYER_1
 62
   250
  0
POLYLINE
  5
30E
330
2AF
100
AcDbEntity
  8
LAYER_1
 62
   250
100
AcDb2dPolyline
 66
     1
 10
0.0
 20
0.0
 30
0.0
  0
VERTEX
  5
30F
330
30E
100
AcDbEntity
  8
LAYER_1
 62
   250
100
AcDbVertex
100
AcDb2dVertex
 10
56.82374966141649
 20
-53.8497638754266
 30
0.0
  0
VERTEX
  5
310
330
30E
100
AcDbEntity
  8
LAYER_1
 62
   250
100
AcDbVertex
100
AcDb2dVertex
 10
62.54397220658622
 20
-53.8497638754266
 30
0.0
  0
VERTEX
  5
311
330
30E
100
AcDbEntity
  8
LAYER_1
 62
   250
100
AcDbVertex
100
AcDb2dVertex
 10
62.54397220658622
 20
-43.34636998916355
 30
0.0
  0
VERTEX
  5
312
330
30E
100
AcDbEntity
  8
LAYER_1
 62
   250
100
AcDbVertex
100
AcDb2dVertex
 10
56.82374966141649
 20
-43.34636998916355
 30
0.0
  0
VERTEX
  5
313
330
30E
100
AcDbEntity
  8
LAYER_1
 62
   250
100
AcDbVertex
100
AcDb2dVertex
 10
56.82374966141649
 20
-53.8497638754266
 30
0.0
  0
SEQEND
  5
314
330
30E
100
AcDbEntity
  8
LAYER_1
 62
   250
  0
POLYLINE
  5
315
330
2AF
100
AcDbEntity
  8
LAYER_1
 62
   250
100
AcDb2dPolyline
 66
     1
 10
0.0
 20
0.0
 30
0.0
  0
VERTEX
  5
316
330
315
100
AcDbEntity
  8
LAYER_1
 62
   250
100
AcDbVertex
100
AcDb2dVertex
 10
56.82374966141649
 20
-109.7386891392318
 30
0.0
  0
VERTEX
  5
317
330
315
100
AcDbEntity
  8
LAYER_1
 62
   250
100
AcDbVertex
100
AcDb2dVertex
 10
77.04024414565073
 20
-109.7386891392318
 30
0.0
  0
VERTEX
  5
318
330
315
100
AcDbEntity
  8
LAYER_1
 62
   250
100
AcDbVertex
100
AcDb2dVertex
 10
77.04024414565073
 20
-86.28464664509556
 30
0.0
  0
VERTEX
  5
319
330
315
100
AcDbEntity
  8
LAYER_1
 62
   250
100
AcDbVertex
100
AcDb2dVertex
 10
56.82374966141649
 20
-86.28464664509556
 30
0.0
  0
VERTEX
  5
31A
330
315
100
AcDbEntity
  8
LAYER_1
 62
   250
100
AcDbVertex
100
AcDb2dVertex
 10
56.82374966141649
 20
-109.7386891392318
 30
0.0
  0
SEQEND
  5
31B
330
315
100
AcDbEntity
  8
LAYER_1
 62
   250
  0
POLYLINE
  5
31C
330
2AF
100
AcDbEntity
  8
LAYER_1
 62
   250
100
AcDb2dPolyline
 66
     1
 10
0.0
 20
0.0
 30
0.0
  0
VERTEX
  5
31D
330
31C
100
AcDbEntity
  8
LAYER_1
 62
   250
100
AcDbVertex
100
AcDb2dVertex
 10
56.82374966141649
 20
-137.134776354605
 30
0.0
  0
VERTEX
  5
31E
330
31C
100
AcDbEntity
  8
LAYER_1
 62
   250
100
AcDbVertex
100
AcDb2dVertex
 10
77.04024414565073
 20
-137.134776354605
 30
0.0
  0
VERTEX
  5
31F
330
31C
100
AcDbEntity
  8
LAYER_1
 62
   250
100
AcDbVertex
100
AcDb2dVertex
 10
77.04024414565073
 20
-113.6847202493566
 30
0.0
  0
VERTEX
  5
320
330
31C
100
AcDbEntity
  8
LAYER_1
 62
   250
100
AcDbVertex
100
AcDb2dVertex
 10
56.82374966141649
 20
-113.6847202493566
 30
0.0
  0
VERTEX
  5
321
330
31C
100
AcDbEntity
  8
LAYER_1
 62
   250
100
AcDbVertex
100
AcDb2dVertex
 10
56.82374966141649
 20
-137.134776354605
 30
0.0
  0
SEQEND
  5
322
330
31C
100
AcDbEntity
  8
LAYER_1
 62
   250
  0
POLYLINE
  5
323
330
2AF
100
AcDbEntity
  8
LAYER_1
 62
   250
100
AcDb2dPolyline
 66
     1
 10
0.0
 20
0.0
 30
0.0
  0
VERTEX
  5
324
330
323
100
AcDbEntity
  8
LAYER_1
 62
   250
100
AcDbVertex
100
AcDb2dVertex
 10
56.82374966141649
 20
-82.34277831274753
 30
0.0
  0
VERTEX
  5
325
330
323
100
AcDbEntity
  8
LAYER_1
 62
   250
100
AcDbVertex
100
AcDb2dVertex
 10
77.04024414565073
 20
-82.34277831274753
 30
0.0
  0
VERTEX
  5
326
330
323
100
AcDbEntity
  8
LAYER_1
 62
   250
100
AcDbVertex
100
AcDb2dVertex
 10
77.04024414565073
 20
-58.88855942972241
 30
0.0
  0
VERTEX
  5
327
330
323
100
AcDbEntity
  8
LAYER_1
 62
   250
100
AcDbVertex
100
AcDb2dVertex
 10
56.82374966141649
 20
-58.88855942972241
 30
0.0
  0
VERTEX
  5
328
330
323
100
AcDbEntity
  8
LAYER_1
 62
   250
100
AcDbVertex
100
AcDb2dVertex
 10
56.82374966141649
 20
-82.34277831274753
 30
0.0
  0
SEQEND
  5
329
330
323
100
AcDbEntity
  8
LAYER_1
 62
   250
  0
POLYLINE
  5
32A
330
2AF
100
AcDbEntity
  8
LAYER_1
 62
   250
100
AcDb2dPolyline
 66
     1
 10
0.0
 20
0.0
 30
0.0
  0
VERTEX
  5
32B
330
32A
100
AcDbEntity
  8
LAYER_1
 62
   250
100
AcDbVertex
100
AcDb2dVertex
 10
50.22846344078737
 20
-137.134776354605
 30
0.0
  0
VERTEX
  5
32C
330
32A
100
AcDbEntity
  8
LAYER_1
 62
   250
100
AcDbVertex
100
AcDb2dVertex
 10
48.28405821261549
 20
-137.134776354605
 30
0.0
  0
VERTEX
  5
32D
330
32A
100
AcDbEntity
  8
LAYER_1
 62
   250
100
AcDbVertex
100
AcDb2dVertex
 10
48.28405821261549
 20
-31.37326860326779
 30
0.0
  0
VERTEX
  5
32E
330
32A
100
AcDbEntity
  8
LAYER_1
 62
   250
100
AcDbVertex
100
AcDb2dVertex
 10
50.22846344078737
 20
-31.37326860326779
 30
0.0
  0
VERTEX
  5
32F
330
32A
100
AcDbEntity
  8
LAYER_1
 62
   250
100
AcDbVertex
100
AcDb2dVertex
 10
50.22846344078737
 20
-137.134776354605
 30
0.0
  0
SEQEND
  5
330
330
32A
100
AcDbEntity
  8
LAYER_1
 62
   250
  0
ENDBLK
  5
2B2
330
2AF
100
AcDbEntity
  8
0
100
AcDbBlockEnd
  0
BLOCK
  5
349
330
347
100
AcDbEntity
  8
0
100
AcDbBlockBegin
  2
BLOCK_19
 70
     0
 10
0.0
 20
0.0
 30
0.0
  3
BLOCK_19
  1

  0
SPLINE
  5
34B
330
347
100
AcDbEntity
  8
LAYER_1
 62
   250
100
AcDbSpline
210
0.0
220
0.0
230
1.0
 70
    11
 71
     3
 72
    17
 73
    13
 74
     0
 42
0.0000000001
 43
0.0000000001
 12
1.0
 22
0.0
 32
0.0
 13
1.0
 23
0.0
 33
0.0
 40
0.0
 40
0.0
 40
0.0
 40
0.0
 40
1.0
 40
1.0
 40
1.0
 40
2.0
 40
2.0
 40
2.0
 40
3.0
 40
3.0
 40
3.0
 40
4.0
 40
4.0
 40
4.0
 40
4.0
 10
75.00005975325574
 20
-175.9995985671115
 30
0.0
 10
75.00005975325574
 20
-188.7033732861574
 30
0.0
 10
64.70335862705758
 20
-198.9986988391392
 30
0.0
 10
52.0006072844651
 20
-198.9986988391392
 30
0.0
 10
39.29785594187261
 20
-198.9986988391392
 30
0.0
 10
28.99977971497225
 20
-188.7033732861574
 30
0.0
 10
28.99977971497225
 20
-175.9995985671115
 30
0.0
 10
28.99977971497225
 20
-163.2957885702874
 30
0.0
 10
39.29785594187261
 20
-153.0001455173054
 30
0.0
 10
52.0006072844651
 20
-153.0001455173054
 30
0.0
 10
64.70335862705758
 20
-153.0001455173054
 30
0.0
 10
75.00005975325574
 20
-163.2957885702874
 30
0.0
 10
75.00005975325574
 20
-175.9995985671115
 30
0.0
  0
POLYLINE
  5
34C
330
347
100
AcDbEntity
  8
LAYER_1
 62
   250
100
AcDb2dPolyline
 66
     1
 10
0.0
 20
0.0
 30
0.0
  0
VERTEX
  5
34D
330
34C
100
AcDbEntity
  8
LAYER_1
 62
   250
100
AcDbVertex
100
AcDb2dVertex
 10
34.04651276926609
 20
-175.9995985671115
 30
0.0
  0
VERTEX
  5
34E
330
34C
100
AcDbEntity
  8
LAYER_1
 62
   250
100
AcDbVertex
100
AcDb2dVertex
 10
30.46878165904943
 20
-175.9995985671115
 30
0.0
  0
SEQEND
  5
34F
330
34C
100
AcDbEntity
  8
LAYER_1
 62
   250
  0
ENDBLK
  5
34A
330
347
100
AcDbEntity
  8
0
100
AcDbBlockEnd
  0
BLOCK
  5
352
330
350
100
AcDbEntity
  8
0
100
AcDbBlockBegin
  2
BLOCK_20
 70
     0
 10
0.0
 20
0.0
 30
0.0
  3
BLOCK_20
  1

  0
INSERT
  5
355
330
350
100
AcDbEntity
  8
LAYER_1
100
AcDbBlockReference
  2
BLOCK_21
 10
0.0
 20
0.0
 30
0.0
  0
POLYLINE
  5
370
330
350
100
AcDbEntity
  8
LAYER_1
 62
   250
100
AcDb2dPolyline
 66
     1
 10
0.0
 20
0.0
 30
0.0
  0
VERTEX
  5
371
330
370
100
AcDbEntity
  8
LAYER_1
 62
   250
100
AcDbVertex
100
AcDb2dVertex
 10
134.4164085151962
 20
-26.13501249346615
 30
0.0
  0
VERTEX
  5
372
330
370
100
AcDbEntity
  8
LAYER_1
 62
   250
100
AcDbVertex
100
AcDb2dVertex
 10
134.4164085151962
 20
-20.13503860607747
 30
0.0
  0
SEQEND
  5
373
330
370
100
AcDbEntity
  8
LAYER_1
 62
   250
  0
ENDBLK
  5
353
330
350
100
AcDbEntity
  8
0
100
AcDbBlockEnd
  0
BLOCK
  5
356
330
354
100
AcDbEntity
  8
0
100
AcDbBlockBegin
  2
BLOCK_21
 70
     0
 10
0.0
 20
0.0
 30
0.0
  3
BLOCK_21
  1

  0
POLYLINE
  5
358
330
354
100
AcDbEntity
  8
LAYER_1
 62
   250
100
AcDb2dPolyline
 66
     1
 10
0.0
 20
0.0
 30
0.0
  0
VERTEX
  5
359
330
358
100
AcDbEntity
  8
LAYER_1
 62
   250
100
AcDbVertex
100
AcDb2dVertex
 10
167.4164757288499
 20
-34.00982388038659
 30
0.0
  0
VERTEX
  5
35A
330
358
100
AcDbEntity
  8
LAYER_1
 62
   250
100
AcDbVertex
100
AcDb2dVertex
 10
167.4164757288499
 20
-16.00986694044206
 30
0.0
  0
VERTEX
  5
35B
330
358
100
AcDbEntity
  8
LAYER_1
 62
   250
100
AcDbVertex
100
AcDb2dVertex
 10
149.4165582959791
 20
-16.00986694044206
 30
0.0
  0
VERTEX
  5
35C
330
358
100
AcDbEntity
  8
LAYER_1
 62
   250
100
AcDbVertex
100
AcDb2dVertex
 10
149.4165582959791
 20
-13.00987999674739
 30
0.0
  0
VERTEX
  5
35D
330
358
100
AcDbEntity
  8
LAYER_1
 62
   250
100
AcDbVertex
100
AcDb2dVertex
 10
119.4162977867698
 20
-13.00987999674739
 30
0.0
  0
VERTEX
  5
35E
330
358
100
AcDbEntity
  8
LAYER_1
 62
   250
100
AcDbVertex
100
AcDb2dVertex
 10
119.4162977867698
 20
-16.00986694044206
 30
0.0
  0
VERTEX
  5
35F
330
358
100
AcDbEntity
  8
LAYER_1
 62
   250
100
AcDbVertex
100
AcDb2dVertex
 10
101.4163765793193
 20
-16.00986694044206
 30
0.0
  0
VERTEX
  5
360
330
358
100
AcDbEntity
  8
LAYER_1
 62
   250
100
AcDbVertex
100
AcDb2dVertex
 10
101.4163765793193
 20
-34.00982388038659
 30
0.0
  0
VERTEX
  5
361
330
358
100
AcDbEntity
  8
LAYER_1
 62
   250
100
AcDbVertex
100
AcDb2dVertex
 10
98.41638971141094
 20
-34.00982388038659
 30
0.0
  0
VERTEX
  5
362
330
358
100
AcDbEntity
  8
LAYER_1
 62
   250
100
AcDbVertex
100
AcDb2dVertex
 10
98.41638971141094
 20
-64.00969331733098
 30
0.0
  0
VERTEX
  5
363
330
358
100
AcDbEntity
  8
LAYER_1
 62
   250
100
AcDbVertex
100
AcDb2dVertex
 10
101.4163765793193
 20
-64.00969331733098
 30
0.0
  0
VERTEX
  5
364
330
358
100
AcDbEntity
  8
LAYER_1
 62
   250
100
AcDbVertex
100
AcDb2dVertex
 10
101.4163765793193
 20
-82.00965025727552
 30
0.0
  0
VERTEX
  5
365
330
358
100
AcDbEntity
  8
LAYER_1
 62
   250
100
AcDbVertex
100
AcDb2dVertex
 10
119.4162977867698
 20
-82.00965025727552
 30
0.0
  0
VERTEX
  5
366
330
358
100
AcDbEntity
  8
LAYER_1
 62
   250
100
AcDbVertex
100
AcDb2dVertex
 10
119.4162977867698
 20
-85.00963720096988
 30
0.0
  0
VERTEX
  5
367
330
358
100
AcDbEntity
  8
LAYER_1
 62
   250
100
AcDbVertex
100
AcDb2dVertex
 10
149.4165582959791
 20
-85.00963720096988
 30
0.0
  0
VERTEX
  5
368
330
358
100
AcDbEntity
  8
LAYER_1
 62
   250
100
AcDbVertex
100
AcDb2dVertex
 10
149.4165582959791
 20
-82.00965025727552
 30
0.0
  0
VERTEX
  5
369
330
358
100
AcDbEntity
  8
LAYER_1
 62
   250
100
AcDbVertex
100
AcDb2dVertex
 10
167.4164757288499
 20
-82.00965025727552
 30
0.0
  0
VERTEX
  5
36A
330
358
100
AcDbEntity
  8
LAYER_1
 62
   250
100
AcDbVertex
100
AcDb2dVertex
 10
167.4164757288499
 20
-64.00969331733098
 30
0.0
  0
VERTEX
  5
36B
330
358
100
AcDbEntity
  8
LAYER_1
 62
   250
100
AcDbVertex
100
AcDb2dVertex
 10
170.4164625967583
 20
-64.00969331733098
 30
0.0
  0
VERTEX
  5
36C
330
358
100
AcDbEntity
  8
LAYER_1
 62
   250
100
AcDbVertex
100
AcDb2dVertex
 10
170.4164625967583
 20
-34.00982388038659
 30
0.0
  0
VERTEX
  5
36D
330
358
100
AcDbEntity
  8
LAYER_1
 62
   250
100
AcDbVertex
100
AcDb2dVertex
 10
167.4164757288499
 20
-34.00982388038659
 30
0.0
  0
SEQEND
  5
36E
330
358
100
AcDbEntity
  8
LAYER_1
 62
   250
  0
SPLINE
  5
36F
330
354
100
AcDbEntity
  8
LAYER_1
 62
   250
100
AcDbSpline
210
0.0
220
0.0
230
1.0
 70
    11
 71
     3
 72
    35
 73
    31
 74
     0
 42
0.0000000001
 43
0.0000000001
 12
1.0
 22
0.0
 32
0.0
 13
1.0
 23
0.0
 33
0.0
 40
0.0
 40
0.0
 40
0.0
 40
0.0
 40
1.0
 40
1.0
 40
1.0
 40
2.0
 40
2.0
 40
2.0
 40
3.0
 40
3.0
 40
3.0
 40
4.0
 40
4.0
 40
4.0
 40
5.0
 40
5.0
 40
5.0
 40
6.0
 40
6.0
 40
6.0
 40
7.0
 40
7.0
 40
7.0
 40
8.0
 40
8.0
 40
8.0
 40
9.0
 40
9.0
 40
9.0
 40
10.0
 40
10.0
 40
10.0
 40
10.0
 10
155.4165282572163
 20
-41.50977360073369
 30
0.0
 10
155.4165282572163
 20
-41.50977360073369
 30
0.0
 10
150.2299189450932
 20
-41.50977360073369
 30
0.0
 10
150.2299189450932
 20
-41.50977360073369
 30
0.0
 10
147.4211376278623
 20
-35.59799415776708
 30
0.0
 10
141.3970338926611
 20
-31.50937026990044
 30
0.0
 10
134.4165849040806
 20
-31.50937026990044
 30
0.0
 10
127.4361359155
 20
-31.50937026990044
 30
0.0
 10
121.4120674580757
 20
-35.59799415776708
 30
0.0
 10
118.602933363076
 20
-41.50977360073369
 30
0.0
 10
118.602933363076
 20
-41.50977360073369
 30
0.0
 10
113.416324050953
 20
-41.50977360073369
 30
0.0
 10
113.416324050953
 20
-41.50977360073369
 30
0.0
 10
113.416324050953
 20
-41.50977360073369
 30
0.0
 10
113.416324050953
 20
-56.51041387476126
 30
0.0
 10
113.416324050953
 20
-56.51041387476126
 30
0.0
 10
113.416324050953
 20
-56.51041387476126
 30
0.0
 10
118.6032508630679
 20
-56.51041387476126
 30
0.0
 10
118.6032508630679
 20
-56.51041387476126
 30
0.0
 10
121.4120674580757
 20
-62.42152303995018
 30
0.0
 10
127.4361359155
 20
-66.51014692781682
 30
0.0
 10
134.4165849040806
 20
-66.51014692781682
 30
0.0
 10
141.3970338926611
 20
-66.51014692781682
 30
0.0
 10
147.4207848500936
 20
-62.42152303995018
 30
0.0
 10
150.2296014451013
 20
-56.51041387476126
 30
0.0
 10
150.2296014451013
 20
-56.51041387476126
 30
0.0
 10
155.4165282572163
 20
-56.51041387476126
 30
0.0
 10
155.4165282572163
 20
-56.51041387476126
 30
0.0
 10
155.4165282572163
 20
-56.51041387476126
 30
0.0
 10
155.4165282572163
 20
-41.50977360073369
 30
0.0
 10
155.4165282572163
 20
-41.50977360073369
 30
0.0
  0
ENDBLK
  5
357
330
354
100
AcDbEntity
  8
0
100
AcDbBlockEnd
  0
BLOCK
  5
38F
330
38D
100
AcDbEntity
  8
0
100
AcDbBlockBegin
  2
BLOCK_22
 70
     0
 10
0.0
 20
0.0
 30
0.0
  3
BLOCK_22
  1

  0
SPLINE
  5
391
330
38D
100
AcDbEntity
  8
LAYER_1
 62
   250
100
AcDbSpline
210
0.0
220
0.0
230
1.0
 70
    11
 71
     3
 72
    29
 73
    25
 74
     0
 42
0.0000000001
 43
0.0000000001
 12
1.0
 22
0.0
 32
0.0
 13
1.0
 23
0.0
 33
0.0
 40
0.0
 40
0.0
 40
0.0
 40
0.0
 40
1.0
 40
1.0
 40
1.0
 40
2.0
 40
2.0
 40
2.0
 40
3.0
 40
3.0
 40
3.0
 40
4.0
 40
4.0
 40
4.0
 40
5.0
 40
5.0
 40
5.0
 40
6.0
 40
6.0
 40
6.0
 40
7.0
 40
7.0
 40
7.0
 40
8.0
 40
8.0
 40
8.0
 40
8.0
 10
99.00016636318422
 20
-96.24684414260507
 30
0.0
 10
99.00016636318422
 20
-96.24684414260507
 30
0.0
 10
99.00016636318422
 20
-104.999966362639
 30
0.0
 10
99.00016636318422
 20
-104.999966362639
 30
0.0
 10
99.00016636318422
 20
-104.999966362639
 30
0.0
 10
96.03979643870956
 20
-104.999966362639
 30
0.0
 10
96.03979643870956
 20
-104.999966362639
 30
0.0
 10
96.03979643870956
 20
-104.999966362639
 30
0.0
 10
96.03979643870956
 20
-96.26166080926785
 30
0.0
 10
96.03979643870956
 20
-96.26166080926785
 30
0.0
 10
94.29347592770635
 20
-96.88004497578007
 30
0.0
 10
93.04012707079305
 20
-98.54162830869801
 30
0.0
 10
93.04012707079305
 20
-100.4999683082084
 30
0.0
 10
93.04012707079305
 20
-100.4999683082084
 30
0.0
 10
93.04012707079305
 20
-113.9999271937223
 30
0.0
 10
93.04012707079305
 20
-113.9999271937223
 30
0.0
 10
93.04012707079305
 20
-113.9999271937223
 30
0.0
 10
102.0401229522951
 20
-113.9999271937223
 30
0.0
 10
102.0401229522951
 20
-113.9999271937223
 30
0.0
 10
102.0401229522951
 20
-113.9999271937223
 30
0.0
 10
102.0401229522951
 20
-100.4999683082084
 30
0.0
 10
102.0401229522951
 20
-100.4999683082084
 30
0.0
 10
102.0401229522951
 20
-98.52645886425715
 30
0.0
 10
100.7678299291985
 20
-96.85386886467549
 30
0.0
 10
99.00016636318422
 20
-96.24684414260507
 30
0.0
  0
SPLINE
  5
392
330
38D
100
AcDbEntity
  8
LAYER_1
 62
   250
100
AcDbSpline
210
0.0
220
0.0
230
1.0
 70
    11
 71
     3
 72
    32
 73
    28
 74
     0
 42
0.0000000001
 43
0.0000000001
 12
1.0
 22
0.0
 32
0.0
 13
1.0
 23
0.0
 33
0.0
 40
0.0
 40
0.0
 40
0.0
 40
0.0
 40
1.0
 40
1.0
 40
1.0
 40
2.0
 40
2.0
 40
2.0
 40
3.0
 40
3.0
 40
3.0
 40
4.0
 40
4.0
 40
4.0
 40
5.0
 40
5.0
 40
5.0
 40
6.0
 40
6.0
 40
6.0
 40
7.0
 40
7.0
 40
7.0
 40
8.0
 40
8.0
 40
8.0
 40
9.0
 40
9.0
 40
9.0
 40
9.0
 10
109.5001055281806
 20
-96.00000553155563
 30
0.0
 10
107.0148186587134
 20
-96.00000553155563
 30
0.0
 10
105.000140099001
 20
-98.01468414216309
 30
0.0
 10
105.000140099001
 20
-100.4999683082084
 30
0.0
 10
105.000140099001
 20
-100.4999683082084
 30
0.0
 10
105.000140099001
 20
-113.9999271937223
 30
0.0
 10
105.000140099001
 20
-113.9999271937223
 30
0.0
 10
105.000140099001
 20
-113.9999271937223
 30
0.0
 10
107.9997741891407
 20
-113.9999271937223
 30
0.0
 10
107.9997741891407
 20
-113.9999271937223
 30
0.0
 10
107.9997741891407
 20
-113.9999271937223
 30
0.0
 10
107.9997741891407
 20
-104.999966362639
 30
0.0
 10
107.9997741891407
 20
-104.999966362639
 30
0.0
 10
107.9997741891407
 20
-104.999966362639
 30
0.0
 10
111.0001166389166
 20
-104.999966362639
 30
0.0
 10
111.0001166389166
 20
-104.999966362639
 30
0.0
 10
111.0001166389166
 20
-104.999966362639
 30
0.0
 10
111.0001166389166
 20
-113.9999271937223
 30
0.0
 10
111.0001166389166
 20
-113.9999271937223
 30
0.0
 10
111.0001166389166
 20
-113.9999271937223
 30
0.0
 10
114.0001007027262
 20
-113.9999271937223
 30
0.0
 10
114.0001007027262
 20
-113.9999271937223
 30
0.0
 10
114.0001007027262
 20
-113.9999271937223
 30
0.0
 10
114.0001007027262
 20
-100.4999683082084
 30
0.0
 10
114.0001007027262
 20
-100.4999683082084
 30
0.0
 10
114.0001007027262
 20
-98.01468414216309
 30
0.0
 10
111.9854249720038
 20
-96.00000553155563
 30
0.0
 10
109.5001055281806
 20
-96.00000553155563
 30
0.0
  0
ENDBLK
  5
390
330
38D
100
AcDbEntity
  8
0
100
AcDbBlockEnd
  0
BLOCK
  5
395
330
393
100
AcDbEntity
  8
0
100
AcDbBlockBegin
  2
BLOCK_23
 70
     0
 10
0.0
 20
0.0
 30
0.0
  3
BLOCK_23
  1

  0
POLYLINE
  5
397
330
393
100
AcDbEntity
  8
LAYER_1
 62
   250
100
AcDb2dPolyline
 66
     1
 10
0.0
 20
0.0
 30
0.0
  0
VERTEX
  5
398
330
397
100
AcDbEntity
  8
LAYER_1
 62
   250
100
AcDbVertex
100
AcDb2dVertex
 10
181.2182356545154
 20
-116.1348677487439
 30
0.0
  0
VERTEX
  5
399
330
397
100
AcDbEntity
  8
LAYER_1
 62
   250
100
AcDbVertex
100
AcDb2dVertex
 10
181.2182356545154
 20
-104.1350610850772
 30
0.0
  0
VERTEX
  5
39A
330
397
100
AcDbEntity
  8
LAYER_1
 62
   250
100
AcDbVertex
100
AcDb2dVertex
 10
253.1793618741897
 20
-104.1350610850772
 30
0.0
  0
VERTEX
  5
39B
330
397
100
AcDbEntity
  8
LAYER_1
 62
   250
100
AcDbVertex
100
AcDb2dVertex
 10
253.1793618741897
 20
-116.1348677487439
 30
0.0
  0
SEQEND
  5
39C
330
397
100
AcDbEntity
  8
LAYER_1
 62
   250
  0
POLYLINE
  5
39D
330
393
100
AcDbEntity
  8
LAYER_1
 62
   250
100
AcDb2dPolyline
 66
     1
 10
0.0
 20
0.0
 30
0.0
  0
VERTEX
  5
39E
330
39D
100
AcDbEntity
  8
LAYER_1
 62
   250
100
AcDbVertex
100
AcDb2dVertex
 10
181.2567942646428
 20
-128.1355210790774
 30
0.0
  0
VERTEX
  5
39F
330
39D
100
AcDbEntity
  8
LAYER_1
 62
   250
100
AcDbVertex
100
AcDb2dVertex
 10
181.2567942646428
 20
-116.1348677487439
 30
0.0
  0
VERTEX
  5
3A0
330
39D
100
AcDbEntity
  8
LAYER_1
 62
   250
100
AcDbVertex
100
AcDb2dVertex
 10
253.217955762094
 20
-116.1348677487439
 30
0.0
  0
VERTEX
  5
3A1
330
39D
100
AcDbEntity
  8
LAYER_1
 62
   250
100
AcDbVertex
100
AcDb2dVertex
 10
253.217955762094
 20
-128.1355210790774
 30
0.0
  0
SEQEND
  5
3A2
330
39D
100
AcDbEntity
  8
LAYER_1
 62
   250
  0
POLYLINE
  5
3A3
330
393
100
AcDbEntity
  8
LAYER_1
 62
   250
100
AcDb2dPolyline
 66
     1
 10
0.0
 20
0.0
 30
0.0
  0
VERTEX
  5
3A4
330
3A3
100
AcDbEntity
  8
LAYER_1
 62
   250
100
AcDbVertex
100
AcDb2dVertex
 10
181.2567942646428
 20
-140.1354688538548
 30
0.0
  0
VERTEX
  5
3A5
330
3A3
100
AcDbEntity
  8
LAYER_1
 62
   250
100
AcDbVertex
100
AcDb2dVertex
 10
181.2567942646428
 20
-128.1348155235219
 30
0.0
  0
VERTEX
  5
3A6
330
3A3
100
AcDbEntity
  8
LAYER_1
 62
   250
100
AcDbVertex
100
AcDb2dVertex
 10
253.217955762094
 20
-128.1348155235219
 30
0.0
  0
VERTEX
  5
3A7
330
3A3
100
AcDbEntity
  8
LAYER_1
 62
   250
100
AcDbVertex
100
AcDb2dVertex
 10
253.217955762094
 20
-140.1354688538548
 30
0.0
  0
SEQEND
  5
3A8
330
3A3
100
AcDbEntity
  8
LAYER_1
 62
   250
  0
POLYLINE
  5
3A9
330
393
100
AcDbEntity
  8
LAYER_1
 62
   250
100
AcDb2dPolyline
 66
     1
 10
0.0
 20
0.0
 30
0.0
  0
VERTEX
  5
3AA
330
3A9
100
AcDbEntity
  8
LAYER_1
 62
   250
100
AcDbVertex
100
AcDb2dVertex
 10
181.2953881525471
 20
-152.1354166286328
 30
0.0
  0
VERTEX
  5
3AB
330
3A9
100
AcDbEntity
  8
LAYER_1
 62
   250
100
AcDbVertex
100
AcDb2dVertex
 10
181.2953881525471
 20
-140.1354688538548
 30
0.0
  0
VERTEX
  5
3AC
330
3A9
100
AcDbEntity
  8
LAYER_1
 62
   250
100
AcDbVertex
100
AcDb2dVertex
 10
253.2565496499982
 20
-140.1354688538548
 30
0.0
  0
VERTEX
  5
3AD
330
3A9
100
AcDbEntity
  8
LAYER_1
 62
   250
100
AcDbVertex
100
AcDb2dVertex
 10
253.2565496499982
 20
-152.1354166286328
 30
0.0
  0
VERTEX
  5
3AE
330
3A9
100
AcDbEntity
  8
LAYER_1
 62
   250
100
AcDbVertex
100
AcDb2dVertex
 10
181.2953881525471
 20
-152.1354166286328
 30
0.0
  0
SEQEND
  5
3AF
330
3A9
100
AcDbEntity
  8
LAYER_1
 62
   250
  0
ENDBLK
  5
396
330
393
100
AcDbEntity
  8
0
100
AcDbBlockEnd
  0
BLOCK
  5
3B2
330
3B0
100
AcDbEntity
  8
0
100
AcDbBlockBegin
  2
BLOCK_24
 70
     0
 10
0.0
 20
0.0
 30
0.0
  3
BLOCK_24
  1

  0
INSERT
  5
3B5
330
3B0
100
AcDbEntity
  8
LAYER_1
100
AcDbBlockReference
  2
BLOCK_25
 10
0.0
 20
0.0
 30
0.0
  0
POLYLINE
  5
3CE
330
3B0
100
AcDbEntity
  8
LAYER_1
 62
   250
100
AcDb2dPolyline
 66
     1
 10
0.0
 20
0.0
 30
0.0
  0
VERTEX
  5
3CF
330
3CE
100
AcDbEntity
  8
LAYER_1
 62
   250
100
AcDbVertex
100
AcDb2dVertex
 10
262.2565102537234
 20
-95.1351002539939
 30
0.0
  0
VERTEX
  5
3D0
330
3CE
100
AcDbEntity
  8
LAYER_1
 62
   250
100
AcDbVertex
100
AcDb2dVertex
 10
184.2564636325593
 20
-95.1351002539939
 30
0.0
  0
VERTEX
  5
3D1
330
3CE
100
AcDbEntity
  8
LAYER_1
 62
   250
100
AcDbVertex
100
AcDb2dVertex
 10
184.2564636325593
 20
-17.1350516623828
 30
0.0
  0
VERTEX
  5
3D2
330
3CE
100
AcDbEntity
  8
LAYER_1
 62
   250
100
AcDbVertex
100
AcDb2dVertex
 10
262.2565102537234
 20
-17.1350516623828
 30
0.0
  0
VERTEX
  5
3D3
330
3CE
100
AcDbEntity
  8
LAYER_1
 62
   250
100
AcDbVertex
100
AcDb2dVertex
 10
262.2565102537234
 20
-95.1351002539939
 30
0.0
  0
SEQEND
  5
3D4
330
3CE
100
AcDbEntity
  8
LAYER_1
 62
   250
  0
ENDBLK
  5
3B3
330
3B0
100
AcDbEntity
  8
0
100
AcDbBlockEnd
  0
BLOCK
  5
3B6
330
3B4
100
AcDbEntity
  8
0
100
AcDbBlockBegin
  2
BLOCK_25
 70
     0
 10
0.0
 20
0.0
 30
0.0
  3
BLOCK_25
  1

  0
POLYLINE
  5
3B8
330
3B4
100
AcDbEntity
  8
LAYER_1
 62
   250
100
AcDb2dPolyline
 66
     1
 10
0.0
 20
0.0
 30
0.0
  0
VERTEX
  5
3B9
330
3B8
100
AcDbEntity
  8
LAYER_1
 62
   250
100
AcDbVertex
100
AcDb2dVertex
 10
244.256589046273
 20
-35.13497332454951
 30
0.0
  0
VERTEX
  5
3BA
330
3B8
100
AcDbEntity
  8
LAYER_1
 62
   250
100
AcDbVertex
100
AcDb2dVertex
 10
202.2563848400097
 20
-35.13497332454951
 30
0.0
  0
VERTEX
  5
3BB
330
3B8
100
AcDbEntity
  8
LAYER_1
 62
   250
100
AcDbVertex
100
AcDb2dVertex
 10
202.2563848400097
 20
-77.1351785918272
 30
0.0
  0
VERTEX
  5
3BC
330
3B8
100
AcDbEntity
  8
LAYER_1
 62
   250
100
AcDbVertex
100
AcDb2dVertex
 10
244.256589046273
 20
-77.1351785918272
 30
0.0
  0
VERTEX
  5
3BD
330
3B8
100
AcDbEntity
  8
LAYER_1
 62
   250
100
AcDbVertex
100
AcDb2dVertex
 10
244.256589046273
 20
-35.13497332454951
 30
0.0
  0
SEQEND
  5
3BE
330
3B8
100
AcDbEntity
  8
LAYER_1
 62
   250
  0
POLYLINE
  5
3BF
330
3B4
100
AcDbEntity
  8
LAYER_1
 62
   250
100
AcDb2dPolyline
 66
     1
 10
0.0
 20
0.0
 30
0.0
  0
VERTEX
  5
3C0
330
3BF
100
AcDbEntity
  8
LAYER_1
 62
   250
100
AcDbVertex
100
AcDb2dVertex
 10
227.5134033623162
 20
-58.27052804098795
 30
0.0
  0
VERTEX
  5
3C1
330
3BF
100
AcDbEntity
  8
LAYER_1
 62
   250
100
AcDbVertex
100
AcDb2dVertex
 10
225.3777925834668
 20
-56.13523470818831
 30
0.0
  0
VERTEX
  5
3C2
330
3BF
100
AcDbEntity
  8
LAYER_1
 62
   250
100
AcDbVertex
100
AcDb2dVertex
 10
227.5134033623162
 20
-53.99997665316683
 30
0.0
  0
VERTEX
  5
3C3
330
3BF
100
AcDbEntity
  8
LAYER_1
 62
   250
100
AcDbVertex
100
AcDb2dVertex
 10
225.3922564719867
 20
-51.87847693147482
 30
0.0
  0
VERTEX
  5
3C4
330
3BF
100
AcDbEntity
  8
LAYER_1
 62
   250
100
AcDbVertex
100
AcDb2dVertex
 10
223.2566456931373
 20
-54.01377026427447
 30
0.0
  0
VERTEX
  5
3C5
330
3BF
100
AcDbEntity
  8
LAYER_1
 62
   250
100
AcDbVertex
100
AcDb2dVertex
 10
221.121034914288
 20
-51.87847693147482
 30
0.0
  0
VERTEX
  5
3C6
330
3BF
100
AcDbEntity
  8
LAYER_1
 62
   250
100
AcDbVertex
100
AcDb2dVertex
 10
218.9998880239585
 20
-53.99997665316683
 30
0.0
  0
VERTEX
  5
3C7
330
3BF
100
AcDbEntity
  8
LAYER_1
 62
   250
100
AcDbVertex
100
AcDb2dVertex
 10
221.1354988028079
 20
-56.13523470818831
 30
0.0
  0
VERTEX
  5
3C8
330
3BF
100
AcDbEntity
  8
LAYER_1
 62
   250
100
AcDbVertex
100
AcDb2dVertex
 10
218.9998880239585
 20
-58.27052804098795
 30
0.0
  0
VERTEX
  5
3C9
330
3BF
100
AcDbEntity
  8
LAYER_1
 62
   250
100
AcDbVertex
100
AcDb2dVertex
 10
221.121034914288
 20
-60.39199248490211
 30
0.0
  0
VERTEX
  5
3CA
330
3BF
100
AcDbEntity
  8
LAYER_1
 62
   250
100
AcDbVertex
100
AcDb2dVertex
 10
223.2566456931373
 20
-58.2567344298803
 30
0.0
  0
VERTEX
  5
3CB
330
3BF
100
AcDbEntity
  8
LAYER_1
 62
   250
100
AcDbVertex
100
AcDb2dVertex
 10
225.3922564719867
 20
-60.39199248490211
 30
0.0
  0
VERTEX
  5
3CC
330
3BF
100
AcDbEntity
  8
LAYER_1
 62
   250
100
AcDbVertex
100
AcDb2dVertex
 10
227.5134033623162
 20
-58.27052804098795
 30
0.0
  0
SEQEND
  5
3CD
330
3BF
100
AcDbEntity
  8
LAYER_1
 62
   250
  0
ENDBLK
  5
3B7
330
3B4
100
AcDbEntity
  8
0
100
AcDbBlockEnd
  0
BLOCK
  5
3D7
330
3D5
100
AcDbEntity
  8
0
100
AcDbBlockBegin
  2
BLOCK_26
 70
     0
 10
0.0
 20
0.0
 30
0.0
  3
BLOCK_26
  1

  0
POLYLINE
  5
3D9
330
3D5
100
AcDbEntity
  8
LAYER_1
 62
   250
100
AcDb2dPolyline
 66
     1
 10
0.0
 20
0.0
 30
0.0
  0
VERTEX
  5
3DA
330
3D9
100
AcDbEntity
  8
LAYER_1
 62
   250
100
AcDbVertex
100
AcDb2dVertex
 10
165.0000891238303
 20
-192.0000110631113
 30
0.0
  0
VERTEX
  5
3DB
330
3D9
100
AcDbEntity
  8
LAYER_1
 62
   250
100
AcDbVertex
100
AcDb2dVertex
 10
104.9999637101166
 20
-192.0000110631113
 30
0.0
  0
VERTEX
  5
3DC
330
3D9
100
AcDbEntity
  8
LAYER_1
 62
   250
100
AcDbVertex
100
AcDb2dVertex
 10
104.9999637101166
 20
-132.0002016336668
 30
0.0
  0
VERTEX
  5
3DD
330
3D9
100
AcDbEntity
  8
LAYER_1
 62
   250
100
AcDbVertex
100
AcDb2dVertex
 10
165.0000891238303
 20
-132.0002016336668
 30
0.0
  0
VERTEX
  5
3DE
330
3D9
100
AcDbEntity
  8
LAYER_1
 62
   250
100
AcDbVertex
100
AcDb2dVertex
 10
165.0000891238303
 20
-192.0000110631113
 30
0.0
  0
SEQEND
  5
3DF
330
3D9
100
AcDbEntity
  8
LAYER_1
 62
   250
  0
INSERT
  5
3E1
330
3D5
100
AcDbEntity
  8
LAYER_1
100
AcDbBlockReference
  2
BLOCK_27
 10
0.0
 20
0.0
 30
0.0
  0
ENDBLK
  5
3D8
330
3D5
100
AcDbEntity
  8
0
100
AcDbBlockEnd
  0
BLOCK
  5
3E2
330
3E0
100
AcDbEntity
  8
0
100
AcDbBlockBegin
  2
BLOCK_27
 70
     0
 10
0.0
 20
0.0
 30
0.0
  3
BLOCK_27
  1

  0
POLYLINE
  5
3E4
330
3E0
100
AcDbEntity
  8
LAYER_1
 62
   250
100
AcDb2dPolyline
 66
     1
 10
0.0
 20
0.0
 30
0.0
  0
VERTEX
  5
3E5
330
3E4
100
AcDbEntity
  8
LAYER_1
 62
   250
100
AcDbVertex
100
AcDb2dVertex
 10
139.2569428361483
 20
-164.1353644034108
 30
0.0
  0
VERTEX
  5
3E6
330
3E4
100
AcDbEntity
  8
LAYER_1
 62
   250
100
AcDbVertex
100
AcDb2dVertex
 10
137.1213320572989
 20
-162.000106348389
 30
0.0
  0
VERTEX
  5
3E7
330
3E4
100
AcDbEntity
  8
LAYER_1
 62
   250
100
AcDbVertex
100
AcDb2dVertex
 10
139.2569428361483
 20
-159.8648482933672
 30
0.0
  0
VERTEX
  5
3E8
330
3E4
100
AcDbEntity
  8
LAYER_1
 62
   250
100
AcDbVertex
100
AcDb2dVertex
 10
137.1357959458188
 20
-157.7433485716755
 30
0.0
  0
VERTEX
  5
3E9
330
3E4
100
AcDbEntity
  8
LAYER_1
 62
   250
100
AcDbVertex
100
AcDb2dVertex
 10
135.0001851669695
 20
-159.8786066266967
 30
0.0
  0
VERTEX
  5
3EA
330
3E4
100
AcDbEntity
  8
LAYER_1
 62
   250
100
AcDbVertex
100
AcDb2dVertex
 10
132.8645777445616
 20
-157.7433485716755
 30
0.0
  0
VERTEX
  5
3EB
330
3E4
100
AcDbEntity
  8
LAYER_1
 62
   250
100
AcDbVertex
100
AcDb2dVertex
 10
130.7434274977906
 20
-159.8648482933672
 30
0.0
  0
VERTEX
  5
3EC
330
3E4
100
AcDbEntity
  8
LAYER_1
 62
   250
100
AcDbVertex
100
AcDb2dVertex
 10
132.8790416334469
 20
-162.000106348389
 30
0.0
  0
VERTEX
  5
3ED
330
3E4
100
AcDbEntity
  8
LAYER_1
 62
   250
100
AcDbVertex
100
AcDb2dVertex
 10
130.7434274977906
 20
-164.1353644034108
 30
0.0
  0
VERTEX
  5
3EE
330
3E4
100
AcDbEntity
  8
LAYER_1
 62
   250
100
AcDbVertex
100
AcDb2dVertex
 10
132.8645777445616
 20
-166.2568641251025
 30
0.0
  0
VERTEX
  5
3EF
330
3E4
100
AcDbEntity
  8
LAYER_1
 62
   250
100
AcDbVertex
100
AcDb2dVertex
 10
135.0001851669695
 20
-164.1216060700807
 30
0.0
  0
VERTEX
  5
3F0
330
3E4
100
AcDbEntity
  8
LAYER_1
 62
   250
100
AcDbVertex
100
AcDb2dVertex
 10
137.1357959458188
 20
-166.2568641251025
 30
0.0
  0
VERTEX
  5
3F1
330
3E4
100
AcDbEntity
  8
LAYER_1
 62
   250
100
AcDbVertex
100
AcDb2dVertex
 10
139.2569428361483
 20
-164.1353644034108
 30
0.0
  0
SEQEND
  5
3F2
330
3E4
100
AcDbEntity
  8
LAYER_1
 62
   250
  0
POLYLINE
  5
3F3
330
3E0
100
AcDbEntity
  8
LAYER_1
 62
   250
100
AcDb2dPolyline
 66
     1
 10
0.0
 20
0.0
 30
0.0
  0
VERTEX
  5
3F4
330
3F3
100
AcDbEntity
  8
LAYER_1
 62
   250
100
AcDbVertex
100
AcDb2dVertex
 10
146.9998151386112
 20
-174.0000541231664
 30
0.0
  0
VERTEX
  5
3F5
330
3F3
100
AcDbEntity
  8
LAYER_1
 62
   250
100
AcDbVertex
100
AcDb2dVertex
 10
122.9998849175671
 20
-174.0000541231664
 30
0.0
  0
VERTEX
  5
3F6
330
3F3
100
AcDbEntity
  8
LAYER_1
 62
   250
100
AcDbVertex
100
AcDb2dVertex
 10
122.9998849175671
 20
-150.000158573611
 30
0.0
  0
VERTEX
  5
3F7
330
3F3
100
AcDbEntity
  8
LAYER_1
 62
   250
100
AcDbVertex
100
AcDb2dVertex
 10
146.9998151386112
 20
-150.000158573611
 30
0.0
  0
VERTEX
  5
3F8
330
3F3
100
AcDbEntity
  8
LAYER_1
 62
   250
100
AcDbVertex
100
AcDb2dVertex
 10
146.9998151386112
 20
-174.0000541231664
 30
0.0
  0
SEQEND
  5
3F9
330
3F3
100
AcDbEntity
  8
LAYER_1
 62
   250
  0
ENDBLK
  5
3E3
330
3E0
100
AcDbEntity
  8
0
100
AcDbBlockEnd
  0
ENDSEC
  0
SECTION
  2
ENTITIES
  0
INSERT
  5
42
330
1F
100
AcDbEntity
  8
LAYER_1
100
AcDbBlockReference
  2
BLOCK_2
 10
0.0
 20
0.0
 30
0.0
  0
INSERT
  5
D3
330
1F
100
AcDbEntity
  8
LAYER_1
100
AcDbBlockReference
  2
BLOCK_4
 10
0.0
 20
0.0
 30
0.0
  0
INSERT
  5
2A4
330
1F
100
AcDbEntity
  8
LAYER_1
100
AcDbBlockReference
  2
BLOCK_15
 10
0.0
 20
0.0
 30
0.0
  0
SPLINE
  5
346
330
1F
100
AcDbEntity
  8
LAYER_1
 62
   250
100
AcDbSpline
210
0.0
220
0.0
230
1.0
 70
    11
 71
     3
 72
    17
 73
    13
 74
     0
 42
0.0000000001
 43
0.0000000001
 12
1.0
 22
0.0
 32
0.0
 13
1.0
 23
0.0
 33
0.0
 40
0.0
 40
0.0
 40
0.0
 40
0.0
 40
1.0
 40
1.0
 40
1.0
 40
2.0
 40
2.0
 40
2.0
 40
3.0
 40
3.0
 40
3.0
 40
4.0
 40
4.0
 40
4.0
 40
4.0
 10
169.9999378851625
 20
-105.500205251403
 30
0.0
 10
169.9999378851625
 20
-115.1657519156533
 30
0.0
 10
162.1647789183874
 20
-122.9998880248054
 30
0.0
 10
152.49990277607
 20
-122.9998880248054
 30
0.0
 10
142.835203022637
 20
-122.9998880248054
 30
0.0
 10
135.0000087780851
 20
-115.1657519156533
 30
0.0
 10
135.0000087780851
 20
-105.500205251403
 30
0.0
 10
135.0000087780851
 20
-95.8351524760412
 30
0.0
 10
142.835203022637
 20
-88.00066358911107
 30
0.0
 10
152.49990277607
 20
-88.00066358911107
 30
0.0
 10
162.1647789183874
 20
-88.00066358911107
 30
0.0
 10
169.9999378851625
 20
-95.8351524760412
 30
0.0
 10
169.9999378851625
 20
-105.500205251403
 30
0.0
  0
INSERT
  5
348
330
1F
100
AcDbEntity
  8
LAYER_1
100
AcDbBlockReference
  2
BLOCK_19
 10
0.0
 20
0.0
 30
0.0
  0
INSERT
  5
351
330
1F
100
AcDbEntity
  8
LAYER_1
100
AcDbBlockReference
  2
BLOCK_20
 10
0.0
 20
0.0
 30
0.0
  0
POLYLINE
  5
374
330
1F
100
AcDbEntity
  8
LAYER_1
 62
   250
100
AcDb2dPolyline
 66
     1
 10
0.0
 20
0.0
 30
0.0
  0
VERTEX
  5
375
330
374
100
AcDbEntity
  8
LAYER_1
 62
   250
100
AcDbVertex
100
AcDb2dVertex
 10
180.0000234633724
 20
-182.9628321764815
 30
0.0
  0
VERTEX
  5
376
330
374
100
AcDbEntity
  8
LAYER_1
 62
   250
100
AcDbVertex
100
AcDb2dVertex
 10
180.0000234633724
 20
-177.0372591224075
 30
0.0
  0
VERTEX
  5
377
330
374
100
AcDbEntity
  8
LAYER_1
 62
   250
100
AcDbVertex
100
AcDb2dVertex
 10
264.0000790981302
 20
-177.0372591224075
 30
0.0
  0
VERTEX
  5
378
330
374
100
AcDbEntity
  8
LAYER_1
 62
   250
100
AcDbVertex
100
AcDb2dVertex
 10
264.0000790981302
 20
-182.9628321764815
 30
0.0
  0
SEQEND
  5
379
330
374
100
AcDbEntity
  8
LAYER_1
 62
   250
  0
POLYLINE
  5
37A
330
1F
100
AcDbEntity
  8
LAYER_1
 62
   250
100
AcDb2dPolyline
 66
     1
 10
0.0
 20
0.0
 30
0.0
  0
VERTEX
  5
37B
330
37A
100
AcDbEntity
  8
LAYER_1
 62
   250
100
AcDbVertex
100
AcDb2dVertex
 10
180.0000234633724
 20
-170.8877780128338
 30
0.0
  0
VERTEX
  5
37C
330
37A
100
AcDbEntity
  8
LAYER_1
 62
   250
100
AcDbVertex
100
AcDb2dVertex
 10
180.0000234633724
 20
-164.9628752365372
 30
0.0
  0
VERTEX
  5
37D
330
37A
100
AcDbEntity
  8
LAYER_1
 62
   250
100
AcDbVertex
100
AcDb2dVertex
 10
258.0001053623134
 20
-164.9628752365372
 30
0.0
  0
VERTEX
  5
37E
330
37A
100
AcDbEntity
  8
LAYER_1
 62
   250
100
AcDbVertex
100
AcDb2dVertex
 10
258.0001053623134
 20
-170.8877780128338
 30
0.0
  0
SEQEND
  5
37F
330
37A
100
AcDbEntity
  8
LAYER_1
 62
   250
  0
POLYLINE
  5
380
330
1F
100
AcDbEntity
  8
LAYER_1
 62
   250
100
AcDb2dPolyline
 66
     1
 10
0.0
 20
0.0
 30
0.0
  0
VERTEX
  5
381
330
380
100
AcDbEntity
  8
LAYER_1
 62
   250
100
AcDbVertex
100
AcDb2dVertex
 10
180.0000234633724
 20
-176.9628582890928
 30
0.0
  0
VERTEX
  5
382
330
380
100
AcDbEntity
  8
LAYER_1
 62
   250
100
AcDbVertex
100
AcDb2dVertex
 10
180.0000234633724
 20
-171.0372852350182
 30
0.0
  0
VERTEX
  5
383
330
380
100
AcDbEntity
  8
LAYER_1
 62
   250
100
AcDbVertex
100
AcDb2dVertex
 10
258.0001053623134
 20
-171.0372852350182
 30
0.0
  0
VERTEX
  5
384
330
380
100
AcDbEntity
  8
LAYER_1
 62
   250
100
AcDbVertex
100
AcDb2dVertex
 10
258.0001053623134
 20
-176.9628582890928
 30
0.0
  0
SEQEND
  5
385
330
380
100
AcDbEntity
  8
LAYER_1
 62
   250
  0
POLYLINE
  5
386
330
1F
100
AcDbEntity
  8
LAYER_1
 62
   250
100
AcDb2dPolyline
 66
     1
 10
0.0
 20
0.0
 30
0.0
  0
VERTEX
  5
387
330
386
100
AcDbEntity
  8
LAYER_1
 62
   250
100
AcDbVertex
100
AcDb2dVertex
 10
264.0000790981302
 20
-188.9628060638701
 30
0.0
  0
VERTEX
  5
388
330
386
100
AcDbEntity
  8
LAYER_1
 62
   250
100
AcDbVertex
100
AcDb2dVertex
 10
180.0000234633724
 20
-188.9628060638701
 30
0.0
  0
VERTEX
  5
389
330
386
100
AcDbEntity
  8
LAYER_1
 62
   250
100
AcDbVertex
100
AcDb2dVertex
 10
180.0000234633724
 20
-183.0372330097962
 30
0.0
  0
VERTEX
  5
38A
330
386
100
AcDbEntity
  8
LAYER_1
 62
   250
100
AcDbVertex
100
AcDb2dVertex
 10
264.0000790981302
 20
-183.0372330097962
 30
0.0
  0
VERTEX
  5
38B
330
386
100
AcDbEntity
  8
LAYER_1
 62
   250
100
AcDbVertex
100
AcDb2dVertex
 10
264.0000790981302
 20
-188.9628060638701
 30
0.0
  0
SEQEND
  5
38C
330
386
100
AcDbEntity
  8
LAYER_1
 62
   250
  0
INSERT
  5
38E
330
1F
100
AcDbEntity
  8
LAYER_1
100
AcDbBlockReference
  2
BLOCK_22
 10
0.0
 20
0.0
 30
0.0
  0
INSERT
  5
394
330
1F
100
AcDbEntity
  8
LAYER_1
100
AcDbBlockReference
  2
BLOCK_23
 10
0.0
 20
0.0
 30
0.0
  0
INSERT
  5
3B1
330
1F
100
AcDbEntity
  8
LAYER_1
100
AcDbBlockReference
  2
BLOCK_24
 10
0.0
 20
0.0
 30
0.0
  0
INSERT
  5
3D6
330
1F
100
AcDbEntity
  8
LAYER_1
100
AcDbBlockReference
  2
BLOCK_26
 10
0.0
 20
0.0
 30
0.0
  0
POLYLINE
  5
3FA
330
1F
100
AcDbEntity
  8
LAYER_1
 62
   250
100
AcDb2dPolyline
 66
     1
 10
0.0
 20
0.0
 30
0.0
  0
VERTEX
  5
3FB
330
3FA
100
AcDbEntity
  8
LAYER_1
 62
   250
100
AcDbVertex
100
AcDb2dVertex
 10
109.1966080474958
 20
-49.00975859885863
 30
0.0
  0
VERTEX
  5
3FC
330
3FA
100
AcDbEntity
  8
LAYER_1
 62
   250
100
AcDbVertex
100
AcDb2dVertex
 10
103.196634311679
 20
-49.00975859885863
 30
0.0
  0
SEQEND
  5
3FD
330
3FA
100
AcDbEntity
  8
LAYER_1
 62
   250
  0
ENDSEC
  0
SECTION
  2
OBJECTS
  0
DICTIONARY
  5
C
330
0
100
AcDbDictionary
  3
ACAD_GROUP
350
D
  3
ACAD_LAYOUT
350
1A
  3
ACAD_MATERIAL
350
3B
  3
ACAD_MLEADERSTYLE
350
420
  3
ACAD_MLINESTYLE
350
17
  3
ACAD_PLOTSETTINGS
350
19
  3
ACAD_VISUALSTYLE
350
2A
  3
ACDBHEADERROUNDTRIPXREC
350
3FE
  3
ACDBVARIABLEDICTIONARY
350
41E
  0
DICTIONARY
  5
D
102
{ACAD_REACTORS
330
C
102
}
330
C
100
AcDbDictionary
  0
DICTIONARY
  5
1A
102
{ACAD_REACTORS
330
C
102
}
330
C
100
AcDbDictionary
  0
DICTIONARY
  5
3B
102
{ACAD_REACTORS
330
C
102
}
330
C
100
AcDbDictionary
  3
BYBLOCK
350
3D
  3
BYLAYER
350
3C
  3
GLOBAL
350
3E
  0
DICTIONARY
  5
420
102
{ACAD_REACTORS
330
C
102
}
330
C
100
AcDbDictionary
  0
DICTIONARY
  5
17
102
{ACAD_REACTORS
330
C
102
}
330
C
100
AcDbDictionary
  3
STANDARD
350
18
  0
DICTIONARY
  5
19
102
{ACAD_REACTORS
330
C
102
}
330
C
100
AcDbDictionary
  0
DICTIONARY
  5
2A
102
{ACAD_REACTORS
330
C
102
}
330
C
100
AcDbDictionary
  3
2DWIREFRAME
350
2F
  3
3DWIREFRAME
350
30
  3
3D_HIDDEN
350
31
  3
BASIC
350
32
  3
BRIGHTEN
350
36
  3
COLORCHANGE
350
3A
  3
CONCEPTUAL
350
34
  3
DIM
350
35
  3
FACEPATTERN
350
39
  3
FLAT
350
2B
  3
FLATWITHEDGES
350
2C
  3
GOURAUD
350
2D
  3
GOURAUDWITHEDGES
350
2E
  3
LINEPATTERN
350
38
  3
REALISTIC
350
33
  3
THICKEN
350
37
  0
DICTIONARY
  5
3FE
102
{ACAD_REACTORS
330
C
102
}
330
C
100
AcDbDictionary
  3
CEPSNTYPE
350
407
  3
DIMSTYLEDATA
350
41D
  3
FINGERPRINTGUID
350
408
  3
HYPERLINKBASE
350
401
  3
INSUNITS
350
406
  3
LAYOUTDICT
350
403
  3
LWETCUNION
350
405
  3
PLOTSETDICT
350
404
  3
PSVPSCALE
350
40A
  3
PUCSBASE
350
40D
  3
PUCSORGBACK
350
413
  3
PUCSORGBOTTOM
350
40F
  3
PUCSORGFRONT
350
412
  3
PUCSORGLEFT
350
410
  3
PUCSORGRIGHT
350
411
  3
PUCSORGTOP
350
40E
  3
PUCSORTHOREF
350
40B
  3
PUCSORTHOVIEW
350
40C
  3
STYLESHEET
350
402
  3
TSTACKALIGN
350
3FF
  3
TSTACKSIZE
350
400
  3
UCSBASE
350
416
  3
UCSORGBACK
350
41C
  3
UCSORGBOTTOM
350
418
  3
UCSORGFRONT
350
41B
  3
UCSORGLEFT
350
419
  3
UCSORGRIGHT
350
41A
  3
UCSORGTOP
350
417
  3
UCSORTHOREF
350
414
  3
UCSORTHOVIEW
350
415
  3
VERSIONGUID
350
409
  0
DICTIONARY
  5
41E
102
{ACAD_REACTORS
330
C
102
}
330
C
100
AcDbDictionary
  3
DIMASSOC
350
421
  3
HIDETEXT
350
422
  0
MATERIAL
  5
3D
102
{ACAD_REACTORS
330
3B
102
}
102
{ACAD_XDICTIONARY
360
425
102
}
330
3B
100
AcDbMaterial
  1
ByBlock
  0
MATERIAL
  5
3C
102
{ACAD_REACTORS
330
3B
102
}
102
{ACAD_XDICTIONARY
360
423
102
}
330
3B
100
AcDbMaterial
  1
ByLayer
  0
MATERIAL
  5
3E
102
{ACAD_REACTORS
330
3B
102
}
102
{ACAD_XDICTIONARY
360
427
102
}
330
3B
100
AcDbMaterial
  1
Global
  0
MLINESTYLE
  5
18
102
{ACAD_REACTORS
330
17
102
}
330
17
100
AcDbMlineStyle
  2
Standard
 70
     0
  3

 62
   256
 51
90.0
 52
90.0
 71
     2
 49
0.5
 62
   256
  6
BYLAYER
 49
-0.5
 62
   256
  6
BYLAYER
  0
ACAD_PROXY_OBJECT
  5
2F
102
{ACAD_REACTORS
330
2A
102
}
330
2A
100
AcDbProxyObject
 90
      499
 91
      501
 93
      436
310
42CC9915DA5C99599C985B595049028333333333333E3BF0000000000000FB0107901411070040501600405405064090741402480A0340
1001
ACAD
1000
AcDbSavedByObjectVersion
1070
     0
  0
ACAD_PROXY_OBJECT
  5
30
102
{ACAD_REACTORS
330
2A
102
}
330
2A
100
AcDbProxyObject
 90
      499
 91
      501
 93
      436
310
42CCD915DA5C99599C985B595059028333333333333E3BF0000000000000FB0107901411070040501600405405064090741402480A0340
1001
ACAD
1000
AcDbSavedByObjectVersion
1070
     0
  0
ACAD_PROXY_OBJECT
  5
31
102
{ACAD_REACTORS
330
2A
102
}
330
2A
100
AcDbProxyObject
 90
      499
 91
      501
 93
      500
310
424CD108121A5919195B90640502408333333333333E3BF0000000000000FB01079024090700405020000000000001110200405405064090740C02480A0340
1001
ACAD
1000
AcDbSavedByObjectVersion
1070
     0
  0
ACAD_PROXY_OBJECT
  5
32
102
{ACAD_REACTORS
330
2A
102
}
330
2A
100
AcDbProxyObject
 90
      499
 91
      501
 93
      388
310
4150985CDA58D07406404333333333333E3BF0000000000000FB0107A41107004050150841D405064090741402480A0350
1001
ACAD
1000
AcDbSavedByObjectVersion
1070
     0
  0
ACAD_PROXY_OBJECT
  5
36
102
{ACAD_REACTORS
330
2A
102
}
330
2A
100
AcDbProxyObject
 90
      499
 91
      501
 93
      428
310
42109C9A59DA1D195B90C409028333333333333E3BF0000000000000FB010790141107004050150841D405064090741402480A029950
1001
ACAD
1000
AcDbSavedByObjectVersion
1070
     0
  0
ACAD_PROXY_OBJECT
  5
3A
102
{ACAD_REACTORS
330
2A
102
}
330
2A
100
AcDbProxyObject
 90
      499
 91
      501
 93
      452
310
42D0DBDB1BDC90DA185B99D95104090240C333333333333E3BF0000000000000FB0108901411070040501508421405064090741402480A0350
1001
ACAD
1000
AcDbSavedByObjectVersion
1070
     0
  0
ACAD_PROXY_OBJECT
  5
34
102
{ACAD_REACTORS
330
2A
102
}
330
2A
100
AcDbProxyObject
 90
      499
 91
      501
 93
      500
310
4290DBDB98D95C1D1D585B10940D028333333333333E3BF0000000000000FB0107902409070040501000000000000111010841D405064090740C02480A0340
1001
ACAD
1000
AcDbSavedByObjectVersion
1070
     0
  0
ACAD_PROXY_OBJECT
  5
35
102
{ACAD_REACTORS
330
2A
102
}
330
2A
100
AcDbProxyObject
 90
      499
 91
      501
 93
      412
310
40D11A5B50B409028333333333333E3BF0000000000000FB010790141107004050150841D405064090741402480A02677FFFFFD0
1001
ACAD
1000
AcDbSavedByObjectVersion
1070
     0
  0
ACAD_PROXY_OBJECT
  5
39
102
{ACAD_REACTORS
330
2A
102
}
330
2A
100
AcDbProxyObject
 90
      499
 91
      501
 93
      444
310
42D19858D95C185D1D195C9B90F409028333333333333E3BF0000000000000FB010790141107004050150841D405064090741402480A0350
1001
ACAD
1000
AcDbSavedByObjectVersion
1070
     0
  0
ACAD_PROXY_OBJECT
  5
2B
102
{ACAD_REACTORS
330
2A
102
}
330
2A
100
AcDbProxyObject
 90
      499
 91
      501
 93
      388
310
41119B185D240901404333333333333E3BF0000000000000F9010740A41107004050150841D405064090741402480A1B50
1001
ACAD
1000
AcDbSavedByObjectVersion
1070
     0
  0
ACAD_PROXY_OBJECT
  5
2C
102
{ACAD_REACTORS
330
2A
102
}
330
2A
100
AcDbProxyObject
 90
      499
 91
      501
 93
      476
310
43519B185D15DA5D1A115919D95CD0140901404333333333333E3BF0000000000000F9010740901411070040501600405405064090741402480A1B50
1001
ACAD
1000
AcDbSavedByObjectVersion
1070
     0
  0
ACAD_PROXY_OBJECT
  5
2D
102
{ACAD_REACTORS
330
2A
102
}
330
2A
100
AcDbProxyObject
 90
      499
 91
      501
 93
      412
310
41D1DBDD5C985D5910240902404333333333333E3BF0000000000000F9010740A411070040501641D405064090741402480A1B50
1001
ACAD
1000
AcDbSavedByObjectVersion
1070
     0
  0
ACAD_PROXY_OBJECT
  5
2E
102
{ACAD_REACTORS
330
2A
102
}
330
2A
100
AcDbProxyObject
 90
      499
 91
      501
 93
      500
310
4411DBDD5C985D5915DA5D1A115919D95CD0340902404333333333333E3BF0000000000000F9010740901411070040501600405405064090741402480A1B50
1001
ACAD
1000
AcDbSavedByObjectVersion
1070
     0
  0
ACAD_PROXY_OBJECT
  5
38
102
{ACAD_REACTORS
330
2A
102
}
330
2A
100
AcDbProxyObject
 90
      499
 91
      501
 93
      444
310
42D31A5B995C185D1D195C9B90E409028333333333333E3BF0000000000000FB010790141107004050750841D405064090741402483A0350
1001
ACAD
1000
AcDbSavedByObjectVersion
1070
     0
  0
ACAD_PROXY_OBJECT
  5
33
102
{ACAD_REACTORS
330
2A
102
}
330
2A
100
AcDbProxyObject
 90
      499
 91
      501
 93
      420
310
425499585B1A5CDD1A58D08409028333333333333E3BF0000000000000FB01079019070040501508421405064090741402480A1B40
1001
ACAD
1000
AcDbSavedByObjectVersion
1070
     0
  0
ACAD_PROXY_OBJECT
  5
37
102
{ACAD_REACTORS
330
2A
102
}
330
2A
100
AcDbProxyObject
 90
      499
 91
      501
 93
      412
310
41D51A1A58DAD95B90D409028333333333333E3BF0000000000000FB010790141107004050150C41D405064090741402480A0350
1001
ACAD
1000
AcDbSavedByObjectVersion
1070
     0
  0
XRECORD
  5
407
102
{ACAD_REACTORS
330
3FE
102
}
330
3FE
100
AcDbXrecord
 90
        0
  0
XRECORD
  5
41D
102
{ACAD_REACTORS
330
3FE
102
}
330
3FE
100
AcDbXrecord
1000
DSTYLE
1002
{
1070
   340
340
11
1002
}
  0
XRECORD
  5
408
102
{ACAD_REACTORS
330
3FE
102
}
330
3FE
100
AcDbXrecord
  1
{DD7688C6-70B8-80AA-6FB3-779AAB502117}
  0
XRECORD
  5
401
102
{ACAD_REACTORS
330
3FE
102
}
330
3FE
100
AcDbXrecord
  1

  0
XRECORD
  5
406
102
{ACAD_REACTORS
330
3FE
102
}
330
3FE
100
AcDbXrecord
 90
        1
  0
XRECORD
  5
403
102
{ACAD_REACTORS
330
3FE
102
}
330
3FE
100
AcDbXrecord
340
1A
  0
XRECORD
  5
405
102
{ACAD_REACTORS
330
3FE
102
}
330
3FE
100
AcDbXrecord
 90
    10269
  0
XRECORD
  5
404
102
{ACAD_REACTORS
330
3FE
102
}
330
3FE
100
AcDbXrecord
340
19
  0
XRECORD
  5
40A
102
{ACAD_REACTORS
330
3FE
102
}
330
3FE
100
AcDbXrecord
 40
0.0
  0
XRECORD
  5
40D
102
{ACAD_REACTORS
330
3FE
102
}
330
3FE
100
AcDbXrecord
340
0
  0
XRECORD
  5
413
102
{ACAD_REACTORS
330
3FE
102
}
330
3FE
100
AcDbXrecord
 10
0.0
 20
0.0
 30
0.0
  0
XRECORD
  5
40F
102
{ACAD_REACTORS
330
3FE
102
}
330
3FE
100
AcDbXrecord
 10
0.0
 20
0.0
 30
0.0
  0
XRECORD
  5
412
102
{ACAD_REACTORS
330
3FE
102
}
330
3FE
100
AcDbXrecord
 10
0.0
 20
0.0
 30
0.0
  0
XRECORD
  5
410
102
{ACAD_REACTORS
330
3FE
102
}
330
3FE
100
AcDbXrecord
 10
0.0
 20
0.0
 30
0.0
  0
XRECORD
  5
411
102
{ACAD_REACTORS
330
3FE
102
}
330
3FE
100
AcDbXrecord
 10
0.0
 20
0.0
 30
0.0
  0
XRECORD
  5
40E
102
{ACAD_REACTORS
330
3FE
102
}
330
3FE
100
AcDbXrecord
 10
0.0
 20
0.0
 30
0.0
  0
XRECORD
  5
40B
102
{ACAD_REACTORS
330
3FE
102
}
330
3FE
100
AcDbXrecord
340
0
  0
XRECORD
  5
40C
102
{ACAD_REACTORS
330
3FE
102
}
330
3FE
100
AcDbXrecord
 70
     0
  0
XRECORD
  5
402
102
{ACAD_REACTORS
330
3FE
102
}
330
3FE
100
AcDbXrecord
  1

  0
XRECORD
  5
3FF
102
{ACAD_REACTORS
330
3FE
102
}
330
3FE
100
AcDbXrecord
 90
        1
  0
XRECORD
  5
400
102
{ACAD_REACTORS
330
3FE
102
}
330
3FE
100
AcDbXrecord
 90
       70
  0
XRECORD
  5
416
102
{ACAD_REACTORS
330
3FE
102
}
330
3FE
100
AcDbXrecord
340
0
  0
XRECORD
  5
41C
102
{ACAD_REACTORS
330
3FE
102
}
330
3FE
100
AcDbXrecord
 10
0.0
 20
0.0
 30
0.0
  0
XRECORD
  5
418
102
{ACAD_REACTORS
330
3FE
102
}
330
3FE
100
AcDbXrecord
 10
0.0
 20
0.0
 30
0.0
  0
XRECORD
  5
41B
102
{ACAD_REACTORS
330
3FE
102
}
330
3FE
100
AcDbXrecord
 10
0.0
 20
0.0
 30
0.0
  0
XRECORD
  5
419
102
{ACAD_REACTORS
330
3FE
102
}
330
3FE
100
AcDbXrecord
 10
0.0
 20
0.0
 30
0.0
  0
XRECORD
  5
41A
102
{ACAD_REACTORS
330
3FE
102
}
330
3FE
100
AcDbXrecord
 10
0.0
 20
0.0
 30
0.0
  0
XRECORD
  5
417
102
{ACAD_REACTORS
330
3FE
102
}
330
3FE
100
AcDbXrecord
 10
0.0
 20
0.0
 30
0.0
  0
XRECORD
  5
414
102
{ACAD_REACTORS
330
3FE
102
}
330
3FE
100
AcDbXrecord
340
0
  0
XRECORD
  5
415
102
{ACAD_REACTORS
330
3FE
102
}
330
3FE
100
AcDbXrecord
 70
     0
  0
XRECORD
  5
409
102
{ACAD_REACTORS
330
3FE
102
}
330
3FE
100
AcDbXrecord
  1
{FAEB1C32-E019-11D5-929B-00C0DF256EC4}
  0
DICTIONARYVAR
  5
421
102
{ACAD_REACTORS
330
41E
102
}
330
41E
100
DictionaryVariables
280
     0
  1
2
  0
DICTIONARYVAR
  5
422
102
{ACAD_REACTORS
330
41E
102
}
330
41E
100
DictionaryVariables
280
     0
  1
1
  0
DICTIONARY
  5
425
330
3D
100
AcDbDictionary
280
     1
  3
ACAD_XREC_ROUNDTRIP
360
426
  0
DICTIONARY
  5
423
330
3C
100
AcDbDictionary
280
     1
  3
ACAD_XREC_ROUNDTRIP
360
424
  0
DICTIONARY
  5
427
330
3E
100
AcDbDictionary
280
     1
  3
ACAD_XREC_ROUNDTRIP
360
428
  0
XRECORD
  5
426
102
{ACAD_REACTORS
330
425
102
}
330
425
100
AcDbXrecord
102
MATERIAL
148
0.0
149
0.0
149
0.0
 93
        0
 94
      127
282
     0
 72
     1
 77
     1
171
     1
175
     1
179
     1
273
     0
  0
XRECORD
  5
424
102
{ACAD_REACTORS
330
423
102
}
330
423
100
AcDbXrecord
102
MATERIAL
148
0.0
149
0.0
149
0.0
 93
        0
 94
      127
282
     0
 72
     1
 77
     1
171
     1
175
     1
179
     1
273
     0
  0
XRECORD
  5
428
102
{ACAD_REACTORS
330
427
102
}
330
427
100
AcDbXrecord
102
MATERIAL
148
0.0
149
0.0
149
0.0
 93
        0
 94
      127
282
     0
 72
     1
 77
     1
171
     1
175
     1
179
     1
273
     0
  0
ENDSEC
  0
EOF
