  0
SECTION
  2
HEADER
  9
$ACADVER
  1
AC1009
  9
$INSBASE
 10
0.0
 20
0.0
 30
0.0
  9
$EXTMIN
 10
2962.7171178472158
 20
1198.7263204265089
 30
0.0
  9
$EXTMAX
 10
4266.563914995837
 20
1618.7263204265089
 30
0.0
  9
$LIMMIN
 10
0.0
 20
0.0
  9
$LIMMAX
 10
420.0
 20
297.0
  9
$ORTHOMODE
 70
     1
  9
$REGENMODE
 70
     1
  9
$FILLMODE
 70
     1
  9
$QTEXTMODE
 70
     0
  9
$MIRRTEXT
 70
     0
  9
$DRAGMODE
 70
     2
  9
$LTSCALE
 40
1.0
  9
$OSMODE
 70
   447
  9
$ATTMODE
 70
     1
  9
$TEXTSIZE
 40
2.5
  9
$TRACEWID
 40
1.0
  9
$TEXTSTYLE
  7
STANDARD
  9
$CLAYER
  8
0
  9
$CELTYPE
  6
BYLAYER
  9
$CECOLOR
 62
   256
  9
$DIMSCALE
 40
1.0
  9
$DIMASZ
 40
2.5
  9
$DIMEXO
 40
0.625
  9
$DIMDLI
 40
3.75
  9
$DIMRND
 40
0.0
  9
$DIMDLE
 40
0.0
  9
$DIMEXE
 40
1.25
  9
$DIMTP
 40
0.0
  9
$DIMTM
 40
0.0
  9
$DIMTXT
 40
2.5
  9
$DIMCEN
 40
2.5
  9
$DIMTSZ
 40
0.0
  9
$DIMTOL
 70
     0
  9
$DIMLIM
 70
     0
  9
$DIMTIH
 70
     0
  9
$DIMTOH
 70
     0
  9
$DIMSE1
 70
     0
  9
$DIMSE2
 70
     0
  9
$DIMTAD
 70
     1
  9
$DIMZIN
 70
     8
  9
$DIMBLK
  1

  9
$DIMASO
 70
     1
  9
$DIMSHO
 70
     1
  9
$DIMPOST
  1

  9
$DIMAPOST
  1

  9
$DIMALT
 70
     0
  9
$DIMALTD
 70
     3
  9
$DIMALTF
 40
0.03937007874016
  9
$DIMLFAC
 40
1.0
  9
$DIMTOFL
 70
     1
  9
$DIMTVP
 40
0.0
  9
$DIMTIX
 70
     0
  9
$DIMSOXD
 70
     0
  9
$DIMSAH
 70
     0
  9
$DIMBLK1
  1

  9
$DIMBLK2
  1

  9
$DIMSTYLE
  2
ISO-25
  9
$DIMCLRD
 70
     0
  9
$DIMCLRE
 70
     0
  9
$DIMCLRT
 70
     0
  9
$DIMTFAC
 40
1.0
  9
$DIMGAP
 40
0.625
  9
$LUNITS
 70
     2
  9
$LUPREC
 70
     4
  9
$SKETCHINC
 40
1.0
  9
$FILLETRAD
 40
5.0
  9
$AUNITS
 70
     0
  9
$AUPREC
 70
     0
  9
$MENU
  1
.
  9
$ELEVATION
 40
0.0
  9
$PELEVATION
 40
0.0
  9
$THICKNESS
 40
0.0
  9
$LIMCHECK
 70
     0
  9
$BLIPMODE
 70
     0
  9
$CHAMFERA
 40
0.0
  9
$CHAMFERB
 40
0.0
  9
$SKPOLY
 70
     0
  9
$TDCREATE
 40
2457745.461178368
  9
$TDUPDATE
 40
2457745.6896353238
  9
$TDINDWG
 40
0.0378861574
  9
$TDUSRTIMER
 40
0.0378860995
  9
$USRTIMER
 70
     1
  9
$ANGBASE
 50
0.0
  9
$ANGDIR
 70
     0
  9
$PDMODE
 70
     0
  9
$PDSIZE
 40
0.0
  9
$PLINEWID
 40
0.0
  9
$COORDS
 70
     1
  9
$SPLFRAME
 70
     0
  9
$SPLINETYPE
 70
     6
  9
$SPLINESEGS
 70
     8
  9
$ATTDIA
 70
     1
  9
$ATTREQ
 70
     1
  9
$HANDLING
 70
     1
  9
$HANDSEED
  5
1578
  9
$SURFTAB1
 70
     6
  9
$SURFTAB2
 70
     6
  9
$SURFTYPE
 70
     6
  9
$SURFU
 70
     6
  9
$SURFV
 70
     6
  9
$UCSNAME
  2

  9
$UCSORG
 10
0.0
 20
0.0
 30
0.0
  9
$UCSXDIR
 10
1.0
 20
0.0
 30
0.0
  9
$UCSYDIR
 10
0.0
 20
1.0
 30
0.0
  9
$PUCSNAME
  2

  9
$PUCSORG
 10
0.0
 20
0.0
 30
0.0
  9
$PUCSXDIR
 10
1.0
 20
0.0
 30
0.0
  9
$PUCSYDIR
 10
0.0
 20
1.0
 30
0.0
  9
$USERI1
 70
     0
  9
$USERI2
 70
     0
  9
$USERI3
 70
     0
  9
$USERI4
 70
     0
  9
$USERI5
 70
     0
  9
$USERR1
 40
0.0
  9
$USERR2
 40
0.0
  9
$USERR3
 40
0.0
  9
$USERR4
 40
0.0
  9
$USERR5
 40
0.0
  9
$WORLDVIEW
 70
     1
  9
$SHADEDGE
 70
     3
  9
$SHADEDIF
 70
    70
  9
$TILEMODE
 70
     1
  9
$MAXACTVP
 70
    64
  9
$PLIMCHECK
 70
     0
  9
$PEXTMIN
 10
0.0
 20
0.0
 30
0.0
  9
$PEXTMAX
 10
0.0
 20
0.0
 30
0.0
  9
$PLIMMIN
 10
0.0
 20
0.0
  9
$PLIMMAX
 10
12.0
 20
9.0
  9
$UNITMODE
 70
     0
  9
$VISRETAIN
 70
     1
  9
$PLINEGEN
 70
     0
  9
$PSLTSCALE
 70
     1
  0
ENDSEC
  0
SECTION
  2
TABLES
  0
TABLE
  2
VPORT
 70
     1
  0
VPORT
  2
*ACTIVE
 70
     0
 10
0.0
 20
0.0
 11
1.0
 21
1.0
 12
3424.439388780655
 22
1338.954381358024
 13
0.0
 23
0.0
 14
10.0
 24
10.0
 15
10.0
 25
10.0
 16
0.0
 26
0.0
 36
1.0
 17
0.0
 27
0.0
 37
0.0
 40
551.40522239364191
 41
2.6660117878192531
 42
50.0
 43
0.0
 44
0.0
 50
0.0
 51
0.0
 71
     0
 72
  1000
 73
     1
 74
     3
 75
     0
 76
     1
 77
     0
 78
     0
  0
ENDTAB
  0
TABLE
  2
LTYPE
 70
     2
  0
LTYPE
  2
CONTINUOUS
 70
     0
  3
Solid line
 72
    65
 73
     0
 40
0.0
  0
ENDTAB
  0
TABLE
  2
LAYER
 70
     3
  0
LAYER
  2
0
 70
     0
 62
     7
  6
CONTINUOUS
  0
LAYER
  2
EERST_SNIJDEN
 70
     0
 62
     1
  6
CONTINUOUS
  0
LAYER
  2
TWEEDE_SNIJDEN
 70
     0
 62
     1
  6
CONTINUOUS
  0
ENDTAB
  0
TABLE
  2
STYLE
 70
     2
  0
STYLE
  2
STANDARD
 70
     0
 40
0.0
 41
1.0
 50
0.0
 71
     0
 42
2.5
  3
txt
  4

  0
STYLE
  2
ANNOTATIVE
 70
     0
 40
0.0
 41
1.0
 50
0.0
 71
     0
 42
2.5
  3
txt
  4

  0
ENDTAB
  0
TABLE
  2
VIEW
 70
     0
  0
ENDTAB
  0
TABLE
  2
UCS
 70
     0
  0
ENDTAB
  0
TABLE
  2
APPID
 70
    11
  0
APPID
  2
ACAD
 70
     0
  0
APPID
  2
ACADANNOTATIVE
 70
     0
  0
APPID
  2
ACAD_PSEXT
 70
     0
  0
APPID
  2
ACADANNOPO
 70
     0
  0
APPID
  2
ACAD_DSTYLE_DIMJAG
 70
     0
  0
APPID
  2
ACAD_DSTYLE_DIMTALN
 70
     0
  0
APPID
  2
ACAD_MLEADERVER
 70
     0
  0
APPID
  2
ACAD_NAV_VCDISPLAY
 70
     0
  0
APPID
  2
ACAECLAYERSTANDARD
 70
     0
  0
APPID
  2
ACCMTRANSPARENCY
 70
     0
  0
APPID
  2
ACAD_EXEMPT_FROM_CAD_STANDARDS
 70
     0
  0
ENDTAB
  0
TABLE
  2
DIMSTYLE
 70
     4
  0
DIMSTYLE
  2
STANDARD
 70
     0
  3

  4

  5

  6

  7

 40
1.0
 41
0.18
 42
0.0625
 43
0.38
 44
0.18
 45
0.0
 46
0.0
 47
0.0
 48
0.0
140
0.18
141
0.09
142
0.0
143
25.399999999999999
144
1.0
145
0.0
146
1.0
147
0.09
 71
     0
 72
     0
 73
     1
 74
     1
 75
     0
 76
     0
 77
     0
 78
     0
170
     0
171
     2
172
     0
173
     0
174
     0
175
     0
176
     0
177
     0
178
     0
  0
DIMSTYLE
  2
ANNOTATIVE
 70
     0
  3

  4

  5

  6

  7

 40
0.0
 41
2.5
 42
0.625
 43
3.75
 44
1.25
 45
0.0
 46
0.0
 47
0.0
 48
0.0
140
2.5
141
2.5
142
0.0
143
0.03937007874016
144
1.0
145
0.0
146
1.0
147
0.625
 71
     0
 72
     0
 73
     0
 74
     0
 75
     0
 76
     0
 77
     1
 78
     8
170
     0
171
     3
172
     1
173
     0
174
     0
175
     0
176
     0
177
     0
178
     0
  0
DIMSTYLE
  2
ISO-25
 70
     0
  3

  4

  5

  6

  7

 40
1.0
 41
2.5
 42
0.625
 43
3.75
 44
1.25
 45
0.0
 46
0.0
 47
0.0
 48
0.0
140
2.5
141
2.5
142
0.0
143
0.03937007874016
144
1.0
145
0.0
146
1.0
147
0.625
 71
     0
 72
     0
 73
     0
 74
     0
 75
     0
 76
     0
 77
     1
 78
     8
170
     0
171
     3
172
     1
173
     0
174
     0
175
     0
176
     0
177
     0
178
     0
  0
ENDTAB
  0
ENDSEC
  0
SECTION
  2
BLOCKS
  0
BLOCK
  8
0
  2
$MODEL_SPACE
 70
     0
 10
0.0
 20
0.0
 30
0.0
  3
$MODEL_SPACE
  1

  0
ENDBLK
  5
12F4
  8
0
  0
BLOCK
 67
     1
  8
0
  2
$PAPER_SPACE
 70
     0
 10
0.0
 20
0.0
 30
0.0
  3
$PAPER_SPACE
  1

  0
ENDBLK
  5
12F0
 67
     1
  8
0
  0
BLOCK
  8
0
  2
A$C43106145
 70
     0
 10
0.0
 20
0.0
 30
0.0
  3
A$C43106145
  1

  0
CIRCLE
  5
1464
  8
0
 10
0.0
 20
3.0
 30
0.0
 40
0.75
  0
ENDBLK
  5
1468
  8
0
  0
BLOCK
  8
0
  2
A$C163803A2
 70
     0
 10
0.0
 20
0.0
 30
0.0
  3
A$C163803A2
  1

  0
CIRCLE
  5
1488
  8
0
 10
0.0000000000004547
 20
-3.0000000000009091
 30
0.0
 40
0.75
  0
CIRCLE
  5
1489
  8
0
 10
-1.76335575687699
 20
-2.4270509831253539
 30
0.0
 40
0.75
  0
CIRCLE
  5
148A
  8
0
 10
-2.8531695488850342
 20
-0.9270509831249
 30
0.0
 40
0.75
  0
CIRCLE
  5
148B
  8
0
 10
-2.853169548886398
 20
0.6982794927503165
 30
0.0
 40
0.75
  0
CIRCLE
  5
148C
  8
0
 10
-1.763355756877899
 20
2.198279492750316
 30
0.0
 40
0.75
  0
CIRCLE
  5
148D
  8
0
 10
0.0
 20
2.7712285096254159
 30
0.0
 40
0.75
  0
ENDBLK
  5
1491
  8
0
  0
ENDSEC
  0
SECTION
  2
ENTITIES
  0
LINE
  5
A2F
  8
0
 62
     1
 10
3157.7171178472158
 20
1486.7263204265089
 30
0.0
 11
3327.7171178472172
 21
1486.7263204265089
 31
0.0
  0
LINE
  5
A30
  8
0
 62
     1
 10
3327.7171178472172
 20
1486.7263204265089
 30
0.0
 11
3327.7171178472172
 21
1489.7263204265089
 31
0.0
  0
LINE
  5
A31
  8
0
 62
     1
 10
3327.7171178472172
 20
1489.7263204265089
 30
0.0
 11
3337.7171178472158
 21
1489.7263204265089
 31
0.0
  0
LINE
  5
A32
  8
0
 62
     1
 10
3337.7171178472158
 20
1489.7263204265089
 30
0.0
 11
3337.7171178472158
 21
1486.7263204265089
 31
0.0
  0
LINE
  5
A33
  8
0
 62
     1
 10
3157.7171178472158
 20
1486.7263204265089
 30
0.0
 11
3157.7171178472158
 21
1489.7263204265089
 31
0.0
  0
LINE
  5
A34
  8
0
 62
     1
 10
3157.7171178472158
 20
1489.7263204265089
 30
0.0
 11
3147.7171178472158
 21
1489.7263204265089
 31
0.0
  0
LINE
  5
A35
  8
0
 62
     1
 10
3147.7171178472158
 20
1489.7263204265089
 30
0.0
 11
3147.7171178472158
 21
1486.7263204265089
 31
0.0
  0
LINE
  5
A36
  8
0
 62
     1
 10
3327.7171178472172
 20
1616.7263204265089
 30
0.0
 11
3157.7171178472158
 21
1616.7263204265089
 31
0.0
  0
LINE
  5
A37
  8
0
 62
     1
 10
3337.7171178472158
 20
1616.7263204265089
 30
0.0
 11
3337.7171178472158
 21
1613.7263204265089
 31
0.0
  0
LINE
  5
A38
  8
0
 62
     1
 10
3337.7171178472158
 20
1613.7263204265089
 30
0.0
 11
3327.7171178472172
 21
1613.7263204265089
 31
0.0
  0
LINE
  5
A39
  8
0
 62
     1
 10
3327.7171178472172
 20
1613.7263204265089
 30
0.0
 11
3327.7171178472172
 21
1616.7263204265089
 31
0.0
  0
LINE
  5
A3A
  8
0
 62
     1
 10
3147.7171178472158
 20
1613.7263204265089
 30
0.0
 11
3157.7171178472158
 21
1613.7263204265089
 31
0.0
  0
LINE
  5
A3B
  8
0
 62
     1
 10
3157.7171178472158
 20
1613.7263204265089
 30
0.0
 11
3157.7171178472158
 21
1616.7263204265089
 31
0.0
  0
LINE
  5
A3C
  8
0
 62
     1
 10
3147.7171178472158
 20
1616.7263204265089
 30
0.0
 11
3147.7171178472158
 21
1613.7263204265089
 31
0.0
  0
LINE
  5
A3D
  8
0
 62
     1
 10
3059.7171178472158
 20
1616.7263204265089
 30
0.0
 11
3059.7171178472158
 21
1613.7263204265089
 31
0.0
  0
LINE
  5
A3E
  8
0
 62
     1
 10
3059.7171178472158
 20
1613.7263204265089
 30
0.0
 11
3049.7171178472172
 21
1613.7263204265089
 31
0.0
  0
LINE
  5
A3F
  8
0
 62
     1
 10
3049.7171178472172
 20
1613.7263204265089
 30
0.0
 11
3049.7171178472172
 21
1616.7263204265089
 31
0.0
  0
LINE
  5
A40
  8
0
 62
     1
 10
3059.7171178472158
 20
1486.7263204265089
 30
0.0
 11
3059.7171178472158
 21
1489.7263204265089
 31
0.0
  0
LINE
  5
A41
  8
0
 62
     1
 10
3059.7171178472158
 20
1489.7263204265089
 30
0.0
 11
3049.7171178472172
 21
1489.7263204265089
 31
0.0
  0
LINE
  5
A42
  8
0
 62
     1
 10
3049.7171178472172
 20
1489.7263204265089
 30
0.0
 11
3049.7171178472172
 21
1486.7263204265089
 31
0.0
  0
LINE
  5
A43
  8
0
 62
     1
 10
3425.7171178472158
 20
1486.7263204265089
 30
0.0
 11
3425.7171178472158
 21
1489.7263204265089
 31
0.0
  0
LINE
  5
A44
  8
0
 62
     1
 10
3425.7171178472158
 20
1489.7263204265089
 30
0.0
 11
3435.7171178472172
 21
1489.7263204265089
 31
0.0
  0
LINE
  5
A45
  8
0
 62
     1
 10
3435.7171178472172
 20
1489.7263204265089
 30
0.0
 11
3435.7171178472172
 21
1486.7263204265089
 31
0.0
  0
LINE
  5
A46
  8
0
 62
     1
 10
3425.7171178472158
 20
1616.7263204265089
 30
0.0
 11
3425.7171178472158
 21
1613.7263204265089
 31
0.0
  0
LINE
  5
A47
  8
0
 62
     1
 10
3425.7171178472158
 20
1613.7263204265089
 30
0.0
 11
3435.7171178472172
 21
1613.7263204265089
 31
0.0
  0
LINE
  5
A48
  8
0
 62
     1
 10
3435.7171178472172
 20
1613.7263204265089
 30
0.0
 11
3435.7171178472172
 21
1616.7263204265089
 31
0.0
  0
LINE
  5
A49
  8
0
 62
     1
 10
3435.7171178472172
 20
1616.7263204265089
 30
0.0
 11
3520.7171178472172
 21
1616.7263204265089
 31
0.0
  0
LINE
  5
A4A
  8
0
 62
     1
 10
3435.7171178472172
 20
1486.7263204265089
 30
0.0
 11
3520.7171178472172
 21
1486.7263204265089
 31
0.0
  0
LINE
  5
A4B
  8
0
 62
     1
 10
3049.7171178472172
 20
1616.7263204265089
 30
0.0
 11
2964.7171178472172
 21
1616.7263204265089
 31
0.0
  0
LINE
  5
A4C
  8
0
 62
     1
 10
3049.7171178472172
 20
1486.7263204265089
 30
0.0
 11
2964.7171178472172
 21
1486.7263204265089
 31
0.0
  0
LINE
  5
A4D
  8
0
 62
     1
 10
3039.7171178472158
 20
1596.7263204265089
 30
0.0
 11
2964.7171178472172
 21
1596.7263204265089
 31
0.0
  0
LINE
  5
A4E
  8
0
 62
     1
 10
2964.7171178472172
 20
1616.7263204265089
 30
0.0
 11
2964.7171178472172
 21
1596.7263204265089
 31
0.0
  0
LINE
  5
A4F
  8
0
 62
     1
 10
2964.7171178472172
 20
1506.7263204265089
 30
0.0
 11
2964.7171178472172
 21
1486.7263204265089
 31
0.0
  0
LINE
  5
A50
  8
0
 62
     1
 10
3039.7171178472158
 20
1506.7263204265089
 30
0.0
 11
2964.7171178472172
 21
1506.7263204265089
 31
0.0
  0
LINE
  5
A51
  8
0
 62
     1
 10
3039.7171178472158
 20
1596.7263204265089
 30
0.0
 11
3039.7171178472158
 21
1506.7263204265089
 31
0.0
  0
LINE
  5
A52
  8
0
 62
     1
 10
3445.7171178472172
 20
1596.7263204265089
 30
0.0
 11
3445.7171178472172
 21
1506.7263204265089
 31
0.0
  0
LINE
  5
A53
  8
0
 62
     1
 10
3445.7171178472172
 20
1506.7263204265089
 30
0.0
 11
3520.7171178472172
 21
1506.7263204265089
 31
0.0
  0
LINE
  5
A54
  8
0
 62
     1
 10
3520.7171178472172
 20
1486.7263204265089
 30
0.0
 11
3520.7171178472172
 21
1506.7263204265089
 31
0.0
  0
LINE
  5
A55
  8
0
 62
     1
 10
3520.7171178472172
 20
1596.7263204265089
 30
0.0
 11
3520.7171178472172
 21
1616.7263204265089
 31
0.0
  0
LINE
  5
A56
  8
0
 62
     1
 10
3445.7171178472172
 20
1596.7263204265089
 30
0.0
 11
3520.7171178472172
 21
1596.7263204265089
 31
0.0
  0
POLYLINE
  5
A57
  8
EERST_SNIJDEN
 62
     1
 66
     1
 10
0.0
 20
0.0
 30
0.0
 70
     1
  0
VERTEX
  5
1522
  8
EERST_SNIJDEN
 62
     1
 10
3175.7171178472158
 20
1521.7263204265089
 30
0.0
  0
VERTEX
  5
1523
  8
EERST_SNIJDEN
 62
     1
 10
3188.7171178472158
 20
1521.7263204265089
 30
0.0
  0
VERTEX
  5
1524
  8
EERST_SNIJDEN
 62
     1
 10
3188.7171178472158
 20
1586.7263204265089
 30
0.0
  0
VERTEX
  5
1525
  8
EERST_SNIJDEN
 62
     1
 10
3175.7171178472158
 20
1586.7263204265089
 30
0.0
  0
SEQEND
  5
1526
  8
EERST_SNIJDEN
 62
     1
  0
POLYLINE
  5
A58
  8
EERST_SNIJDEN
 62
     1
 66
     1
 10
0.0
 20
0.0
 30
0.0
 70
     1
  0
VERTEX
  5
1527
  8
EERST_SNIJDEN
 62
     1
 10
3205.7171178472158
 20
1521.7263204265089
 30
0.0
  0
VERTEX
  5
1528
  8
EERST_SNIJDEN
 62
     1
 10
3218.7171178472158
 20
1521.7263204265089
 30
0.0
  0
VERTEX
  5
1529
  8
EERST_SNIJDEN
 62
     1
 10
3218.7171178472158
 20
1586.7263204265089
 30
0.0
  0
VERTEX
  5
152A
  8
EERST_SNIJDEN
 62
     1
 10
3205.7171178472158
 20
1586.7263204265089
 30
0.0
  0
SEQEND
  5
152B
  8
EERST_SNIJDEN
 62
     1
  0
POLYLINE
  5
A59
  8
EERST_SNIJDEN
 62
     1
 66
     1
 10
0.0
 20
0.0
 30
0.0
 70
     1
  0
VERTEX
  5
152C
  8
EERST_SNIJDEN
 62
     1
 10
3235.7171178472172
 20
1521.7263204265089
 30
0.0
  0
VERTEX
  5
152D
  8
EERST_SNIJDEN
 62
     1
 10
3248.7171178472172
 20
1521.7263204265089
 30
0.0
  0
VERTEX
  5
152E
  8
EERST_SNIJDEN
 62
     1
 10
3248.7171178472172
 20
1586.7263204265089
 30
0.0
  0
VERTEX
  5
152F
  8
EERST_SNIJDEN
 62
     1
 10
3235.7171178472172
 20
1586.7263204265089
 30
0.0
  0
SEQEND
  5
1530
  8
EERST_SNIJDEN
 62
     1
  0
POLYLINE
  5
A5A
  8
EERST_SNIJDEN
 62
     1
 66
     1
 10
0.0
 20
0.0
 30
0.0
 70
     1
  0
VERTEX
  5
1531
  8
EERST_SNIJDEN
 62
     1
 10
3278.7171178472172
 20
1543.9763204265089
 30
0.0
  0
VERTEX
  5
1532
  8
EERST_SNIJDEN
 62
     1
 10
3309.7171178472172
 20
1543.9763204265089
 30
0.0
  0
VERTEX
  5
1533
  8
EERST_SNIJDEN
 62
     1
 10
3309.7171178472172
 20
1574.9763204265089
 30
0.0
  0
VERTEX
  5
1534
  8
EERST_SNIJDEN
 62
     1
 10
3278.7171178472172
 20
1574.9763204265089
 30
0.0
  0
SEQEND
  5
1535
  8
EERST_SNIJDEN
 62
     1
  0
LINE
  5
A5B
  8
0
 62
     1
 10
3073.7171178472172
 20
1602.2263204265089
 30
0.0
 11
3073.7171178472172
 21
1571.2263204265089
 31
0.0
  0
LINE
  5
A5C
  8
0
 62
     1
 10
3073.7171178472172
 20
1567.22632042651
 30
0.0
 11
3073.7171178472172
 21
1536.2263204265089
 31
0.0
  0
LINE
  5
A5D
  8
0
 62
     1
 10
3073.7171178472172
 20
1532.2263204265089
 30
0.0
 11
3073.7171178472172
 21
1501.2263204265089
 31
0.0
  0
LINE
  5
A5E
  8
0
 62
     1
 10
3073.7171178472172
 20
1497.2263204265089
 30
0.0
 11
3073.7171178472172
 21
1486.7263204265089
 31
0.0
  0
LINE
  5
A5F
  8
0
 62
     1
 10
3073.7171178472172
 20
1616.7263204265089
 30
0.0
 11
3073.7171178472172
 21
1606.2263204265089
 31
0.0
  0
LINE
  5
A60
  8
0
 62
     1
 10
3076.7171178472172
 20
1616.7263204265089
 30
0.0
 11
3076.7171178472172
 21
1588.7263204265089
 31
0.0
  0
LINE
  5
A61
  8
0
 62
     1
 10
3076.7171178472172
 20
1584.7263204265089
 30
0.0
 11
3076.7171178472172
 21
1553.7263204265089
 31
0.0
  0
LINE
  5
A62
  8
0
 62
     1
 10
3076.7171178472172
 20
1549.7263204265089
 30
0.0
 11
3076.7171178472172
 21
1518.7263204265089
 31
0.0
  0
LINE
  5
A63
  8
0
 62
     1
 10
3076.7171178472172
 20
1514.7263204265089
 30
0.0
 11
3076.7171178472172
 21
1486.7263204265089
 31
0.0
  0
LINE
  5
A64
  8
0
 62
     1
 10
3079.7171178472158
 20
1602.2263204265089
 30
0.0
 11
3079.7171178472158
 21
1571.2263204265089
 31
0.0
  0
LINE
  5
A65
  8
0
 62
     1
 10
3079.7171178472158
 20
1567.22632042651
 30
0.0
 11
3079.7171178472158
 21
1536.2263204265089
 31
0.0
  0
LINE
  5
A66
  8
0
 62
     1
 10
3079.7171178472158
 20
1532.2263204265089
 30
0.0
 11
3079.7171178472158
 21
1501.2263204265089
 31
0.0
  0
LINE
  5
A67
  8
0
 62
     1
 10
3079.7171178472158
 20
1497.2263204265089
 30
0.0
 11
3079.7171178472158
 21
1486.7263204265089
 31
0.0
  0
LINE
  5
A68
  8
0
 62
     1
 10
3079.7171178472158
 20
1616.7263204265089
 30
0.0
 11
3079.7171178472158
 21
1606.2263204265089
 31
0.0
  0
LINE
  5
A69
  8
0
 62
     1
 10
3082.7171178472172
 20
1616.7263204265089
 30
0.0
 11
3082.7171178472172
 21
1588.7263204265089
 31
0.0
  0
LINE
  5
A6A
  8
0
 62
     1
 10
3082.7171178472172
 20
1584.7263204265089
 30
0.0
 11
3082.7171178472172
 21
1553.7263204265089
 31
0.0
  0
LINE
  5
A6B
  8
0
 62
     1
 10
3082.7171178472172
 20
1549.7263204265089
 30
0.0
 11
3082.7171178472172
 21
1518.7263204265089
 31
0.0
  0
LINE
  5
A6C
  8
0
 62
     1
 10
3082.7171178472172
 20
1514.7263204265089
 30
0.0
 11
3082.7171178472172
 21
1486.7263204265089
 31
0.0
  0
LINE
  5
A6D
  8
0
 62
     1
 10
3085.7171178472172
 20
1602.2263204265089
 30
0.0
 11
3085.7171178472172
 21
1571.2263204265089
 31
0.0
  0
LINE
  5
A6E
  8
0
 62
     1
 10
3085.7171178472172
 20
1567.22632042651
 30
0.0
 11
3085.7171178472172
 21
1536.2263204265089
 31
0.0
  0
LINE
  5
A6F
  8
0
 62
     1
 10
3085.7171178472172
 20
1532.2263204265089
 30
0.0
 11
3085.7171178472172
 21
1501.2263204265089
 31
0.0
  0
LINE
  5
A70
  8
0
 62
     1
 10
3085.7171178472172
 20
1497.2263204265089
 30
0.0
 11
3085.7171178472172
 21
1486.7263204265089
 31
0.0
  0
LINE
  5
A71
  8
0
 62
     1
 10
3085.7171178472172
 20
1616.7263204265089
 30
0.0
 11
3085.7171178472172
 21
1606.2263204265089
 31
0.0
  0
LINE
  5
A72
  8
0
 62
     1
 10
3088.7171178472158
 20
1616.7263204265089
 30
0.0
 11
3088.7171178472158
 21
1588.7263204265089
 31
0.0
  0
LINE
  5
A73
  8
0
 62
     1
 10
3088.7171178472158
 20
1584.7263204265089
 30
0.0
 11
3088.7171178472158
 21
1553.7263204265089
 31
0.0
  0
LINE
  5
A74
  8
0
 62
     1
 10
3088.7171178472158
 20
1549.7263204265089
 30
0.0
 11
3088.7171178472158
 21
1518.7263204265089
 31
0.0
  0
LINE
  5
A75
  8
0
 62
     1
 10
3088.7171178472158
 20
1514.7263204265089
 30
0.0
 11
3088.7171178472158
 21
1486.7263204265089
 31
0.0
  0
LINE
  5
A76
  8
0
 62
     1
 10
3091.7171178472158
 20
1602.2263204265089
 30
0.0
 11
3091.7171178472158
 21
1571.2263204265089
 31
0.0
  0
LINE
  5
A77
  8
0
 62
     1
 10
3091.7171178472158
 20
1567.22632042651
 30
0.0
 11
3091.7171178472158
 21
1536.2263204265089
 31
0.0
  0
LINE
  5
A78
  8
0
 62
     1
 10
3091.7171178472158
 20
1532.2263204265089
 30
0.0
 11
3091.7171178472158
 21
1501.2263204265089
 31
0.0
  0
LINE
  5
A79
  8
0
 62
     1
 10
3091.7171178472158
 20
1497.2263204265089
 30
0.0
 11
3091.7171178472158
 21
1486.7263204265089
 31
0.0
  0
LINE
  5
A7A
  8
0
 62
     1
 10
3091.7171178472158
 20
1616.7263204265089
 30
0.0
 11
3091.7171178472158
 21
1606.2263204265089
 31
0.0
  0
LINE
  5
A7B
  8
0
 62
     1
 10
3094.7171178472172
 20
1616.7263204265089
 30
0.0
 11
3094.7171178472172
 21
1588.7263204265089
 31
0.0
  0
LINE
  5
A7C
  8
0
 62
     1
 10
3094.7171178472172
 20
1584.7263204265089
 30
0.0
 11
3094.7171178472172
 21
1553.7263204265089
 31
0.0
  0
LINE
  5
A7D
  8
0
 62
     1
 10
3094.7171178472172
 20
1549.7263204265089
 30
0.0
 11
3094.7171178472172
 21
1518.7263204265089
 31
0.0
  0
LINE
  5
A7E
  8
0
 62
     1
 10
3094.7171178472172
 20
1514.7263204265089
 30
0.0
 11
3094.7171178472172
 21
1486.7263204265089
 31
0.0
  0
LINE
  5
A7F
  8
0
 62
     1
 10
3097.7171178472172
 20
1602.2263204265089
 30
0.0
 11
3097.7171178472172
 21
1571.2263204265089
 31
0.0
  0
LINE
  5
A80
  8
0
 62
     1
 10
3097.7171178472172
 20
1567.22632042651
 30
0.0
 11
3097.7171178472172
 21
1536.2263204265089
 31
0.0
  0
LINE
  5
A81
  8
0
 62
     1
 10
3097.7171178472172
 20
1532.2263204265089
 30
0.0
 11
3097.7171178472172
 21
1501.2263204265089
 31
0.0
  0
LINE
  5
A82
  8
0
 62
     1
 10
3097.7171178472172
 20
1497.2263204265089
 30
0.0
 11
3097.7171178472172
 21
1486.7263204265089
 31
0.0
  0
LINE
  5
A83
  8
0
 62
     1
 10
3097.7171178472172
 20
1616.7263204265089
 30
0.0
 11
3097.7171178472172
 21
1606.2263204265089
 31
0.0
  0
LINE
  5
A84
  8
0
 62
     1
 10
3100.7171178472158
 20
1616.7263204265089
 30
0.0
 11
3100.7171178472158
 21
1588.7263204265089
 31
0.0
  0
LINE
  5
A85
  8
0
 62
     1
 10
3100.7171178472158
 20
1584.7263204265089
 30
0.0
 11
3100.7171178472158
 21
1553.7263204265089
 31
0.0
  0
LINE
  5
A86
  8
0
 62
     1
 10
3100.7171178472158
 20
1549.7263204265089
 30
0.0
 11
3100.7171178472158
 21
1518.7263204265089
 31
0.0
  0
LINE
  5
A87
  8
0
 62
     1
 10
3100.7171178472158
 20
1514.7263204265089
 30
0.0
 11
3100.7171178472158
 21
1486.7263204265089
 31
0.0
  0
LINE
  5
A88
  8
0
 62
     1
 10
3103.7171178472158
 20
1602.2263204265089
 30
0.0
 11
3103.7171178472158
 21
1571.2263204265089
 31
0.0
  0
LINE
  5
A89
  8
0
 62
     1
 10
3103.7171178472158
 20
1567.22632042651
 30
0.0
 11
3103.7171178472158
 21
1536.2263204265089
 31
0.0
  0
LINE
  5
A8A
  8
0
 62
     1
 10
3103.7171178472158
 20
1532.2263204265089
 30
0.0
 11
3103.7171178472158
 21
1501.2263204265089
 31
0.0
  0
LINE
  5
A8B
  8
0
 62
     1
 10
3103.7171178472158
 20
1497.2263204265089
 30
0.0
 11
3103.7171178472158
 21
1486.7263204265089
 31
0.0
  0
LINE
  5
A8C
  8
0
 62
     1
 10
3103.7171178472158
 20
1616.7263204265089
 30
0.0
 11
3103.7171178472158
 21
1606.2263204265089
 31
0.0
  0
LINE
  5
A8D
  8
0
 62
     1
 10
3106.7171178472172
 20
1616.7263204265089
 30
0.0
 11
3106.7171178472172
 21
1588.7263204265089
 31
0.0
  0
LINE
  5
A8E
  8
0
 62
     1
 10
3106.7171178472172
 20
1584.7263204265089
 30
0.0
 11
3106.7171178472172
 21
1553.7263204265089
 31
0.0
  0
LINE
  5
A8F
  8
0
 62
     1
 10
3106.7171178472172
 20
1549.7263204265089
 30
0.0
 11
3106.7171178472172
 21
1518.7263204265089
 31
0.0
  0
LINE
  5
A90
  8
0
 62
     1
 10
3106.7171178472172
 20
1514.7263204265089
 30
0.0
 11
3106.7171178472172
 21
1486.7263204265089
 31
0.0
  0
LINE
  5
A91
  8
0
 62
     1
 10
3109.7171178472158
 20
1602.2263204265089
 30
0.0
 11
3109.7171178472158
 21
1571.2263204265089
 31
0.0
  0
LINE
  5
A92
  8
0
 62
     1
 10
3109.7171178472158
 20
1567.22632042651
 30
0.0
 11
3109.7171178472158
 21
1536.2263204265089
 31
0.0
  0
LINE
  5
A93
  8
0
 62
     1
 10
3109.7171178472158
 20
1532.2263204265089
 30
0.0
 11
3109.7171178472158
 21
1501.2263204265089
 31
0.0
  0
LINE
  5
A94
  8
0
 62
     1
 10
3109.7171178472158
 20
1497.2263204265089
 30
0.0
 11
3109.7171178472158
 21
1486.7263204265089
 31
0.0
  0
LINE
  5
A95
  8
0
 62
     1
 10
3109.7171178472158
 20
1616.7263204265089
 30
0.0
 11
3109.7171178472158
 21
1606.2263204265089
 31
0.0
  0
LINE
  5
A96
  8
0
 62
     1
 10
3112.7171178472158
 20
1616.7263204265089
 30
0.0
 11
3112.7171178472158
 21
1588.7263204265089
 31
0.0
  0
LINE
  5
A97
  8
0
 62
     1
 10
3112.7171178472158
 20
1584.7263204265089
 30
0.0
 11
3112.7171178472158
 21
1553.7263204265089
 31
0.0
  0
LINE
  5
A98
  8
0
 62
     1
 10
3112.7171178472158
 20
1549.7263204265089
 30
0.0
 11
3112.7171178472158
 21
1518.7263204265089
 31
0.0
  0
LINE
  5
A99
  8
0
 62
     1
 10
3112.7171178472158
 20
1514.7263204265089
 30
0.0
 11
3112.7171178472158
 21
1486.7263204265089
 31
0.0
  0
LINE
  5
A9A
  8
0
 62
     1
 10
3115.7171178472158
 20
1602.2263204265089
 30
0.0
 11
3115.7171178472158
 21
1571.2263204265089
 31
0.0
  0
LINE
  5
A9B
  8
0
 62
     1
 10
3115.7171178472158
 20
1567.22632042651
 30
0.0
 11
3115.7171178472158
 21
1536.2263204265089
 31
0.0
  0
LINE
  5
A9C
  8
0
 62
     1
 10
3115.7171178472158
 20
1532.2263204265089
 30
0.0
 11
3115.7171178472158
 21
1501.2263204265089
 31
0.0
  0
LINE
  5
A9D
  8
0
 62
     1
 10
3115.7171178472158
 20
1497.2263204265089
 30
0.0
 11
3115.7171178472158
 21
1486.7263204265089
 31
0.0
  0
LINE
  5
A9E
  8
0
 62
     1
 10
3115.7171178472158
 20
1616.7263204265089
 30
0.0
 11
3115.7171178472158
 21
1606.2263204265089
 31
0.0
  0
LINE
  5
A9F
  8
0
 62
     1
 10
3118.7171178472172
 20
1616.7263204265089
 30
0.0
 11
3118.7171178472172
 21
1588.7263204265089
 31
0.0
  0
LINE
  5
AA0
  8
0
 62
     1
 10
3118.7171178472172
 20
1584.7263204265089
 30
0.0
 11
3118.7171178472172
 21
1553.7263204265089
 31
0.0
  0
LINE
  5
AA1
  8
0
 62
     1
 10
3118.7171178472172
 20
1549.7263204265089
 30
0.0
 11
3118.7171178472172
 21
1518.7263204265089
 31
0.0
  0
LINE
  5
AA2
  8
0
 62
     1
 10
3118.7171178472172
 20
1514.7263204265089
 30
0.0
 11
3118.7171178472172
 21
1486.7263204265089
 31
0.0
  0
LINE
  5
AA3
  8
0
 62
     1
 10
3121.7171178472172
 20
1602.2263204265089
 30
0.0
 11
3121.7171178472172
 21
1571.2263204265089
 31
0.0
  0
LINE
  5
AA4
  8
0
 62
     1
 10
3121.7171178472172
 20
1567.22632042651
 30
0.0
 11
3121.7171178472172
 21
1536.2263204265089
 31
0.0
  0
LINE
  5
AA5
  8
0
 62
     1
 10
3121.7171178472172
 20
1532.2263204265089
 30
0.0
 11
3121.7171178472172
 21
1501.2263204265089
 31
0.0
  0
LINE
  5
AA6
  8
0
 62
     1
 10
3121.7171178472172
 20
1497.2263204265089
 30
0.0
 11
3121.7171178472172
 21
1486.7263204265089
 31
0.0
  0
LINE
  5
AA7
  8
0
 62
     1
 10
3121.7171178472172
 20
1616.7263204265089
 30
0.0
 11
3121.7171178472172
 21
1606.2263204265089
 31
0.0
  0
LINE
  5
AA8
  8
0
 62
     1
 10
3124.7171178472172
 20
1616.7263204265089
 30
0.0
 11
3124.7171178472172
 21
1588.7263204265089
 31
0.0
  0
LINE
  5
AA9
  8
0
 62
     1
 10
3124.7171178472172
 20
1584.7263204265089
 30
0.0
 11
3124.7171178472172
 21
1553.7263204265089
 31
0.0
  0
LINE
  5
AAA
  8
0
 62
     1
 10
3124.7171178472172
 20
1549.7263204265089
 30
0.0
 11
3124.7171178472172
 21
1518.7263204265089
 31
0.0
  0
LINE
  5
AAB
  8
0
 62
     1
 10
3124.7171178472172
 20
1514.7263204265089
 30
0.0
 11
3124.7171178472172
 21
1486.7263204265089
 31
0.0
  0
LINE
  5
AAC
  8
0
 62
     1
 10
3127.7171178472158
 20
1602.2263204265089
 30
0.0
 11
3127.7171178472158
 21
1571.2263204265089
 31
0.0
  0
LINE
  5
AAD
  8
0
 62
     1
 10
3127.7171178472158
 20
1567.22632042651
 30
0.0
 11
3127.7171178472158
 21
1536.2263204265089
 31
0.0
  0
LINE
  5
AAE
  8
0
 62
     1
 10
3127.7171178472158
 20
1532.2263204265089
 30
0.0
 11
3127.7171178472158
 21
1501.2263204265089
 31
0.0
  0
LINE
  5
AAF
  8
0
 62
     1
 10
3127.7171178472158
 20
1497.2263204265089
 30
0.0
 11
3127.7171178472158
 21
1486.7263204265089
 31
0.0
  0
LINE
  5
AB0
  8
0
 62
     1
 10
3127.7171178472158
 20
1616.7263204265089
 30
0.0
 11
3127.7171178472158
 21
1606.2263204265089
 31
0.0
  0
LINE
  5
AB1
  8
0
 62
     1
 10
3130.7171178472172
 20
1616.7263204265089
 30
0.0
 11
3130.7171178472172
 21
1588.7263204265089
 31
0.0
  0
LINE
  5
AB2
  8
0
 62
     1
 10
3130.7171178472172
 20
1584.7263204265089
 30
0.0
 11
3130.7171178472172
 21
1553.7263204265089
 31
0.0
  0
LINE
  5
AB3
  8
0
 62
     1
 10
3130.7171178472172
 20
1549.7263204265089
 30
0.0
 11
3130.7171178472172
 21
1518.7263204265089
 31
0.0
  0
LINE
  5
AB4
  8
0
 62
     1
 10
3130.7171178472172
 20
1514.7263204265089
 30
0.0
 11
3130.7171178472172
 21
1486.7263204265089
 31
0.0
  0
LINE
  5
AB5
  8
0
 62
     1
 10
3133.7171178472172
 20
1602.2263204265089
 30
0.0
 11
3133.7171178472172
 21
1571.2263204265089
 31
0.0
  0
LINE
  5
AB6
  8
0
 62
     1
 10
3133.7171178472172
 20
1567.22632042651
 30
0.0
 11
3133.7171178472172
 21
1536.2263204265089
 31
0.0
  0
LINE
  5
AB7
  8
0
 62
     1
 10
3133.7171178472172
 20
1532.2263204265089
 30
0.0
 11
3133.7171178472172
 21
1501.2263204265089
 31
0.0
  0
LINE
  5
AB8
  8
0
 62
     1
 10
3133.7171178472172
 20
1497.2263204265089
 30
0.0
 11
3133.7171178472172
 21
1486.7263204265089
 31
0.0
  0
LINE
  5
AB9
  8
0
 62
     1
 10
3133.7171178472172
 20
1616.7263204265089
 30
0.0
 11
3133.7171178472172
 21
1606.2263204265089
 31
0.0
  0
LINE
  5
ABA
  8
0
 62
     1
 10
3136.7171178472158
 20
1616.7263204265089
 30
0.0
 11
3136.7171178472158
 21
1588.7263204265089
 31
0.0
  0
LINE
  5
ABB
  8
0
 62
     1
 10
3136.7171178472158
 20
1584.7263204265089
 30
0.0
 11
3136.7171178472158
 21
1553.7263204265089
 31
0.0
  0
LINE
  5
ABC
  8
0
 62
     1
 10
3136.7171178472158
 20
1549.7263204265089
 30
0.0
 11
3136.7171178472158
 21
1518.7263204265089
 31
0.0
  0
LINE
  5
ABD
  8
0
 62
     1
 10
3136.7171178472158
 20
1514.7263204265089
 30
0.0
 11
3136.7171178472158
 21
1486.7263204265089
 31
0.0
  0
LINE
  5
ABE
  8
0
 62
     1
 10
3139.7171178472158
 20
1602.2263204265089
 30
0.0
 11
3139.7171178472158
 21
1571.2263204265089
 31
0.0
  0
LINE
  5
ABF
  8
0
 62
     1
 10
3139.7171178472158
 20
1567.22632042651
 30
0.0
 11
3139.7171178472158
 21
1536.2263204265089
 31
0.0
  0
LINE
  5
AC0
  8
0
 62
     1
 10
3139.7171178472158
 20
1532.2263204265089
 30
0.0
 11
3139.7171178472158
 21
1501.2263204265089
 31
0.0
  0
LINE
  5
AC1
  8
0
 62
     1
 10
3139.7171178472158
 20
1497.2263204265089
 30
0.0
 11
3139.7171178472158
 21
1486.7263204265089
 31
0.0
  0
LINE
  5
AC2
  8
0
 62
     1
 10
3139.7171178472158
 20
1616.7263204265089
 30
0.0
 11
3139.7171178472158
 21
1606.2263204265089
 31
0.0
  0
LINE
  5
AC3
  8
0
 62
     1
 10
3142.7171178472172
 20
1616.7263204265089
 30
0.0
 11
3142.7171178472172
 21
1588.7263204265089
 31
0.0
  0
LINE
  5
AC4
  8
0
 62
     1
 10
3142.7171178472172
 20
1584.7263204265089
 30
0.0
 11
3142.7171178472172
 21
1553.7263204265089
 31
0.0
  0
LINE
  5
AC5
  8
0
 62
     1
 10
3142.7171178472172
 20
1549.7263204265089
 30
0.0
 11
3142.7171178472172
 21
1518.7263204265089
 31
0.0
  0
LINE
  5
AC6
  8
0
 62
     1
 10
3142.7171178472172
 20
1514.7263204265089
 30
0.0
 11
3142.7171178472172
 21
1486.7263204265089
 31
0.0
  0
LINE
  5
AC7
  8
0
 62
     1
 10
3342.7171178472172
 20
1616.7263204265089
 30
0.0
 11
3342.7171178472172
 21
1588.7263204265089
 31
0.0
  0
LINE
  5
AC8
  8
0
 62
     1
 10
3342.7171178472172
 20
1584.7263204265089
 30
0.0
 11
3342.7171178472172
 21
1553.7263204265089
 31
0.0
  0
LINE
  5
AC9
  8
0
 62
     1
 10
3342.7171178472172
 20
1549.7263204265089
 30
0.0
 11
3342.7171178472172
 21
1518.7263204265089
 31
0.0
  0
LINE
  5
ACA
  8
0
 62
     1
 10
3342.7171178472172
 20
1514.7263204265089
 30
0.0
 11
3342.7171178472172
 21
1486.7263204265089
 31
0.0
  0
LINE
  5
ACB
  8
0
 62
     1
 10
3345.7171178472172
 20
1602.2263204265089
 30
0.0
 11
3345.7171178472172
 21
1571.2263204265089
 31
0.0
  0
LINE
  5
ACC
  8
0
 62
     1
 10
3345.7171178472172
 20
1567.22632042651
 30
0.0
 11
3345.7171178472172
 21
1536.2263204265089
 31
0.0
  0
LINE
  5
ACD
  8
0
 62
     1
 10
3345.7171178472172
 20
1532.2263204265089
 30
0.0
 11
3345.7171178472172
 21
1501.2263204265089
 31
0.0
  0
LINE
  5
ACE
  8
0
 62
     1
 10
3345.7171178472172
 20
1497.2263204265089
 30
0.0
 11
3345.7171178472172
 21
1486.7263204265089
 31
0.0
  0
LINE
  5
ACF
  8
0
 62
     1
 10
3345.7171178472172
 20
1616.7263204265089
 30
0.0
 11
3345.7171178472172
 21
1606.2263204265089
 31
0.0
  0
LINE
  5
AD0
  8
0
 62
     1
 10
3348.7171178472172
 20
1616.7263204265089
 30
0.0
 11
3348.7171178472172
 21
1588.7263204265089
 31
0.0
  0
LINE
  5
AD1
  8
0
 62
     1
 10
3348.7171178472172
 20
1584.7263204265089
 30
0.0
 11
3348.7171178472172
 21
1553.7263204265089
 31
0.0
  0
LINE
  5
AD2
  8
0
 62
     1
 10
3348.7171178472172
 20
1549.7263204265089
 30
0.0
 11
3348.7171178472172
 21
1518.7263204265089
 31
0.0
  0
LINE
  5
AD3
  8
0
 62
     1
 10
3348.7171178472172
 20
1514.7263204265089
 30
0.0
 11
3348.7171178472172
 21
1486.7263204265089
 31
0.0
  0
LINE
  5
AD4
  8
0
 62
     1
 10
3351.7171178472158
 20
1602.2263204265089
 30
0.0
 11
3351.7171178472158
 21
1571.2263204265089
 31
0.0
  0
LINE
  5
AD5
  8
0
 62
     1
 10
3351.7171178472158
 20
1567.22632042651
 30
0.0
 11
3351.7171178472158
 21
1536.2263204265089
 31
0.0
  0
LINE
  5
AD6
  8
0
 62
     1
 10
3351.7171178472158
 20
1532.2263204265089
 30
0.0
 11
3351.7171178472158
 21
1501.2263204265089
 31
0.0
  0
LINE
  5
AD7
  8
0
 62
     1
 10
3351.7171178472158
 20
1497.2263204265089
 30
0.0
 11
3351.7171178472158
 21
1486.7263204265089
 31
0.0
  0
LINE
  5
AD8
  8
0
 62
     1
 10
3351.7171178472158
 20
1616.7263204265089
 30
0.0
 11
3351.7171178472158
 21
1606.2263204265089
 31
0.0
  0
LINE
  5
AD9
  8
0
 62
     1
 10
3354.7171178472158
 20
1616.7263204265089
 30
0.0
 11
3354.7171178472158
 21
1588.7263204265089
 31
0.0
  0
LINE
  5
ADA
  8
0
 62
     1
 10
3354.7171178472158
 20
1584.7263204265089
 30
0.0
 11
3354.7171178472158
 21
1553.7263204265089
 31
0.0
  0
LINE
  5
ADB
  8
0
 62
     1
 10
3354.7171178472158
 20
1549.7263204265089
 30
0.0
 11
3354.7171178472158
 21
1518.7263204265089
 31
0.0
  0
LINE
  5
ADC
  8
0
 62
     1
 10
3354.7171178472158
 20
1514.7263204265089
 30
0.0
 11
3354.7171178472158
 21
1486.7263204265089
 31
0.0
  0
LINE
  5
ADD
  8
0
 62
     1
 10
3357.7171178472158
 20
1602.2263204265089
 30
0.0
 11
3357.7171178472158
 21
1571.2263204265089
 31
0.0
  0
LINE
  5
ADE
  8
0
 62
     1
 10
3357.7171178472158
 20
1567.22632042651
 30
0.0
 11
3357.7171178472158
 21
1536.2263204265089
 31
0.0
  0
LINE
  5
ADF
  8
0
 62
     1
 10
3357.7171178472158
 20
1532.2263204265089
 30
0.0
 11
3357.7171178472158
 21
1501.2263204265089
 31
0.0
  0
LINE
  5
AE0
  8
0
 62
     1
 10
3357.7171178472158
 20
1497.2263204265089
 30
0.0
 11
3357.7171178472158
 21
1486.7263204265089
 31
0.0
  0
LINE
  5
AE1
  8
0
 62
     1
 10
3357.7171178472158
 20
1616.7263204265089
 30
0.0
 11
3357.7171178472158
 21
1606.2263204265089
 31
0.0
  0
LINE
  5
AE2
  8
0
 62
     1
 10
3360.7171178472172
 20
1616.7263204265089
 30
0.0
 11
3360.7171178472172
 21
1588.7263204265089
 31
0.0
  0
LINE
  5
AE3
  8
0
 62
     1
 10
3360.7171178472172
 20
1584.7263204265089
 30
0.0
 11
3360.7171178472172
 21
1553.7263204265089
 31
0.0
  0
LINE
  5
AE4
  8
0
 62
     1
 10
3360.7171178472172
 20
1549.7263204265089
 30
0.0
 11
3360.7171178472172
 21
1518.7263204265089
 31
0.0
  0
LINE
  5
AE5
  8
0
 62
     1
 10
3360.7171178472172
 20
1514.7263204265089
 30
0.0
 11
3360.7171178472172
 21
1486.7263204265089
 31
0.0
  0
LINE
  5
AE6
  8
0
 62
     1
 10
3363.7171178472172
 20
1602.2263204265089
 30
0.0
 11
3363.7171178472172
 21
1571.2263204265089
 31
0.0
  0
LINE
  5
AE7
  8
0
 62
     1
 10
3363.7171178472172
 20
1567.22632042651
 30
0.0
 11
3363.7171178472172
 21
1536.2263204265089
 31
0.0
  0
LINE
  5
AE8
  8
0
 62
     1
 10
3363.7171178472172
 20
1532.2263204265089
 30
0.0
 11
3363.7171178472172
 21
1501.2263204265089
 31
0.0
  0
LINE
  5
AE9
  8
0
 62
     1
 10
3363.7171178472172
 20
1497.2263204265089
 30
0.0
 11
3363.7171178472172
 21
1486.7263204265089
 31
0.0
  0
LINE
  5
AEA
  8
0
 62
     1
 10
3363.7171178472172
 20
1616.7263204265089
 30
0.0
 11
3363.7171178472172
 21
1606.2263204265089
 31
0.0
  0
LINE
  5
AEB
  8
0
 62
     1
 10
3366.7171178472172
 20
1616.7263204265089
 30
0.0
 11
3366.7171178472172
 21
1588.7263204265089
 31
0.0
  0
LINE
  5
AEC
  8
0
 62
     1
 10
3366.7171178472172
 20
1584.7263204265089
 30
0.0
 11
3366.7171178472172
 21
1553.7263204265089
 31
0.0
  0
LINE
  5
AED
  8
0
 62
     1
 10
3366.7171178472172
 20
1549.7263204265089
 30
0.0
 11
3366.7171178472172
 21
1518.7263204265089
 31
0.0
  0
LINE
  5
AEE
  8
0
 62
     1
 10
3366.7171178472172
 20
1514.7263204265089
 30
0.0
 11
3366.7171178472172
 21
1486.7263204265089
 31
0.0
  0
LINE
  5
AEF
  8
0
 62
     1
 10
3369.7171178472158
 20
1602.2263204265089
 30
0.0
 11
3369.7171178472158
 21
1571.2263204265089
 31
0.0
  0
LINE
  5
AF0
  8
0
 62
     1
 10
3369.7171178472158
 20
1567.22632042651
 30
0.0
 11
3369.7171178472158
 21
1536.2263204265089
 31
0.0
  0
LINE
  5
AF1
  8
0
 62
     1
 10
3369.7171178472158
 20
1532.2263204265089
 30
0.0
 11
3369.7171178472158
 21
1501.2263204265089
 31
0.0
  0
LINE
  5
AF2
  8
0
 62
     1
 10
3369.7171178472158
 20
1497.2263204265089
 30
0.0
 11
3369.7171178472158
 21
1486.7263204265089
 31
0.0
  0
LINE
  5
AF3
  8
0
 62
     1
 10
3369.7171178472158
 20
1616.7263204265089
 30
0.0
 11
3369.7171178472158
 21
1606.2263204265089
 31
0.0
  0
LINE
  5
AF4
  8
0
 62
     1
 10
3372.7171178472158
 20
1616.7263204265089
 30
0.0
 11
3372.7171178472158
 21
1588.7263204265089
 31
0.0
  0
LINE
  5
AF5
  8
0
 62
     1
 10
3372.7171178472158
 20
1584.7263204265089
 30
0.0
 11
3372.7171178472158
 21
1553.7263204265089
 31
0.0
  0
LINE
  5
AF6
  8
0
 62
     1
 10
3372.7171178472158
 20
1549.7263204265089
 30
0.0
 11
3372.7171178472158
 21
1518.7263204265089
 31
0.0
  0
LINE
  5
AF7
  8
0
 62
     1
 10
3372.7171178472158
 20
1514.7263204265089
 30
0.0
 11
3372.7171178472158
 21
1486.7263204265089
 31
0.0
  0
LINE
  5
AF8
  8
0
 62
     1
 10
3375.7171178472158
 20
1602.2263204265089
 30
0.0
 11
3375.7171178472158
 21
1571.2263204265089
 31
0.0
  0
LINE
  5
AF9
  8
0
 62
     1
 10
3375.7171178472158
 20
1567.22632042651
 30
0.0
 11
3375.7171178472158
 21
1536.2263204265089
 31
0.0
  0
LINE
  5
AFA
  8
0
 62
     1
 10
3375.7171178472158
 20
1532.2263204265089
 30
0.0
 11
3375.7171178472158
 21
1501.2263204265089
 31
0.0
  0
LINE
  5
AFB
  8
0
 62
     1
 10
3375.7171178472158
 20
1497.2263204265089
 30
0.0
 11
3375.7171178472158
 21
1486.7263204265089
 31
0.0
  0
LINE
  5
AFC
  8
0
 62
     1
 10
3375.7171178472158
 20
1616.7263204265089
 30
0.0
 11
3375.7171178472158
 21
1606.2263204265089
 31
0.0
  0
LINE
  5
AFD
  8
0
 62
     1
 10
3378.7171178472158
 20
1616.7263204265089
 30
0.0
 11
3378.7171178472158
 21
1588.7263204265089
 31
0.0
  0
LINE
  5
AFE
  8
0
 62
     1
 10
3378.7171178472158
 20
1584.7263204265089
 30
0.0
 11
3378.7171178472158
 21
1553.7263204265089
 31
0.0
  0
LINE
  5
AFF
  8
0
 62
     1
 10
3378.7171178472158
 20
1549.7263204265089
 30
0.0
 11
3378.7171178472158
 21
1518.7263204265089
 31
0.0
  0
LINE
  5
B00
  8
0
 62
     1
 10
3378.7171178472158
 20
1514.7263204265089
 30
0.0
 11
3378.7171178472158
 21
1486.7263204265089
 31
0.0
  0
LINE
  5
B01
  8
0
 62
     1
 10
3381.7171178472158
 20
1602.2263204265089
 30
0.0
 11
3381.7171178472158
 21
1571.2263204265089
 31
0.0
  0
LINE
  5
B02
  8
0
 62
     1
 10
3381.7171178472158
 20
1567.22632042651
 30
0.0
 11
3381.7171178472158
 21
1536.2263204265089
 31
0.0
  0
LINE
  5
B03
  8
0
 62
     1
 10
3381.7171178472158
 20
1532.2263204265089
 30
0.0
 11
3381.7171178472158
 21
1501.2263204265089
 31
0.0
  0
LINE
  5
B04
  8
0
 62
     1
 10
3381.7171178472158
 20
1497.2263204265089
 30
0.0
 11
3381.7171178472158
 21
1486.7263204265089
 31
0.0
  0
LINE
  5
B05
  8
0
 62
     1
 10
3381.7171178472158
 20
1616.7263204265089
 30
0.0
 11
3381.7171178472158
 21
1606.2263204265089
 31
0.0
  0
LINE
  5
B06
  8
0
 62
     1
 10
3384.7171178472172
 20
1616.7263204265089
 30
0.0
 11
3384.7171178472172
 21
1588.7263204265089
 31
0.0
  0
LINE
  5
B07
  8
0
 62
     1
 10
3384.7171178472172
 20
1584.7263204265089
 30
0.0
 11
3384.7171178472172
 21
1553.7263204265089
 31
0.0
  0
LINE
  5
B08
  8
0
 62
     1
 10
3384.7171178472172
 20
1549.7263204265089
 30
0.0
 11
3384.7171178472172
 21
1518.7263204265089
 31
0.0
  0
LINE
  5
B09
  8
0
 62
     1
 10
3384.7171178472172
 20
1514.7263204265089
 30
0.0
 11
3384.7171178472172
 21
1486.7263204265089
 31
0.0
  0
LINE
  5
B0A
  8
0
 62
     1
 10
3387.7171178472158
 20
1602.2263204265089
 30
0.0
 11
3387.7171178472158
 21
1571.2263204265089
 31
0.0
  0
LINE
  5
B0B
  8
0
 62
     1
 10
3387.7171178472158
 20
1567.22632042651
 30
0.0
 11
3387.7171178472158
 21
1536.2263204265089
 31
0.0
  0
LINE
  5
B0C
  8
0
 62
     1
 10
3387.7171178472158
 20
1532.2263204265089
 30
0.0
 11
3387.7171178472158
 21
1501.2263204265089
 31
0.0
  0
LINE
  5
B0D
  8
0
 62
     1
 10
3387.7171178472158
 20
1497.2263204265089
 30
0.0
 11
3387.7171178472158
 21
1486.7263204265089
 31
0.0
  0
LINE
  5
B0E
  8
0
 62
     1
 10
3387.7171178472158
 20
1616.7263204265089
 30
0.0
 11
3387.7171178472158
 21
1606.2263204265089
 31
0.0
  0
LINE
  5
B0F
  8
0
 62
     1
 10
3390.7171178472158
 20
1616.7263204265089
 30
0.0
 11
3390.7171178472158
 21
1588.7263204265089
 31
0.0
  0
LINE
  5
B10
  8
0
 62
     1
 10
3390.7171178472158
 20
1584.7263204265089
 30
0.0
 11
3390.7171178472158
 21
1553.7263204265089
 31
0.0
  0
LINE
  5
B11
  8
0
 62
     1
 10
3390.7171178472158
 20
1549.7263204265089
 30
0.0
 11
3390.7171178472158
 21
1518.7263204265089
 31
0.0
  0
LINE
  5
B12
  8
0
 62
     1
 10
3390.7171178472158
 20
1514.7263204265089
 30
0.0
 11
3390.7171178472158
 21
1486.7263204265089
 31
0.0
  0
LINE
  5
B13
  8
0
 62
     1
 10
3393.7171178472158
 20
1602.2263204265089
 30
0.0
 11
3393.7171178472158
 21
1571.2263204265089
 31
0.0
  0
LINE
  5
B14
  8
0
 62
     1
 10
3393.7171178472158
 20
1567.22632042651
 30
0.0
 11
3393.7171178472158
 21
1536.2263204265089
 31
0.0
  0
LINE
  5
B15
  8
0
 62
     1
 10
3393.7171178472158
 20
1532.2263204265089
 30
0.0
 11
3393.7171178472158
 21
1501.2263204265089
 31
0.0
  0
LINE
  5
B16
  8
0
 62
     1
 10
3393.7171178472158
 20
1497.2263204265089
 30
0.0
 11
3393.7171178472158
 21
1486.7263204265089
 31
0.0
  0
LINE
  5
B17
  8
0
 62
     1
 10
3393.7171178472158
 20
1616.7263204265089
 30
0.0
 11
3393.7171178472158
 21
1606.2263204265089
 31
0.0
  0
LINE
  5
B18
  8
0
 62
     1
 10
3396.7171178472172
 20
1616.7263204265089
 30
0.0
 11
3396.7171178472172
 21
1588.7263204265089
 31
0.0
  0
LINE
  5
B19
  8
0
 62
     1
 10
3396.7171178472172
 20
1584.7263204265089
 30
0.0
 11
3396.7171178472172
 21
1553.7263204265089
 31
0.0
  0
LINE
  5
B1A
  8
0
 62
     1
 10
3396.7171178472172
 20
1549.7263204265089
 30
0.0
 11
3396.7171178472172
 21
1518.7263204265089
 31
0.0
  0
LINE
  5
B1B
  8
0
 62
     1
 10
3396.7171178472172
 20
1514.7263204265089
 30
0.0
 11
3396.7171178472172
 21
1486.7263204265089
 31
0.0
  0
LINE
  5
B1C
  8
0
 62
     1
 10
3399.7171178472172
 20
1602.2263204265089
 30
0.0
 11
3399.7171178472172
 21
1571.2263204265089
 31
0.0
  0
LINE
  5
B1D
  8
0
 62
     1
 10
3399.7171178472172
 20
1567.22632042651
 30
0.0
 11
3399.7171178472172
 21
1536.2263204265089
 31
0.0
  0
LINE
  5
B1E
  8
0
 62
     1
 10
3399.7171178472172
 20
1532.2263204265089
 30
0.0
 11
3399.7171178472172
 21
1501.2263204265089
 31
0.0
  0
LINE
  5
B1F
  8
0
 62
     1
 10
3399.7171178472172
 20
1497.2263204265089
 30
0.0
 11
3399.7171178472172
 21
1486.7263204265089
 31
0.0
  0
LINE
  5
B20
  8
0
 62
     1
 10
3399.7171178472172
 20
1616.7263204265089
 30
0.0
 11
3399.7171178472172
 21
1606.2263204265089
 31
0.0
  0
LINE
  5
B21
  8
0
 62
     1
 10
3402.7171178472172
 20
1616.7263204265089
 30
0.0
 11
3402.7171178472172
 21
1588.7263204265089
 31
0.0
  0
LINE
  5
B22
  8
0
 62
     1
 10
3402.7171178472172
 20
1584.7263204265089
 30
0.0
 11
3402.7171178472172
 21
1553.7263204265089
 31
0.0
  0
LINE
  5
B23
  8
0
 62
     1
 10
3402.7171178472172
 20
1549.7263204265089
 30
0.0
 11
3402.7171178472172
 21
1518.7263204265089
 31
0.0
  0
LINE
  5
B24
  8
0
 62
     1
 10
3402.7171178472172
 20
1514.7263204265089
 30
0.0
 11
3402.7171178472172
 21
1486.7263204265089
 31
0.0
  0
LINE
  5
B25
  8
0
 62
     1
 10
3405.7171178472158
 20
1602.2263204265089
 30
0.0
 11
3405.7171178472158
 21
1571.2263204265089
 31
0.0
  0
LINE
  5
B26
  8
0
 62
     1
 10
3405.7171178472158
 20
1567.22632042651
 30
0.0
 11
3405.7171178472158
 21
1536.2263204265089
 31
0.0
  0
LINE
  5
B27
  8
0
 62
     1
 10
3405.7171178472158
 20
1532.2263204265089
 30
0.0
 11
3405.7171178472158
 21
1501.2263204265089
 31
0.0
  0
LINE
  5
B28
  8
0
 62
     1
 10
3405.7171178472158
 20
1497.2263204265089
 30
0.0
 11
3405.7171178472158
 21
1486.7263204265089
 31
0.0
  0
LINE
  5
B29
  8
0
 62
     1
 10
3405.7171178472158
 20
1616.7263204265089
 30
0.0
 11
3405.7171178472158
 21
1606.2263204265089
 31
0.0
  0
LINE
  5
B2A
  8
0
 62
     1
 10
3408.7171178472158
 20
1616.7263204265089
 30
0.0
 11
3408.7171178472158
 21
1588.7263204265089
 31
0.0
  0
LINE
  5
B2B
  8
0
 62
     1
 10
3408.7171178472158
 20
1584.7263204265089
 30
0.0
 11
3408.7171178472158
 21
1553.7263204265089
 31
0.0
  0
LINE
  5
B2C
  8
0
 62
     1
 10
3408.7171178472158
 20
1549.7263204265089
 30
0.0
 11
3408.7171178472158
 21
1518.7263204265089
 31
0.0
  0
LINE
  5
B2D
  8
0
 62
     1
 10
3408.7171178472158
 20
1514.7263204265089
 30
0.0
 11
3408.7171178472158
 21
1486.7263204265089
 31
0.0
  0
LINE
  5
B2E
  8
0
 62
     1
 10
3411.7171178472158
 20
1602.2263204265089
 30
0.0
 11
3411.7171178472158
 21
1571.2263204265089
 31
0.0
  0
LINE
  5
B2F
  8
0
 62
     1
 10
3411.7171178472158
 20
1567.22632042651
 30
0.0
 11
3411.7171178472158
 21
1536.2263204265089
 31
0.0
  0
LINE
  5
B30
  8
0
 62
     1
 10
3411.7171178472158
 20
1532.2263204265089
 30
0.0
 11
3411.7171178472158
 21
1501.2263204265089
 31
0.0
  0
LINE
  5
B31
  8
0
 62
     1
 10
3411.7171178472158
 20
1497.2263204265089
 30
0.0
 11
3411.7171178472158
 21
1486.7263204265089
 31
0.0
  0
LINE
  5
B32
  8
0
 62
     1
 10
3411.7171178472158
 20
1616.7263204265089
 30
0.0
 11
3411.7171178472158
 21
1606.2263204265089
 31
0.0
  0
LINE
  5
B33
  8
0
 62
     1
 10
3072.2171178472172
 20
1484.726320426508
 30
0.0
 11
3167.2171178472158
 21
1484.726320426508
 31
0.0
  0
LINE
  5
B34
  8
0
 62
     1
 10
3067.2171178472158
 20
1481.726320426508
 30
0.0
 11
3067.2171178472158
 21
1484.7263204265089
 31
0.0
  0
LINE
  5
B35
  8
0
 62
     1
 10
3072.2171178472172
 20
1481.726320426508
 30
0.0
 11
3072.2171178472172
 21
1484.7263204265089
 31
0.0
  0
LINE
  5
B36
  8
0
 62
     1
 10
3167.2171178472158
 20
1481.726320426508
 30
0.0
 11
3167.2171178472158
 21
1484.7263204265089
 31
0.0
  0
LINE
  5
B37
  8
0
 62
     1
 10
3172.2171178472158
 20
1481.7263204265089
 30
0.0
 11
3172.2171178472158
 21
1484.7263204265089
 31
0.0
  0
LINE
  5
B38
  8
0
 62
     1
 10
3167.2171178472158
 20
1481.7263204265089
 30
0.0
 11
3172.2171178472158
 21
1481.726320426508
 31
0.0
  0
LINE
  5
B39
  8
0
 62
     1
 10
3072.2171178472172
 20
1481.7263204265089
 30
0.0
 11
3067.2171178472158
 21
1481.7263204265089
 31
0.0
  0
LINE
  5
B3A
  8
0
 62
     1
 10
3067.2171178472158
 20
1484.7263204265089
 30
0.0
 11
3017.2171178472158
 21
1484.7263204265089
 31
0.0
  0
LINE
  5
B3B
  8
0
 62
     1
 10
3172.2171178472158
 20
1484.7263204265089
 30
0.0
 11
3222.2171178472172
 21
1484.7263204265089
 31
0.0
  0
LINE
  5
B3C
  8
0
 62
     1
 10
3222.2171178472172
 20
1484.7263204265089
 30
0.0
 11
3222.2171178472172
 21
1481.7263204265089
 31
0.0
  0
LINE
  5
B3D
  8
0
 62
     1
 10
3222.2171178472172
 20
1481.7263204265089
 30
0.0
 11
3227.2171178472158
 21
1481.7263204265089
 31
0.0
  0
LINE
  5
B3E
  8
0
 62
     1
 10
3227.2171178472158
 20
1481.7263204265089
 30
0.0
 11
3227.2171178472158
 21
1484.7263204265089
 31
0.0
  0
LINE
  5
B3F
  8
0
 62
     1
 10
3017.2171178472158
 20
1484.7263204265089
 30
0.0
 11
3017.2171178472158
 21
1481.7263204265089
 31
0.0
  0
LINE
  5
B40
  8
0
 62
     1
 10
3017.2171178472158
 20
1481.7263204265089
 30
0.0
 11
3012.2171178472172
 21
1481.7263204265089
 31
0.0
  0
LINE
  5
B41
  8
0
 62
     1
 10
3012.2171178472172
 20
1481.7263204265089
 30
0.0
 11
3012.2171178472172
 21
1484.7263204265089
 31
0.0
  0
LINE
  5
B42
  8
0
 62
     1
 10
3227.2171178472158
 20
1484.7263204265089
 30
0.0
 11
3274.7171178472172
 21
1484.7263204265089
 31
0.0
  0
LINE
  5
B43
  8
0
 62
     1
 10
3012.2171178472172
 20
1484.7263204265089
 30
0.0
 11
2964.7171178472172
 21
1484.7263204265089
 31
0.0
  0
LINE
  5
B44
  8
0
 62
     1
 10
2964.7171178472172
 20
1484.7263204265089
 30
0.0
 11
2964.7171178472172
 21
1474.7263204265089
 31
0.0
  0
LINE
  5
B45
  8
0
 62
     1
 10
3274.7171178472172
 20
1484.7263204265089
 30
0.0
 11
3274.7171178472172
 21
1474.7263204265089
 31
0.0
  0
LINE
  5
B46
  8
0
 62
     1
 10
2964.7171178472172
 20
1474.7263204265089
 30
0.0
 11
3008.7171178472172
 21
1474.7263204265089
 31
0.0
  0
LINE
  5
B47
  8
0
 62
     1
 10
3274.7171178472172
 20
1474.7263204265089
 30
0.0
 11
3230.7171178472158
 21
1474.7263204265089
 31
0.0
  0
LINE
  5
B48
  8
0
 62
     1
 10
3072.2171178472172
 20
1410.7263204265089
 30
0.0
 11
3167.2171178472158
 21
1410.7263204265089
 31
0.0
  0
LINE
  5
B49
  8
0
 62
     1
 10
3067.2171178472158
 20
1413.7263204265089
 30
0.0
 11
3067.2171178472158
 21
1410.7263204265089
 31
0.0
  0
LINE
  5
B4A
  8
0
 62
     1
 10
3072.2171178472172
 20
1413.7263204265089
 30
0.0
 11
3072.2171178472172
 21
1410.726320426508
 31
0.0
  0
LINE
  5
B4B
  8
0
 62
     1
 10
3167.2171178472158
 20
1413.7263204265089
 30
0.0
 11
3167.2171178472158
 21
1410.7263204265089
 31
0.0
  0
LINE
  5
B4C
  8
0
 62
     1
 10
3172.2171178472158
 20
1413.7263204265089
 30
0.0
 11
3172.2171178472158
 21
1410.7263204265089
 31
0.0
  0
LINE
  5
B4D
  8
0
 62
     1
 10
3167.2171178472158
 20
1413.7263204265089
 30
0.0
 11
3172.2171178472158
 21
1413.7263204265089
 31
0.0
  0
LINE
  5
B4E
  8
0
 62
     1
 10
3072.2171178472172
 20
1413.7263204265089
 30
0.0
 11
3067.2171178472158
 21
1413.7263204265089
 31
0.0
  0
LINE
  5
B4F
  8
0
 62
     1
 10
3067.2171178472158
 20
1410.7263204265089
 30
0.0
 11
3017.2171178472158
 21
1410.7263204265089
 31
0.0
  0
LINE
  5
B50
  8
0
 62
     1
 10
3172.2171178472158
 20
1410.7263204265089
 30
0.0
 11
3222.2171178472172
 21
1410.7263204265089
 31
0.0
  0
LINE
  5
B51
  8
0
 62
     1
 10
3222.2171178472172
 20
1410.7263204265089
 30
0.0
 11
3222.2171178472172
 21
1413.7263204265089
 31
0.0
  0
LINE
  5
B52
  8
0
 62
     1
 10
3222.2171178472172
 20
1413.7263204265089
 30
0.0
 11
3227.2171178472158
 21
1413.7263204265089
 31
0.0
  0
LINE
  5
B53
  8
0
 62
     1
 10
3227.2171178472158
 20
1413.7263204265089
 30
0.0
 11
3227.2171178472158
 21
1410.7263204265089
 31
0.0
  0
LINE
  5
B54
  8
0
 62
     1
 10
3017.2171178472158
 20
1410.7263204265089
 30
0.0
 11
3017.2171178472158
 21
1413.7263204265089
 31
0.0
  0
LINE
  5
B55
  8
0
 62
     1
 10
3017.2171178472158
 20
1413.7263204265089
 30
0.0
 11
3012.2171178472172
 21
1413.7263204265089
 31
0.0
  0
LINE
  5
B56
  8
0
 62
     1
 10
3012.2171178472172
 20
1413.7263204265089
 30
0.0
 11
3012.2171178472172
 21
1410.7263204265089
 31
0.0
  0
LINE
  5
B57
  8
0
 62
     1
 10
3227.2171178472158
 20
1410.7263204265089
 30
0.0
 11
3274.7171178472172
 21
1410.7263204265089
 31
0.0
  0
LINE
  5
B58
  8
0
 62
     1
 10
3012.2171178472172
 20
1410.7263204265089
 30
0.0
 11
2964.7171178472172
 21
1410.7263204265089
 31
0.0
  0
LINE
  5
B59
  8
0
 62
     1
 10
2964.7171178472172
 20
1410.7263204265089
 30
0.0
 11
2964.7171178472172
 21
1420.7263204265089
 31
0.0
  0
LINE
  5
B5A
  8
0
 62
     1
 10
3274.7171178472172
 20
1410.7263204265089
 30
0.0
 11
3274.7171178472172
 21
1420.7263204265089
 31
0.0
  0
LINE
  5
B5B
  8
0
 62
     1
 10
2964.7171178472172
 20
1420.7263204265089
 30
0.0
 11
3008.7171178472172
 21
1420.7263204265089
 31
0.0
  0
LINE
  5
B5C
  8
0
 62
     1
 10
3274.7171178472172
 20
1420.7263204265089
 30
0.0
 11
3230.7171178472158
 21
1420.7263204265089
 31
0.0
  0
LINE
  5
B5D
  8
0
 62
     1
 10
3033.2171178472158
 20
1484.7263204265089
 30
0.0
 11
3033.2171178472158
 21
1468.4763204265089
 31
0.0
  0
LINE
  5
B5E
  8
0
 62
     1
 10
3033.2171178472158
 20
1465.4763204265089
 30
0.0
 11
3033.2171178472158
 21
1449.2263204265089
 31
0.0
  0
LINE
  5
B5F
  8
0
 62
     1
 10
3033.2171178472158
 20
1446.2263204265089
 30
0.0
 11
3033.2171178472158
 21
1429.9763204265089
 31
0.0
  0
LINE
  5
B60
  8
0
 62
     1
 10
3033.2171178472158
 20
1426.9763204265089
 30
0.0
 11
3033.2171178472158
 21
1410.7263204265089
 31
0.0
  0
LINE
  5
B61
  8
0
 62
     1
 10
3035.2171178472158
 20
1475.1013204265089
 30
0.0
 11
3035.2171178472158
 21
1458.8513204265089
 31
0.0
  0
LINE
  5
B62
  8
0
 62
     1
 10
3035.2171178472158
 20
1455.8513204265089
 30
0.0
 11
3035.2171178472158
 21
1439.6013204265089
 31
0.0
  0
LINE
  5
B63
  8
0
 62
     1
 10
3035.2171178472158
 20
1436.6013204265089
 30
0.0
 11
3035.2171178472158
 21
1420.3513204265089
 31
0.0
  0
LINE
  5
B64
  8
0
 62
     1
 10
3035.2171178472158
 20
1417.3513204265089
 30
0.0
 11
3035.2171178472158
 21
1410.7263204265089
 31
0.0
  0
LINE
  5
B65
  8
0
 62
     1
 10
3035.2171178472158
 20
1484.7263204265089
 30
0.0
 11
3035.2171178472158
 21
1478.1013204265089
 31
0.0
  0
LINE
  5
B66
  8
0
 62
     1
 10
3037.2171178472158
 20
1484.7263204265089
 30
0.0
 11
3037.2171178472158
 21
1468.4763204265089
 31
0.0
  0
LINE
  5
B67
  8
0
 62
     1
 10
3037.2171178472158
 20
1465.4763204265089
 30
0.0
 11
3037.2171178472158
 21
1449.2263204265089
 31
0.0
  0
LINE
  5
B68
  8
0
 62
     1
 10
3037.2171178472158
 20
1446.2263204265089
 30
0.0
 11
3037.2171178472158
 21
1429.9763204265089
 31
0.0
  0
LINE
  5
B69
  8
0
 62
     1
 10
3037.2171178472158
 20
1426.9763204265089
 30
0.0
 11
3037.2171178472158
 21
1410.7263204265089
 31
0.0
  0
LINE
  5
B6A
  8
0
 62
     1
 10
3039.2171178472172
 20
1475.1013204265089
 30
0.0
 11
3039.2171178472172
 21
1458.8513204265089
 31
0.0
  0
LINE
  5
B6B
  8
0
 62
     1
 10
3039.2171178472172
 20
1455.8513204265089
 30
0.0
 11
3039.2171178472172
 21
1439.6013204265089
 31
0.0
  0
LINE
  5
B6C
  8
0
 62
     1
 10
3039.2171178472172
 20
1436.6013204265089
 30
0.0
 11
3039.2171178472172
 21
1420.3513204265089
 31
0.0
  0
LINE
  5
B6D
  8
0
 62
     1
 10
3039.2171178472172
 20
1417.3513204265089
 30
0.0
 11
3039.2171178472172
 21
1410.7263204265089
 31
0.0
  0
LINE
  5
B6E
  8
0
 62
     1
 10
3039.2171178472172
 20
1484.7263204265089
 30
0.0
 11
3039.2171178472172
 21
1478.1013204265089
 31
0.0
  0
LINE
  5
B6F
  8
0
 62
     1
 10
3041.2171178472158
 20
1484.7263204265089
 30
0.0
 11
3041.2171178472158
 21
1468.4763204265089
 31
0.0
  0
LINE
  5
B70
  8
0
 62
     1
 10
3041.2171178472158
 20
1465.4763204265089
 30
0.0
 11
3041.2171178472158
 21
1449.2263204265089
 31
0.0
  0
LINE
  5
B71
  8
0
 62
     1
 10
3041.2171178472158
 20
1446.2263204265089
 30
0.0
 11
3041.2171178472158
 21
1429.9763204265089
 31
0.0
  0
LINE
  5
B72
  8
0
 62
     1
 10
3041.2171178472158
 20
1426.9763204265089
 30
0.0
 11
3041.2171178472158
 21
1410.7263204265089
 31
0.0
  0
LINE
  5
B73
  8
0
 62
     1
 10
3043.2171178472172
 20
1475.1013204265089
 30
0.0
 11
3043.2171178472172
 21
1458.8513204265089
 31
0.0
  0
LINE
  5
B74
  8
0
 62
     1
 10
3043.2171178472172
 20
1455.8513204265089
 30
0.0
 11
3043.2171178472172
 21
1439.6013204265089
 31
0.0
  0
LINE
  5
B75
  8
0
 62
     1
 10
3043.2171178472172
 20
1436.6013204265089
 30
0.0
 11
3043.2171178472172
 21
1420.3513204265089
 31
0.0
  0
LINE
  5
B76
  8
0
 62
     1
 10
3043.2171178472172
 20
1417.3513204265089
 30
0.0
 11
3043.2171178472172
 21
1410.7263204265089
 31
0.0
  0
LINE
  5
B77
  8
0
 62
     1
 10
3043.2171178472172
 20
1484.7263204265089
 30
0.0
 11
3043.2171178472172
 21
1478.1013204265089
 31
0.0
  0
LINE
  5
B78
  8
0
 62
     1
 10
3045.2171178472158
 20
1484.7263204265089
 30
0.0
 11
3045.2171178472158
 21
1468.4763204265089
 31
0.0
  0
LINE
  5
B79
  8
0
 62
     1
 10
3045.2171178472158
 20
1465.4763204265089
 30
0.0
 11
3045.2171178472158
 21
1449.2263204265089
 31
0.0
  0
LINE
  5
B7A
  8
0
 62
     1
 10
3045.2171178472158
 20
1446.2263204265089
 30
0.0
 11
3045.2171178472158
 21
1429.9763204265089
 31
0.0
  0
LINE
  5
B7B
  8
0
 62
     1
 10
3045.2171178472158
 20
1426.9763204265089
 30
0.0
 11
3045.2171178472158
 21
1410.7263204265089
 31
0.0
  0
LINE
  5
B7C
  8
0
 62
     1
 10
3047.2171178472158
 20
1475.1013204265089
 30
0.0
 11
3047.2171178472158
 21
1458.8513204265089
 31
0.0
  0
LINE
  5
B7D
  8
0
 62
     1
 10
3047.2171178472158
 20
1455.8513204265089
 30
0.0
 11
3047.2171178472158
 21
1439.6013204265089
 31
0.0
  0
LINE
  5
B7E
  8
0
 62
     1
 10
3047.2171178472158
 20
1436.6013204265089
 30
0.0
 11
3047.2171178472158
 21
1420.3513204265089
 31
0.0
  0
LINE
  5
B7F
  8
0
 62
     1
 10
3047.2171178472158
 20
1417.3513204265089
 30
0.0
 11
3047.2171178472158
 21
1410.7263204265089
 31
0.0
  0
LINE
  5
B80
  8
0
 62
     1
 10
3047.2171178472158
 20
1484.7263204265089
 30
0.0
 11
3047.2171178472158
 21
1478.1013204265089
 31
0.0
  0
LINE
  5
B81
  8
0
 62
     1
 10
3049.2171178472158
 20
1484.7263204265089
 30
0.0
 11
3049.2171178472158
 21
1468.4763204265089
 31
0.0
  0
LINE
  5
B82
  8
0
 62
     1
 10
3049.2171178472158
 20
1465.4763204265089
 30
0.0
 11
3049.2171178472158
 21
1449.2263204265089
 31
0.0
  0
LINE
  5
B83
  8
0
 62
     1
 10
3049.2171178472158
 20
1446.2263204265089
 30
0.0
 11
3049.2171178472158
 21
1429.9763204265089
 31
0.0
  0
LINE
  5
B84
  8
0
 62
     1
 10
3049.2171178472158
 20
1426.9763204265089
 30
0.0
 11
3049.2171178472158
 21
1410.7263204265089
 31
0.0
  0
LINE
  5
B85
  8
0
 62
     1
 10
3051.2171178472158
 20
1475.1013204265089
 30
0.0
 11
3051.2171178472158
 21
1458.8513204265089
 31
0.0
  0
LINE
  5
B86
  8
0
 62
     1
 10
3051.2171178472158
 20
1455.8513204265089
 30
0.0
 11
3051.2171178472158
 21
1439.6013204265089
 31
0.0
  0
LINE
  5
B87
  8
0
 62
     1
 10
3051.2171178472158
 20
1436.6013204265089
 30
0.0
 11
3051.2171178472158
 21
1420.3513204265089
 31
0.0
  0
LINE
  5
B88
  8
0
 62
     1
 10
3051.2171178472158
 20
1417.3513204265089
 30
0.0
 11
3051.2171178472158
 21
1410.7263204265089
 31
0.0
  0
LINE
  5
B89
  8
0
 62
     1
 10
3051.2171178472158
 20
1484.7263204265089
 30
0.0
 11
3051.2171178472158
 21
1478.1013204265089
 31
0.0
  0
LINE
  5
B8A
  8
0
 62
     1
 10
3053.2171178472158
 20
1484.7263204265089
 30
0.0
 11
3053.2171178472158
 21
1468.4763204265089
 31
0.0
  0
LINE
  5
B8B
  8
0
 62
     1
 10
3053.2171178472158
 20
1465.4763204265089
 30
0.0
 11
3053.2171178472158
 21
1449.2263204265089
 31
0.0
  0
LINE
  5
B8C
  8
0
 62
     1
 10
3053.2171178472158
 20
1446.2263204265089
 30
0.0
 11
3053.2171178472158
 21
1429.9763204265089
 31
0.0
  0
LINE
  5
B8D
  8
0
 62
     1
 10
3053.2171178472158
 20
1426.9763204265089
 30
0.0
 11
3053.2171178472158
 21
1410.7263204265089
 31
0.0
  0
LINE
  5
B8E
  8
0
 62
     1
 10
3055.2171178472172
 20
1475.1013204265089
 30
0.0
 11
3055.2171178472172
 21
1458.8513204265089
 31
0.0
  0
LINE
  5
B8F
  8
0
 62
     1
 10
3055.2171178472172
 20
1455.8513204265089
 30
0.0
 11
3055.2171178472172
 21
1439.6013204265089
 31
0.0
  0
LINE
  5
B90
  8
0
 62
     1
 10
3055.2171178472172
 20
1436.6013204265089
 30
0.0
 11
3055.2171178472172
 21
1420.3513204265089
 31
0.0
  0
LINE
  5
B91
  8
0
 62
     1
 10
3055.2171178472172
 20
1417.3513204265089
 30
0.0
 11
3055.2171178472172
 21
1410.7263204265089
 31
0.0
  0
LINE
  5
B92
  8
0
 62
     1
 10
3055.2171178472172
 20
1484.7263204265089
 30
0.0
 11
3055.2171178472172
 21
1478.1013204265089
 31
0.0
  0
LINE
  5
B93
  8
0
 62
     1
 10
3057.2171178472158
 20
1484.7263204265089
 30
0.0
 11
3057.2171178472158
 21
1468.4763204265089
 31
0.0
  0
LINE
  5
B94
  8
0
 62
     1
 10
3057.2171178472158
 20
1465.4763204265089
 30
0.0
 11
3057.2171178472158
 21
1449.2263204265089
 31
0.0
  0
LINE
  5
B95
  8
0
 62
     1
 10
3057.2171178472158
 20
1446.2263204265089
 30
0.0
 11
3057.2171178472158
 21
1429.9763204265089
 31
0.0
  0
LINE
  5
B96
  8
0
 62
     1
 10
3057.2171178472158
 20
1426.9763204265089
 30
0.0
 11
3057.2171178472158
 21
1410.7263204265089
 31
0.0
  0
LINE
  5
B97
  8
0
 62
     1
 10
3059.2171178472172
 20
1475.1013204265089
 30
0.0
 11
3059.2171178472172
 21
1458.8513204265089
 31
0.0
  0
LINE
  5
B98
  8
0
 62
     1
 10
3059.2171178472172
 20
1455.8513204265089
 30
0.0
 11
3059.2171178472172
 21
1439.6013204265089
 31
0.0
  0
LINE
  5
B99
  8
0
 62
     1
 10
3059.2171178472172
 20
1436.6013204265089
 30
0.0
 11
3059.2171178472172
 21
1420.3513204265089
 31
0.0
  0
LINE
  5
B9A
  8
0
 62
     1
 10
3059.2171178472172
 20
1417.3513204265089
 30
0.0
 11
3059.2171178472172
 21
1410.7263204265089
 31
0.0
  0
LINE
  5
B9B
  8
0
 62
     1
 10
3059.2171178472172
 20
1484.7263204265089
 30
0.0
 11
3059.2171178472172
 21
1478.1013204265089
 31
0.0
  0
LINE
  5
B9C
  8
0
 62
     1
 10
3061.2171178472158
 20
1484.7263204265089
 30
0.0
 11
3061.2171178472158
 21
1468.4763204265089
 31
0.0
  0
LINE
  5
B9D
  8
0
 62
     1
 10
3061.2171178472158
 20
1465.4763204265089
 30
0.0
 11
3061.2171178472158
 21
1449.2263204265089
 31
0.0
  0
LINE
  5
B9E
  8
0
 62
     1
 10
3061.2171178472158
 20
1446.2263204265089
 30
0.0
 11
3061.2171178472158
 21
1429.9763204265089
 31
0.0
  0
LINE
  5
B9F
  8
0
 62
     1
 10
3061.2171178472158
 20
1426.9763204265089
 30
0.0
 11
3061.2171178472158
 21
1410.7263204265089
 31
0.0
  0
LINE
  5
BA0
  8
0
 62
     1
 10
3063.2171178472158
 20
1475.1013204265089
 30
0.0
 11
3063.2171178472158
 21
1458.8513204265089
 31
0.0
  0
LINE
  5
BA1
  8
0
 62
     1
 10
3063.2171178472158
 20
1455.8513204265089
 30
0.0
 11
3063.2171178472158
 21
1439.6013204265089
 31
0.0
  0
LINE
  5
BA2
  8
0
 62
     1
 10
3063.2171178472158
 20
1436.6013204265089
 30
0.0
 11
3063.2171178472158
 21
1420.3513204265089
 31
0.0
  0
LINE
  5
BA3
  8
0
 62
     1
 10
3063.2171178472158
 20
1417.3513204265089
 30
0.0
 11
3063.2171178472158
 21
1410.7263204265089
 31
0.0
  0
LINE
  5
BA4
  8
0
 62
     1
 10
3063.2171178472158
 20
1484.7263204265089
 30
0.0
 11
3063.2171178472158
 21
1478.1013204265089
 31
0.0
  0
LINE
  5
BA5
  8
0
 62
     1
 10
3065.2171178472158
 20
1484.7263204265089
 30
0.0
 11
3065.2171178472158
 21
1468.4763204265089
 31
0.0
  0
LINE
  5
BA6
  8
0
 62
     1
 10
3065.2171178472158
 20
1465.4763204265089
 30
0.0
 11
3065.2171178472158
 21
1449.2263204265089
 31
0.0
  0
LINE
  5
BA7
  8
0
 62
     1
 10
3065.2171178472158
 20
1446.2263204265089
 30
0.0
 11
3065.2171178472158
 21
1429.9763204265089
 31
0.0
  0
LINE
  5
BA8
  8
0
 62
     1
 10
3065.2171178472158
 20
1426.9763204265089
 30
0.0
 11
3065.2171178472158
 21
1410.7263204265089
 31
0.0
  0
LINE
  5
BA9
  8
0
 62
     1
 10
3174.2171178472158
 20
1484.7263204265089
 30
0.0
 11
3174.2171178472158
 21
1468.4763204265089
 31
0.0
  0
LINE
  5
BAA
  8
0
 62
     1
 10
3174.2171178472158
 20
1465.4763204265089
 30
0.0
 11
3174.2171178472158
 21
1449.2263204265089
 31
0.0
  0
LINE
  5
BAB
  8
0
 62
     1
 10
3174.2171178472158
 20
1446.2263204265089
 30
0.0
 11
3174.2171178472158
 21
1429.9763204265089
 31
0.0
  0
LINE
  5
BAC
  8
0
 62
     1
 10
3174.2171178472158
 20
1426.9763204265089
 30
0.0
 11
3174.2171178472158
 21
1410.7263204265089
 31
0.0
  0
LINE
  5
BAD
  8
0
 62
     1
 10
3176.2171178472158
 20
1475.1013204265089
 30
0.0
 11
3176.2171178472158
 21
1458.8513204265089
 31
0.0
  0
LINE
  5
BAE
  8
0
 62
     1
 10
3176.2171178472158
 20
1455.8513204265089
 30
0.0
 11
3176.2171178472158
 21
1439.6013204265089
 31
0.0
  0
LINE
  5
BAF
  8
0
 62
     1
 10
3176.2171178472158
 20
1436.6013204265089
 30
0.0
 11
3176.2171178472158
 21
1420.3513204265089
 31
0.0
  0
LINE
  5
BB0
  8
0
 62
     1
 10
3176.2171178472158
 20
1417.3513204265089
 30
0.0
 11
3176.2171178472158
 21
1410.7263204265089
 31
0.0
  0
LINE
  5
BB1
  8
0
 62
     1
 10
3176.2171178472158
 20
1484.7263204265089
 30
0.0
 11
3176.2171178472158
 21
1478.1013204265089
 31
0.0
  0
LINE
  5
BB2
  8
0
 62
     1
 10
3178.2171178472158
 20
1484.7263204265089
 30
0.0
 11
3178.2171178472158
 21
1468.4763204265089
 31
0.0
  0
LINE
  5
BB3
  8
0
 62
     1
 10
3178.2171178472158
 20
1465.4763204265089
 30
0.0
 11
3178.2171178472158
 21
1449.2263204265089
 31
0.0
  0
LINE
  5
BB4
  8
0
 62
     1
 10
3178.2171178472158
 20
1446.2263204265089
 30
0.0
 11
3178.2171178472158
 21
1429.9763204265089
 31
0.0
  0
LINE
  5
BB5
  8
0
 62
     1
 10
3178.2171178472158
 20
1426.9763204265089
 30
0.0
 11
3178.2171178472158
 21
1410.7263204265089
 31
0.0
  0
LINE
  5
BB6
  8
0
 62
     1
 10
3180.2171178472172
 20
1475.1013204265089
 30
0.0
 11
3180.2171178472172
 21
1458.8513204265089
 31
0.0
  0
LINE
  5
BB7
  8
0
 62
     1
 10
3180.2171178472172
 20
1455.8513204265089
 30
0.0
 11
3180.2171178472172
 21
1439.6013204265089
 31
0.0
  0
LINE
  5
BB8
  8
0
 62
     1
 10
3180.2171178472172
 20
1436.6013204265089
 30
0.0
 11
3180.2171178472172
 21
1420.3513204265089
 31
0.0
  0
LINE
  5
BB9
  8
0
 62
     1
 10
3180.2171178472172
 20
1417.3513204265089
 30
0.0
 11
3180.2171178472172
 21
1410.7263204265089
 31
0.0
  0
LINE
  5
BBA
  8
0
 62
     1
 10
3180.2171178472172
 20
1484.7263204265089
 30
0.0
 11
3180.2171178472172
 21
1478.1013204265089
 31
0.0
  0
LINE
  5
BBB
  8
0
 62
     1
 10
3182.2171178472158
 20
1484.7263204265089
 30
0.0
 11
3182.2171178472158
 21
1468.4763204265089
 31
0.0
  0
LINE
  5
BBC
  8
0
 62
     1
 10
3182.2171178472158
 20
1465.4763204265089
 30
0.0
 11
3182.2171178472158
 21
1449.2263204265089
 31
0.0
  0
LINE
  5
BBD
  8
0
 62
     1
 10
3182.2171178472158
 20
1446.2263204265089
 30
0.0
 11
3182.2171178472158
 21
1429.9763204265089
 31
0.0
  0
LINE
  5
BBE
  8
0
 62
     1
 10
3182.2171178472158
 20
1426.9763204265089
 30
0.0
 11
3182.2171178472158
 21
1410.7263204265089
 31
0.0
  0
LINE
  5
BBF
  8
0
 62
     1
 10
3184.2171178472172
 20
1475.1013204265089
 30
0.0
 11
3184.2171178472172
 21
1458.8513204265089
 31
0.0
  0
LINE
  5
BC0
  8
0
 62
     1
 10
3184.2171178472172
 20
1455.8513204265089
 30
0.0
 11
3184.2171178472172
 21
1439.6013204265089
 31
0.0
  0
LINE
  5
BC1
  8
0
 62
     1
 10
3184.2171178472172
 20
1436.6013204265089
 30
0.0
 11
3184.2171178472172
 21
1420.3513204265089
 31
0.0
  0
LINE
  5
BC2
  8
0
 62
     1
 10
3184.2171178472172
 20
1417.3513204265089
 30
0.0
 11
3184.2171178472172
 21
1410.7263204265089
 31
0.0
  0
LINE
  5
BC3
  8
0
 62
     1
 10
3184.2171178472172
 20
1484.7263204265089
 30
0.0
 11
3184.2171178472172
 21
1478.1013204265089
 31
0.0
  0
LINE
  5
BC4
  8
0
 62
     1
 10
3186.2171178472158
 20
1484.7263204265089
 30
0.0
 11
3186.2171178472158
 21
1468.4763204265089
 31
0.0
  0
LINE
  5
BC5
  8
0
 62
     1
 10
3186.2171178472158
 20
1465.4763204265089
 30
0.0
 11
3186.2171178472158
 21
1449.2263204265089
 31
0.0
  0
LINE
  5
BC6
  8
0
 62
     1
 10
3186.2171178472158
 20
1446.2263204265089
 30
0.0
 11
3186.2171178472158
 21
1429.9763204265089
 31
0.0
  0
LINE
  5
BC7
  8
0
 62
     1
 10
3186.2171178472158
 20
1426.9763204265089
 30
0.0
 11
3186.2171178472158
 21
1410.7263204265089
 31
0.0
  0
LINE
  5
BC8
  8
0
 62
     1
 10
3188.2171178472158
 20
1475.1013204265089
 30
0.0
 11
3188.2171178472158
 21
1458.8513204265089
 31
0.0
  0
LINE
  5
BC9
  8
0
 62
     1
 10
3188.2171178472158
 20
1455.8513204265089
 30
0.0
 11
3188.2171178472158
 21
1439.6013204265089
 31
0.0
  0
LINE
  5
BCA
  8
0
 62
     1
 10
3188.2171178472158
 20
1436.6013204265089
 30
0.0
 11
3188.2171178472158
 21
1420.3513204265089
 31
0.0
  0
LINE
  5
BCB
  8
0
 62
     1
 10
3188.2171178472158
 20
1417.3513204265089
 30
0.0
 11
3188.2171178472158
 21
1410.7263204265089
 31
0.0
  0
LINE
  5
BCC
  8
0
 62
     1
 10
3188.2171178472158
 20
1484.7263204265089
 30
0.0
 11
3188.2171178472158
 21
1478.1013204265089
 31
0.0
  0
LINE
  5
BCD
  8
0
 62
     1
 10
3190.2171178472158
 20
1484.7263204265089
 30
0.0
 11
3190.2171178472158
 21
1468.4763204265089
 31
0.0
  0
LINE
  5
BCE
  8
0
 62
     1
 10
3190.2171178472158
 20
1465.4763204265089
 30
0.0
 11
3190.2171178472158
 21
1449.2263204265089
 31
0.0
  0
LINE
  5
BCF
  8
0
 62
     1
 10
3190.2171178472158
 20
1446.2263204265089
 30
0.0
 11
3190.2171178472158
 21
1429.9763204265089
 31
0.0
  0
LINE
  5
BD0
  8
0
 62
     1
 10
3190.2171178472158
 20
1426.9763204265089
 30
0.0
 11
3190.2171178472158
 21
1410.7263204265089
 31
0.0
  0
LINE
  5
BD1
  8
0
 62
     1
 10
3192.2171178472158
 20
1475.1013204265089
 30
0.0
 11
3192.2171178472158
 21
1458.8513204265089
 31
0.0
  0
LINE
  5
BD2
  8
0
 62
     1
 10
3192.2171178472158
 20
1455.8513204265089
 30
0.0
 11
3192.2171178472158
 21
1439.6013204265089
 31
0.0
  0
LINE
  5
BD3
  8
0
 62
     1
 10
3192.2171178472158
 20
1436.6013204265089
 30
0.0
 11
3192.2171178472158
 21
1420.3513204265089
 31
0.0
  0
LINE
  5
BD4
  8
0
 62
     1
 10
3192.2171178472158
 20
1417.3513204265089
 30
0.0
 11
3192.2171178472158
 21
1410.7263204265089
 31
0.0
  0
LINE
  5
BD5
  8
0
 62
     1
 10
3192.2171178472158
 20
1484.7263204265089
 30
0.0
 11
3192.2171178472158
 21
1478.1013204265089
 31
0.0
  0
LINE
  5
BD6
  8
0
 62
     1
 10
3194.2171178472158
 20
1484.7263204265089
 30
0.0
 11
3194.2171178472158
 21
1468.4763204265089
 31
0.0
  0
LINE
  5
BD7
  8
0
 62
     1
 10
3194.2171178472158
 20
1465.4763204265089
 30
0.0
 11
3194.2171178472158
 21
1449.2263204265089
 31
0.0
  0
LINE
  5
BD8
  8
0
 62
     1
 10
3194.2171178472158
 20
1446.2263204265089
 30
0.0
 11
3194.2171178472158
 21
1429.9763204265089
 31
0.0
  0
LINE
  5
BD9
  8
0
 62
     1
 10
3194.2171178472158
 20
1426.9763204265089
 30
0.0
 11
3194.2171178472158
 21
1410.7263204265089
 31
0.0
  0
LINE
  5
BDA
  8
0
 62
     1
 10
3196.2171178472172
 20
1475.1013204265089
 30
0.0
 11
3196.2171178472172
 21
1458.8513204265089
 31
0.0
  0
LINE
  5
BDB
  8
0
 62
     1
 10
3196.2171178472172
 20
1455.8513204265089
 30
0.0
 11
3196.2171178472172
 21
1439.6013204265089
 31
0.0
  0
LINE
  5
BDC
  8
0
 62
     1
 10
3196.2171178472172
 20
1436.6013204265089
 30
0.0
 11
3196.2171178472172
 21
1420.3513204265089
 31
0.0
  0
LINE
  5
BDD
  8
0
 62
     1
 10
3196.2171178472172
 20
1417.3513204265089
 30
0.0
 11
3196.2171178472172
 21
1410.7263204265089
 31
0.0
  0
LINE
  5
BDE
  8
0
 62
     1
 10
3196.2171178472172
 20
1484.7263204265089
 30
0.0
 11
3196.2171178472172
 21
1478.1013204265089
 31
0.0
  0
LINE
  5
BDF
  8
0
 62
     1
 10
3198.2171178472158
 20
1484.7263204265089
 30
0.0
 11
3198.2171178472158
 21
1468.4763204265089
 31
0.0
  0
LINE
  5
BE0
  8
0
 62
     1
 10
3198.2171178472158
 20
1465.4763204265089
 30
0.0
 11
3198.2171178472158
 21
1449.2263204265089
 31
0.0
  0
LINE
  5
BE1
  8
0
 62
     1
 10
3198.2171178472158
 20
1446.2263204265089
 30
0.0
 11
3198.2171178472158
 21
1429.9763204265089
 31
0.0
  0
LINE
  5
BE2
  8
0
 62
     1
 10
3198.2171178472158
 20
1426.9763204265089
 30
0.0
 11
3198.2171178472158
 21
1410.7263204265089
 31
0.0
  0
LINE
  5
BE3
  8
0
 62
     1
 10
3200.2171178472158
 20
1475.1013204265089
 30
0.0
 11
3200.2171178472158
 21
1458.8513204265089
 31
0.0
  0
LINE
  5
BE4
  8
0
 62
     1
 10
3200.2171178472158
 20
1455.8513204265089
 30
0.0
 11
3200.2171178472158
 21
1439.6013204265089
 31
0.0
  0
LINE
  5
BE5
  8
0
 62
     1
 10
3200.2171178472158
 20
1436.6013204265089
 30
0.0
 11
3200.2171178472158
 21
1420.3513204265089
 31
0.0
  0
LINE
  5
BE6
  8
0
 62
     1
 10
3200.2171178472158
 20
1417.3513204265089
 30
0.0
 11
3200.2171178472158
 21
1410.7263204265089
 31
0.0
  0
LINE
  5
BE7
  8
0
 62
     1
 10
3200.2171178472158
 20
1484.7263204265089
 30
0.0
 11
3200.2171178472158
 21
1478.1013204265089
 31
0.0
  0
LINE
  5
BE8
  8
0
 62
     1
 10
3202.2171178472158
 20
1484.7263204265089
 30
0.0
 11
3202.2171178472158
 21
1468.4763204265089
 31
0.0
  0
LINE
  5
BE9
  8
0
 62
     1
 10
3202.2171178472158
 20
1465.4763204265089
 30
0.0
 11
3202.2171178472158
 21
1449.2263204265089
 31
0.0
  0
LINE
  5
BEA
  8
0
 62
     1
 10
3202.2171178472158
 20
1446.2263204265089
 30
0.0
 11
3202.2171178472158
 21
1429.9763204265089
 31
0.0
  0
LINE
  5
BEB
  8
0
 62
     1
 10
3202.2171178472158
 20
1426.9763204265089
 30
0.0
 11
3202.2171178472158
 21
1410.7263204265089
 31
0.0
  0
LINE
  5
BEC
  8
0
 62
     1
 10
3204.2171178472172
 20
1475.1013204265089
 30
0.0
 11
3204.2171178472172
 21
1458.8513204265089
 31
0.0
  0
LINE
  5
BED
  8
0
 62
     1
 10
3204.2171178472172
 20
1455.8513204265089
 30
0.0
 11
3204.2171178472172
 21
1439.6013204265089
 31
0.0
  0
LINE
  5
BEE
  8
0
 62
     1
 10
3204.2171178472172
 20
1436.6013204265089
 30
0.0
 11
3204.2171178472172
 21
1420.3513204265089
 31
0.0
  0
LINE
  5
BEF
  8
0
 62
     1
 10
3204.2171178472172
 20
1417.3513204265089
 30
0.0
 11
3204.2171178472172
 21
1410.7263204265089
 31
0.0
  0
LINE
  5
BF0
  8
0
 62
     1
 10
3204.2171178472172
 20
1484.7263204265089
 30
0.0
 11
3204.2171178472172
 21
1478.1013204265089
 31
0.0
  0
LINE
  5
BF1
  8
0
 62
     1
 10
3206.2171178472158
 20
1484.7263204265089
 30
0.0
 11
3206.2171178472158
 21
1468.4763204265089
 31
0.0
  0
LINE
  5
BF2
  8
0
 62
     1
 10
3206.2171178472158
 20
1465.4763204265089
 30
0.0
 11
3206.2171178472158
 21
1449.2263204265089
 31
0.0
  0
LINE
  5
BF3
  8
0
 62
     1
 10
3206.2171178472158
 20
1446.2263204265089
 30
0.0
 11
3206.2171178472158
 21
1429.9763204265089
 31
0.0
  0
LINE
  5
BF4
  8
0
 62
     1
 10
3206.2171178472158
 20
1426.9763204265089
 30
0.0
 11
3206.2171178472158
 21
1410.7263204265089
 31
0.0
  0
LINE
  5
BF5
  8
EERST_SNIJDEN
 62
     1
 10
3079.2171178472158
 20
1477.72632042651
 30
0.0
 11
3160.2171178472172
 21
1477.72632042651
 31
0.0
  0
LINE
  5
BF6
  8
EERST_SNIJDEN
 62
     1
 10
3160.2171178472172
 20
1477.72632042651
 30
0.0
 11
3160.2171178472172
 21
1417.7263204265089
 31
0.0
  0
LINE
  5
BF7
  8
EERST_SNIJDEN
 62
     1
 10
3160.2171178472172
 20
1417.7263204265089
 30
0.0
 11
3079.2171178472158
 21
1417.7263204265089
 31
0.0
  0
LINE
  5
BF8
  8
EERST_SNIJDEN
 62
     1
 10
3079.2171178472158
 20
1417.7263204265089
 30
0.0
 11
3079.2171178472158
 21
1477.72632042651
 31
0.0
  0
LINE
  5
BF9
  8
0
 62
     1
 10
3147.7171178472158
 20
1616.7263204265089
 30
0.0
 11
3059.7171178472158
 21
1616.7263204265089
 31
0.0
  0
LINE
  5
BFA
  8
0
 62
     1
 10
3059.7171178472158
 20
1486.7263204265089
 30
0.0
 11
3147.7171178472158
 21
1486.7263204265089
 31
0.0
  0
LINE
  5
BFB
  8
0
 62
     1
 10
3337.7171178472158
 20
1616.7263204265089
 30
0.0
 11
3425.7171178472158
 21
1616.7263204265089
 31
0.0
  0
LINE
  5
BFC
  8
0
 62
     1
 10
3414.7171178472158
 20
1616.7263204265089
 30
0.0
 11
3414.7171178472158
 21
1588.7263204265089
 31
0.0
  0
LINE
  5
BFD
  8
0
 62
     1
 10
3414.7171178472158
 20
1584.7263204265089
 30
0.0
 11
3414.7171178472158
 21
1553.7263204265089
 31
0.0
  0
LINE
  5
BFE
  8
0
 62
     1
 10
3414.7171178472158
 20
1549.7263204265089
 30
0.0
 11
3414.7171178472158
 21
1518.7263204265089
 31
0.0
  0
LINE
  5
BFF
  8
0
 62
     1
 10
3414.7171178472158
 20
1514.7263204265089
 30
0.0
 11
3414.7171178472158
 21
1486.7263204265089
 31
0.0
  0
LINE
  5
C00
  8
0
 62
     1
 10
3337.7171178472158
 20
1486.7263204265089
 30
0.0
 11
3425.7171178472158
 21
1486.7263204265089
 31
0.0
  0
LINE
  5
C01
  8
0
 62
     1
 10
3064.7171178472158
 20
1616.7263204265089
 30
0.0
 11
3064.7171178472158
 21
1588.7263204265089
 31
0.0
  0
LINE
  5
C02
  8
0
 62
     1
 10
3064.7171178472158
 20
1584.7263204265089
 30
0.0
 11
3064.7171178472158
 21
1553.7263204265089
 31
0.0
  0
LINE
  5
C03
  8
0
 62
     1
 10
3064.7171178472158
 20
1549.7263204265089
 30
0.0
 11
3064.7171178472158
 21
1518.7263204265089
 31
0.0
  0
LINE
  5
C04
  8
0
 62
     1
 10
3064.7171178472158
 20
1514.7263204265089
 30
0.0
 11
3064.7171178472158
 21
1486.7263204265089
 31
0.0
  0
LINE
  5
C05
  8
0
 62
     1
 10
3067.7171178472158
 20
1602.2263204265089
 30
0.0
 11
3067.7171178472158
 21
1571.2263204265089
 31
0.0
  0
LINE
  5
C06
  8
0
 62
     1
 10
3067.7171178472158
 20
1567.22632042651
 30
0.0
 11
3067.7171178472158
 21
1536.2263204265089
 31
0.0
  0
LINE
  5
C07
  8
0
 62
     1
 10
3067.7171178472158
 20
1532.2263204265089
 30
0.0
 11
3067.7171178472158
 21
1501.2263204265089
 31
0.0
  0
LINE
  5
C08
  8
0
 62
     1
 10
3067.7171178472158
 20
1497.2263204265089
 30
0.0
 11
3067.7171178472158
 21
1486.7263204265089
 31
0.0
  0
LINE
  5
C09
  8
0
 62
     1
 10
3067.7171178472158
 20
1616.7263204265089
 30
0.0
 11
3067.7171178472158
 21
1606.2263204265089
 31
0.0
  0
LINE
  5
C0A
  8
0
 62
     1
 10
3070.7171178472172
 20
1616.7263204265089
 30
0.0
 11
3070.7171178472172
 21
1588.7263204265089
 31
0.0
  0
LINE
  5
C0B
  8
0
 62
     1
 10
3070.7171178472172
 20
1584.7263204265089
 30
0.0
 11
3070.7171178472172
 21
1553.7263204265089
 31
0.0
  0
LINE
  5
C0C
  8
0
 62
     1
 10
3070.7171178472172
 20
1549.7263204265089
 30
0.0
 11
3070.7171178472172
 21
1518.7263204265089
 31
0.0
  0
LINE
  5
C0D
  8
0
 62
     1
 10
3070.7171178472172
 20
1514.7263204265089
 30
0.0
 11
3070.7171178472172
 21
1486.7263204265089
 31
0.0
  0
LINE
  5
C0E
  8
0
 62
     1
 10
3417.7171178472158
 20
1602.2263204265089
 30
0.0
 11
3417.7171178472158
 21
1571.2263204265089
 31
0.0
  0
LINE
  5
C0F
  8
0
 62
     1
 10
3417.7171178472158
 20
1567.22632042651
 30
0.0
 11
3417.7171178472158
 21
1536.2263204265089
 31
0.0
  0
LINE
  5
C10
  8
0
 62
     1
 10
3417.7171178472158
 20
1532.2263204265089
 30
0.0
 11
3417.7171178472158
 21
1501.2263204265089
 31
0.0
  0
LINE
  5
C11
  8
0
 62
     1
 10
3417.7171178472158
 20
1497.2263204265089
 30
0.0
 11
3417.7171178472158
 21
1486.7263204265089
 31
0.0
  0
LINE
  5
C12
  8
0
 62
     1
 10
3417.7171178472158
 20
1616.7263204265089
 30
0.0
 11
3417.7171178472158
 21
1606.2263204265089
 31
0.0
  0
LINE
  5
C13
  8
0
 62
     1
 10
3420.7171178472172
 20
1616.7263204265089
 30
0.0
 11
3420.7171178472172
 21
1588.7263204265089
 31
0.0
  0
LINE
  5
C14
  8
0
 62
     1
 10
3420.7171178472172
 20
1584.7263204265089
 30
0.0
 11
3420.7171178472172
 21
1553.7263204265089
 31
0.0
  0
LINE
  5
C15
  8
0
 62
     1
 10
3420.7171178472172
 20
1549.7263204265089
 30
0.0
 11
3420.7171178472172
 21
1518.7263204265089
 31
0.0
  0
LINE
  5
C16
  8
0
 62
     1
 10
3420.7171178472172
 20
1514.7263204265089
 30
0.0
 11
3420.7171178472172
 21
1486.7263204265089
 31
0.0
  0
LINE
  5
C17
  8
0
 62
     1
 10
3208.2171178472172
 20
1475.1013204265089
 30
0.0
 11
3208.2171178472172
 21
1458.8513204265089
 31
0.0
  0
LINE
  5
C18
  8
0
 62
     1
 10
3208.2171178472172
 20
1455.8513204265089
 30
0.0
 11
3208.2171178472172
 21
1439.6013204265089
 31
0.0
  0
LINE
  5
C19
  8
0
 62
     1
 10
3208.2171178472172
 20
1436.6013204265089
 30
0.0
 11
3208.2171178472172
 21
1420.3513204265089
 31
0.0
  0
LINE
  5
C1A
  8
0
 62
     1
 10
3208.2171178472172
 20
1417.3513204265089
 30
0.0
 11
3208.2171178472172
 21
1410.7263204265089
 31
0.0
  0
LINE
  5
C1B
  8
0
 62
     1
 10
3208.2171178472172
 20
1484.7263204265089
 30
0.0
 11
3208.2171178472172
 21
1478.1013204265089
 31
0.0
  0
LINE
  5
C1C
  8
0
 62
     1
 10
3210.2171178472158
 20
1484.7263204265089
 30
0.0
 11
3210.2171178472158
 21
1468.4763204265089
 31
0.0
  0
LINE
  5
C1D
  8
0
 62
     1
 10
3210.2171178472158
 20
1465.4763204265089
 30
0.0
 11
3210.2171178472158
 21
1449.2263204265089
 31
0.0
  0
LINE
  5
C1E
  8
0
 62
     1
 10
3210.2171178472158
 20
1446.2263204265089
 30
0.0
 11
3210.2171178472158
 21
1429.9763204265089
 31
0.0
  0
LINE
  5
C1F
  8
0
 62
     1
 10
3210.2171178472158
 20
1426.9763204265089
 30
0.0
 11
3210.2171178472158
 21
1410.7263204265089
 31
0.0
  0
LINE
  5
C20
  8
0
 62
     1
 10
3212.2171178472172
 20
1475.1013204265089
 30
0.0
 11
3212.2171178472172
 21
1458.8513204265089
 31
0.0
  0
LINE
  5
C21
  8
0
 62
     1
 10
3212.2171178472172
 20
1455.8513204265089
 30
0.0
 11
3212.2171178472172
 21
1439.6013204265089
 31
0.0
  0
LINE
  5
C22
  8
0
 62
     1
 10
3212.2171178472172
 20
1436.6013204265089
 30
0.0
 11
3212.2171178472172
 21
1420.3513204265089
 31
0.0
  0
LINE
  5
C23
  8
0
 62
     1
 10
3212.2171178472172
 20
1417.3513204265089
 30
0.0
 11
3212.2171178472172
 21
1410.7263204265089
 31
0.0
  0
LINE
  5
C24
  8
0
 62
     1
 10
3212.2171178472172
 20
1484.7263204265089
 30
0.0
 11
3212.2171178472172
 21
1478.1013204265089
 31
0.0
  0
LINE
  5
C25
  8
0
 62
     1
 10
3214.2171178472158
 20
1484.7263204265089
 30
0.0
 11
3214.2171178472158
 21
1468.4763204265089
 31
0.0
  0
LINE
  5
C26
  8
0
 62
     1
 10
3214.2171178472158
 20
1465.4763204265089
 30
0.0
 11
3214.2171178472158
 21
1449.2263204265089
 31
0.0
  0
LINE
  5
C27
  8
0
 62
     1
 10
3214.2171178472158
 20
1446.2263204265089
 30
0.0
 11
3214.2171178472158
 21
1429.9763204265089
 31
0.0
  0
LINE
  5
C28
  8
0
 62
     1
 10
3214.2171178472158
 20
1426.9763204265089
 30
0.0
 11
3214.2171178472158
 21
1410.7263204265089
 31
0.0
  0
LINE
  5
C29
  8
0
 62
     1
 10
3216.2171178472172
 20
1475.1013204265089
 30
0.0
 11
3216.2171178472172
 21
1458.8513204265089
 31
0.0
  0
LINE
  5
C2A
  8
0
 62
     1
 10
3216.2171178472172
 20
1455.8513204265089
 30
0.0
 11
3216.2171178472172
 21
1439.6013204265089
 31
0.0
  0
LINE
  5
C2B
  8
0
 62
     1
 10
3216.2171178472172
 20
1436.6013204265089
 30
0.0
 11
3216.2171178472172
 21
1420.3513204265089
 31
0.0
  0
LINE
  5
C2C
  8
0
 62
     1
 10
3216.2171178472172
 20
1417.3513204265089
 30
0.0
 11
3216.2171178472172
 21
1410.7263204265089
 31
0.0
  0
LINE
  5
C2D
  8
0
 62
     1
 10
3216.2171178472172
 20
1484.7263204265089
 30
0.0
 11
3216.2171178472172
 21
1478.1013204265089
 31
0.0
  0
LINE
  5
C2E
  8
0
 62
     1
 10
3218.2171178472158
 20
1484.7263204265089
 30
0.0
 11
3218.2171178472158
 21
1468.4763204265089
 31
0.0
  0
LINE
  5
C2F
  8
0
 62
     1
 10
3218.2171178472158
 20
1465.4763204265089
 30
0.0
 11
3218.2171178472158
 21
1449.2263204265089
 31
0.0
  0
LINE
  5
C30
  8
0
 62
     1
 10
3218.2171178472158
 20
1446.2263204265089
 30
0.0
 11
3218.2171178472158
 21
1429.9763204265089
 31
0.0
  0
LINE
  5
C31
  8
0
 62
     1
 10
3218.2171178472158
 20
1426.9763204265089
 30
0.0
 11
3218.2171178472158
 21
1410.7263204265089
 31
0.0
  0
LINE
  5
C32
  8
0
 62
     1
 10
3220.2171178472158
 20
1475.1013204265089
 30
0.0
 11
3220.2171178472158
 21
1458.8513204265089
 31
0.0
  0
LINE
  5
C33
  8
0
 62
     1
 10
3220.2171178472158
 20
1455.8513204265089
 30
0.0
 11
3220.2171178472158
 21
1439.6013204265089
 31
0.0
  0
LINE
  5
C34
  8
0
 62
     1
 10
3220.2171178472158
 20
1436.6013204265089
 30
0.0
 11
3220.2171178472158
 21
1420.3513204265089
 31
0.0
  0
LINE
  5
C35
  8
0
 62
     1
 10
3220.2171178472158
 20
1417.3513204265089
 30
0.0
 11
3220.2171178472158
 21
1410.7263204265089
 31
0.0
  0
LINE
  5
C36
  8
0
 62
     1
 10
3220.2171178472158
 20
1484.7263204265089
 30
0.0
 11
3220.2171178472158
 21
1478.1013204265089
 31
0.0
  0
LINE
  5
C37
  8
0
 62
     1
 10
3008.7171178472172
 20
1474.7263204265089
 30
0.0
 11
3008.7171178472172
 21
1420.7263204265089
 31
0.0
  0
LINE
  5
C38
  8
0
 62
     1
 10
3230.7171178472158
 20
1474.7263204265089
 30
0.0
 11
3230.7171178472158
 21
1420.7263204265089
 31
0.0
  0
LINE
  5
C39
  8
0
 62
     1
 10
3021.2171178472158
 20
1484.7263204265089
 30
0.0
 11
3021.2171178472158
 21
1468.4763204265089
 31
0.0
  0
LINE
  5
C3A
  8
0
 62
     1
 10
3021.2171178472158
 20
1465.4763204265089
 30
0.0
 11
3021.2171178472158
 21
1449.2263204265089
 31
0.0
  0
LINE
  5
C3B
  8
0
 62
     1
 10
3021.2171178472158
 20
1446.2263204265089
 30
0.0
 11
3021.2171178472158
 21
1429.9763204265089
 31
0.0
  0
LINE
  5
C3C
  8
0
 62
     1
 10
3021.2171178472158
 20
1426.9763204265089
 30
0.0
 11
3021.2171178472158
 21
1410.7263204265089
 31
0.0
  0
LINE
  5
C3D
  8
0
 62
     1
 10
3023.2171178472172
 20
1475.1013204265089
 30
0.0
 11
3023.2171178472172
 21
1458.8513204265089
 31
0.0
  0
LINE
  5
C3E
  8
0
 62
     1
 10
3023.2171178472172
 20
1455.8513204265089
 30
0.0
 11
3023.2171178472172
 21
1439.6013204265089
 31
0.0
  0
LINE
  5
C3F
  8
0
 62
     1
 10
3023.2171178472172
 20
1436.6013204265089
 30
0.0
 11
3023.2171178472172
 21
1420.3513204265089
 31
0.0
  0
LINE
  5
C40
  8
0
 62
     1
 10
3023.2171178472172
 20
1417.3513204265089
 30
0.0
 11
3023.2171178472172
 21
1410.7263204265089
 31
0.0
  0
LINE
  5
C41
  8
0
 62
     1
 10
3023.2171178472172
 20
1484.7263204265089
 30
0.0
 11
3023.2171178472172
 21
1478.1013204265089
 31
0.0
  0
LINE
  5
C42
  8
0
 62
     1
 10
3025.2171178472158
 20
1484.7263204265089
 30
0.0
 11
3025.2171178472158
 21
1468.4763204265089
 31
0.0
  0
LINE
  5
C43
  8
0
 62
     1
 10
3025.2171178472158
 20
1465.4763204265089
 30
0.0
 11
3025.2171178472158
 21
1449.2263204265089
 31
0.0
  0
LINE
  5
C44
  8
0
 62
     1
 10
3025.2171178472158
 20
1446.2263204265089
 30
0.0
 11
3025.2171178472158
 21
1429.9763204265089
 31
0.0
  0
LINE
  5
C45
  8
0
 62
     1
 10
3025.2171178472158
 20
1426.9763204265089
 30
0.0
 11
3025.2171178472158
 21
1410.7263204265089
 31
0.0
  0
LINE
  5
C46
  8
0
 62
     1
 10
3027.2171178472172
 20
1475.1013204265089
 30
0.0
 11
3027.2171178472172
 21
1458.8513204265089
 31
0.0
  0
LINE
  5
C47
  8
0
 62
     1
 10
3027.2171178472172
 20
1455.8513204265089
 30
0.0
 11
3027.2171178472172
 21
1439.6013204265089
 31
0.0
  0
LINE
  5
C48
  8
0
 62
     1
 10
3027.2171178472172
 20
1436.6013204265089
 30
0.0
 11
3027.2171178472172
 21
1420.3513204265089
 31
0.0
  0
LINE
  5
C49
  8
0
 62
     1
 10
3027.2171178472172
 20
1417.3513204265089
 30
0.0
 11
3027.2171178472172
 21
1410.7263204265089
 31
0.0
  0
LINE
  5
C4A
  8
0
 62
     1
 10
3027.2171178472172
 20
1484.7263204265089
 30
0.0
 11
3027.2171178472172
 21
1478.1013204265089
 31
0.0
  0
LINE
  5
C4B
  8
0
 62
     1
 10
3029.2171178472158
 20
1484.7263204265089
 30
0.0
 11
3029.2171178472158
 21
1468.4763204265089
 31
0.0
  0
LINE
  5
C4C
  8
0
 62
     1
 10
3029.2171178472158
 20
1465.4763204265089
 30
0.0
 11
3029.2171178472158
 21
1449.2263204265089
 31
0.0
  0
LINE
  5
C4D
  8
0
 62
     1
 10
3029.2171178472158
 20
1446.2263204265089
 30
0.0
 11
3029.2171178472158
 21
1429.9763204265089
 31
0.0
  0
LINE
  5
C4E
  8
0
 62
     1
 10
3029.2171178472158
 20
1426.9763204265089
 30
0.0
 11
3029.2171178472158
 21
1410.7263204265089
 31
0.0
  0
LINE
  5
C4F
  8
0
 62
     1
 10
3031.2171178472158
 20
1475.1013204265089
 30
0.0
 11
3031.2171178472158
 21
1458.8513204265089
 31
0.0
  0
LINE
  5
C50
  8
0
 62
     1
 10
3031.2171178472158
 20
1455.8513204265089
 30
0.0
 11
3031.2171178472158
 21
1439.6013204265089
 31
0.0
  0
LINE
  5
C51
  8
0
 62
     1
 10
3031.2171178472158
 20
1436.6013204265089
 30
0.0
 11
3031.2171178472158
 21
1420.3513204265089
 31
0.0
  0
LINE
  5
C52
  8
0
 62
     1
 10
3031.2171178472158
 20
1417.3513204265089
 30
0.0
 11
3031.2171178472158
 21
1410.7263204265089
 31
0.0
  0
LINE
  5
C53
  8
0
 62
     1
 10
3031.2171178472158
 20
1484.7263204265089
 30
0.0
 11
3031.2171178472158
 21
1478.1013204265089
 31
0.0
  0
LINE
  5
C54
  8
0
 62
     1
 10
3019.2171178472172
 20
1475.1013204265089
 30
0.0
 11
3019.2171178472172
 21
1458.8513204265089
 31
0.0
  0
LINE
  5
C55
  8
0
 62
     1
 10
3019.2171178472172
 20
1455.8513204265089
 30
0.0
 11
3019.2171178472172
 21
1439.6013204265089
 31
0.0
  0
LINE
  5
C56
  8
0
 62
     1
 10
3019.2171178472172
 20
1436.6013204265089
 30
0.0
 11
3019.2171178472172
 21
1420.3513204265089
 31
0.0
  0
LINE
  5
C57
  8
0
 62
     1
 10
3019.2171178472172
 20
1417.3513204265089
 30
0.0
 11
3019.2171178472172
 21
1410.7263204265089
 31
0.0
  0
LINE
  5
C58
  8
0
 62
     1
 10
3019.2171178472172
 20
1484.7263204265089
 30
0.0
 11
3019.2171178472172
 21
1478.1013204265089
 31
0.0
  0
LINE
  5
C59
  8
0
 62
     1
 10
3291.3662329188769
 20
1451.7263204265089
 30
0.0
 11
3293.3662329188778
 21
1451.7263204265089
 31
0.0
  0
LINE
  5
C5A
  8
0
 62
     1
 10
3298.3662329188778
 20
1451.7263204265089
 30
0.0
 11
3393.3662329188778
 21
1451.7263204265089
 31
0.0
  0
LINE
  5
C5B
  8
0
 62
     1
 10
3398.3662329188778
 20
1451.7263204265089
 30
0.0
 11
3400.3662329188769
 21
1451.7263204265089
 31
0.0
  0
LINE
  5
C5C
  8
0
 62
     1
 10
3400.3662329188769
 20
1481.7263204265089
 30
0.0
 11
3398.3662329188778
 21
1481.7263204265089
 31
0.0
  0
LINE
  5
C5D
  8
0
 62
     1
 10
3393.3662329188778
 20
1481.7263204265089
 30
0.0
 11
3298.3662329188778
 21
1481.7263204265089
 31
0.0
  0
LINE
  5
C5E
  8
0
 62
     1
 10
3293.3662329188778
 20
1481.7263204265089
 30
0.0
 11
3291.3662329188769
 21
1481.7263204265089
 31
0.0
  0
LINE
  5
C5F
  8
0
 62
     1
 10
3293.3662329188778
 20
1481.7263204265089
 30
0.0
 11
3293.3662329188778
 21
1484.7263204265089
 31
0.0
  0
LINE
  5
C60
  8
0
 62
     1
 10
3293.3662329188778
 20
1484.7263204265089
 30
0.0
 11
3298.3662329188778
 21
1484.7263204265089
 31
0.0
  0
LINE
  5
C61
  8
0
 62
     1
 10
3298.3662329188778
 20
1484.7263204265089
 30
0.0
 11
3298.3662329188778
 21
1481.7263204265089
 31
0.0
  0
LINE
  5
C62
  8
0
 62
     1
 10
3398.3662329188778
 20
1481.7263204265089
 30
0.0
 11
3398.3662329188778
 21
1484.7263204265089
 31
0.0
  0
LINE
  5
C63
  8
0
 62
     1
 10
3398.3662329188778
 20
1484.7263204265089
 30
0.0
 11
3393.3662329188778
 21
1484.7263204265089
 31
0.0
  0
LINE
  5
C64
  8
0
 62
     1
 10
3393.3662329188778
 20
1484.7263204265089
 30
0.0
 11
3393.3662329188778
 21
1481.7263204265089
 31
0.0
  0
LINE
  5
C65
  8
0
 62
     1
 10
3293.3662329188778
 20
1451.7263204265089
 30
0.0
 11
3293.3662329188778
 21
1448.7263204265089
 31
0.0
  0
LINE
  5
C66
  8
0
 62
     1
 10
3293.3662329188778
 20
1448.7263204265089
 30
0.0
 11
3298.3662329188778
 21
1448.7263204265089
 31
0.0
  0
LINE
  5
C67
  8
0
 62
     1
 10
3298.3662329188778
 20
1448.7263204265089
 30
0.0
 11
3298.3662329188778
 21
1451.7263204265089
 31
0.0
  0
LINE
  5
C68
  8
0
 62
     1
 10
3398.3662329188778
 20
1451.7263204265089
 30
0.0
 11
3398.3662329188778
 21
1448.7263204265089
 31
0.0
  0
LINE
  5
C69
  8
0
 62
     1
 10
3398.3662329188778
 20
1448.7263204265089
 30
0.0
 11
3393.3662329188778
 21
1448.7263204265089
 31
0.0
  0
LINE
  5
C6A
  8
0
 62
     1
 10
3393.3662329188778
 20
1448.7263204265089
 30
0.0
 11
3393.3662329188778
 21
1451.7263204265089
 31
0.0
  0
CIRCLE
  5
C6B
  8
EERST_SNIJDEN
 62
     1
 10
3338.3662329188778
 20
1474.2263204265089
 30
0.0
 40
1.5
  0
CIRCLE
  5
C6C
  8
EERST_SNIJDEN
 62
     1
 10
3353.3662329188769
 20
1474.2263204265089
 30
0.0
 40
1.5
  0
CIRCLE
  5
C6D
  8
EERST_SNIJDEN
 62
     1
 10
3353.3662329188769
 20
1459.2263204265089
 30
0.0
 40
1.5
  0
CIRCLE
  5
C6E
  8
EERST_SNIJDEN
 62
     1
 10
3338.3662329188778
 20
1459.2263204265089
 30
0.0
 40
1.5
  0
ARC
  5
C6F
  8
0
 62
     1
 10
3291.3662329188769
 20
1466.7263204265089
 30
0.0
 40
15.0
 50
90.0
 51
270.0
  0
ARC
  5
C70
  8
0
 62
     1
 10
3400.3662329188769
 20
1466.7263204265089
 30
0.0
 40
15.0
 50
270.0
 51
90.0
  0
LINE
  5
C71
  8
0
 62
     1
 10
3291.3662329188769
 20
1413.7263204265089
 30
0.0
 11
3293.3662329188778
 21
1413.7263204265089
 31
0.0
  0
LINE
  5
C72
  8
0
 62
     1
 10
3298.3662329188778
 20
1413.7263204265089
 30
0.0
 11
3393.3662329188778
 21
1413.7263204265089
 31
0.0
  0
LINE
  5
C73
  8
0
 62
     1
 10
3398.3662329188778
 20
1413.7263204265089
 30
0.0
 11
3400.3662329188769
 21
1413.7263204265089
 31
0.0
  0
LINE
  5
C74
  8
0
 62
     1
 10
3400.3662329188769
 20
1443.7263204265089
 30
0.0
 11
3398.3662329188778
 21
1443.7263204265089
 31
0.0
  0
LINE
  5
C75
  8
0
 62
     1
 10
3393.3662329188778
 20
1443.7263204265089
 30
0.0
 11
3298.3662329188778
 21
1443.7263204265089
 31
0.0
  0
LINE
  5
C76
  8
0
 62
     1
 10
3293.3662329188778
 20
1443.7263204265089
 30
0.0
 11
3291.3662329188769
 21
1443.7263204265089
 31
0.0
  0
LINE
  5
C77
  8
0
 62
     1
 10
3293.3662329188778
 20
1443.7263204265089
 30
0.0
 11
3293.3662329188778
 21
1446.7263204265089
 31
0.0
  0
LINE
  5
C78
  8
0
 62
     1
 10
3293.3662329188778
 20
1446.7263204265089
 30
0.0
 11
3298.3662329188778
 21
1446.7263204265089
 31
0.0
  0
LINE
  5
C79
  8
0
 62
     1
 10
3298.3662329188778
 20
1446.7263204265089
 30
0.0
 11
3298.3662329188778
 21
1443.7263204265089
 31
0.0
  0
LINE
  5
C7A
  8
0
 62
     1
 10
3398.3662329188778
 20
1443.7263204265089
 30
0.0
 11
3398.3662329188778
 21
1446.7263204265089
 31
0.0
  0
LINE
  5
C7B
  8
0
 62
     1
 10
3398.3662329188778
 20
1446.7263204265089
 30
0.0
 11
3393.3662329188778
 21
1446.7263204265089
 31
0.0
  0
LINE
  5
C7C
  8
0
 62
     1
 10
3393.3662329188778
 20
1446.7263204265089
 30
0.0
 11
3393.3662329188778
 21
1443.7263204265089
 31
0.0
  0
LINE
  5
C7D
  8
0
 62
     1
 10
3293.3662329188778
 20
1413.7263204265089
 30
0.0
 11
3293.3662329188778
 21
1410.7263204265089
 31
0.0
  0
LINE
  5
C7E
  8
0
 62
     1
 10
3293.3662329188778
 20
1410.7263204265089
 30
0.0
 11
3298.3662329188778
 21
1410.7263204265089
 31
0.0
  0
LINE
  5
C7F
  8
0
 62
     1
 10
3298.3662329188778
 20
1410.7263204265089
 30
0.0
 11
3298.3662329188778
 21
1413.7263204265089
 31
0.0
  0
LINE
  5
C80
  8
0
 62
     1
 10
3398.3662329188778
 20
1413.7263204265089
 30
0.0
 11
3398.3662329188778
 21
1410.7263204265089
 31
0.0
  0
LINE
  5
C81
  8
0
 62
     1
 10
3398.3662329188778
 20
1410.7263204265089
 30
0.0
 11
3393.3662329188778
 21
1410.7263204265089
 31
0.0
  0
LINE
  5
C82
  8
0
 62
     1
 10
3393.3662329188778
 20
1410.7263204265089
 30
0.0
 11
3393.3662329188778
 21
1413.7263204265089
 31
0.0
  0
ARC
  5
C83
  8
0
 62
     1
 10
3291.3662329188769
 20
1428.7263204265089
 30
0.0
 40
15.0
 50
90.0
 51
270.0
  0
ARC
  5
C84
  8
0
 62
     1
 10
3400.3662329188769
 20
1428.7263204265089
 30
0.0
 40
15.0
 50
270.0
 51
90.0
  0
LINE
  5
C85
  8
0
 62
     1
 10
2962.7171178472158
 20
1618.7263204265089
 30
0.0
 11
3562.7171178472158
 21
1618.7263204265089
 31
0.0
  0
LINE
  5
C86
  8
0
 62
     1
 10
2962.7171178472158
 20
1618.7263204265089
 30
0.0
 11
2962.7171178472158
 21
1318.7263204265089
 31
0.0
  0
LINE
  5
C87
  8
0
 62
     1
 10
2962.7171178472158
 20
1618.7263204265089
 30
0.0
 11
2962.7171178472158
 21
1198.7263204265089
 31
0.0
  0
LINE
  5
C88
  8
0
 62
     1
 10
2962.7171178472158
 20
1198.7263204265089
 30
0.0
 11
3662.7171178472172
 21
1198.7263204265089
 31
0.0
  0
LINE
  5
C89
  8
0
 62
     1
 10
3662.7171178472172
 20
1198.7263204265089
 30
0.0
 11
3662.7171178472172
 21
1618.7263204265089
 31
0.0
  0
LINE
  5
C8A
  8
0
 62
     1
 10
3662.7171178472172
 20
1618.7263204265089
 30
0.0
 11
3562.7171178472158
 21
1618.7263204265089
 31
0.0
  0
LINE
  5
C8B
  8
0
 62
     1
 10
3546.3862068032022
 20
1513.063873373166
 30
0.0
 11
3562.4010065682642
 21
1533.5462118257201
 31
0.0
  0
LINE
  5
C8C
  8
0
 62
     1
 10
3407.7819396749469
 20
1330.9236310297631
 30
0.0
 11
3548.7495535477278
 21
1511.2160118618131
 31
0.0
  0
ARC
  5
C8D
  8
0
 62
     1
 10
3392.793033300406
 20
1276.036410065894
 30
0.0
 40
20.0
 50
321.97873947079319
 51
25.41368829364318
  0
ARC
  5
C8E
  8
0
 62
     1
 10
3435.2966808620299
 20
1315.8171603739479
 30
0.0
 40
31.863680171497681
 50
161.82917648638261
 51
201.0010559033941
  0
ARC
  5
C8F
  8
0
 62
     1
 10
3421.1742378939261
 20
1320.4524157987621
 30
0.0
 40
17.000000000000082
 50
141.97873947079319
 51
161.82917648638261
  0
LINE
  5
C90
  8
0
 62
     1
 10
3404.8520271966572
 20
1298.34234102401
 30
0.0
 11
3408.965206456458
 21
1288.6025318437421
 31
0.0
  0
LINE
  5
C91
  8
0
 62
     1
 10
3405.5125274860311
 20
1304.489647439271
 30
0.0
 11
3407.6156929666172
 21
1299.5094534915791
 31
0.0
  0
LINE
  5
C92
  8
0
 62
     1
 10
3408.965206456458
 20
1288.6025318437421
 30
0.0
 11
3410.8576891403318
 21
1284.619428729804
 31
0.0
  0
LINE
  5
C93
  8
0
 62
     1
 10
3627.5014939383559
 20
1508.032949702337
 30
0.0
 11
3590.4757282741198
 21
1536.9827800468699
 31
0.0
  0
LINE
  5
C94
  8
0
 62
     1
 10
3424.4140941856131
 20
1264.006291580831
 30
0.0
 11
3433.6534017423792
 21
1275.823025303459
 31
0.0
  0
CIRCLE
  5
C95
  8
EERST_SNIJDEN
 62
     1
 10
3423.1253811026831
 20
1274.5343122205279
 30
0.0
 40
2.5
  0
ARC
  5
C96
  8
0
 62
     1
 10
3416.4265007456602
 20
1257.5577949523631
 30
0.0
 40
10.0
 50
51.9787394707853
 51
141.97873947079319
  0
LINE
  5
C97
  8
EERST_SNIJDEN
 62
     1
 10
3422.1141980688731
 20
1329.7720816469
 30
0.0
 11
3437.8698430323761
 21
1317.453004904545
 31
0.0
  0
LINE
  5
C98
  8
EERST_SNIJDEN
 62
     1
 10
3437.8698430323761
 20
1317.453004904545
 30
0.0
 11
3462.5079965170871
 21
1348.9642948315529
 31
0.0
  0
LINE
  5
C99
  8
EERST_SNIJDEN
 62
     1
 10
3462.5079965170871
 20
1348.9642948315529
 30
0.0
 11
3446.7523515535831
 21
1361.283371573908
 31
0.0
  0
LINE
  5
C9A
  8
EERST_SNIJDEN
 62
     1
 10
3446.7523515535831
 20
1361.283371573908
 30
0.0
 11
3422.1141980688731
 21
1329.7720816469
 31
0.0
  0
CIRCLE
  5
C9B
  8
EERST_SNIJDEN
 62
     1
 10
3423.5892939612791
 20
1323.5411834686111
 30
0.0
 40
2.0
  0
CIRCLE
  5
C9C
  8
EERST_SNIJDEN
 62
     1
 10
3431.4671164430301
 20
1317.3816450974341
 30
0.0
 40
2.0
  0
CIRCLE
  5
C9D
  8
EERST_SNIJDEN
 62
     1
 10
3453.1550781429278
 20
1361.35473138102
 30
0.0
 40
2.0
  0
CIRCLE
  5
C9E
  8
EERST_SNIJDEN
 62
     1
 10
3461.0329006246802
 20
1355.1951930098419
 30
0.0
 40
2.0
  0
LINE
  5
C9F
  8
0
 62
     1
 10
3433.6534017423792
 20
1275.823025303459
 30
0.0
 11
3437.8675524845289
 21
1281.2127687318541
 31
0.0
  0
ARC
  5
CA0
  8
0
 62
     1
 10
3430.777512250952
 20
1286.756353265914
 30
0.0
 40
9.0
 50
321.97873947079319
 51
0.6533304198562338
  0
LINE
  5
CA1
  8
0
 62
     1
 10
3445.747665514129
 20
1311.2934665333689
 30
0.0
 11
3441.5335147719788
 21
1305.903723104974
 31
0.0
  0
LINE
  5
CA2
  8
0
 62
     1
 10
3439.6241401031371
 20
1300.257515892466
 30
0.0
 11
3439.7769271533712
 21
1286.858975944363
 31
0.0
  0
ARC
  5
CA3
  8
0
 62
     1
 10
3448.6235550055562
 20
1300.3601385709139
 30
0.0
 40
9.0
 50
141.97873947079319
 51
180.6533304198561
  0
LINE
  5
CA4
  8
0
 62
     1
 10
3445.747665514129
 20
1311.2934665333689
 30
0.0
 11
3474.4869947364818
 21
1348.0500090232661
 31
0.0
  0
CIRCLE
  5
CA5
  8
EERST_SNIJDEN
 62
     1
 10
3417.6729438082721
 20
1307.8568983122191
 30
0.0
 40
3.0
  0
LINE
  5
CA6
  8
0
 62
     1
 10
3461.9406963593442
 20
1380.7087046039501
 30
0.0
 11
3545.8838637834751
 21
1488.0689208528961
 31
0.0
  0
ARC
  5
CA7
  8
0
 62
     1
 10
3469.030736592922
 20
1375.1651200698909
 30
0.0
 40
9.0
 50
141.97873947079319
 51
231.9787394707852
  0
LINE
  5
CA8
  8
0
 62
     1
 10
3463.4871520588631
 20
1368.0750798363149
 30
0.0
 11
3472.9405390369652
 21
1360.6836337909019
 31
0.0
  0
ARC
  5
CA9
  8
0
 62
     1
 10
3467.3969545029049
 20
1353.5935935573259
 30
0.0
 40
9.0
 50
321.97873947079319
 51
51.9787394707853
  0
ARC
  5
CAA
  8
0
 62
     1
 10
3578.1566515317668
 20
1521.227135083366
 30
0.0
 40
20.0
 50
51.9787394707853
 51
141.97873947079319
  0
LINE
  5
CAB
  8
0
 62
     1
 10
3581.9528431584172
 20
1530.952819076472
 30
0.0
 11
3565.9380433933561
 21
1510.470480623917
 31
0.0
  0
LINE
  5
CAC
  8
0
 62
     1
 10
3581.9528431584172
 20
1530.9528190764711
 30
0.0
 11
3621.3419555671771
 21
1500.155127220585
 31
0.0
  0
LINE
  5
CAD
  8
0
 62
     1
 10
3565.9380433933561
 20
1510.470480623916
 30
0.0
 11
3605.3271558021161
 21
1479.6727887680299
 31
0.0
  0
LINE
  5
CAE
  8
0
 62
     1
 10
3605.3271558021161
 20
1479.6727887680299
 30
0.0
 11
3599.1676174309391
 21
1471.7949662862779
 31
0.0
  0
LINE
  5
CAF
  8
0
 62
     1
 10
3599.1676174309391
 20
1471.7949662862779
 30
0.0
 11
3573.9585854893321
 21
1491.505489074046
 31
0.0
  0
ARC
  5
CB0
  8
0
 62
     1
 10
3561.6395087469791
 20
1475.749844110542
 30
0.0
 40
20.0
 50
51.9787394707853
 51
141.97873947079319
  0
LINE
  5
CB1
  8
0
 62
     1
 10
3621.3419555671771
 20
1500.155127220585
 30
0.0
 11
3627.5014939383559
 21
1508.032949702337
 31
0.0
  0
CIRCLE
  5
CB2
  8
EERST_SNIJDEN
 62
     1
 10
3598.3084753756521
 20
1478.8136467127431
 30
0.0
 40
2.5
  0
CIRCLE
  5
CB3
  8
EERST_SNIJDEN
 62
     1
 10
3620.4828135118901
 20
1507.173807647049
 30
0.0
 40
2.5
  0
CIRCLE
  5
CB4
  8
EERST_SNIJDEN
 62
     1
 10
3558.9193629668921
 20
1509.611338568629
 30
0.0
 40
2.5
  0
CIRCLE
  5
CB5
  8
EERST_SNIJDEN
 62
     1
 10
3578.2113500965879
 20
1534.285078834484
 30
0.0
 40
2.5
  0
CIRCLE
  5
CB6
  8
EERST_SNIJDEN
 62
     1
 10
3461.0466829830339
 20
1391.741531616296
 30
0.0
 40
2.5
  0
CIRCLE
  5
CB7
  8
EERST_SNIJDEN
 62
     1
 10
3516.4825283236278
 20
1462.6419339520619
 30
0.0
 40
2.5
  0
LINE
  5
CB8
  8
0
 62
     1
 10
3422.5860391168389
 20
1265.435617434114
 30
0.0
 11
3424.4140941856131
 21
1264.006291580831
 31
0.0
  0
LINE
  5
CB9
  8
0
 62
     1
 10
3080.0138619866252
 20
1406.181951932442
 30
0.0
 11
3334.8745417616228
 21
1406.181951932442
 31
0.0
  0
ARC
  5
CBA
  8
0
 62
     1
 10
3027.5422092640242
 20
1381.181951932442
 30
0.0
 40
20.0
 50
270.0
 51
333.43494882291043
  0
ARC
  5
CBB
  8
0
 62
     1
 10
3085.0610629828789
 20
1372.2014386963669
 30
0.0
 40
34.863680171497769
 50
109.85043701562699
 51
149.0223164326444
  0
ARC
  5
CBC
  8
0
 62
     1
 10
3080.0138619866252
 20
1386.181951932442
 30
0.0
 40
20.0
 50
90.0
 51
109.85043701562699
  0
LINE
  5
CBD
  8
0
 62
     1
 10
3055.1700648006249
 20
1390.145920376508
 30
0.0
 11
3047.4028890390218
 21
1376.181951932442
 31
0.0
  0
LINE
  5
CBE
  8
0
 62
     1
 10
3047.4028890390218
 20
1376.181951932442
 30
0.0
 11
3045.4307530840229
 21
1372.2376800224431
 31
0.0
  0
LINE
  5
CBF
  8
0
 62
     1
 10
3354.8745417616228
 20
1339.181951932442
 30
0.0
 11
3354.8745417616228
 21
1386.181951932442
 31
0.0
  0
LINE
  5
CC0
  8
0
 62
     1
 10
3037.5422092640242
 20
1348.8614438567531
 30
0.0
 11
3052.5422092640242
 21
1348.8614438567531
 31
0.0
  0
CIRCLE
  5
CC1
  8
EERST_SNIJDEN
 62
     1
 10
3045.0422092640242
 20
1356.3614438567531
 30
0.0
 40
2.5
  0
ARC
  5
CC2
  8
0
 62
     1
 10
3027.5422092640242
 20
1351.181951932442
 30
0.0
 40
10.0
 50
0.0
 51
90.0
  0
LINE
  5
CC3
  8
EERST_SNIJDEN
 62
     1
 10
3087.9347013772108
 20
1391.181951932442
 30
0.0
 11
3087.9347013772108
 21
1371.1819519324431
 31
0.0
  0
LINE
  5
CC4
  8
EERST_SNIJDEN
 62
     1
 10
3087.9347013772108
 20
1371.1819519324431
 30
0.0
 11
3127.9347013772121
 21
1371.1819519324431
 31
0.0
  0
LINE
  5
CC5
  8
EERST_SNIJDEN
 62
     1
 10
3127.9347013772121
 20
1371.1819519324431
 30
0.0
 11
3127.9347013772121
 21
1391.181951932442
 31
0.0
  0
LINE
  5
CC6
  8
EERST_SNIJDEN
 62
     1
 10
3127.9347013772121
 20
1391.181951932442
 30
0.0
 11
3087.9347013772108
 21
1391.181951932442
 31
0.0
  0
CIRCLE
  5
CC7
  8
EERST_SNIJDEN
 62
     1
 10
3083.9347013772121
 20
1386.181951932442
 30
0.0
 40
2.0
  0
CIRCLE
  5
CC8
  8
EERST_SNIJDEN
 62
     1
 10
3083.9347013772121
 20
1376.181951932442
 30
0.0
 40
2.0
  0
CIRCLE
  5
CC9
  8
EERST_SNIJDEN
 62
     1
 10
3131.9347013772121
 20
1386.181951932442
 30
0.0
 40
2.0
  0
CIRCLE
  5
CCA
  8
EERST_SNIJDEN
 62
     1
 10
3131.9347013772121
 20
1376.181951932442
 30
0.0
 40
2.0
  0
LINE
  5
CCB
  8
0
 62
     1
 10
3052.5422092640242
 20
1348.8614438567531
 30
0.0
 11
3059.3838757789522
 21
1348.8614438567531
 31
0.0
  0
ARC
  5
CCC
  8
0
 62
     1
 10
3059.3838757789522
 20
1357.8614438567531
 30
0.0
 40
9.0
 50
270.0
 51
308.6745909490769
  0
LINE
  5
CCD
  8
0
 62
     1
 10
3087.9347013772108
 20
1361.1819519324431
 30
0.0
 11
3081.0930348622828
 21
1361.1819519324431
 31
0.0
  0
LINE
  5
CCE
  8
0
 62
     1
 10
3075.4689663969821
 20
1359.208320403965
 30
0.0
 11
3065.0079442442529
 21
1350.8350753852301
 31
0.0
  0
ARC
  5
CCF
  8
0
 62
     1
 10
3081.0930348622828
 20
1352.181951932442
 30
0.0
 40
9.0
 50
90.0
 51
128.6745909490769
  0
LINE
  5
CD0
  8
0
 62
     1
 10
3087.9347013772108
 20
1361.1819519324431
 30
0.0
 11
3134.5929531657471
 21
1361.1819519324431
 31
0.0
  0
CIRCLE
  5
CD1
  8
EERST_SNIJDEN
 62
     1
 10
3067.9347013772121
 20
1381.181951932442
 30
0.0
 40
3.0
  0
LINE
  5
CD2
  8
0
 62
     1
 10
3152.5929531657471
 20
1391.181951932442
 30
0.0
 11
3288.8745417616228
 21
1391.181951932442
 31
0.0
  0
ARC
  5
CD3
  8
0
 62
     1
 10
3152.5929531657471
 20
1382.181951932442
 30
0.0
 40
9.0
 50
90.0
 51
180.0
  0
LINE
  5
CD4
  8
0
 62
     1
 10
3143.5929531657471
 20
1382.181951932442
 30
0.0
 11
3143.5929531657471
 21
1370.181951932442
 31
0.0
  0
ARC
  5
CD5
  8
0
 62
     1
 10
3134.5929531657471
 20
1370.181951932442
 30
0.0
 40
9.0
 50
270.0
 51
0.0
  0
ARC
  5
CD6
  8
0
 62
     1
 10
3334.8745417616228
 20
1386.181951932442
 30
0.0
 40
20.0
 50
0.0
 51
90.0
  0
LINE
  5
CD7
  8
0
 62
     1
 10
3344.8745417616228
 20
1389.1819519324431
 30
0.0
 11
3318.8745417616228
 21
1389.1819519324431
 31
0.0
  0
LINE
  5
CD8
  8
0
 62
     1
 10
3344.8745417616228
 20
1389.181951932442
 30
0.0
 11
3344.8745417616228
 21
1339.181951932442
 31
0.0
  0
LINE
  5
CD9
  8
0
 62
     1
 10
3318.8745417616228
 20
1389.181951932442
 30
0.0
 11
3318.8745417616228
 21
1339.181951932442
 31
0.0
  0
LINE
  5
CDA
  8
0
 62
     1
 10
3318.8745417616228
 20
1339.181951932442
 30
0.0
 11
3308.8745417616228
 21
1339.181951932442
 31
0.0
  0
LINE
  5
CDB
  8
0
 62
     1
 10
3308.8745417616228
 20
1339.181951932442
 30
0.0
 11
3308.8745417616228
 21
1371.1819519324431
 31
0.0
  0
ARC
  5
CDC
  8
0
 62
     1
 10
3288.8745417616228
 20
1371.1819519324431
 30
0.0
 40
20.0
 50
0.0
 51
90.0
  0
LINE
  5
CDD
  8
0
 62
     1
 10
3344.8745417616228
 20
1339.181951932442
 30
0.0
 11
3354.8745417616228
 21
1339.181951932442
 31
0.0
  0
CIRCLE
  5
CDE
  8
EERST_SNIJDEN
 62
     1
 10
3313.8745417616228
 20
1344.181951932442
 30
0.0
 40
2.5
  0
CIRCLE
  5
CDF
  8
EERST_SNIJDEN
 62
     1
 10
3349.8745417616228
 20
1344.181951932442
 30
0.0
 40
2.5
  0
CIRCLE
  5
CE0
  8
EERST_SNIJDEN
 62
     1
 10
3313.8745417616228
 20
1394.181951932442
 30
0.0
 40
2.5
  0
CIRCLE
  5
CE1
  8
EERST_SNIJDEN
 62
     1
 10
3345.1950498373112
 20
1394.181951932442
 30
0.0
 40
2.5
  0
CIRCLE
  5
CE2
  8
EERST_SNIJDEN
 62
     1
 10
3160.7337474636861
 20
1398.6819519324431
 30
0.0
 40
2.5
  0
CIRCLE
  5
CE3
  8
EERST_SNIJDEN
 62
     1
 10
3250.7337474636861
 20
1398.6819519324431
 30
0.0
 40
2.5
  0
LINE
  5
CE4
  8
0
 62
     1
 10
3037.5422092640242
 20
1351.181951932442
 30
0.0
 11
3037.5422092640242
 21
1348.8614438567531
 31
0.0
  0
LINE
  5
CE5
  8
0
 62
     1
 10
3404.8520271966572
 20
1298.34234102401
 30
0.0
 11
3407.6156929666172
 21
1299.5094534915791
 31
0.0
  0
LINE
  5
CE6
  8
0
 62
     1
 10
3546.3862068032022
 20
1513.063873373166
 30
0.0
 11
3548.7495535477278
 21
1511.2160118618131
 31
0.0
  0
LINE
  5
CE7
  8
0
 62
     1
 10
3588.95549625067
 20
1428.627953057118
 30
0.0
 11
3431.9730826128271
 21
1227.853233772513
 31
0.0
  0
ARC
  5
CE8
  8
0
 62
     1
 10
3379.9584105740528
 20
1201.915843153178
 30
0.0
 40
20.0
 50
78.543790647857293
 51
141.97873947079319
  0
ARC
  5
CE9
  8
0
 62
     1
 10
3408.3126803219138
 20
1252.759756635324
 30
0.0
 40
34.863680171497769
 50
262.95642303813361
 51
302.12830245515551
  0
LINE
  5
CEA
  8
0
 62
     1
 10
3404.0375494165951
 20
1218.159186541134
 30
0.0
 11
3388.2527612483541
 21
1220.641503302202
 31
0.0
  0
LINE
  5
CEB
  8
0
 62
     1
 10
3388.2527612483541
 20
1220.641503302202
 30
0.0
 11
3383.9307891468811
 21
1221.517379023466
 31
0.0
  0
LINE
  5
CEC
  8
0
 62
     1
 10
3585.518928029519
 20
1456.7026747629759
 30
0.0
 11
3548.493162365286
 21
1485.652505107508
 31
0.0
  0
LINE
  5
CED
  8
0
 62
     1
 10
3360.656426431201
 20
1229.701606601745
 30
0.0
 11
3369.8957339879662
 21
1241.518340324372
 31
0.0
  0
CIRCLE
  5
CEE
  8
EERST_SNIJDEN
 62
     1
 10
3371.1844470708979
 20
1230.990319684676
 30
0.0
 40
2.5
  0
LINE
  5
CEF
  8
0
 62
     1
 10
3360.656426431201
 20
1229.701606601745
 30
0.0
 11
3362.4844814999751
 21
1228.272280748462
 31
0.0
  0
ARC
  5
CF0
  8
0
 62
     1
 10
3356.3249431287968
 20
1220.3944582667091
 30
0.0
 40
10.0
 50
321.97873947079319
 51
51.9787394707853
  0
CIRCLE
  5
CF1
  8
EERST_SNIJDEN
 62
     1
 10
3404.8383210819179
 20
1233.7363313995029
 30
0.0
 40
3.0
  0
ARC
  5
CF2
  8
0
 62
     1
 10
3573.199851287166
 20
1440.9470297994731
 30
0.0
 40
20.0
 50
321.97873947079319
 51
51.9787394707853
  0
LINE
  5
CF3
  8
0
 62
     1
 10
3542.3336239941082
 20
1477.774682625758
 30
0.0
 11
3548.493162365286
 21
1485.652505107508
 31
0.0
  0
LINE
  5
CF4
  8
0
 62
     1
 10
3464.8617185964981
 20
1294.2690609488791
 30
0.0
 11
3529.6730407745908
 21
1377.160352496928
 31
0.0
  0
LINE
  5
CF5
  8
EERST_SNIJDEN
 62
     1
 10
3522.9212823420239
 20
1407.8271662894349
 30
0.0
 11
3538.676927305527
 21
1395.5080895470801
 31
0.0
  0
LINE
  5
CF6
  8
EERST_SNIJDEN
 62
     1
 10
3538.676927305527
 20
1395.5080895470801
 30
0.0
 11
3563.3150807902348
 21
1427.0193794740881
 31
0.0
  0
LINE
  5
CF7
  8
EERST_SNIJDEN
 62
     1
 10
3563.3150807902348
 20
1427.0193794740881
 30
0.0
 11
3547.5594358267331
 21
1439.3384562164431
 31
0.0
  0
LINE
  5
CF8
  8
EERST_SNIJDEN
 62
     1
 10
3547.5594358267331
 20
1439.3384562164431
 30
0.0
 11
3522.9212823420239
 21
1407.8271662894349
 31
0.0
  0
CIRCLE
  5
CF9
  8
EERST_SNIJDEN
 62
     1
 10
3524.3963782344281
 20
1401.596268111145
 30
0.0
 40
2.0
  0
CIRCLE
  5
CFA
  8
EERST_SNIJDEN
 62
     1
 10
3532.2742007161801
 20
1395.4367297399681
 30
0.0
 40
2.0
  0
CIRCLE
  5
CFB
  8
EERST_SNIJDEN
 62
     1
 10
3553.9621624160782
 20
1439.409816023554
 30
0.0
 40
2.0
  0
CIRCLE
  5
CFC
  8
EERST_SNIJDEN
 62
     1
 10
3561.8399848978311
 20
1433.250277652377
 30
0.0
 40
2.0
  0
ARC
  5
CFD
  8
0
 62
     1
 10
3524.2167826310301
 20
1404.2754635435531
 30
0.0
 40
9.0
 50
141.97873947079319
 51
231.9787394707852
  0
LINE
  5
CFE
  8
0
 62
     1
 10
3518.6731980969698
 20
1397.1854233099759
 30
0.0
 11
3528.1265850750729
 21
1389.793977264563
 31
0.0
  0
ARC
  5
CFF
  8
0
 62
     1
 10
3522.5830005410139
 20
1382.7039370309869
 30
0.0
 40
9.0
 50
321.97873947079319
 51
51.9787394707853
  0
LINE
  5
D00
  8
0
 62
     1
 10
3517.1267423974532
 20
1409.819048077612
 30
0.0
 11
3550.4255258971971
 21
1452.406964486539
 31
0.0
  0
LINE
  5
D01
  8
0
 62
     1
 10
3548.7072417866239
 20
1466.4443253394679
 30
0.0
 11
3539.2538548085208
 21
1473.83577138488
 31
0.0
  0
ARC
  5
D02
  8
0
 62
     1
 10
3542.547703415446
 20
1458.5665028577159
 30
0.0
 40
10.0
 50
321.97873947079319
 51
51.9787394707853
  0
LINE
  5
D03
  8
0
 62
     1
 10
3539.2538548085208
 20
1473.83577138488
 30
0.0
 11
3542.3336239941082
 21
1477.774682625758
 31
0.0
  0
LINE
  5
D04
  8
0
 62
     1
 10
3464.8617185964981
 20
1294.2690609488791
 30
0.0
 11
3426.3158872613772
 21
1244.97036381103
 31
0.0
  0
LINE
  5
D05
  8
0
 62
     1
 10
3412.2785264084482
 20
1243.252079700457
 30
0.0
 11
3401.6186717616142
 21
1251.5868427495659
 31
0.0
  0
ARC
  5
D06
  8
0
 62
     1
 10
3418.4380647796261
 20
1251.1299021822081
 30
0.0
 40
10.0
 50
231.9787394707852
 51
321.97873947079319
  0
ARC
  5
D07
  8
0
 62
     1
 10
3395.4591333904368
 20
1243.7090202678139
 30
0.0
 40
10.0
 50
51.9787394707853
 51
102.8851441060863
  0
LINE
  5
D08
  8
0
 62
     1
 10
3369.8957339879662
 20
1241.518340324372
 30
0.0
 11
3374.1098847301159
 21
1246.908083752767
 31
0.0
  0
LINE
  5
D09
  8
0
 62
     1
 10
3369.8957339879662
 20
1241.518340324372
 30
0.0
 11
3374.1098847301159
 21
1246.908083752767
 31
0.0
  0
ARC
  5
D0A
  8
0
 62
     1
 10
3381.199924963692
 20
1241.364499218708
 30
0.0
 40
9.0
 50
103.3041485217057
 51
141.97873947079319
  0
LINE
  5
D0B
  8
0
 62
     1
 10
3393.2291597077119
 20
1253.4572107344779
 30
0.0
 11
3379.1288431641028
 21
1250.1229591392309
 31
0.0
  0
ARC
  5
D0C
  8
0
 62
     1
 10
3416.2174376493231
 20
1240.172310514869
 30
0.0
 40
20.0
 50
302.12830245515551
 51
321.97873947079319
  0
CIRCLE
  5
D0D
  8
EERST_SNIJDEN
 62
     1
 10
3549.3523044205731
 20
1478.633824681044
 30
0.0
 40
2.5
  0
CIRCLE
  5
D0E
  8
EERST_SNIJDEN
 62
     1
 10
3572.0815544303209
 20
1415.1642950310279
 30
0.0
 40
2.5
  0
CIRCLE
  5
D0F
  8
EERST_SNIJDEN
 62
     1
 10
3475.3751025831862
 20
1295.539054292248
 30
0.0
 40
2.5
  0
CIRCLE
  5
D10
  8
EERST_SNIJDEN
 62
     1
 10
3530.8109479237801
 20
1366.439456628015
 30
0.0
 40
2.5
  0
LINE
  5
D11
  8
0
 62
     1
 10
3248.3054491920311
 20
1318.0067085000619
 30
0.0
 11
3019.4447694170321
 21
1318.0067085000619
 31
0.0
  0
ARC
  5
D12
  8
0
 62
     1
 10
2966.9731166944289
 20
1340.0067085000619
 30
0.0
 40
20.0
 50
26.565051177066341
 51
90.0
  0
ARC
  5
D13
  8
0
 62
     1
 10
3024.4919704132849
 20
1348.9872217361381
 30
0.0
 40
31.863680171497759
 50
210.97768356739121
 51
250.14956298437289
  0
LINE
  5
D14
  8
0
 62
     1
 10
2991.9731166944298
 20
1335.767146058246
 30
0.0
 11
2986.8337964694279
 21
1345.0067085000619
 31
0.0
  0
LINE
  5
D15
  8
0
 62
     1
 10
2997.2226932501239
 20
1332.5010194867129
 30
0.0
 11
2994.594837713521
 21
1337.2254254889649
 31
0.0
  0
LINE
  5
D16
  8
0
 62
     1
 10
2986.8337964694279
 20
1345.0067085000619
 30
0.0
 11
2984.8616605144289
 21
1348.9509804100619
 31
0.0
  0
LINE
  5
D17
  8
0
 62
     1
 10
3294.3054491920311
 20
1335.0067085000619
 30
0.0
 11
3294.3054491920288
 21
1382.0067085000619
 31
0.0
  0
LINE
  5
D18
  8
0
 62
     1
 10
2976.9731166944312
 20
1372.327216575751
 30
0.0
 11
2991.9731166944298
 21
1372.327216575751
 31
0.0
  0
CIRCLE
  5
D19
  8
EERST_SNIJDEN
 62
     1
 10
2984.4731166944312
 20
1364.827216575751
 30
0.0
 40
2.5
  0
LINE
  5
D1A
  8
0
 62
     1
 10
2976.9731166944312
 20
1372.327216575751
 30
0.0
 11
2976.9731166944312
 21
1370.0067085000619
 31
0.0
  0
ARC
  5
D1B
  8
0
 62
     1
 10
2966.9731166944289
 20
1370.0067085000619
 30
0.0
 40
10.0
 50
270.0
 51
0.0
  0
CIRCLE
  5
D1C
  8
EERST_SNIJDEN
 62
     1
 10
3007.3656088076191
 20
1340.0067085000619
 30
0.0
 40
3.0
  0
ARC
  5
D1D
  8
0
 62
     1
 10
3274.3054491920311
 20
1335.0067085000619
 30
0.0
 40
20.0
 50
270.0
 51
0.0
  0
LINE
  5
D1E
  8
0
 62
     1
 10
3284.3054491920311
 20
1382.0067085000619
 30
0.0
 11
3294.3054491920311
 21
1382.0067085000619
 31
0.0
  0
LINE
  5
D1F
  8
0
 62
     1
 10
3092.023860596154
 20
1330.0067085000619
 30
0.0
 11
3197.2449311902892
 21
1330.0067085000619
 31
0.0
  0
LINE
  5
D20
  8
EERST_SNIJDEN
 62
     1
 10
3217.2449311902892
 20
1354.214965564875
 30
0.0
 11
3217.2449311902892
 21
1334.214965564875
 31
0.0
  0
LINE
  5
D21
  8
EERST_SNIJDEN
 62
     1
 10
3217.2449311902892
 20
1334.214965564875
 30
0.0
 11
3257.2449311902892
 21
1334.214965564875
 31
0.0
  0
LINE
  5
D22
  8
EERST_SNIJDEN
 62
     1
 10
3257.2449311902892
 20
1334.214965564875
 30
0.0
 11
3257.2449311902892
 21
1354.214965564875
 31
0.0
  0
LINE
  5
D23
  8
EERST_SNIJDEN
 62
     1
 10
3257.2449311902892
 20
1354.214965564875
 30
0.0
 11
3217.2449311902892
 21
1354.214965564875
 31
0.0
  0
CIRCLE
  5
D24
  8
EERST_SNIJDEN
 62
     1
 10
3213.2449311902892
 20
1349.214965564875
 30
0.0
 40
2.0
  0
CIRCLE
  5
D25
  8
EERST_SNIJDEN
 62
     1
 10
3213.2449311902892
 20
1339.214965564875
 30
0.0
 40
2.0
  0
CIRCLE
  5
D26
  8
EERST_SNIJDEN
 62
     1
 10
3261.2449311902892
 20
1349.214965564875
 30
0.0
 40
2.0
  0
CIRCLE
  5
D27
  8
EERST_SNIJDEN
 62
     1
 10
3261.2449311902892
 20
1339.214965564875
 30
0.0
 40
2.0
  0
ARC
  5
D28
  8
0
 62
     1
 10
3215.2449311902892
 20
1351.0067085000619
 30
0.0
 40
9.0
 50
90.0
 51
180.0
  0
LINE
  5
D29
  8
0
 62
     1
 10
3206.2449311902892
 20
1351.0067085000619
 30
0.0
 11
3206.2449311902892
 21
1339.0067085000619
 31
0.0
  0
ARC
  5
D2A
  8
0
 62
     1
 10
3197.2449311902892
 20
1339.0067085000619
 30
0.0
 40
9.0
 50
270.0
 51
0.0
  0
LINE
  5
D2B
  8
0
 62
     1
 10
3215.2449311902892
 20
1360.0067085000619
 30
0.0
 11
3269.3054491920288
 21
1360.0067085000619
 31
0.0
  0
LINE
  5
D2C
  8
0
 62
     1
 10
3279.3054491920311
 20
1370.0067085000619
 30
0.0
 11
3279.3054491920311
 21
1382.0067085000619
 31
0.0
  0
ARC
  5
D2D
  8
0
 62
     1
 10
3269.3054491920288
 20
1370.0067085000619
 30
0.0
 40
10.0
 50
270.0
 51
0.0
  0
LINE
  5
D2E
  8
0
 62
     1
 10
3279.3054491920311
 20
1382.0067085000619
 30
0.0
 11
3284.3054491920311
 21
1382.0067085000619
 31
0.0
  0
LINE
  5
D2F
  8
0
 62
     1
 10
3092.023860596154
 20
1330.0067085000619
 30
0.0
 11
3029.4447694170321
 21
1330.0067085000619
 31
0.0
  0
LINE
  5
D30
  8
0
 62
     1
 10
3019.4447694170321
 20
1340.0067085000619
 30
0.0
 11
3019.4447694170321
 21
1353.5381820405321
 31
0.0
  0
ARC
  5
D31
  8
0
 62
     1
 10
3029.4447694170321
 20
1340.0067085000619
 30
0.0
 40
10.0
 50
180.0
 51
270.0
  0
ARC
  5
D32
  8
0
 62
     1
 10
3009.4447694170321
 20
1353.5381820405321
 30
0.0
 40
10.0
 50
0.0
 51
50.90640463530989
  0
LINE
  5
D33
  8
0
 62
     1
 10
2991.9731166944298
 20
1372.327216575751
 30
0.0
 11
2998.8147832093591
 21
1372.327216575751
 31
0.0
  0
LINE
  5
D34
  8
0
 62
     1
 10
2991.9731166944298
 20
1372.327216575751
 30
0.0
 11
2998.8147832093591
 21
1372.327216575751
 31
0.0
  0
ARC
  5
D35
  8
0
 62
     1
 10
2998.8147832093591
 20
1363.327216575751
 30
0.0
 40
9.0
 50
51.325409050943399
 51
90.0
  0
LINE
  5
D36
  8
0
 62
     1
 10
3015.750659971955
 20
1361.299351044576
 30
0.0
 11
3004.4388516746599
 21
1370.353585047274
 31
0.0
  0
ARC
  5
D37
  8
0
 62
     1
 10
3019.4447694170321
 20
1335.0067085000619
 30
0.0
 40
17.0
 50
250.14956298437289
 51
270.0
  0
CIRCLE
  5
D38
  8
EERST_SNIJDEN
 62
     1
 10
3289.3054491920311
 20
1377.0067085000619
 30
0.0
 40
2.5
  0
CIRCLE
  5
D39
  8
EERST_SNIJDEN
 62
     1
 10
3253.3054491920311
 20
1320.0067085000619
 30
0.0
 40
2.5
  0
CIRCLE
  5
D3A
  8
EERST_SNIJDEN
 62
     1
 10
3099.500098015053
 20
1322.5067085000619
 30
0.0
 40
2.5
  0
CIRCLE
  5
D3B
  8
EERST_SNIJDEN
 62
     1
 10
3189.500098015053
 20
1322.5067085000619
 30
0.0
 40
2.5
  0
LINE
  5
D3C
  8
0
 62
     1
 10
3248.3054491920311
 20
1318.0067085000619
 30
0.0
 11
3248.3054491920311
 21
1315.0067085000619
 31
0.0
  0
LINE
  5
D3D
  8
0
 62
     1
 10
2991.9731166944298
 20
1335.767146058246
 30
0.0
 11
2994.594837713521
 21
1337.2254254889649
 31
0.0
  0
LINE
  5
D3E
  8
0
 62
     1
 10
3274.3054491920311
 20
1315.0067085000619
 30
0.0
 11
3248.3054491920311
 21
1315.0067085000619
 31
0.0
  0
LINE
  5
D3F
  8
0
 62
     1
 10
2966.7171178472172
 20
1202.7263204265089
 30
0.0
 11
3314.7171178472158
 21
1202.7263204265089
 31
0.0
  0
LINE
  5
D40
  8
0
 62
     1
 10
2966.7171178472172
 20
1202.7263204265089
 30
0.0
 11
2966.7171178472172
 21
1239.7263204265089
 31
0.0
  0
LINE
  5
D41
  8
0
 62
     1
 10
2966.7171178472172
 20
1239.7263204265089
 30
0.0
 11
3314.7171178472158
 21
1239.7263204265089
 31
0.0
  0
LINE
  5
D42
  8
0
 62
     1
 10
2968.7171178472158
 20
1239.7263204265089
 30
0.0
 11
2968.7171178472158
 21
1229.7263204265089
 31
0.0
  0
LINE
  5
D43
  8
0
 62
     1
 10
2968.7171178472158
 20
1226.2263204265089
 30
0.0
 11
2968.7171178472158
 21
1216.2263204265089
 31
0.0
  0
LINE
  5
D44
  8
0
 62
     1
 10
2968.7171178472158
 20
1212.7263204265089
 30
0.0
 11
2968.7171178472158
 21
1202.7263204265089
 31
0.0
  0
LINE
  5
D45
  8
0
 62
     1
 10
2970.7171178472158
 20
1232.9763204265089
 30
0.0
 11
2970.7171178472158
 21
1222.9763204265089
 31
0.0
  0
LINE
  5
D46
  8
0
 62
     1
 10
2970.7171178472158
 20
1239.7263204265089
 30
0.0
 11
2970.7171178472158
 21
1236.4763204265089
 31
0.0
  0
LINE
  5
D47
  8
0
 62
     1
 10
2970.7171178472158
 20
1219.4763204265089
 30
0.0
 11
2970.7171178472158
 21
1209.4763204265089
 31
0.0
  0
LINE
  5
D48
  8
0
 62
     1
 10
2970.7171178472158
 20
1205.9763204265089
 30
0.0
 11
2970.7171178472158
 21
1202.7263204265089
 31
0.0
  0
LINE
  5
D49
  8
0
 62
     1
 10
2972.7171178472158
 20
1239.7263204265089
 30
0.0
 11
2972.7171178472158
 21
1229.7263204265089
 31
0.0
  0
LINE
  5
D4A
  8
0
 62
     1
 10
2972.7171178472158
 20
1226.2263204265089
 30
0.0
 11
2972.7171178472158
 21
1216.2263204265089
 31
0.0
  0
LINE
  5
D4B
  8
0
 62
     1
 10
2972.7171178472158
 20
1212.7263204265089
 30
0.0
 11
2972.7171178472158
 21
1202.7263204265089
 31
0.0
  0
LINE
  5
D4C
  8
0
 62
     1
 10
2974.7171178472158
 20
1232.9763204265089
 30
0.0
 11
2974.7171178472158
 21
1222.9763204265089
 31
0.0
  0
LINE
  5
D4D
  8
0
 62
     1
 10
2974.7171178472158
 20
1239.7263204265089
 30
0.0
 11
2974.7171178472158
 21
1236.4763204265089
 31
0.0
  0
LINE
  5
D4E
  8
0
 62
     1
 10
2974.7171178472158
 20
1219.4763204265089
 30
0.0
 11
2974.7171178472158
 21
1209.4763204265089
 31
0.0
  0
LINE
  5
D4F
  8
0
 62
     1
 10
2974.7171178472158
 20
1205.9763204265089
 30
0.0
 11
2974.7171178472158
 21
1202.7263204265089
 31
0.0
  0
LINE
  5
D50
  8
0
 62
     1
 10
2976.7171178472172
 20
1239.7263204265089
 30
0.0
 11
2976.7171178472172
 21
1229.7263204265089
 31
0.0
  0
LINE
  5
D51
  8
0
 62
     1
 10
2976.7171178472172
 20
1226.2263204265089
 30
0.0
 11
2976.7171178472172
 21
1216.2263204265089
 31
0.0
  0
LINE
  5
D52
  8
0
 62
     1
 10
2976.7171178472172
 20
1212.7263204265089
 30
0.0
 11
2976.7171178472172
 21
1202.7263204265089
 31
0.0
  0
LINE
  5
D53
  8
0
 62
     1
 10
2978.7171178472158
 20
1232.9763204265089
 30
0.0
 11
2978.7171178472158
 21
1222.9763204265089
 31
0.0
  0
LINE
  5
D54
  8
0
 62
     1
 10
2978.7171178472158
 20
1239.7263204265089
 30
0.0
 11
2978.7171178472158
 21
1236.4763204265089
 31
0.0
  0
LINE
  5
D55
  8
0
 62
     1
 10
2978.7171178472158
 20
1219.4763204265089
 30
0.0
 11
2978.7171178472158
 21
1209.4763204265089
 31
0.0
  0
LINE
  5
D56
  8
0
 62
     1
 10
2978.7171178472158
 20
1205.9763204265089
 30
0.0
 11
2978.7171178472158
 21
1202.7263204265089
 31
0.0
  0
LINE
  5
D57
  8
0
 62
     1
 10
2980.7171178472172
 20
1239.7263204265089
 30
0.0
 11
2980.7171178472172
 21
1229.7263204265089
 31
0.0
  0
LINE
  5
D58
  8
0
 62
     1
 10
2980.7171178472172
 20
1226.2263204265089
 30
0.0
 11
2980.7171178472172
 21
1216.2263204265089
 31
0.0
  0
LINE
  5
D59
  8
0
 62
     1
 10
2980.7171178472172
 20
1212.7263204265089
 30
0.0
 11
2980.7171178472172
 21
1202.7263204265089
 31
0.0
  0
LINE
  5
D5A
  8
0
 62
     1
 10
2982.7171178472172
 20
1232.9763204265089
 30
0.0
 11
2982.7171178472172
 21
1222.9763204265089
 31
0.0
  0
LINE
  5
D5B
  8
0
 62
     1
 10
2982.7171178472172
 20
1239.7263204265089
 30
0.0
 11
2982.7171178472172
 21
1236.4763204265089
 31
0.0
  0
LINE
  5
D5C
  8
0
 62
     1
 10
2982.7171178472172
 20
1219.4763204265089
 30
0.0
 11
2982.7171178472172
 21
1209.4763204265089
 31
0.0
  0
LINE
  5
D5D
  8
0
 62
     1
 10
2982.7171178472172
 20
1205.9763204265089
 30
0.0
 11
2982.7171178472172
 21
1202.7263204265089
 31
0.0
  0
LINE
  5
D5E
  8
0
 62
     1
 10
2984.7171178472158
 20
1239.7263204265089
 30
0.0
 11
2984.7171178472158
 21
1229.7263204265089
 31
0.0
  0
LINE
  5
D5F
  8
0
 62
     1
 10
2984.7171178472158
 20
1226.2263204265089
 30
0.0
 11
2984.7171178472158
 21
1216.2263204265089
 31
0.0
  0
LINE
  5
D60
  8
0
 62
     1
 10
2984.7171178472158
 20
1212.7263204265089
 30
0.0
 11
2984.7171178472158
 21
1202.7263204265089
 31
0.0
  0
LINE
  5
D61
  8
0
 62
     1
 10
2986.7171178472158
 20
1232.9763204265089
 30
0.0
 11
2986.7171178472158
 21
1222.9763204265089
 31
0.0
  0
LINE
  5
D62
  8
0
 62
     1
 10
2986.7171178472158
 20
1239.7263204265089
 30
0.0
 11
2986.7171178472158
 21
1236.4763204265089
 31
0.0
  0
LINE
  5
D63
  8
0
 62
     1
 10
2986.7171178472158
 20
1219.4763204265089
 30
0.0
 11
2986.7171178472158
 21
1209.4763204265089
 31
0.0
  0
LINE
  5
D64
  8
0
 62
     1
 10
2986.7171178472158
 20
1205.9763204265089
 30
0.0
 11
2986.7171178472158
 21
1202.7263204265089
 31
0.0
  0
LINE
  5
D65
  8
0
 62
     1
 10
2988.7171178472158
 20
1239.7263204265089
 30
0.0
 11
2988.7171178472158
 21
1229.7263204265089
 31
0.0
  0
LINE
  5
D66
  8
0
 62
     1
 10
2988.7171178472158
 20
1226.2263204265089
 30
0.0
 11
2988.7171178472158
 21
1216.2263204265089
 31
0.0
  0
LINE
  5
D67
  8
0
 62
     1
 10
2988.7171178472158
 20
1212.7263204265089
 30
0.0
 11
2988.7171178472158
 21
1202.7263204265089
 31
0.0
  0
LINE
  5
D68
  8
0
 62
     1
 10
2990.7171178472158
 20
1232.9763204265089
 30
0.0
 11
2990.7171178472158
 21
1222.9763204265089
 31
0.0
  0
LINE
  5
D69
  8
0
 62
     1
 10
2990.7171178472158
 20
1239.7263204265089
 30
0.0
 11
2990.7171178472158
 21
1236.4763204265089
 31
0.0
  0
LINE
  5
D6A
  8
0
 62
     1
 10
2990.7171178472158
 20
1219.4763204265089
 30
0.0
 11
2990.7171178472158
 21
1209.4763204265089
 31
0.0
  0
LINE
  5
D6B
  8
0
 62
     1
 10
2990.7171178472158
 20
1205.9763204265089
 30
0.0
 11
2990.7171178472158
 21
1202.7263204265089
 31
0.0
  0
LINE
  5
D6C
  8
0
 62
     1
 10
2992.7171178472172
 20
1239.7263204265089
 30
0.0
 11
2992.7171178472172
 21
1229.7263204265089
 31
0.0
  0
LINE
  5
D6D
  8
0
 62
     1
 10
2992.7171178472172
 20
1226.2263204265089
 30
0.0
 11
2992.7171178472172
 21
1216.2263204265089
 31
0.0
  0
LINE
  5
D6E
  8
0
 62
     1
 10
2992.7171178472172
 20
1212.7263204265089
 30
0.0
 11
2992.7171178472172
 21
1202.7263204265089
 31
0.0
  0
LINE
  5
D6F
  8
0
 62
     1
 10
2994.7171178472158
 20
1232.9763204265089
 30
0.0
 11
2994.7171178472158
 21
1222.9763204265089
 31
0.0
  0
LINE
  5
D70
  8
0
 62
     1
 10
2994.7171178472158
 20
1239.7263204265089
 30
0.0
 11
2994.7171178472158
 21
1236.4763204265089
 31
0.0
  0
LINE
  5
D71
  8
0
 62
     1
 10
2994.7171178472158
 20
1219.4763204265089
 30
0.0
 11
2994.7171178472158
 21
1209.4763204265089
 31
0.0
  0
LINE
  5
D72
  8
0
 62
     1
 10
2994.7171178472158
 20
1205.9763204265089
 30
0.0
 11
2994.7171178472158
 21
1202.7263204265089
 31
0.0
  0
LINE
  5
D73
  8
0
 62
     1
 10
2996.7171178472172
 20
1239.7263204265089
 30
0.0
 11
2996.7171178472172
 21
1229.7263204265089
 31
0.0
  0
LINE
  5
D74
  8
0
 62
     1
 10
2996.7171178472172
 20
1226.2263204265089
 30
0.0
 11
2996.7171178472172
 21
1216.2263204265089
 31
0.0
  0
LINE
  5
D75
  8
0
 62
     1
 10
2996.7171178472172
 20
1212.7263204265089
 30
0.0
 11
2996.7171178472172
 21
1202.7263204265089
 31
0.0
  0
LINE
  5
D76
  8
0
 62
     1
 10
2998.7171178472172
 20
1232.9763204265089
 30
0.0
 11
2998.7171178472172
 21
1222.9763204265089
 31
0.0
  0
LINE
  5
D77
  8
0
 62
     1
 10
2998.7171178472172
 20
1239.7263204265089
 30
0.0
 11
2998.7171178472172
 21
1236.4763204265089
 31
0.0
  0
LINE
  5
D78
  8
0
 62
     1
 10
2998.7171178472172
 20
1219.4763204265089
 30
0.0
 11
2998.7171178472172
 21
1209.4763204265089
 31
0.0
  0
LINE
  5
D79
  8
0
 62
     1
 10
2998.7171178472172
 20
1205.9763204265089
 30
0.0
 11
2998.7171178472172
 21
1202.7263204265089
 31
0.0
  0
LINE
  5
D7A
  8
0
 62
     1
 10
3000.7171178472158
 20
1239.7263204265089
 30
0.0
 11
3000.7171178472158
 21
1229.7263204265089
 31
0.0
  0
LINE
  5
D7B
  8
0
 62
     1
 10
3000.7171178472158
 20
1226.2263204265089
 30
0.0
 11
3000.7171178472158
 21
1216.2263204265089
 31
0.0
  0
LINE
  5
D7C
  8
0
 62
     1
 10
3000.7171178472158
 20
1212.7263204265089
 30
0.0
 11
3000.7171178472158
 21
1202.7263204265089
 31
0.0
  0
LINE
  5
D7D
  8
0
 62
     1
 10
3002.7171178472158
 20
1232.9763204265089
 30
0.0
 11
3002.7171178472158
 21
1222.9763204265089
 31
0.0
  0
LINE
  5
D7E
  8
0
 62
     1
 10
3002.7171178472158
 20
1239.7263204265089
 30
0.0
 11
3002.7171178472158
 21
1236.4763204265089
 31
0.0
  0
LINE
  5
D7F
  8
0
 62
     1
 10
3002.7171178472158
 20
1219.4763204265089
 30
0.0
 11
3002.7171178472158
 21
1209.4763204265089
 31
0.0
  0
LINE
  5
D80
  8
0
 62
     1
 10
3002.7171178472158
 20
1205.9763204265089
 30
0.0
 11
3002.7171178472158
 21
1202.7263204265089
 31
0.0
  0
LINE
  5
D81
  8
0
 62
     1
 10
3004.7171178472158
 20
1239.7263204265089
 30
0.0
 11
3004.7171178472158
 21
1229.7263204265089
 31
0.0
  0
LINE
  5
D82
  8
0
 62
     1
 10
3004.7171178472158
 20
1226.2263204265089
 30
0.0
 11
3004.7171178472158
 21
1216.2263204265089
 31
0.0
  0
LINE
  5
D83
  8
0
 62
     1
 10
3004.7171178472158
 20
1212.7263204265089
 30
0.0
 11
3004.7171178472158
 21
1202.7263204265089
 31
0.0
  0
LINE
  5
D84
  8
0
 62
     1
 10
3006.7171178472158
 20
1232.9763204265089
 30
0.0
 11
3006.7171178472158
 21
1222.9763204265089
 31
0.0
  0
LINE
  5
D85
  8
0
 62
     1
 10
3006.7171178472158
 20
1239.7263204265089
 30
0.0
 11
3006.7171178472158
 21
1236.4763204265089
 31
0.0
  0
LINE
  5
D86
  8
0
 62
     1
 10
3006.7171178472158
 20
1219.4763204265089
 30
0.0
 11
3006.7171178472158
 21
1209.4763204265089
 31
0.0
  0
LINE
  5
D87
  8
0
 62
     1
 10
3006.7171178472158
 20
1205.9763204265089
 30
0.0
 11
3006.7171178472158
 21
1202.7263204265089
 31
0.0
  0
LINE
  5
D88
  8
0
 62
     1
 10
3008.7171178472172
 20
1239.7263204265089
 30
0.0
 11
3008.7171178472172
 21
1229.7263204265089
 31
0.0
  0
LINE
  5
D89
  8
0
 62
     1
 10
3008.7171178472172
 20
1226.2263204265089
 30
0.0
 11
3008.7171178472172
 21
1216.2263204265089
 31
0.0
  0
LINE
  5
D8A
  8
0
 62
     1
 10
3008.7171178472172
 20
1212.7263204265089
 30
0.0
 11
3008.7171178472172
 21
1202.7263204265089
 31
0.0
  0
LINE
  5
D8B
  8
0
 62
     1
 10
3010.7171178472158
 20
1232.9763204265089
 30
0.0
 11
3010.7171178472158
 21
1222.9763204265089
 31
0.0
  0
LINE
  5
D8C
  8
0
 62
     1
 10
3010.7171178472158
 20
1239.7263204265089
 30
0.0
 11
3010.7171178472158
 21
1236.4763204265089
 31
0.0
  0
LINE
  5
D8D
  8
0
 62
     1
 10
3010.7171178472158
 20
1219.4763204265089
 30
0.0
 11
3010.7171178472158
 21
1209.4763204265089
 31
0.0
  0
LINE
  5
D8E
  8
0
 62
     1
 10
3010.7171178472158
 20
1205.9763204265089
 30
0.0
 11
3010.7171178472158
 21
1202.7263204265089
 31
0.0
  0
LINE
  5
D8F
  8
0
 62
     1
 10
3012.7171178472172
 20
1239.7263204265089
 30
0.0
 11
3012.7171178472172
 21
1229.7263204265089
 31
0.0
  0
LINE
  5
D90
  8
0
 62
     1
 10
3012.7171178472172
 20
1226.2263204265089
 30
0.0
 11
3012.7171178472172
 21
1216.2263204265089
 31
0.0
  0
LINE
  5
D91
  8
0
 62
     1
 10
3012.7171178472172
 20
1212.7263204265089
 30
0.0
 11
3012.7171178472172
 21
1202.7263204265089
 31
0.0
  0
LINE
  5
D92
  8
0
 62
     1
 10
3014.7171178472158
 20
1232.9763204265089
 30
0.0
 11
3014.7171178472158
 21
1222.9763204265089
 31
0.0
  0
LINE
  5
D93
  8
0
 62
     1
 10
3014.7171178472158
 20
1239.7263204265089
 30
0.0
 11
3014.7171178472158
 21
1236.4763204265089
 31
0.0
  0
LINE
  5
D94
  8
0
 62
     1
 10
3014.7171178472158
 20
1219.4763204265089
 30
0.0
 11
3014.7171178472158
 21
1209.4763204265089
 31
0.0
  0
LINE
  5
D95
  8
0
 62
     1
 10
3014.7171178472158
 20
1205.9763204265089
 30
0.0
 11
3014.7171178472158
 21
1202.7263204265089
 31
0.0
  0
LINE
  5
D96
  8
0
 62
     1
 10
3016.7171178472158
 20
1239.7263204265089
 30
0.0
 11
3016.7171178472158
 21
1229.7263204265089
 31
0.0
  0
LINE
  5
D97
  8
0
 62
     1
 10
3016.7171178472158
 20
1226.2263204265089
 30
0.0
 11
3016.7171178472158
 21
1216.2263204265089
 31
0.0
  0
LINE
  5
D98
  8
0
 62
     1
 10
3016.7171178472158
 20
1212.7263204265089
 30
0.0
 11
3016.7171178472158
 21
1202.7263204265089
 31
0.0
  0
LINE
  5
D99
  8
0
 62
     1
 10
3018.7171178472158
 20
1232.9763204265089
 30
0.0
 11
3018.7171178472158
 21
1222.9763204265089
 31
0.0
  0
LINE
  5
D9A
  8
0
 62
     1
 10
3018.7171178472158
 20
1239.7263204265089
 30
0.0
 11
3018.7171178472158
 21
1236.4763204265089
 31
0.0
  0
LINE
  5
D9B
  8
0
 62
     1
 10
3018.7171178472158
 20
1219.4763204265089
 30
0.0
 11
3018.7171178472158
 21
1209.4763204265089
 31
0.0
  0
LINE
  5
D9C
  8
0
 62
     1
 10
3018.7171178472158
 20
1205.9763204265089
 30
0.0
 11
3018.7171178472158
 21
1202.7263204265089
 31
0.0
  0
LINE
  5
D9D
  8
0
 62
     1
 10
3020.7171178472158
 20
1239.7263204265089
 30
0.0
 11
3020.7171178472158
 21
1229.7263204265089
 31
0.0
  0
LINE
  5
D9E
  8
0
 62
     1
 10
3020.7171178472158
 20
1226.2263204265089
 30
0.0
 11
3020.7171178472158
 21
1216.2263204265089
 31
0.0
  0
LINE
  5
D9F
  8
0
 62
     1
 10
3020.7171178472158
 20
1212.7263204265089
 30
0.0
 11
3020.7171178472158
 21
1202.7263204265089
 31
0.0
  0
LINE
  5
DA0
  8
0
 62
     1
 10
3022.7171178472158
 20
1232.9763204265089
 30
0.0
 11
3022.7171178472158
 21
1222.9763204265089
 31
0.0
  0
LINE
  5
DA1
  8
0
 62
     1
 10
3022.7171178472158
 20
1239.7263204265089
 30
0.0
 11
3022.7171178472158
 21
1236.4763204265089
 31
0.0
  0
LINE
  5
DA2
  8
0
 62
     1
 10
3022.7171178472158
 20
1219.4763204265089
 30
0.0
 11
3022.7171178472158
 21
1209.4763204265089
 31
0.0
  0
LINE
  5
DA3
  8
0
 62
     1
 10
3022.7171178472158
 20
1205.9763204265089
 30
0.0
 11
3022.7171178472158
 21
1202.7263204265089
 31
0.0
  0
LINE
  5
DA4
  8
0
 62
     1
 10
3024.7171178472172
 20
1239.7263204265089
 30
0.0
 11
3024.7171178472172
 21
1229.7263204265089
 31
0.0
  0
LINE
  5
DA5
  8
0
 62
     1
 10
3024.7171178472172
 20
1226.2263204265089
 30
0.0
 11
3024.7171178472172
 21
1216.2263204265089
 31
0.0
  0
LINE
  5
DA6
  8
0
 62
     1
 10
3024.7171178472172
 20
1212.7263204265089
 30
0.0
 11
3024.7171178472172
 21
1202.7263204265089
 31
0.0
  0
LINE
  5
DA7
  8
0
 62
     1
 10
3026.7171178472158
 20
1232.9763204265089
 30
0.0
 11
3026.7171178472158
 21
1222.9763204265089
 31
0.0
  0
LINE
  5
DA8
  8
0
 62
     1
 10
3026.7171178472158
 20
1239.7263204265089
 30
0.0
 11
3026.7171178472158
 21
1236.4763204265089
 31
0.0
  0
LINE
  5
DA9
  8
0
 62
     1
 10
3026.7171178472158
 20
1219.4763204265089
 30
0.0
 11
3026.7171178472158
 21
1209.4763204265089
 31
0.0
  0
LINE
  5
DAA
  8
0
 62
     1
 10
3026.7171178472158
 20
1205.9763204265089
 30
0.0
 11
3026.7171178472158
 21
1202.7263204265089
 31
0.0
  0
LINE
  5
DAB
  8
0
 62
     1
 10
3028.7171178472172
 20
1239.7263204265089
 30
0.0
 11
3028.7171178472172
 21
1229.7263204265089
 31
0.0
  0
LINE
  5
DAC
  8
0
 62
     1
 10
3028.7171178472172
 20
1226.2263204265089
 30
0.0
 11
3028.7171178472172
 21
1216.2263204265089
 31
0.0
  0
LINE
  5
DAD
  8
0
 62
     1
 10
3028.7171178472172
 20
1212.7263204265089
 30
0.0
 11
3028.7171178472172
 21
1202.7263204265089
 31
0.0
  0
LINE
  5
DAE
  8
0
 62
     1
 10
3030.7171178472158
 20
1232.9763204265089
 30
0.0
 11
3030.7171178472158
 21
1222.9763204265089
 31
0.0
  0
LINE
  5
DAF
  8
0
 62
     1
 10
3030.7171178472158
 20
1239.7263204265089
 30
0.0
 11
3030.7171178472158
 21
1236.4763204265089
 31
0.0
  0
LINE
  5
DB0
  8
0
 62
     1
 10
3030.7171178472158
 20
1219.4763204265089
 30
0.0
 11
3030.7171178472158
 21
1209.4763204265089
 31
0.0
  0
LINE
  5
DB1
  8
0
 62
     1
 10
3030.7171178472158
 20
1205.9763204265089
 30
0.0
 11
3030.7171178472158
 21
1202.7263204265089
 31
0.0
  0
LINE
  5
DB2
  8
0
 62
     1
 10
3032.7171178472158
 20
1239.7263204265089
 30
0.0
 11
3032.7171178472158
 21
1229.7263204265089
 31
0.0
  0
LINE
  5
DB3
  8
0
 62
     1
 10
3032.7171178472158
 20
1226.2263204265089
 30
0.0
 11
3032.7171178472158
 21
1216.2263204265089
 31
0.0
  0
LINE
  5
DB4
  8
0
 62
     1
 10
3032.7171178472158
 20
1212.7263204265089
 30
0.0
 11
3032.7171178472158
 21
1202.7263204265089
 31
0.0
  0
LINE
  5
DB5
  8
0
 62
     1
 10
3034.7171178472158
 20
1232.9763204265089
 30
0.0
 11
3034.7171178472158
 21
1222.9763204265089
 31
0.0
  0
LINE
  5
DB6
  8
0
 62
     1
 10
3034.7171178472158
 20
1239.7263204265089
 30
0.0
 11
3034.7171178472158
 21
1236.4763204265089
 31
0.0
  0
LINE
  5
DB7
  8
0
 62
     1
 10
3034.7171178472158
 20
1219.4763204265089
 30
0.0
 11
3034.7171178472158
 21
1209.4763204265089
 31
0.0
  0
LINE
  5
DB8
  8
0
 62
     1
 10
3034.7171178472158
 20
1205.9763204265089
 30
0.0
 11
3034.7171178472158
 21
1202.7263204265089
 31
0.0
  0
LINE
  5
DB9
  8
0
 62
     1
 10
3036.7171178472158
 20
1239.7263204265089
 30
0.0
 11
3036.7171178472158
 21
1229.7263204265089
 31
0.0
  0
LINE
  5
DBA
  8
0
 62
     1
 10
3036.7171178472158
 20
1226.2263204265089
 30
0.0
 11
3036.7171178472158
 21
1216.2263204265089
 31
0.0
  0
LINE
  5
DBB
  8
0
 62
     1
 10
3036.7171178472158
 20
1212.7263204265089
 30
0.0
 11
3036.7171178472158
 21
1202.7263204265089
 31
0.0
  0
LINE
  5
DBC
  8
0
 62
     1
 10
3038.7171178472158
 20
1232.9763204265089
 30
0.0
 11
3038.7171178472158
 21
1222.9763204265089
 31
0.0
  0
LINE
  5
DBD
  8
0
 62
     1
 10
3038.7171178472158
 20
1239.7263204265089
 30
0.0
 11
3038.7171178472158
 21
1236.4763204265089
 31
0.0
  0
LINE
  5
DBE
  8
0
 62
     1
 10
3038.7171178472158
 20
1219.4763204265089
 30
0.0
 11
3038.7171178472158
 21
1209.4763204265089
 31
0.0
  0
LINE
  5
DBF
  8
0
 62
     1
 10
3038.7171178472158
 20
1205.9763204265089
 30
0.0
 11
3038.7171178472158
 21
1202.7263204265089
 31
0.0
  0
LINE
  5
DC0
  8
0
 62
     1
 10
3040.7171178472172
 20
1239.7263204265089
 30
0.0
 11
3040.7171178472172
 21
1229.7263204265089
 31
0.0
  0
LINE
  5
DC1
  8
0
 62
     1
 10
3040.7171178472172
 20
1226.2263204265089
 30
0.0
 11
3040.7171178472172
 21
1216.2263204265089
 31
0.0
  0
LINE
  5
DC2
  8
0
 62
     1
 10
3040.7171178472172
 20
1212.7263204265089
 30
0.0
 11
3040.7171178472172
 21
1202.7263204265089
 31
0.0
  0
LINE
  5
DC3
  8
0
 62
     1
 10
3042.7171178472158
 20
1232.9763204265089
 30
0.0
 11
3042.7171178472158
 21
1222.9763204265089
 31
0.0
  0
LINE
  5
DC4
  8
0
 62
     1
 10
3042.7171178472158
 20
1239.7263204265089
 30
0.0
 11
3042.7171178472158
 21
1236.4763204265089
 31
0.0
  0
LINE
  5
DC5
  8
0
 62
     1
 10
3042.7171178472158
 20
1219.4763204265089
 30
0.0
 11
3042.7171178472158
 21
1209.4763204265089
 31
0.0
  0
LINE
  5
DC6
  8
0
 62
     1
 10
3042.7171178472158
 20
1205.9763204265089
 30
0.0
 11
3042.7171178472158
 21
1202.7263204265089
 31
0.0
  0
LINE
  5
DC7
  8
0
 62
     1
 10
3044.7171178472172
 20
1239.7263204265089
 30
0.0
 11
3044.7171178472172
 21
1229.7263204265089
 31
0.0
  0
LINE
  5
DC8
  8
0
 62
     1
 10
3044.7171178472172
 20
1226.2263204265089
 30
0.0
 11
3044.7171178472172
 21
1216.2263204265089
 31
0.0
  0
LINE
  5
DC9
  8
0
 62
     1
 10
3044.7171178472172
 20
1212.7263204265089
 30
0.0
 11
3044.7171178472172
 21
1202.7263204265089
 31
0.0
  0
LINE
  5
DCA
  8
0
 62
     1
 10
3046.7171178472158
 20
1232.9763204265089
 30
0.0
 11
3046.7171178472158
 21
1222.9763204265089
 31
0.0
  0
LINE
  5
DCB
  8
0
 62
     1
 10
3046.7171178472158
 20
1239.7263204265089
 30
0.0
 11
3046.7171178472158
 21
1236.4763204265089
 31
0.0
  0
LINE
  5
DCC
  8
0
 62
     1
 10
3046.7171178472158
 20
1219.4763204265089
 30
0.0
 11
3046.7171178472158
 21
1209.4763204265089
 31
0.0
  0
LINE
  5
DCD
  8
0
 62
     1
 10
3046.7171178472158
 20
1205.9763204265089
 30
0.0
 11
3046.7171178472158
 21
1202.7263204265089
 31
0.0
  0
LINE
  5
DCE
  8
0
 62
     1
 10
3048.7171178472158
 20
1239.7263204265089
 30
0.0
 11
3048.7171178472158
 21
1229.7263204265089
 31
0.0
  0
LINE
  5
DCF
  8
0
 62
     1
 10
3048.7171178472158
 20
1226.2263204265089
 30
0.0
 11
3048.7171178472158
 21
1216.2263204265089
 31
0.0
  0
LINE
  5
DD0
  8
0
 62
     1
 10
3048.7171178472158
 20
1212.7263204265089
 30
0.0
 11
3048.7171178472158
 21
1202.7263204265089
 31
0.0
  0
LINE
  5
DD1
  8
0
 62
     1
 10
3050.7171178472158
 20
1232.9763204265089
 30
0.0
 11
3050.7171178472158
 21
1222.9763204265089
 31
0.0
  0
LINE
  5
DD2
  8
0
 62
     1
 10
3050.7171178472158
 20
1239.7263204265089
 30
0.0
 11
3050.7171178472158
 21
1236.4763204265089
 31
0.0
  0
LINE
  5
DD3
  8
0
 62
     1
 10
3050.7171178472158
 20
1219.4763204265089
 30
0.0
 11
3050.7171178472158
 21
1209.4763204265089
 31
0.0
  0
LINE
  5
DD4
  8
0
 62
     1
 10
3050.7171178472158
 20
1205.9763204265089
 30
0.0
 11
3050.7171178472158
 21
1202.7263204265089
 31
0.0
  0
LINE
  5
DD5
  8
0
 62
     1
 10
3052.7171178472158
 20
1239.7263204265089
 30
0.0
 11
3052.7171178472158
 21
1229.7263204265089
 31
0.0
  0
LINE
  5
DD6
  8
0
 62
     1
 10
3052.7171178472158
 20
1226.2263204265089
 30
0.0
 11
3052.7171178472158
 21
1216.2263204265089
 31
0.0
  0
LINE
  5
DD7
  8
0
 62
     1
 10
3052.7171178472158
 20
1212.7263204265089
 30
0.0
 11
3052.7171178472158
 21
1202.7263204265089
 31
0.0
  0
LINE
  5
DD8
  8
0
 62
     1
 10
3054.7171178472172
 20
1232.9763204265089
 30
0.0
 11
3054.7171178472172
 21
1222.9763204265089
 31
0.0
  0
LINE
  5
DD9
  8
0
 62
     1
 10
3054.7171178472172
 20
1239.7263204265089
 30
0.0
 11
3054.7171178472172
 21
1236.4763204265089
 31
0.0
  0
LINE
  5
DDA
  8
0
 62
     1
 10
3054.7171178472172
 20
1219.4763204265089
 30
0.0
 11
3054.7171178472172
 21
1209.4763204265089
 31
0.0
  0
LINE
  5
DDB
  8
0
 62
     1
 10
3054.7171178472172
 20
1205.9763204265089
 30
0.0
 11
3054.7171178472172
 21
1202.7263204265089
 31
0.0
  0
LINE
  5
DDC
  8
0
 62
     1
 10
3056.7171178472172
 20
1239.7263204265089
 30
0.0
 11
3056.7171178472172
 21
1229.7263204265089
 31
0.0
  0
LINE
  5
DDD
  8
0
 62
     1
 10
3056.7171178472172
 20
1226.2263204265089
 30
0.0
 11
3056.7171178472172
 21
1216.2263204265089
 31
0.0
  0
LINE
  5
DDE
  8
0
 62
     1
 10
3056.7171178472172
 20
1212.7263204265089
 30
0.0
 11
3056.7171178472172
 21
1202.7263204265089
 31
0.0
  0
LINE
  5
DDF
  8
0
 62
     1
 10
3058.7171178472172
 20
1232.9763204265089
 30
0.0
 11
3058.7171178472172
 21
1222.9763204265089
 31
0.0
  0
LINE
  5
DE0
  8
0
 62
     1
 10
3058.7171178472172
 20
1239.7263204265089
 30
0.0
 11
3058.7171178472172
 21
1236.4763204265089
 31
0.0
  0
LINE
  5
DE1
  8
0
 62
     1
 10
3058.7171178472172
 20
1219.4763204265089
 30
0.0
 11
3058.7171178472172
 21
1209.4763204265089
 31
0.0
  0
LINE
  5
DE2
  8
0
 62
     1
 10
3058.7171178472172
 20
1205.9763204265089
 30
0.0
 11
3058.7171178472172
 21
1202.7263204265089
 31
0.0
  0
LINE
  5
DE3
  8
0
 62
     1
 10
3060.7171178472172
 20
1239.7263204265089
 30
0.0
 11
3060.7171178472172
 21
1229.7263204265089
 31
0.0
  0
LINE
  5
DE4
  8
0
 62
     1
 10
3060.7171178472172
 20
1226.2263204265089
 30
0.0
 11
3060.7171178472172
 21
1216.2263204265089
 31
0.0
  0
LINE
  5
DE5
  8
0
 62
     1
 10
3060.7171178472172
 20
1212.7263204265089
 30
0.0
 11
3060.7171178472172
 21
1202.7263204265089
 31
0.0
  0
LINE
  5
DE6
  8
0
 62
     1
 10
3062.7171178472172
 20
1232.9763204265089
 30
0.0
 11
3062.7171178472172
 21
1222.9763204265089
 31
0.0
  0
LINE
  5
DE7
  8
0
 62
     1
 10
3062.7171178472172
 20
1239.7263204265089
 30
0.0
 11
3062.7171178472172
 21
1236.4763204265089
 31
0.0
  0
LINE
  5
DE8
  8
0
 62
     1
 10
3062.7171178472172
 20
1219.4763204265089
 30
0.0
 11
3062.7171178472172
 21
1209.4763204265089
 31
0.0
  0
LINE
  5
DE9
  8
0
 62
     1
 10
3062.7171178472172
 20
1205.9763204265089
 30
0.0
 11
3062.7171178472172
 21
1202.7263204265089
 31
0.0
  0
LINE
  5
DEA
  8
0
 62
     1
 10
3064.7171178472158
 20
1239.7263204265089
 30
0.0
 11
3064.7171178472158
 21
1229.7263204265089
 31
0.0
  0
LINE
  5
DEB
  8
0
 62
     1
 10
3064.7171178472158
 20
1226.2263204265089
 30
0.0
 11
3064.7171178472158
 21
1216.2263204265089
 31
0.0
  0
LINE
  5
DEC
  8
0
 62
     1
 10
3064.7171178472158
 20
1212.7263204265089
 30
0.0
 11
3064.7171178472158
 21
1202.7263204265089
 31
0.0
  0
LINE
  5
DED
  8
0
 62
     1
 10
3066.7171178472172
 20
1232.9763204265089
 30
0.0
 11
3066.7171178472172
 21
1222.9763204265089
 31
0.0
  0
LINE
  5
DEE
  8
0
 62
     1
 10
3066.7171178472172
 20
1239.7263204265089
 30
0.0
 11
3066.7171178472172
 21
1236.4763204265089
 31
0.0
  0
LINE
  5
DEF
  8
0
 62
     1
 10
3066.7171178472172
 20
1219.4763204265089
 30
0.0
 11
3066.7171178472172
 21
1209.4763204265089
 31
0.0
  0
LINE
  5
DF0
  8
0
 62
     1
 10
3066.7171178472172
 20
1205.9763204265089
 30
0.0
 11
3066.7171178472172
 21
1202.7263204265089
 31
0.0
  0
LINE
  5
DF1
  8
0
 62
     1
 10
3068.7171178472158
 20
1239.7263204265089
 30
0.0
 11
3068.7171178472158
 21
1229.7263204265089
 31
0.0
  0
LINE
  5
DF2
  8
0
 62
     1
 10
3068.7171178472158
 20
1226.2263204265089
 30
0.0
 11
3068.7171178472158
 21
1216.2263204265089
 31
0.0
  0
LINE
  5
DF3
  8
0
 62
     1
 10
3068.7171178472158
 20
1212.7263204265089
 30
0.0
 11
3068.7171178472158
 21
1202.7263204265089
 31
0.0
  0
LINE
  5
DF4
  8
0
 62
     1
 10
3070.7171178472172
 20
1232.9763204265089
 30
0.0
 11
3070.7171178472172
 21
1222.9763204265089
 31
0.0
  0
LINE
  5
DF5
  8
0
 62
     1
 10
3070.7171178472172
 20
1239.7263204265089
 30
0.0
 11
3070.7171178472172
 21
1236.4763204265089
 31
0.0
  0
LINE
  5
DF6
  8
0
 62
     1
 10
3070.7171178472172
 20
1219.4763204265089
 30
0.0
 11
3070.7171178472172
 21
1209.4763204265089
 31
0.0
  0
LINE
  5
DF7
  8
0
 62
     1
 10
3070.7171178472172
 20
1205.9763204265089
 30
0.0
 11
3070.7171178472172
 21
1202.7263204265089
 31
0.0
  0
LINE
  5
DF8
  8
0
 62
     1
 10
3072.7171178472172
 20
1239.7263204265089
 30
0.0
 11
3072.7171178472172
 21
1229.7263204265089
 31
0.0
  0
LINE
  5
DF9
  8
0
 62
     1
 10
3072.7171178472172
 20
1226.2263204265089
 30
0.0
 11
3072.7171178472172
 21
1216.2263204265089
 31
0.0
  0
LINE
  5
DFA
  8
0
 62
     1
 10
3072.7171178472172
 20
1212.7263204265089
 30
0.0
 11
3072.7171178472172
 21
1202.7263204265089
 31
0.0
  0
LINE
  5
DFB
  8
0
 62
     1
 10
3074.7171178472172
 20
1232.9763204265089
 30
0.0
 11
3074.7171178472172
 21
1222.9763204265089
 31
0.0
  0
LINE
  5
DFC
  8
0
 62
     1
 10
3074.7171178472172
 20
1239.7263204265089
 30
0.0
 11
3074.7171178472172
 21
1236.4763204265089
 31
0.0
  0
LINE
  5
DFD
  8
0
 62
     1
 10
3074.7171178472172
 20
1219.4763204265089
 30
0.0
 11
3074.7171178472172
 21
1209.4763204265089
 31
0.0
  0
LINE
  5
DFE
  8
0
 62
     1
 10
3074.7171178472172
 20
1205.9763204265089
 30
0.0
 11
3074.7171178472172
 21
1202.7263204265089
 31
0.0
  0
LINE
  5
DFF
  8
0
 62
     1
 10
3076.7171178472172
 20
1239.7263204265089
 30
0.0
 11
3076.7171178472172
 21
1229.7263204265089
 31
0.0
  0
LINE
  5
E00
  8
0
 62
     1
 10
3076.7171178472172
 20
1226.2263204265089
 30
0.0
 11
3076.7171178472172
 21
1216.2263204265089
 31
0.0
  0
LINE
  5
E01
  8
0
 62
     1
 10
3076.7171178472172
 20
1212.7263204265089
 30
0.0
 11
3076.7171178472172
 21
1202.7263204265089
 31
0.0
  0
LINE
  5
E02
  8
0
 62
     1
 10
3078.7171178472172
 20
1232.9763204265089
 30
0.0
 11
3078.7171178472172
 21
1222.9763204265089
 31
0.0
  0
LINE
  5
E03
  8
0
 62
     1
 10
3078.7171178472172
 20
1239.7263204265089
 30
0.0
 11
3078.7171178472172
 21
1236.4763204265089
 31
0.0
  0
LINE
  5
E04
  8
0
 62
     1
 10
3078.7171178472172
 20
1219.4763204265089
 30
0.0
 11
3078.7171178472172
 21
1209.4763204265089
 31
0.0
  0
LINE
  5
E05
  8
0
 62
     1
 10
3078.7171178472172
 20
1205.9763204265089
 30
0.0
 11
3078.7171178472172
 21
1202.7263204265089
 31
0.0
  0
LINE
  5
E06
  8
0
 62
     1
 10
3080.7171178472158
 20
1239.7263204265089
 30
0.0
 11
3080.7171178472158
 21
1229.7263204265089
 31
0.0
  0
LINE
  5
E07
  8
0
 62
     1
 10
3080.7171178472158
 20
1226.2263204265089
 30
0.0
 11
3080.7171178472158
 21
1216.2263204265089
 31
0.0
  0
LINE
  5
E08
  8
0
 62
     1
 10
3080.7171178472158
 20
1212.7263204265089
 30
0.0
 11
3080.7171178472158
 21
1202.7263204265089
 31
0.0
  0
LINE
  5
E09
  8
0
 62
     1
 10
3082.7171178472172
 20
1232.9763204265089
 30
0.0
 11
3082.7171178472172
 21
1222.9763204265089
 31
0.0
  0
LINE
  5
E0A
  8
0
 62
     1
 10
3082.7171178472172
 20
1239.7263204265089
 30
0.0
 11
3082.7171178472172
 21
1236.4763204265089
 31
0.0
  0
LINE
  5
E0B
  8
0
 62
     1
 10
3082.7171178472172
 20
1219.4763204265089
 30
0.0
 11
3082.7171178472172
 21
1209.4763204265089
 31
0.0
  0
LINE
  5
E0C
  8
0
 62
     1
 10
3082.7171178472172
 20
1205.9763204265089
 30
0.0
 11
3082.7171178472172
 21
1202.7263204265089
 31
0.0
  0
LINE
  5
E0D
  8
0
 62
     1
 10
3084.7171178472158
 20
1239.7263204265089
 30
0.0
 11
3084.7171178472158
 21
1229.7263204265089
 31
0.0
  0
LINE
  5
E0E
  8
0
 62
     1
 10
3084.7171178472158
 20
1226.2263204265089
 30
0.0
 11
3084.7171178472158
 21
1216.2263204265089
 31
0.0
  0
LINE
  5
E0F
  8
0
 62
     1
 10
3084.7171178472158
 20
1212.7263204265089
 30
0.0
 11
3084.7171178472158
 21
1202.7263204265089
 31
0.0
  0
LINE
  5
E10
  8
0
 62
     1
 10
3086.7171178472172
 20
1232.9763204265089
 30
0.0
 11
3086.7171178472172
 21
1222.9763204265089
 31
0.0
  0
LINE
  5
E11
  8
0
 62
     1
 10
3086.7171178472172
 20
1239.7263204265089
 30
0.0
 11
3086.7171178472172
 21
1236.4763204265089
 31
0.0
  0
LINE
  5
E12
  8
0
 62
     1
 10
3086.7171178472172
 20
1219.4763204265089
 30
0.0
 11
3086.7171178472172
 21
1209.4763204265089
 31
0.0
  0
LINE
  5
E13
  8
0
 62
     1
 10
3086.7171178472172
 20
1205.9763204265089
 30
0.0
 11
3086.7171178472172
 21
1202.7263204265089
 31
0.0
  0
LINE
  5
E14
  8
0
 62
     1
 10
3088.7171178472158
 20
1239.7263204265089
 30
0.0
 11
3088.7171178472158
 21
1229.7263204265089
 31
0.0
  0
LINE
  5
E15
  8
0
 62
     1
 10
3088.7171178472158
 20
1226.2263204265089
 30
0.0
 11
3088.7171178472158
 21
1216.2263204265089
 31
0.0
  0
LINE
  5
E16
  8
0
 62
     1
 10
3088.7171178472158
 20
1212.7263204265089
 30
0.0
 11
3088.7171178472158
 21
1202.7263204265089
 31
0.0
  0
LINE
  5
E17
  8
0
 62
     1
 10
3090.7171178472172
 20
1232.9763204265089
 30
0.0
 11
3090.7171178472172
 21
1222.9763204265089
 31
0.0
  0
LINE
  5
E18
  8
0
 62
     1
 10
3090.7171178472172
 20
1239.7263204265089
 30
0.0
 11
3090.7171178472172
 21
1236.4763204265089
 31
0.0
  0
LINE
  5
E19
  8
0
 62
     1
 10
3090.7171178472172
 20
1219.4763204265089
 30
0.0
 11
3090.7171178472172
 21
1209.4763204265089
 31
0.0
  0
LINE
  5
E1A
  8
0
 62
     1
 10
3090.7171178472172
 20
1205.9763204265089
 30
0.0
 11
3090.7171178472172
 21
1202.7263204265089
 31
0.0
  0
LINE
  5
E1B
  8
0
 62
     1
 10
3092.7171178472172
 20
1239.7263204265089
 30
0.0
 11
3092.7171178472172
 21
1229.7263204265089
 31
0.0
  0
LINE
  5
E1C
  8
0
 62
     1
 10
3092.7171178472172
 20
1226.2263204265089
 30
0.0
 11
3092.7171178472172
 21
1216.2263204265089
 31
0.0
  0
LINE
  5
E1D
  8
0
 62
     1
 10
3092.7171178472172
 20
1212.7263204265089
 30
0.0
 11
3092.7171178472172
 21
1202.7263204265089
 31
0.0
  0
LINE
  5
E1E
  8
0
 62
     1
 10
3094.7171178472172
 20
1232.9763204265089
 30
0.0
 11
3094.7171178472172
 21
1222.9763204265089
 31
0.0
  0
LINE
  5
E1F
  8
0
 62
     1
 10
3094.7171178472172
 20
1239.7263204265089
 30
0.0
 11
3094.7171178472172
 21
1236.4763204265089
 31
0.0
  0
LINE
  5
E20
  8
0
 62
     1
 10
3094.7171178472172
 20
1219.4763204265089
 30
0.0
 11
3094.7171178472172
 21
1209.4763204265089
 31
0.0
  0
LINE
  5
E21
  8
0
 62
     1
 10
3094.7171178472172
 20
1205.9763204265089
 30
0.0
 11
3094.7171178472172
 21
1202.7263204265089
 31
0.0
  0
LINE
  5
E22
  8
0
 62
     1
 10
3096.7171178472158
 20
1239.7263204265089
 30
0.0
 11
3096.7171178472158
 21
1229.7263204265089
 31
0.0
  0
LINE
  5
E23
  8
0
 62
     1
 10
3096.7171178472158
 20
1226.2263204265089
 30
0.0
 11
3096.7171178472158
 21
1216.2263204265089
 31
0.0
  0
LINE
  5
E24
  8
0
 62
     1
 10
3096.7171178472158
 20
1212.7263204265089
 30
0.0
 11
3096.7171178472158
 21
1202.7263204265089
 31
0.0
  0
LINE
  5
E25
  8
0
 62
     1
 10
3098.7171178472172
 20
1232.9763204265089
 30
0.0
 11
3098.7171178472172
 21
1222.9763204265089
 31
0.0
  0
LINE
  5
E26
  8
0
 62
     1
 10
3098.7171178472172
 20
1239.7263204265089
 30
0.0
 11
3098.7171178472172
 21
1236.4763204265089
 31
0.0
  0
LINE
  5
E27
  8
0
 62
     1
 10
3098.7171178472172
 20
1219.4763204265089
 30
0.0
 11
3098.7171178472172
 21
1209.4763204265089
 31
0.0
  0
LINE
  5
E28
  8
0
 62
     1
 10
3098.7171178472172
 20
1205.9763204265089
 30
0.0
 11
3098.7171178472172
 21
1202.7263204265089
 31
0.0
  0
LINE
  5
E29
  8
0
 62
     1
 10
3100.7171178472158
 20
1239.7263204265089
 30
0.0
 11
3100.7171178472158
 21
1229.7263204265089
 31
0.0
  0
LINE
  5
E2A
  8
0
 62
     1
 10
3100.7171178472158
 20
1226.2263204265089
 30
0.0
 11
3100.7171178472158
 21
1216.2263204265089
 31
0.0
  0
LINE
  5
E2B
  8
0
 62
     1
 10
3100.7171178472158
 20
1212.7263204265089
 30
0.0
 11
3100.7171178472158
 21
1202.7263204265089
 31
0.0
  0
LINE
  5
E2C
  8
0
 62
     1
 10
3102.7171178472172
 20
1232.9763204265089
 30
0.0
 11
3102.7171178472172
 21
1222.9763204265089
 31
0.0
  0
LINE
  5
E2D
  8
0
 62
     1
 10
3102.7171178472172
 20
1239.7263204265089
 30
0.0
 11
3102.7171178472172
 21
1236.4763204265089
 31
0.0
  0
LINE
  5
E2E
  8
0
 62
     1
 10
3102.7171178472172
 20
1219.4763204265089
 30
0.0
 11
3102.7171178472172
 21
1209.4763204265089
 31
0.0
  0
LINE
  5
E2F
  8
0
 62
     1
 10
3102.7171178472172
 20
1205.9763204265089
 30
0.0
 11
3102.7171178472172
 21
1202.7263204265089
 31
0.0
  0
LINE
  5
E30
  8
0
 62
     1
 10
3104.7171178472158
 20
1239.7263204265089
 30
0.0
 11
3104.7171178472158
 21
1229.7263204265089
 31
0.0
  0
LINE
  5
E31
  8
0
 62
     1
 10
3104.7171178472158
 20
1226.2263204265089
 30
0.0
 11
3104.7171178472158
 21
1216.2263204265089
 31
0.0
  0
LINE
  5
E32
  8
0
 62
     1
 10
3104.7171178472158
 20
1212.7263204265089
 30
0.0
 11
3104.7171178472158
 21
1202.7263204265089
 31
0.0
  0
LINE
  5
E33
  8
0
 62
     1
 10
3106.7171178472172
 20
1232.9763204265089
 30
0.0
 11
3106.7171178472172
 21
1222.9763204265089
 31
0.0
  0
LINE
  5
E34
  8
0
 62
     1
 10
3106.7171178472172
 20
1239.7263204265089
 30
0.0
 11
3106.7171178472172
 21
1236.4763204265089
 31
0.0
  0
LINE
  5
E35
  8
0
 62
     1
 10
3106.7171178472172
 20
1219.4763204265089
 30
0.0
 11
3106.7171178472172
 21
1209.4763204265089
 31
0.0
  0
LINE
  5
E36
  8
0
 62
     1
 10
3106.7171178472172
 20
1205.9763204265089
 30
0.0
 11
3106.7171178472172
 21
1202.7263204265089
 31
0.0
  0
LINE
  5
E37
  8
0
 62
     1
 10
3108.7171178472172
 20
1239.7263204265089
 30
0.0
 11
3108.7171178472172
 21
1229.7263204265089
 31
0.0
  0
LINE
  5
E38
  8
0
 62
     1
 10
3108.7171178472172
 20
1226.2263204265089
 30
0.0
 11
3108.7171178472172
 21
1216.2263204265089
 31
0.0
  0
LINE
  5
E39
  8
0
 62
     1
 10
3108.7171178472172
 20
1212.7263204265089
 30
0.0
 11
3108.7171178472172
 21
1202.7263204265089
 31
0.0
  0
LINE
  5
E3A
  8
0
 62
     1
 10
3110.7171178472172
 20
1232.9763204265089
 30
0.0
 11
3110.7171178472172
 21
1222.9763204265089
 31
0.0
  0
LINE
  5
E3B
  8
0
 62
     1
 10
3110.7171178472172
 20
1239.7263204265089
 30
0.0
 11
3110.7171178472172
 21
1236.4763204265089
 31
0.0
  0
LINE
  5
E3C
  8
0
 62
     1
 10
3110.7171178472172
 20
1219.4763204265089
 30
0.0
 11
3110.7171178472172
 21
1209.4763204265089
 31
0.0
  0
LINE
  5
E3D
  8
0
 62
     1
 10
3110.7171178472172
 20
1205.9763204265089
 30
0.0
 11
3110.7171178472172
 21
1202.7263204265089
 31
0.0
  0
LINE
  5
E3E
  8
0
 62
     1
 10
3112.7171178472158
 20
1239.7263204265089
 30
0.0
 11
3112.7171178472158
 21
1229.7263204265089
 31
0.0
  0
LINE
  5
E3F
  8
0
 62
     1
 10
3112.7171178472158
 20
1226.2263204265089
 30
0.0
 11
3112.7171178472158
 21
1216.2263204265089
 31
0.0
  0
LINE
  5
E40
  8
0
 62
     1
 10
3112.7171178472158
 20
1212.7263204265089
 30
0.0
 11
3112.7171178472158
 21
1202.7263204265089
 31
0.0
  0
LINE
  5
E41
  8
0
 62
     1
 10
3114.7171178472172
 20
1232.9763204265089
 30
0.0
 11
3114.7171178472172
 21
1222.9763204265089
 31
0.0
  0
LINE
  5
E42
  8
0
 62
     1
 10
3114.7171178472172
 20
1239.7263204265089
 30
0.0
 11
3114.7171178472172
 21
1236.4763204265089
 31
0.0
  0
LINE
  5
E43
  8
0
 62
     1
 10
3114.7171178472172
 20
1219.4763204265089
 30
0.0
 11
3114.7171178472172
 21
1209.4763204265089
 31
0.0
  0
LINE
  5
E44
  8
0
 62
     1
 10
3114.7171178472172
 20
1205.9763204265089
 30
0.0
 11
3114.7171178472172
 21
1202.7263204265089
 31
0.0
  0
LINE
  5
E45
  8
0
 62
     1
 10
3116.7171178472158
 20
1239.7263204265089
 30
0.0
 11
3116.7171178472158
 21
1229.7263204265089
 31
0.0
  0
LINE
  5
E46
  8
0
 62
     1
 10
3116.7171178472158
 20
1226.2263204265089
 30
0.0
 11
3116.7171178472158
 21
1216.2263204265089
 31
0.0
  0
LINE
  5
E47
  8
0
 62
     1
 10
3116.7171178472158
 20
1212.7263204265089
 30
0.0
 11
3116.7171178472158
 21
1202.7263204265089
 31
0.0
  0
LINE
  5
E48
  8
0
 62
     1
 10
3118.7171178472172
 20
1232.9763204265089
 30
0.0
 11
3118.7171178472172
 21
1222.9763204265089
 31
0.0
  0
LINE
  5
E49
  8
0
 62
     1
 10
3118.7171178472172
 20
1239.7263204265089
 30
0.0
 11
3118.7171178472172
 21
1236.4763204265089
 31
0.0
  0
LINE
  5
E4A
  8
0
 62
     1
 10
3118.7171178472172
 20
1219.4763204265089
 30
0.0
 11
3118.7171178472172
 21
1209.4763204265089
 31
0.0
  0
LINE
  5
E4B
  8
0
 62
     1
 10
3118.7171178472172
 20
1205.9763204265089
 30
0.0
 11
3118.7171178472172
 21
1202.7263204265089
 31
0.0
  0
LINE
  5
E4C
  8
0
 62
     1
 10
3120.7171178472158
 20
1239.7263204265089
 30
0.0
 11
3120.7171178472158
 21
1229.7263204265089
 31
0.0
  0
LINE
  5
E4D
  8
0
 62
     1
 10
3120.7171178472158
 20
1226.2263204265089
 30
0.0
 11
3120.7171178472158
 21
1216.2263204265089
 31
0.0
  0
LINE
  5
E4E
  8
0
 62
     1
 10
3120.7171178472158
 20
1212.7263204265089
 30
0.0
 11
3120.7171178472158
 21
1202.7263204265089
 31
0.0
  0
LINE
  5
E4F
  8
0
 62
     1
 10
3122.7171178472172
 20
1232.9763204265089
 30
0.0
 11
3122.7171178472172
 21
1222.9763204265089
 31
0.0
  0
LINE
  5
E50
  8
0
 62
     1
 10
3122.7171178472172
 20
1239.7263204265089
 30
0.0
 11
3122.7171178472172
 21
1236.4763204265089
 31
0.0
  0
LINE
  5
E51
  8
0
 62
     1
 10
3122.7171178472172
 20
1219.4763204265089
 30
0.0
 11
3122.7171178472172
 21
1209.4763204265089
 31
0.0
  0
LINE
  5
E52
  8
0
 62
     1
 10
3122.7171178472172
 20
1205.9763204265089
 30
0.0
 11
3122.7171178472172
 21
1202.7263204265089
 31
0.0
  0
LINE
  5
E53
  8
0
 62
     1
 10
3124.7171178472172
 20
1239.7263204265089
 30
0.0
 11
3124.7171178472172
 21
1229.7263204265089
 31
0.0
  0
LINE
  5
E54
  8
0
 62
     1
 10
3124.7171178472172
 20
1226.2263204265089
 30
0.0
 11
3124.7171178472172
 21
1216.2263204265089
 31
0.0
  0
LINE
  5
E55
  8
0
 62
     1
 10
3124.7171178472172
 20
1212.7263204265089
 30
0.0
 11
3124.7171178472172
 21
1202.7263204265089
 31
0.0
  0
LINE
  5
E56
  8
0
 62
     1
 10
3126.7171178472172
 20
1232.9763204265089
 30
0.0
 11
3126.7171178472172
 21
1222.9763204265089
 31
0.0
  0
LINE
  5
E57
  8
0
 62
     1
 10
3126.7171178472172
 20
1239.7263204265089
 30
0.0
 11
3126.7171178472172
 21
1236.4763204265089
 31
0.0
  0
LINE
  5
E58
  8
0
 62
     1
 10
3126.7171178472172
 20
1219.4763204265089
 30
0.0
 11
3126.7171178472172
 21
1209.4763204265089
 31
0.0
  0
LINE
  5
E59
  8
0
 62
     1
 10
3126.7171178472172
 20
1205.9763204265089
 30
0.0
 11
3126.7171178472172
 21
1202.7263204265089
 31
0.0
  0
LINE
  5
E5A
  8
0
 62
     1
 10
3128.7171178472158
 20
1239.7263204265089
 30
0.0
 11
3128.7171178472158
 21
1229.7263204265089
 31
0.0
  0
LINE
  5
E5B
  8
0
 62
     1
 10
3128.7171178472158
 20
1226.2263204265089
 30
0.0
 11
3128.7171178472158
 21
1216.2263204265089
 31
0.0
  0
LINE
  5
E5C
  8
0
 62
     1
 10
3128.7171178472158
 20
1212.7263204265089
 30
0.0
 11
3128.7171178472158
 21
1202.7263204265089
 31
0.0
  0
LINE
  5
E5D
  8
0
 62
     1
 10
3130.7171178472172
 20
1232.9763204265089
 30
0.0
 11
3130.7171178472172
 21
1222.9763204265089
 31
0.0
  0
LINE
  5
E5E
  8
0
 62
     1
 10
3130.7171178472172
 20
1239.7263204265089
 30
0.0
 11
3130.7171178472172
 21
1236.4763204265089
 31
0.0
  0
LINE
  5
E5F
  8
0
 62
     1
 10
3130.7171178472172
 20
1219.4763204265089
 30
0.0
 11
3130.7171178472172
 21
1209.4763204265089
 31
0.0
  0
LINE
  5
E60
  8
0
 62
     1
 10
3130.7171178472172
 20
1205.9763204265089
 30
0.0
 11
3130.7171178472172
 21
1202.7263204265089
 31
0.0
  0
LINE
  5
E61
  8
0
 62
     1
 10
3132.7171178472158
 20
1239.7263204265089
 30
0.0
 11
3132.7171178472158
 21
1229.7263204265089
 31
0.0
  0
LINE
  5
E62
  8
0
 62
     1
 10
3132.7171178472158
 20
1226.2263204265089
 30
0.0
 11
3132.7171178472158
 21
1216.2263204265089
 31
0.0
  0
LINE
  5
E63
  8
0
 62
     1
 10
3132.7171178472158
 20
1212.7263204265089
 30
0.0
 11
3132.7171178472158
 21
1202.7263204265089
 31
0.0
  0
LINE
  5
E64
  8
0
 62
     1
 10
3134.7171178472172
 20
1232.9763204265089
 30
0.0
 11
3134.7171178472172
 21
1222.9763204265089
 31
0.0
  0
LINE
  5
E65
  8
0
 62
     1
 10
3134.7171178472172
 20
1239.7263204265089
 30
0.0
 11
3134.7171178472172
 21
1236.4763204265089
 31
0.0
  0
LINE
  5
E66
  8
0
 62
     1
 10
3134.7171178472172
 20
1219.4763204265089
 30
0.0
 11
3134.7171178472172
 21
1209.4763204265089
 31
0.0
  0
LINE
  5
E67
  8
0
 62
     1
 10
3134.7171178472172
 20
1205.9763204265089
 30
0.0
 11
3134.7171178472172
 21
1202.7263204265089
 31
0.0
  0
LINE
  5
E68
  8
0
 62
     1
 10
3136.7171178472158
 20
1239.7263204265089
 30
0.0
 11
3136.7171178472158
 21
1229.7263204265089
 31
0.0
  0
LINE
  5
E69
  8
0
 62
     1
 10
3136.7171178472158
 20
1226.2263204265089
 30
0.0
 11
3136.7171178472158
 21
1216.2263204265089
 31
0.0
  0
LINE
  5
E6A
  8
0
 62
     1
 10
3136.7171178472158
 20
1212.7263204265089
 30
0.0
 11
3136.7171178472158
 21
1202.7263204265089
 31
0.0
  0
LINE
  5
E6B
  8
0
 62
     1
 10
3138.7171178472158
 20
1232.9763204265089
 30
0.0
 11
3138.7171178472158
 21
1222.9763204265089
 31
0.0
  0
LINE
  5
E6C
  8
0
 62
     1
 10
3138.7171178472158
 20
1239.7263204265089
 30
0.0
 11
3138.7171178472158
 21
1236.4763204265089
 31
0.0
  0
LINE
  5
E6D
  8
0
 62
     1
 10
3138.7171178472158
 20
1219.4763204265089
 30
0.0
 11
3138.7171178472158
 21
1209.4763204265089
 31
0.0
  0
LINE
  5
E6E
  8
0
 62
     1
 10
3138.7171178472158
 20
1205.9763204265089
 30
0.0
 11
3138.7171178472158
 21
1202.7263204265089
 31
0.0
  0
LINE
  5
E6F
  8
0
 62
     1
 10
3140.7171178472172
 20
1239.7263204265089
 30
0.0
 11
3140.7171178472172
 21
1229.7263204265089
 31
0.0
  0
LINE
  5
E70
  8
0
 62
     1
 10
3140.7171178472172
 20
1226.2263204265089
 30
0.0
 11
3140.7171178472172
 21
1216.2263204265089
 31
0.0
  0
LINE
  5
E71
  8
0
 62
     1
 10
3140.7171178472172
 20
1212.7263204265089
 30
0.0
 11
3140.7171178472172
 21
1202.7263204265089
 31
0.0
  0
LINE
  5
E72
  8
0
 62
     1
 10
3142.7171178472172
 20
1232.9763204265089
 30
0.0
 11
3142.7171178472172
 21
1222.9763204265089
 31
0.0
  0
LINE
  5
E73
  8
0
 62
     1
 10
3142.7171178472172
 20
1239.7263204265089
 30
0.0
 11
3142.7171178472172
 21
1236.4763204265089
 31
0.0
  0
LINE
  5
E74
  8
0
 62
     1
 10
3142.7171178472172
 20
1219.4763204265089
 30
0.0
 11
3142.7171178472172
 21
1209.4763204265089
 31
0.0
  0
LINE
  5
E75
  8
0
 62
     1
 10
3142.7171178472172
 20
1205.9763204265089
 30
0.0
 11
3142.7171178472172
 21
1202.7263204265089
 31
0.0
  0
LINE
  5
E76
  8
0
 62
     1
 10
3144.7171178472158
 20
1239.7263204265089
 30
0.0
 11
3144.7171178472158
 21
1229.7263204265089
 31
0.0
  0
LINE
  5
E77
  8
0
 62
     1
 10
3144.7171178472158
 20
1226.2263204265089
 30
0.0
 11
3144.7171178472158
 21
1216.2263204265089
 31
0.0
  0
LINE
  5
E78
  8
0
 62
     1
 10
3144.7171178472158
 20
1212.7263204265089
 30
0.0
 11
3144.7171178472158
 21
1202.7263204265089
 31
0.0
  0
LINE
  5
E79
  8
0
 62
     1
 10
3146.7171178472172
 20
1232.9763204265089
 30
0.0
 11
3146.7171178472172
 21
1222.9763204265089
 31
0.0
  0
LINE
  5
E7A
  8
0
 62
     1
 10
3146.7171178472172
 20
1239.7263204265089
 30
0.0
 11
3146.7171178472172
 21
1236.4763204265089
 31
0.0
  0
LINE
  5
E7B
  8
0
 62
     1
 10
3146.7171178472172
 20
1219.4763204265089
 30
0.0
 11
3146.7171178472172
 21
1209.4763204265089
 31
0.0
  0
LINE
  5
E7C
  8
0
 62
     1
 10
3146.7171178472172
 20
1205.9763204265089
 30
0.0
 11
3146.7171178472172
 21
1202.7263204265089
 31
0.0
  0
LINE
  5
E7D
  8
0
 62
     1
 10
3148.7171178472158
 20
1239.7263204265089
 30
0.0
 11
3148.7171178472158
 21
1229.7263204265089
 31
0.0
  0
LINE
  5
E7E
  8
0
 62
     1
 10
3148.7171178472158
 20
1226.2263204265089
 30
0.0
 11
3148.7171178472158
 21
1216.2263204265089
 31
0.0
  0
LINE
  5
E7F
  8
0
 62
     1
 10
3148.7171178472158
 20
1212.7263204265089
 30
0.0
 11
3148.7171178472158
 21
1202.7263204265089
 31
0.0
  0
LINE
  5
E80
  8
0
 62
     1
 10
3150.7171178472172
 20
1232.9763204265089
 30
0.0
 11
3150.7171178472172
 21
1222.9763204265089
 31
0.0
  0
LINE
  5
E81
  8
0
 62
     1
 10
3150.7171178472172
 20
1239.7263204265089
 30
0.0
 11
3150.7171178472172
 21
1236.4763204265089
 31
0.0
  0
LINE
  5
E82
  8
0
 62
     1
 10
3150.7171178472172
 20
1219.4763204265089
 30
0.0
 11
3150.7171178472172
 21
1209.4763204265089
 31
0.0
  0
LINE
  5
E83
  8
0
 62
     1
 10
3150.7171178472172
 20
1205.9763204265089
 30
0.0
 11
3150.7171178472172
 21
1202.7263204265089
 31
0.0
  0
LINE
  5
E84
  8
0
 62
     1
 10
3152.7171178472158
 20
1239.7263204265089
 30
0.0
 11
3152.7171178472158
 21
1229.7263204265089
 31
0.0
  0
LINE
  5
E85
  8
0
 62
     1
 10
3152.7171178472158
 20
1226.2263204265089
 30
0.0
 11
3152.7171178472158
 21
1216.2263204265089
 31
0.0
  0
LINE
  5
E86
  8
0
 62
     1
 10
3152.7171178472158
 20
1212.7263204265089
 30
0.0
 11
3152.7171178472158
 21
1202.7263204265089
 31
0.0
  0
LINE
  5
E87
  8
0
 62
     1
 10
3154.7171178472158
 20
1232.9763204265089
 30
0.0
 11
3154.7171178472158
 21
1222.9763204265089
 31
0.0
  0
LINE
  5
E88
  8
0
 62
     1
 10
3154.7171178472158
 20
1239.7263204265089
 30
0.0
 11
3154.7171178472158
 21
1236.4763204265089
 31
0.0
  0
LINE
  5
E89
  8
0
 62
     1
 10
3154.7171178472158
 20
1219.4763204265089
 30
0.0
 11
3154.7171178472158
 21
1209.4763204265089
 31
0.0
  0
LINE
  5
E8A
  8
0
 62
     1
 10
3154.7171178472158
 20
1205.9763204265089
 30
0.0
 11
3154.7171178472158
 21
1202.7263204265089
 31
0.0
  0
LINE
  5
E8B
  8
0
 62
     1
 10
3156.7171178472172
 20
1239.7263204265089
 30
0.0
 11
3156.7171178472172
 21
1229.7263204265089
 31
0.0
  0
LINE
  5
E8C
  8
0
 62
     1
 10
3156.7171178472172
 20
1226.2263204265089
 30
0.0
 11
3156.7171178472172
 21
1216.2263204265089
 31
0.0
  0
LINE
  5
E8D
  8
0
 62
     1
 10
3156.7171178472172
 20
1212.7263204265089
 30
0.0
 11
3156.7171178472172
 21
1202.7263204265089
 31
0.0
  0
LINE
  5
E8E
  8
0
 62
     1
 10
3158.7171178472172
 20
1232.9763204265089
 30
0.0
 11
3158.7171178472172
 21
1222.9763204265089
 31
0.0
  0
LINE
  5
E8F
  8
0
 62
     1
 10
3158.7171178472172
 20
1239.7263204265089
 30
0.0
 11
3158.7171178472172
 21
1236.4763204265089
 31
0.0
  0
LINE
  5
E90
  8
0
 62
     1
 10
3158.7171178472172
 20
1219.4763204265089
 30
0.0
 11
3158.7171178472172
 21
1209.4763204265089
 31
0.0
  0
LINE
  5
E91
  8
0
 62
     1
 10
3158.7171178472172
 20
1205.9763204265089
 30
0.0
 11
3158.7171178472172
 21
1202.7263204265089
 31
0.0
  0
LINE
  5
E92
  8
0
 62
     1
 10
3160.7171178472158
 20
1239.7263204265089
 30
0.0
 11
3160.7171178472158
 21
1229.7263204265089
 31
0.0
  0
LINE
  5
E93
  8
0
 62
     1
 10
3160.7171178472158
 20
1226.2263204265089
 30
0.0
 11
3160.7171178472158
 21
1216.2263204265089
 31
0.0
  0
LINE
  5
E94
  8
0
 62
     1
 10
3160.7171178472158
 20
1212.7263204265089
 30
0.0
 11
3160.7171178472158
 21
1202.7263204265089
 31
0.0
  0
LINE
  5
E95
  8
0
 62
     1
 10
3162.7171178472172
 20
1232.9763204265089
 30
0.0
 11
3162.7171178472172
 21
1222.9763204265089
 31
0.0
  0
LINE
  5
E96
  8
0
 62
     1
 10
3162.7171178472172
 20
1239.7263204265089
 30
0.0
 11
3162.7171178472172
 21
1236.4763204265089
 31
0.0
  0
LINE
  5
E97
  8
0
 62
     1
 10
3162.7171178472172
 20
1219.4763204265089
 30
0.0
 11
3162.7171178472172
 21
1209.4763204265089
 31
0.0
  0
LINE
  5
E98
  8
0
 62
     1
 10
3162.7171178472172
 20
1205.9763204265089
 30
0.0
 11
3162.7171178472172
 21
1202.7263204265089
 31
0.0
  0
LINE
  5
E99
  8
0
 62
     1
 10
3164.7171178472158
 20
1239.7263204265089
 30
0.0
 11
3164.7171178472158
 21
1229.7263204265089
 31
0.0
  0
LINE
  5
E9A
  8
0
 62
     1
 10
3164.7171178472158
 20
1226.2263204265089
 30
0.0
 11
3164.7171178472158
 21
1216.2263204265089
 31
0.0
  0
LINE
  5
E9B
  8
0
 62
     1
 10
3164.7171178472158
 20
1212.7263204265089
 30
0.0
 11
3164.7171178472158
 21
1202.7263204265089
 31
0.0
  0
LINE
  5
E9C
  8
0
 62
     1
 10
3166.7171178472172
 20
1232.9763204265089
 30
0.0
 11
3166.7171178472172
 21
1222.9763204265089
 31
0.0
  0
LINE
  5
E9D
  8
0
 62
     1
 10
3166.7171178472172
 20
1239.7263204265089
 30
0.0
 11
3166.7171178472172
 21
1236.4763204265089
 31
0.0
  0
LINE
  5
E9E
  8
0
 62
     1
 10
3166.7171178472172
 20
1219.4763204265089
 30
0.0
 11
3166.7171178472172
 21
1209.4763204265089
 31
0.0
  0
LINE
  5
E9F
  8
0
 62
     1
 10
3166.7171178472172
 20
1205.9763204265089
 30
0.0
 11
3166.7171178472172
 21
1202.7263204265089
 31
0.0
  0
LINE
  5
EA0
  8
0
 62
     1
 10
3168.7171178472158
 20
1239.7263204265089
 30
0.0
 11
3168.7171178472158
 21
1229.7263204265089
 31
0.0
  0
LINE
  5
EA1
  8
0
 62
     1
 10
3168.7171178472158
 20
1226.2263204265089
 30
0.0
 11
3168.7171178472158
 21
1216.2263204265089
 31
0.0
  0
LINE
  5
EA2
  8
0
 62
     1
 10
3168.7171178472158
 20
1212.7263204265089
 30
0.0
 11
3168.7171178472158
 21
1202.7263204265089
 31
0.0
  0
LINE
  5
EA3
  8
0
 62
     1
 10
3170.7171178472158
 20
1232.9763204265089
 30
0.0
 11
3170.7171178472158
 21
1222.9763204265089
 31
0.0
  0
LINE
  5
EA4
  8
0
 62
     1
 10
3170.7171178472158
 20
1239.7263204265089
 30
0.0
 11
3170.7171178472158
 21
1236.4763204265089
 31
0.0
  0
LINE
  5
EA5
  8
0
 62
     1
 10
3170.7171178472158
 20
1219.4763204265089
 30
0.0
 11
3170.7171178472158
 21
1209.4763204265089
 31
0.0
  0
LINE
  5
EA6
  8
0
 62
     1
 10
3170.7171178472158
 20
1205.9763204265089
 30
0.0
 11
3170.7171178472158
 21
1202.7263204265089
 31
0.0
  0
LINE
  5
EA7
  8
0
 62
     1
 10
3172.7171178472172
 20
1239.7263204265089
 30
0.0
 11
3172.7171178472172
 21
1229.7263204265089
 31
0.0
  0
LINE
  5
EA8
  8
0
 62
     1
 10
3172.7171178472172
 20
1226.2263204265089
 30
0.0
 11
3172.7171178472172
 21
1216.2263204265089
 31
0.0
  0
LINE
  5
EA9
  8
0
 62
     1
 10
3172.7171178472172
 20
1212.7263204265089
 30
0.0
 11
3172.7171178472172
 21
1202.7263204265089
 31
0.0
  0
LINE
  5
EAA
  8
0
 62
     1
 10
3174.7171178472172
 20
1232.9763204265089
 30
0.0
 11
3174.7171178472172
 21
1222.9763204265089
 31
0.0
  0
LINE
  5
EAB
  8
0
 62
     1
 10
3174.7171178472172
 20
1239.7263204265089
 30
0.0
 11
3174.7171178472172
 21
1236.4763204265089
 31
0.0
  0
LINE
  5
EAC
  8
0
 62
     1
 10
3174.7171178472172
 20
1219.4763204265089
 30
0.0
 11
3174.7171178472172
 21
1209.4763204265089
 31
0.0
  0
LINE
  5
EAD
  8
0
 62
     1
 10
3174.7171178472172
 20
1205.9763204265089
 30
0.0
 11
3174.7171178472172
 21
1202.7263204265089
 31
0.0
  0
LINE
  5
EAE
  8
0
 62
     1
 10
3176.7171178472158
 20
1239.7263204265089
 30
0.0
 11
3176.7171178472158
 21
1229.7263204265089
 31
0.0
  0
LINE
  5
EAF
  8
0
 62
     1
 10
3176.7171178472158
 20
1226.2263204265089
 30
0.0
 11
3176.7171178472158
 21
1216.2263204265089
 31
0.0
  0
LINE
  5
EB0
  8
0
 62
     1
 10
3176.7171178472158
 20
1212.7263204265089
 30
0.0
 11
3176.7171178472158
 21
1202.7263204265089
 31
0.0
  0
LINE
  5
EB1
  8
0
 62
     1
 10
3178.7171178472172
 20
1232.9763204265089
 30
0.0
 11
3178.7171178472172
 21
1222.9763204265089
 31
0.0
  0
LINE
  5
EB2
  8
0
 62
     1
 10
3178.7171178472172
 20
1239.7263204265089
 30
0.0
 11
3178.7171178472172
 21
1236.4763204265089
 31
0.0
  0
LINE
  5
EB3
  8
0
 62
     1
 10
3178.7171178472172
 20
1219.4763204265089
 30
0.0
 11
3178.7171178472172
 21
1209.4763204265089
 31
0.0
  0
LINE
  5
EB4
  8
0
 62
     1
 10
3178.7171178472172
 20
1205.9763204265089
 30
0.0
 11
3178.7171178472172
 21
1202.7263204265089
 31
0.0
  0
LINE
  5
EB5
  8
0
 62
     1
 10
3180.7171178472158
 20
1239.7263204265089
 30
0.0
 11
3180.7171178472158
 21
1229.7263204265089
 31
0.0
  0
LINE
  5
EB6
  8
0
 62
     1
 10
3180.7171178472158
 20
1226.2263204265089
 30
0.0
 11
3180.7171178472158
 21
1216.2263204265089
 31
0.0
  0
LINE
  5
EB7
  8
0
 62
     1
 10
3180.7171178472158
 20
1212.7263204265089
 30
0.0
 11
3180.7171178472158
 21
1202.7263204265089
 31
0.0
  0
LINE
  5
EB8
  8
0
 62
     1
 10
3182.7171178472172
 20
1232.9763204265089
 30
0.0
 11
3182.7171178472172
 21
1222.9763204265089
 31
0.0
  0
LINE
  5
EB9
  8
0
 62
     1
 10
3182.7171178472172
 20
1239.7263204265089
 30
0.0
 11
3182.7171178472172
 21
1236.4763204265089
 31
0.0
  0
LINE
  5
EBA
  8
0
 62
     1
 10
3182.7171178472172
 20
1219.4763204265089
 30
0.0
 11
3182.7171178472172
 21
1209.4763204265089
 31
0.0
  0
LINE
  5
EBB
  8
0
 62
     1
 10
3182.7171178472172
 20
1205.9763204265089
 30
0.0
 11
3182.7171178472172
 21
1202.7263204265089
 31
0.0
  0
LINE
  5
EBC
  8
0
 62
     1
 10
3184.7171178472158
 20
1239.7263204265089
 30
0.0
 11
3184.7171178472158
 21
1229.7263204265089
 31
0.0
  0
LINE
  5
EBD
  8
0
 62
     1
 10
3184.7171178472158
 20
1226.2263204265089
 30
0.0
 11
3184.7171178472158
 21
1216.2263204265089
 31
0.0
  0
LINE
  5
EBE
  8
0
 62
     1
 10
3184.7171178472158
 20
1212.7263204265089
 30
0.0
 11
3184.7171178472158
 21
1202.7263204265089
 31
0.0
  0
LINE
  5
EBF
  8
0
 62
     1
 10
3186.7171178472158
 20
1232.9763204265089
 30
0.0
 11
3186.7171178472158
 21
1222.9763204265089
 31
0.0
  0
LINE
  5
EC0
  8
0
 62
     1
 10
3186.7171178472158
 20
1239.7263204265089
 30
0.0
 11
3186.7171178472158
 21
1236.4763204265089
 31
0.0
  0
LINE
  5
EC1
  8
0
 62
     1
 10
3186.7171178472158
 20
1219.4763204265089
 30
0.0
 11
3186.7171178472158
 21
1209.4763204265089
 31
0.0
  0
LINE
  5
EC2
  8
0
 62
     1
 10
3186.7171178472158
 20
1205.9763204265089
 30
0.0
 11
3186.7171178472158
 21
1202.7263204265089
 31
0.0
  0
LINE
  5
EC3
  8
0
 62
     1
 10
3188.7171178472158
 20
1239.7263204265089
 30
0.0
 11
3188.7171178472158
 21
1229.7263204265089
 31
0.0
  0
LINE
  5
EC4
  8
0
 62
     1
 10
3188.7171178472158
 20
1226.2263204265089
 30
0.0
 11
3188.7171178472158
 21
1216.2263204265089
 31
0.0
  0
LINE
  5
EC5
  8
0
 62
     1
 10
3188.7171178472158
 20
1212.7263204265089
 30
0.0
 11
3188.7171178472158
 21
1202.7263204265089
 31
0.0
  0
LINE
  5
EC6
  8
0
 62
     1
 10
3190.7171178472172
 20
1232.9763204265089
 30
0.0
 11
3190.7171178472172
 21
1222.9763204265089
 31
0.0
  0
LINE
  5
EC7
  8
0
 62
     1
 10
3190.7171178472172
 20
1239.7263204265089
 30
0.0
 11
3190.7171178472172
 21
1236.4763204265089
 31
0.0
  0
LINE
  5
EC8
  8
0
 62
     1
 10
3190.7171178472172
 20
1219.4763204265089
 30
0.0
 11
3190.7171178472172
 21
1209.4763204265089
 31
0.0
  0
LINE
  5
EC9
  8
0
 62
     1
 10
3190.7171178472172
 20
1205.9763204265089
 30
0.0
 11
3190.7171178472172
 21
1202.7263204265089
 31
0.0
  0
LINE
  5
ECA
  8
0
 62
     1
 10
3192.7171178472158
 20
1239.7263204265089
 30
0.0
 11
3192.7171178472158
 21
1229.7263204265089
 31
0.0
  0
LINE
  5
ECB
  8
0
 62
     1
 10
3192.7171178472158
 20
1226.2263204265089
 30
0.0
 11
3192.7171178472158
 21
1216.2263204265089
 31
0.0
  0
LINE
  5
ECC
  8
0
 62
     1
 10
3192.7171178472158
 20
1212.7263204265089
 30
0.0
 11
3192.7171178472158
 21
1202.7263204265089
 31
0.0
  0
LINE
  5
ECD
  8
0
 62
     1
 10
3194.7171178472172
 20
1232.9763204265089
 30
0.0
 11
3194.7171178472172
 21
1222.9763204265089
 31
0.0
  0
LINE
  5
ECE
  8
0
 62
     1
 10
3194.7171178472172
 20
1239.7263204265089
 30
0.0
 11
3194.7171178472172
 21
1236.4763204265089
 31
0.0
  0
LINE
  5
ECF
  8
0
 62
     1
 10
3194.7171178472172
 20
1219.4763204265089
 30
0.0
 11
3194.7171178472172
 21
1209.4763204265089
 31
0.0
  0
LINE
  5
ED0
  8
0
 62
     1
 10
3194.7171178472172
 20
1205.9763204265089
 30
0.0
 11
3194.7171178472172
 21
1202.7263204265089
 31
0.0
  0
LINE
  5
ED1
  8
0
 62
     1
 10
3196.7171178472158
 20
1239.7263204265089
 30
0.0
 11
3196.7171178472158
 21
1229.7263204265089
 31
0.0
  0
LINE
  5
ED2
  8
0
 62
     1
 10
3196.7171178472158
 20
1226.2263204265089
 30
0.0
 11
3196.7171178472158
 21
1216.2263204265089
 31
0.0
  0
LINE
  5
ED3
  8
0
 62
     1
 10
3196.7171178472158
 20
1212.7263204265089
 30
0.0
 11
3196.7171178472158
 21
1202.7263204265089
 31
0.0
  0
LINE
  5
ED4
  8
0
 62
     1
 10
3198.7171178472172
 20
1232.9763204265089
 30
0.0
 11
3198.7171178472172
 21
1222.9763204265089
 31
0.0
  0
LINE
  5
ED5
  8
0
 62
     1
 10
3198.7171178472172
 20
1239.7263204265089
 30
0.0
 11
3198.7171178472172
 21
1236.4763204265089
 31
0.0
  0
LINE
  5
ED6
  8
0
 62
     1
 10
3198.7171178472172
 20
1219.4763204265089
 30
0.0
 11
3198.7171178472172
 21
1209.4763204265089
 31
0.0
  0
LINE
  5
ED7
  8
0
 62
     1
 10
3198.7171178472172
 20
1205.9763204265089
 30
0.0
 11
3198.7171178472172
 21
1202.7263204265089
 31
0.0
  0
LINE
  5
ED8
  8
0
 62
     1
 10
3200.7171178472158
 20
1239.7263204265089
 30
0.0
 11
3200.7171178472158
 21
1229.7263204265089
 31
0.0
  0
LINE
  5
ED9
  8
0
 62
     1
 10
3200.7171178472158
 20
1226.2263204265089
 30
0.0
 11
3200.7171178472158
 21
1216.2263204265089
 31
0.0
  0
LINE
  5
EDA
  8
0
 62
     1
 10
3200.7171178472158
 20
1212.7263204265089
 30
0.0
 11
3200.7171178472158
 21
1202.7263204265089
 31
0.0
  0
LINE
  5
EDB
  8
0
 62
     1
 10
3202.7171178472172
 20
1232.9763204265089
 30
0.0
 11
3202.7171178472172
 21
1222.9763204265089
 31
0.0
  0
LINE
  5
EDC
  8
0
 62
     1
 10
3202.7171178472172
 20
1239.7263204265089
 30
0.0
 11
3202.7171178472172
 21
1236.4763204265089
 31
0.0
  0
LINE
  5
EDD
  8
0
 62
     1
 10
3202.7171178472172
 20
1219.4763204265089
 30
0.0
 11
3202.7171178472172
 21
1209.4763204265089
 31
0.0
  0
LINE
  5
EDE
  8
0
 62
     1
 10
3202.7171178472172
 20
1205.9763204265089
 30
0.0
 11
3202.7171178472172
 21
1202.7263204265089
 31
0.0
  0
LINE
  5
EDF
  8
0
 62
     1
 10
3204.7171178472158
 20
1239.7263204265089
 30
0.0
 11
3204.7171178472158
 21
1229.7263204265089
 31
0.0
  0
LINE
  5
EE0
  8
0
 62
     1
 10
3204.7171178472158
 20
1226.2263204265089
 30
0.0
 11
3204.7171178472158
 21
1216.2263204265089
 31
0.0
  0
LINE
  5
EE1
  8
0
 62
     1
 10
3204.7171178472158
 20
1212.7263204265089
 30
0.0
 11
3204.7171178472158
 21
1202.7263204265089
 31
0.0
  0
LINE
  5
EE2
  8
0
 62
     1
 10
3206.7171178472172
 20
1232.9763204265089
 30
0.0
 11
3206.7171178472172
 21
1222.9763204265089
 31
0.0
  0
LINE
  5
EE3
  8
0
 62
     1
 10
3206.7171178472172
 20
1239.7263204265089
 30
0.0
 11
3206.7171178472172
 21
1236.4763204265089
 31
0.0
  0
LINE
  5
EE4
  8
0
 62
     1
 10
3206.7171178472172
 20
1219.4763204265089
 30
0.0
 11
3206.7171178472172
 21
1209.4763204265089
 31
0.0
  0
LINE
  5
EE5
  8
0
 62
     1
 10
3206.7171178472172
 20
1205.9763204265089
 30
0.0
 11
3206.7171178472172
 21
1202.7263204265089
 31
0.0
  0
LINE
  5
EE6
  8
0
 62
     1
 10
3208.7171178472158
 20
1239.7263204265089
 30
0.0
 11
3208.7171178472158
 21
1229.7263204265089
 31
0.0
  0
LINE
  5
EE7
  8
0
 62
     1
 10
3208.7171178472158
 20
1226.2263204265089
 30
0.0
 11
3208.7171178472158
 21
1216.2263204265089
 31
0.0
  0
LINE
  5
EE8
  8
0
 62
     1
 10
3208.7171178472158
 20
1212.7263204265089
 30
0.0
 11
3208.7171178472158
 21
1202.7263204265089
 31
0.0
  0
LINE
  5
EE9
  8
0
 62
     1
 10
3210.7171178472172
 20
1232.9763204265089
 30
0.0
 11
3210.7171178472172
 21
1222.9763204265089
 31
0.0
  0
LINE
  5
EEA
  8
0
 62
     1
 10
3210.7171178472172
 20
1239.7263204265089
 30
0.0
 11
3210.7171178472172
 21
1236.4763204265089
 31
0.0
  0
LINE
  5
EEB
  8
0
 62
     1
 10
3210.7171178472172
 20
1219.4763204265089
 30
0.0
 11
3210.7171178472172
 21
1209.4763204265089
 31
0.0
  0
LINE
  5
EEC
  8
0
 62
     1
 10
3210.7171178472172
 20
1205.9763204265089
 30
0.0
 11
3210.7171178472172
 21
1202.7263204265089
 31
0.0
  0
LINE
  5
EED
  8
0
 62
     1
 10
3212.7171178472158
 20
1239.7263204265089
 30
0.0
 11
3212.7171178472158
 21
1229.7263204265089
 31
0.0
  0
LINE
  5
EEE
  8
0
 62
     1
 10
3212.7171178472158
 20
1226.2263204265089
 30
0.0
 11
3212.7171178472158
 21
1216.2263204265089
 31
0.0
  0
LINE
  5
EEF
  8
0
 62
     1
 10
3212.7171178472158
 20
1212.7263204265089
 30
0.0
 11
3212.7171178472158
 21
1202.7263204265089
 31
0.0
  0
LINE
  5
EF0
  8
0
 62
     1
 10
3214.7171178472172
 20
1232.9763204265089
 30
0.0
 11
3214.7171178472172
 21
1222.9763204265089
 31
0.0
  0
LINE
  5
EF1
  8
0
 62
     1
 10
3214.7171178472172
 20
1239.7263204265089
 30
0.0
 11
3214.7171178472172
 21
1236.4763204265089
 31
0.0
  0
LINE
  5
EF2
  8
0
 62
     1
 10
3214.7171178472172
 20
1219.4763204265089
 30
0.0
 11
3214.7171178472172
 21
1209.4763204265089
 31
0.0
  0
LINE
  5
EF3
  8
0
 62
     1
 10
3214.7171178472172
 20
1205.9763204265089
 30
0.0
 11
3214.7171178472172
 21
1202.7263204265089
 31
0.0
  0
LINE
  5
EF4
  8
0
 62
     1
 10
3216.7171178472172
 20
1239.7263204265089
 30
0.0
 11
3216.7171178472172
 21
1229.7263204265089
 31
0.0
  0
LINE
  5
EF5
  8
0
 62
     1
 10
3216.7171178472172
 20
1226.2263204265089
 30
0.0
 11
3216.7171178472172
 21
1216.2263204265089
 31
0.0
  0
LINE
  5
EF6
  8
0
 62
     1
 10
3216.7171178472172
 20
1212.7263204265089
 30
0.0
 11
3216.7171178472172
 21
1202.7263204265089
 31
0.0
  0
LINE
  5
EF7
  8
0
 62
     1
 10
3218.7171178472158
 20
1232.9763204265089
 30
0.0
 11
3218.7171178472158
 21
1222.9763204265089
 31
0.0
  0
LINE
  5
EF8
  8
0
 62
     1
 10
3218.7171178472158
 20
1239.7263204265089
 30
0.0
 11
3218.7171178472158
 21
1236.4763204265089
 31
0.0
  0
LINE
  5
EF9
  8
0
 62
     1
 10
3218.7171178472158
 20
1219.4763204265089
 30
0.0
 11
3218.7171178472158
 21
1209.4763204265089
 31
0.0
  0
LINE
  5
EFA
  8
0
 62
     1
 10
3218.7171178472158
 20
1205.9763204265089
 30
0.0
 11
3218.7171178472158
 21
1202.7263204265089
 31
0.0
  0
LINE
  5
EFB
  8
0
 62
     1
 10
3220.7171178472172
 20
1239.7263204265089
 30
0.0
 11
3220.7171178472172
 21
1229.7263204265089
 31
0.0
  0
LINE
  5
EFC
  8
0
 62
     1
 10
3220.7171178472172
 20
1226.2263204265089
 30
0.0
 11
3220.7171178472172
 21
1216.2263204265089
 31
0.0
  0
LINE
  5
EFD
  8
0
 62
     1
 10
3220.7171178472172
 20
1212.7263204265089
 30
0.0
 11
3220.7171178472172
 21
1202.7263204265089
 31
0.0
  0
LINE
  5
EFE
  8
0
 62
     1
 10
3222.7171178472158
 20
1232.9763204265089
 30
0.0
 11
3222.7171178472158
 21
1222.9763204265089
 31
0.0
  0
LINE
  5
EFF
  8
0
 62
     1
 10
3222.7171178472158
 20
1239.7263204265089
 30
0.0
 11
3222.7171178472158
 21
1236.4763204265089
 31
0.0
  0
LINE
  5
F00
  8
0
 62
     1
 10
3222.7171178472158
 20
1219.4763204265089
 30
0.0
 11
3222.7171178472158
 21
1209.4763204265089
 31
0.0
  0
LINE
  5
F01
  8
0
 62
     1
 10
3222.7171178472158
 20
1205.9763204265089
 30
0.0
 11
3222.7171178472158
 21
1202.7263204265089
 31
0.0
  0
LINE
  5
F02
  8
0
 62
     1
 10
3224.7171178472158
 20
1239.7263204265089
 30
0.0
 11
3224.7171178472158
 21
1229.7263204265089
 31
0.0
  0
LINE
  5
F03
  8
0
 62
     1
 10
3224.7171178472158
 20
1226.2263204265089
 30
0.0
 11
3224.7171178472158
 21
1216.2263204265089
 31
0.0
  0
LINE
  5
F04
  8
0
 62
     1
 10
3224.7171178472158
 20
1212.7263204265089
 30
0.0
 11
3224.7171178472158
 21
1202.7263204265089
 31
0.0
  0
LINE
  5
F05
  8
0
 62
     1
 10
3226.7171178472158
 20
1232.9763204265089
 30
0.0
 11
3226.7171178472158
 21
1222.9763204265089
 31
0.0
  0
LINE
  5
F06
  8
0
 62
     1
 10
3226.7171178472158
 20
1239.7263204265089
 30
0.0
 11
3226.7171178472158
 21
1236.4763204265089
 31
0.0
  0
LINE
  5
F07
  8
0
 62
     1
 10
3226.7171178472158
 20
1219.4763204265089
 30
0.0
 11
3226.7171178472158
 21
1209.4763204265089
 31
0.0
  0
LINE
  5
F08
  8
0
 62
     1
 10
3226.7171178472158
 20
1205.9763204265089
 30
0.0
 11
3226.7171178472158
 21
1202.7263204265089
 31
0.0
  0
LINE
  5
F09
  8
0
 62
     1
 10
3228.7171178472158
 20
1239.7263204265089
 30
0.0
 11
3228.7171178472158
 21
1229.7263204265089
 31
0.0
  0
LINE
  5
F0A
  8
0
 62
     1
 10
3228.7171178472158
 20
1226.2263204265089
 30
0.0
 11
3228.7171178472158
 21
1216.2263204265089
 31
0.0
  0
LINE
  5
F0B
  8
0
 62
     1
 10
3228.7171178472158
 20
1212.7263204265089
 30
0.0
 11
3228.7171178472158
 21
1202.7263204265089
 31
0.0
  0
LINE
  5
F0C
  8
0
 62
     1
 10
3230.7171178472158
 20
1232.9763204265089
 30
0.0
 11
3230.7171178472158
 21
1222.9763204265089
 31
0.0
  0
LINE
  5
F0D
  8
0
 62
     1
 10
3230.7171178472158
 20
1239.7263204265089
 30
0.0
 11
3230.7171178472158
 21
1236.4763204265089
 31
0.0
  0
LINE
  5
F0E
  8
0
 62
     1
 10
3230.7171178472158
 20
1219.4763204265089
 30
0.0
 11
3230.7171178472158
 21
1209.4763204265089
 31
0.0
  0
LINE
  5
F0F
  8
0
 62
     1
 10
3230.7171178472158
 20
1205.9763204265089
 30
0.0
 11
3230.7171178472158
 21
1202.7263204265089
 31
0.0
  0
LINE
  5
F10
  8
0
 62
     1
 10
3232.7171178472158
 20
1239.7263204265089
 30
0.0
 11
3232.7171178472158
 21
1229.7263204265089
 31
0.0
  0
LINE
  5
F11
  8
0
 62
     1
 10
3232.7171178472158
 20
1226.2263204265089
 30
0.0
 11
3232.7171178472158
 21
1216.2263204265089
 31
0.0
  0
LINE
  5
F12
  8
0
 62
     1
 10
3232.7171178472158
 20
1212.7263204265089
 30
0.0
 11
3232.7171178472158
 21
1202.7263204265089
 31
0.0
  0
LINE
  5
F13
  8
0
 62
     1
 10
3234.7171178472172
 20
1232.9763204265089
 30
0.0
 11
3234.7171178472172
 21
1222.9763204265089
 31
0.0
  0
LINE
  5
F14
  8
0
 62
     1
 10
3234.7171178472172
 20
1239.7263204265089
 30
0.0
 11
3234.7171178472172
 21
1236.4763204265089
 31
0.0
  0
LINE
  5
F15
  8
0
 62
     1
 10
3234.7171178472172
 20
1219.4763204265089
 30
0.0
 11
3234.7171178472172
 21
1209.4763204265089
 31
0.0
  0
LINE
  5
F16
  8
0
 62
     1
 10
3234.7171178472172
 20
1205.9763204265089
 30
0.0
 11
3234.7171178472172
 21
1202.7263204265089
 31
0.0
  0
LINE
  5
F17
  8
0
 62
     1
 10
3236.7171178472158
 20
1239.7263204265089
 30
0.0
 11
3236.7171178472158
 21
1229.7263204265089
 31
0.0
  0
LINE
  5
F18
  8
0
 62
     1
 10
3236.7171178472158
 20
1226.2263204265089
 30
0.0
 11
3236.7171178472158
 21
1216.2263204265089
 31
0.0
  0
LINE
  5
F19
  8
0
 62
     1
 10
3236.7171178472158
 20
1212.7263204265089
 30
0.0
 11
3236.7171178472158
 21
1202.7263204265089
 31
0.0
  0
LINE
  5
F1A
  8
0
 62
     1
 10
3238.7171178472172
 20
1232.9763204265089
 30
0.0
 11
3238.7171178472172
 21
1222.9763204265089
 31
0.0
  0
LINE
  5
F1B
  8
0
 62
     1
 10
3238.7171178472172
 20
1239.7263204265089
 30
0.0
 11
3238.7171178472172
 21
1236.4763204265089
 31
0.0
  0
LINE
  5
F1C
  8
0
 62
     1
 10
3238.7171178472172
 20
1219.4763204265089
 30
0.0
 11
3238.7171178472172
 21
1209.4763204265089
 31
0.0
  0
LINE
  5
F1D
  8
0
 62
     1
 10
3238.7171178472172
 20
1205.9763204265089
 30
0.0
 11
3238.7171178472172
 21
1202.7263204265089
 31
0.0
  0
LINE
  5
F1E
  8
0
 62
     1
 10
3240.7171178472158
 20
1239.7263204265089
 30
0.0
 11
3240.7171178472158
 21
1229.7263204265089
 31
0.0
  0
LINE
  5
F1F
  8
0
 62
     1
 10
3240.7171178472158
 20
1226.2263204265089
 30
0.0
 11
3240.7171178472158
 21
1216.2263204265089
 31
0.0
  0
LINE
  5
F20
  8
0
 62
     1
 10
3240.7171178472158
 20
1212.7263204265089
 30
0.0
 11
3240.7171178472158
 21
1202.7263204265089
 31
0.0
  0
LINE
  5
F21
  8
0
 62
     1
 10
3242.7171178472172
 20
1232.9763204265089
 30
0.0
 11
3242.7171178472172
 21
1222.9763204265089
 31
0.0
  0
LINE
  5
F22
  8
0
 62
     1
 10
3242.7171178472172
 20
1239.7263204265089
 30
0.0
 11
3242.7171178472172
 21
1236.4763204265089
 31
0.0
  0
LINE
  5
F23
  8
0
 62
     1
 10
3242.7171178472172
 20
1219.4763204265089
 30
0.0
 11
3242.7171178472172
 21
1209.4763204265089
 31
0.0
  0
LINE
  5
F24
  8
0
 62
     1
 10
3242.7171178472172
 20
1205.9763204265089
 30
0.0
 11
3242.7171178472172
 21
1202.7263204265089
 31
0.0
  0
LINE
  5
F25
  8
0
 62
     1
 10
3244.7171178472158
 20
1239.7263204265089
 30
0.0
 11
3244.7171178472158
 21
1229.7263204265089
 31
0.0
  0
LINE
  5
F26
  8
0
 62
     1
 10
3244.7171178472158
 20
1226.2263204265089
 30
0.0
 11
3244.7171178472158
 21
1216.2263204265089
 31
0.0
  0
LINE
  5
F27
  8
0
 62
     1
 10
3244.7171178472158
 20
1212.7263204265089
 30
0.0
 11
3244.7171178472158
 21
1202.7263204265089
 31
0.0
  0
LINE
  5
F28
  8
0
 62
     1
 10
3246.7171178472172
 20
1232.9763204265089
 30
0.0
 11
3246.7171178472172
 21
1222.9763204265089
 31
0.0
  0
LINE
  5
F29
  8
0
 62
     1
 10
3246.7171178472172
 20
1239.7263204265089
 30
0.0
 11
3246.7171178472172
 21
1236.4763204265089
 31
0.0
  0
LINE
  5
F2A
  8
0
 62
     1
 10
3246.7171178472172
 20
1219.4763204265089
 30
0.0
 11
3246.7171178472172
 21
1209.4763204265089
 31
0.0
  0
LINE
  5
F2B
  8
0
 62
     1
 10
3246.7171178472172
 20
1205.9763204265089
 30
0.0
 11
3246.7171178472172
 21
1202.7263204265089
 31
0.0
  0
LINE
  5
F2C
  8
0
 62
     1
 10
3248.7171178472172
 20
1239.7263204265089
 30
0.0
 11
3248.7171178472172
 21
1229.7263204265089
 31
0.0
  0
LINE
  5
F2D
  8
0
 62
     1
 10
3248.7171178472172
 20
1226.2263204265089
 30
0.0
 11
3248.7171178472172
 21
1216.2263204265089
 31
0.0
  0
LINE
  5
F2E
  8
0
 62
     1
 10
3248.7171178472172
 20
1212.7263204265089
 30
0.0
 11
3248.7171178472172
 21
1202.7263204265089
 31
0.0
  0
LINE
  5
F2F
  8
0
 62
     1
 10
3250.7171178472158
 20
1232.9763204265089
 30
0.0
 11
3250.7171178472158
 21
1222.9763204265089
 31
0.0
  0
LINE
  5
F30
  8
0
 62
     1
 10
3250.7171178472158
 20
1239.7263204265089
 30
0.0
 11
3250.7171178472158
 21
1236.4763204265089
 31
0.0
  0
LINE
  5
F31
  8
0
 62
     1
 10
3250.7171178472158
 20
1219.4763204265089
 30
0.0
 11
3250.7171178472158
 21
1209.4763204265089
 31
0.0
  0
LINE
  5
F32
  8
0
 62
     1
 10
3250.7171178472158
 20
1205.9763204265089
 30
0.0
 11
3250.7171178472158
 21
1202.7263204265089
 31
0.0
  0
LINE
  5
F33
  8
0
 62
     1
 10
3252.7171178472172
 20
1239.7263204265089
 30
0.0
 11
3252.7171178472172
 21
1229.7263204265089
 31
0.0
  0
LINE
  5
F34
  8
0
 62
     1
 10
3252.7171178472172
 20
1226.2263204265089
 30
0.0
 11
3252.7171178472172
 21
1216.2263204265089
 31
0.0
  0
LINE
  5
F35
  8
0
 62
     1
 10
3252.7171178472172
 20
1212.7263204265089
 30
0.0
 11
3252.7171178472172
 21
1202.7263204265089
 31
0.0
  0
LINE
  5
F36
  8
0
 62
     1
 10
3254.7171178472158
 20
1232.9763204265089
 30
0.0
 11
3254.7171178472158
 21
1222.9763204265089
 31
0.0
  0
LINE
  5
F37
  8
0
 62
     1
 10
3254.7171178472158
 20
1239.7263204265089
 30
0.0
 11
3254.7171178472158
 21
1236.4763204265089
 31
0.0
  0
LINE
  5
F38
  8
0
 62
     1
 10
3254.7171178472158
 20
1219.4763204265089
 30
0.0
 11
3254.7171178472158
 21
1209.4763204265089
 31
0.0
  0
LINE
  5
F39
  8
0
 62
     1
 10
3254.7171178472158
 20
1205.9763204265089
 30
0.0
 11
3254.7171178472158
 21
1202.7263204265089
 31
0.0
  0
LINE
  5
F3A
  8
0
 62
     1
 10
3256.7171178472158
 20
1239.7263204265089
 30
0.0
 11
3256.7171178472158
 21
1229.7263204265089
 31
0.0
  0
LINE
  5
F3B
  8
0
 62
     1
 10
3256.7171178472158
 20
1226.2263204265089
 30
0.0
 11
3256.7171178472158
 21
1216.2263204265089
 31
0.0
  0
LINE
  5
F3C
  8
0
 62
     1
 10
3256.7171178472158
 20
1212.7263204265089
 30
0.0
 11
3256.7171178472158
 21
1202.7263204265089
 31
0.0
  0
LINE
  5
F3D
  8
0
 62
     1
 10
3258.7171178472158
 20
1232.9763204265089
 30
0.0
 11
3258.7171178472158
 21
1222.9763204265089
 31
0.0
  0
LINE
  5
F3E
  8
0
 62
     1
 10
3258.7171178472158
 20
1239.7263204265089
 30
0.0
 11
3258.7171178472158
 21
1236.4763204265089
 31
0.0
  0
LINE
  5
F3F
  8
0
 62
     1
 10
3258.7171178472158
 20
1219.4763204265089
 30
0.0
 11
3258.7171178472158
 21
1209.4763204265089
 31
0.0
  0
LINE
  5
F40
  8
0
 62
     1
 10
3258.7171178472158
 20
1205.9763204265089
 30
0.0
 11
3258.7171178472158
 21
1202.7263204265089
 31
0.0
  0
LINE
  5
F41
  8
0
 62
     1
 10
3260.7171178472158
 20
1239.7263204265089
 30
0.0
 11
3260.7171178472158
 21
1229.7263204265089
 31
0.0
  0
LINE
  5
F42
  8
0
 62
     1
 10
3260.7171178472158
 20
1226.2263204265089
 30
0.0
 11
3260.7171178472158
 21
1216.2263204265089
 31
0.0
  0
LINE
  5
F43
  8
0
 62
     1
 10
3260.7171178472158
 20
1212.7263204265089
 30
0.0
 11
3260.7171178472158
 21
1202.7263204265089
 31
0.0
  0
LINE
  5
F44
  8
0
 62
     1
 10
3262.7171178472158
 20
1232.9763204265089
 30
0.0
 11
3262.7171178472158
 21
1222.9763204265089
 31
0.0
  0
LINE
  5
F45
  8
0
 62
     1
 10
3262.7171178472158
 20
1239.7263204265089
 30
0.0
 11
3262.7171178472158
 21
1236.4763204265089
 31
0.0
  0
LINE
  5
F46
  8
0
 62
     1
 10
3262.7171178472158
 20
1219.4763204265089
 30
0.0
 11
3262.7171178472158
 21
1209.4763204265089
 31
0.0
  0
LINE
  5
F47
  8
0
 62
     1
 10
3262.7171178472158
 20
1205.9763204265089
 30
0.0
 11
3262.7171178472158
 21
1202.7263204265089
 31
0.0
  0
LINE
  5
F48
  8
0
 62
     1
 10
3264.7171178472158
 20
1239.7263204265089
 30
0.0
 11
3264.7171178472158
 21
1229.7263204265089
 31
0.0
  0
LINE
  5
F49
  8
0
 62
     1
 10
3264.7171178472158
 20
1226.2263204265089
 30
0.0
 11
3264.7171178472158
 21
1216.2263204265089
 31
0.0
  0
LINE
  5
F4A
  8
0
 62
     1
 10
3264.7171178472158
 20
1212.7263204265089
 30
0.0
 11
3264.7171178472158
 21
1202.7263204265089
 31
0.0
  0
LINE
  5
F4B
  8
0
 62
     1
 10
3266.7171178472172
 20
1232.9763204265089
 30
0.0
 11
3266.7171178472172
 21
1222.9763204265089
 31
0.0
  0
LINE
  5
F4C
  8
0
 62
     1
 10
3266.7171178472172
 20
1239.7263204265089
 30
0.0
 11
3266.7171178472172
 21
1236.4763204265089
 31
0.0
  0
LINE
  5
F4D
  8
0
 62
     1
 10
3266.7171178472172
 20
1219.4763204265089
 30
0.0
 11
3266.7171178472172
 21
1209.4763204265089
 31
0.0
  0
LINE
  5
F4E
  8
0
 62
     1
 10
3266.7171178472172
 20
1205.9763204265089
 30
0.0
 11
3266.7171178472172
 21
1202.7263204265089
 31
0.0
  0
LINE
  5
F4F
  8
0
 62
     1
 10
3268.7171178472158
 20
1239.7263204265089
 30
0.0
 11
3268.7171178472158
 21
1229.7263204265089
 31
0.0
  0
LINE
  5
F50
  8
0
 62
     1
 10
3268.7171178472158
 20
1226.2263204265089
 30
0.0
 11
3268.7171178472158
 21
1216.2263204265089
 31
0.0
  0
LINE
  5
F51
  8
0
 62
     1
 10
3268.7171178472158
 20
1212.7263204265089
 30
0.0
 11
3268.7171178472158
 21
1202.7263204265089
 31
0.0
  0
LINE
  5
F52
  8
0
 62
     1
 10
3270.7171178472172
 20
1232.9763204265089
 30
0.0
 11
3270.7171178472172
 21
1222.9763204265089
 31
0.0
  0
LINE
  5
F53
  8
0
 62
     1
 10
3270.7171178472172
 20
1239.7263204265089
 30
0.0
 11
3270.7171178472172
 21
1236.4763204265089
 31
0.0
  0
LINE
  5
F54
  8
0
 62
     1
 10
3270.7171178472172
 20
1219.4763204265089
 30
0.0
 11
3270.7171178472172
 21
1209.4763204265089
 31
0.0
  0
LINE
  5
F55
  8
0
 62
     1
 10
3270.7171178472172
 20
1205.9763204265089
 30
0.0
 11
3270.7171178472172
 21
1202.7263204265089
 31
0.0
  0
LINE
  5
F56
  8
0
 62
     1
 10
3272.7171178472158
 20
1239.7263204265089
 30
0.0
 11
3272.7171178472158
 21
1229.7263204265089
 31
0.0
  0
LINE
  5
F57
  8
0
 62
     1
 10
3272.7171178472158
 20
1226.2263204265089
 30
0.0
 11
3272.7171178472158
 21
1216.2263204265089
 31
0.0
  0
LINE
  5
F58
  8
0
 62
     1
 10
3272.7171178472158
 20
1212.7263204265089
 30
0.0
 11
3272.7171178472158
 21
1202.7263204265089
 31
0.0
  0
LINE
  5
F59
  8
0
 62
     1
 10
3274.7171178472172
 20
1232.9763204265089
 30
0.0
 11
3274.7171178472172
 21
1222.9763204265089
 31
0.0
  0
LINE
  5
F5A
  8
0
 62
     1
 10
3274.7171178472172
 20
1239.7263204265089
 30
0.0
 11
3274.7171178472172
 21
1236.4763204265089
 31
0.0
  0
LINE
  5
F5B
  8
0
 62
     1
 10
3274.7171178472172
 20
1219.4763204265089
 30
0.0
 11
3274.7171178472172
 21
1209.4763204265089
 31
0.0
  0
LINE
  5
F5C
  8
0
 62
     1
 10
3274.7171178472172
 20
1205.9763204265089
 30
0.0
 11
3274.7171178472172
 21
1202.7263204265089
 31
0.0
  0
LINE
  5
F5D
  8
0
 62
     1
 10
3276.7171178472158
 20
1239.7263204265089
 30
0.0
 11
3276.7171178472158
 21
1229.7263204265089
 31
0.0
  0
LINE
  5
F5E
  8
0
 62
     1
 10
3276.7171178472158
 20
1226.2263204265089
 30
0.0
 11
3276.7171178472158
 21
1216.2263204265089
 31
0.0
  0
LINE
  5
F5F
  8
0
 62
     1
 10
3276.7171178472158
 20
1212.7263204265089
 30
0.0
 11
3276.7171178472158
 21
1202.7263204265089
 31
0.0
  0
LINE
  5
F60
  8
0
 62
     1
 10
3278.7171178472172
 20
1232.9763204265089
 30
0.0
 11
3278.7171178472172
 21
1222.9763204265089
 31
0.0
  0
LINE
  5
F61
  8
0
 62
     1
 10
3278.7171178472172
 20
1239.7263204265089
 30
0.0
 11
3278.7171178472172
 21
1236.4763204265089
 31
0.0
  0
LINE
  5
F62
  8
0
 62
     1
 10
3278.7171178472172
 20
1219.4763204265089
 30
0.0
 11
3278.7171178472172
 21
1209.4763204265089
 31
0.0
  0
LINE
  5
F63
  8
0
 62
     1
 10
3278.7171178472172
 20
1205.9763204265089
 30
0.0
 11
3278.7171178472172
 21
1202.7263204265089
 31
0.0
  0
LINE
  5
F64
  8
0
 62
     1
 10
3280.7171178472158
 20
1239.7263204265089
 30
0.0
 11
3280.7171178472158
 21
1229.7263204265089
 31
0.0
  0
LINE
  5
F65
  8
0
 62
     1
 10
3280.7171178472158
 20
1226.2263204265089
 30
0.0
 11
3280.7171178472158
 21
1216.2263204265089
 31
0.0
  0
LINE
  5
F66
  8
0
 62
     1
 10
3280.7171178472158
 20
1212.7263204265089
 30
0.0
 11
3280.7171178472158
 21
1202.7263204265089
 31
0.0
  0
LINE
  5
F67
  8
0
 62
     1
 10
3282.7171178472158
 20
1232.9763204265089
 30
0.0
 11
3282.7171178472158
 21
1222.9763204265089
 31
0.0
  0
LINE
  5
F68
  8
0
 62
     1
 10
3282.7171178472158
 20
1239.7263204265089
 30
0.0
 11
3282.7171178472158
 21
1236.4763204265089
 31
0.0
  0
LINE
  5
F69
  8
0
 62
     1
 10
3282.7171178472158
 20
1219.4763204265089
 30
0.0
 11
3282.7171178472158
 21
1209.4763204265089
 31
0.0
  0
LINE
  5
F6A
  8
0
 62
     1
 10
3282.7171178472158
 20
1205.9763204265089
 30
0.0
 11
3282.7171178472158
 21
1202.7263204265089
 31
0.0
  0
LINE
  5
F6B
  8
0
 62
     1
 10
3284.7171178472172
 20
1239.7263204265089
 30
0.0
 11
3284.7171178472172
 21
1229.7263204265089
 31
0.0
  0
LINE
  5
F6C
  8
0
 62
     1
 10
3284.7171178472172
 20
1226.2263204265089
 30
0.0
 11
3284.7171178472172
 21
1216.2263204265089
 31
0.0
  0
LINE
  5
F6D
  8
0
 62
     1
 10
3284.7171178472172
 20
1212.7263204265089
 30
0.0
 11
3284.7171178472172
 21
1202.7263204265089
 31
0.0
  0
LINE
  5
F6E
  8
0
 62
     1
 10
3286.7171178472158
 20
1232.9763204265089
 30
0.0
 11
3286.7171178472158
 21
1222.9763204265089
 31
0.0
  0
LINE
  5
F6F
  8
0
 62
     1
 10
3286.7171178472158
 20
1239.7263204265089
 30
0.0
 11
3286.7171178472158
 21
1236.4763204265089
 31
0.0
  0
LINE
  5
F70
  8
0
 62
     1
 10
3286.7171178472158
 20
1219.4763204265089
 30
0.0
 11
3286.7171178472158
 21
1209.4763204265089
 31
0.0
  0
LINE
  5
F71
  8
0
 62
     1
 10
3286.7171178472158
 20
1205.9763204265089
 30
0.0
 11
3286.7171178472158
 21
1202.7263204265089
 31
0.0
  0
LINE
  5
F72
  8
0
 62
     1
 10
3288.7171178472158
 20
1239.7263204265089
 30
0.0
 11
3288.7171178472158
 21
1229.7263204265089
 31
0.0
  0
LINE
  5
F73
  8
0
 62
     1
 10
3288.7171178472158
 20
1226.2263204265089
 30
0.0
 11
3288.7171178472158
 21
1216.2263204265089
 31
0.0
  0
LINE
  5
F74
  8
0
 62
     1
 10
3288.7171178472158
 20
1212.7263204265089
 30
0.0
 11
3288.7171178472158
 21
1202.7263204265089
 31
0.0
  0
LINE
  5
F75
  8
0
 62
     1
 10
3290.7171178472158
 20
1232.9763204265089
 30
0.0
 11
3290.7171178472158
 21
1222.9763204265089
 31
0.0
  0
LINE
  5
F76
  8
0
 62
     1
 10
3290.7171178472158
 20
1239.7263204265089
 30
0.0
 11
3290.7171178472158
 21
1236.4763204265089
 31
0.0
  0
LINE
  5
F77
  8
0
 62
     1
 10
3290.7171178472158
 20
1219.4763204265089
 30
0.0
 11
3290.7171178472158
 21
1209.4763204265089
 31
0.0
  0
LINE
  5
F78
  8
0
 62
     1
 10
3290.7171178472158
 20
1205.9763204265089
 30
0.0
 11
3290.7171178472158
 21
1202.7263204265089
 31
0.0
  0
LINE
  5
F79
  8
0
 62
     1
 10
3292.7171178472158
 20
1239.7263204265089
 30
0.0
 11
3292.7171178472158
 21
1229.7263204265089
 31
0.0
  0
LINE
  5
F7A
  8
0
 62
     1
 10
3292.7171178472158
 20
1226.2263204265089
 30
0.0
 11
3292.7171178472158
 21
1216.2263204265089
 31
0.0
  0
LINE
  5
F7B
  8
0
 62
     1
 10
3292.7171178472158
 20
1212.7263204265089
 30
0.0
 11
3292.7171178472158
 21
1202.7263204265089
 31
0.0
  0
LINE
  5
F7C
  8
0
 62
     1
 10
3294.7171178472158
 20
1232.9763204265089
 30
0.0
 11
3294.7171178472158
 21
1222.9763204265089
 31
0.0
  0
LINE
  5
F7D
  8
0
 62
     1
 10
3294.7171178472158
 20
1239.7263204265089
 30
0.0
 11
3294.7171178472158
 21
1236.4763204265089
 31
0.0
  0
LINE
  5
F7E
  8
0
 62
     1
 10
3294.7171178472158
 20
1219.4763204265089
 30
0.0
 11
3294.7171178472158
 21
1209.4763204265089
 31
0.0
  0
LINE
  5
F7F
  8
0
 62
     1
 10
3294.7171178472158
 20
1205.9763204265089
 30
0.0
 11
3294.7171178472158
 21
1202.7263204265089
 31
0.0
  0
LINE
  5
F80
  8
0
 62
     1
 10
3296.7171178472158
 20
1239.7263204265089
 30
0.0
 11
3296.7171178472158
 21
1229.7263204265089
 31
0.0
  0
LINE
  5
F81
  8
0
 62
     1
 10
3296.7171178472158
 20
1226.2263204265089
 30
0.0
 11
3296.7171178472158
 21
1216.2263204265089
 31
0.0
  0
LINE
  5
F82
  8
0
 62
     1
 10
3296.7171178472158
 20
1212.7263204265089
 30
0.0
 11
3296.7171178472158
 21
1202.7263204265089
 31
0.0
  0
LINE
  5
F83
  8
0
 62
     1
 10
3298.7171178472172
 20
1232.9763204265089
 30
0.0
 11
3298.7171178472172
 21
1222.9763204265089
 31
0.0
  0
LINE
  5
F84
  8
0
 62
     1
 10
3298.7171178472172
 20
1239.7263204265089
 30
0.0
 11
3298.7171178472172
 21
1236.4763204265089
 31
0.0
  0
LINE
  5
F85
  8
0
 62
     1
 10
3298.7171178472172
 20
1219.4763204265089
 30
0.0
 11
3298.7171178472172
 21
1209.4763204265089
 31
0.0
  0
LINE
  5
F86
  8
0
 62
     1
 10
3298.7171178472172
 20
1205.9763204265089
 30
0.0
 11
3298.7171178472172
 21
1202.7263204265089
 31
0.0
  0
LINE
  5
F87
  8
0
 62
     1
 10
3300.7171178472158
 20
1239.7263204265089
 30
0.0
 11
3300.7171178472158
 21
1229.7263204265089
 31
0.0
  0
LINE
  5
F88
  8
0
 62
     1
 10
3300.7171178472158
 20
1226.2263204265089
 30
0.0
 11
3300.7171178472158
 21
1216.2263204265089
 31
0.0
  0
LINE
  5
F89
  8
0
 62
     1
 10
3300.7171178472158
 20
1212.7263204265089
 30
0.0
 11
3300.7171178472158
 21
1202.7263204265089
 31
0.0
  0
LINE
  5
F8A
  8
0
 62
     1
 10
3302.7171178472172
 20
1232.9763204265089
 30
0.0
 11
3302.7171178472172
 21
1222.9763204265089
 31
0.0
  0
LINE
  5
F8B
  8
0
 62
     1
 10
3302.7171178472172
 20
1239.7263204265089
 30
0.0
 11
3302.7171178472172
 21
1236.4763204265089
 31
0.0
  0
LINE
  5
F8C
  8
0
 62
     1
 10
3302.7171178472172
 20
1219.4763204265089
 30
0.0
 11
3302.7171178472172
 21
1209.4763204265089
 31
0.0
  0
LINE
  5
F8D
  8
0
 62
     1
 10
3302.7171178472172
 20
1205.9763204265089
 30
0.0
 11
3302.7171178472172
 21
1202.7263204265089
 31
0.0
  0
LINE
  5
F8E
  8
0
 62
     1
 10
3304.7171178472172
 20
1239.7263204265089
 30
0.0
 11
3304.7171178472172
 21
1229.7263204265089
 31
0.0
  0
LINE
  5
F8F
  8
0
 62
     1
 10
3304.7171178472172
 20
1226.2263204265089
 30
0.0
 11
3304.7171178472172
 21
1216.2263204265089
 31
0.0
  0
LINE
  5
F90
  8
0
 62
     1
 10
3304.7171178472172
 20
1212.7263204265089
 30
0.0
 11
3304.7171178472172
 21
1202.7263204265089
 31
0.0
  0
LINE
  5
F91
  8
0
 62
     1
 10
3306.7171178472172
 20
1232.9763204265089
 30
0.0
 11
3306.7171178472172
 21
1222.9763204265089
 31
0.0
  0
LINE
  5
F92
  8
0
 62
     1
 10
3306.7171178472172
 20
1239.7263204265089
 30
0.0
 11
3306.7171178472172
 21
1236.4763204265089
 31
0.0
  0
LINE
  5
F93
  8
0
 62
     1
 10
3306.7171178472172
 20
1219.4763204265089
 30
0.0
 11
3306.7171178472172
 21
1209.4763204265089
 31
0.0
  0
LINE
  5
F94
  8
0
 62
     1
 10
3306.7171178472172
 20
1205.9763204265089
 30
0.0
 11
3306.7171178472172
 21
1202.7263204265089
 31
0.0
  0
LINE
  5
F95
  8
0
 62
     1
 10
3308.7171178472158
 20
1239.7263204265089
 30
0.0
 11
3308.7171178472158
 21
1229.7263204265089
 31
0.0
  0
LINE
  5
F96
  8
0
 62
     1
 10
3308.7171178472158
 20
1226.2263204265089
 30
0.0
 11
3308.7171178472158
 21
1216.2263204265089
 31
0.0
  0
LINE
  5
F97
  8
0
 62
     1
 10
3308.7171178472158
 20
1212.7263204265089
 30
0.0
 11
3308.7171178472158
 21
1202.7263204265089
 31
0.0
  0
LINE
  5
F98
  8
0
 62
     1
 10
3310.7171178472172
 20
1232.9763204265089
 30
0.0
 11
3310.7171178472172
 21
1222.9763204265089
 31
0.0
  0
LINE
  5
F99
  8
0
 62
     1
 10
3310.7171178472172
 20
1239.7263204265089
 30
0.0
 11
3310.7171178472172
 21
1236.4763204265089
 31
0.0
  0
LINE
  5
F9A
  8
0
 62
     1
 10
3310.7171178472172
 20
1219.4763204265089
 30
0.0
 11
3310.7171178472172
 21
1209.4763204265089
 31
0.0
  0
LINE
  5
F9B
  8
0
 62
     1
 10
3310.7171178472172
 20
1205.9763204265089
 30
0.0
 11
3310.7171178472172
 21
1202.7263204265089
 31
0.0
  0
LINE
  5
F9C
  8
0
 62
     1
 10
3312.7171178472158
 20
1239.7263204265089
 30
0.0
 11
3312.7171178472158
 21
1229.7263204265089
 31
0.0
  0
LINE
  5
F9D
  8
0
 62
     1
 10
3312.7171178472158
 20
1226.2263204265089
 30
0.0
 11
3312.7171178472158
 21
1216.2263204265089
 31
0.0
  0
LINE
  5
F9E
  8
0
 62
     1
 10
3312.7171178472158
 20
1212.7263204265089
 30
0.0
 11
3312.7171178472158
 21
1202.7263204265089
 31
0.0
  0
LINE
  5
F9F
  8
0
 62
     1
 10
3314.7171178472158
 20
1232.9763204265089
 30
0.0
 11
3314.7171178472158
 21
1222.9763204265089
 31
0.0
  0
LINE
  5
FA0
  8
0
 62
     1
 10
3314.7171178472158
 20
1239.7263204265089
 30
0.0
 11
3314.7171178472158
 21
1236.4763204265089
 31
0.0
  0
LINE
  5
FA1
  8
0
 62
     1
 10
3314.7171178472158
 20
1219.4763204265089
 30
0.0
 11
3314.7171178472158
 21
1209.4763204265089
 31
0.0
  0
LINE
  5
FA2
  8
0
 62
     1
 10
3314.7171178472158
 20
1205.9763204265089
 30
0.0
 11
3314.7171178472158
 21
1202.7263204265089
 31
0.0
  0
LINE
  5
FA3
  8
0
 62
     1
 10
2966.7171178472172
 20
1245.5221341691411
 30
0.0
 11
3314.7171178472158
 21
1245.5221341691411
 31
0.0
  0
LINE
  5
FA4
  8
0
 62
     1
 10
2966.7171178472172
 20
1245.5221341691411
 30
0.0
 11
2966.7171178472172
 21
1282.5221341691411
 31
0.0
  0
LINE
  5
FA5
  8
0
 62
     1
 10
2966.7171178472172
 20
1282.5221341691411
 30
0.0
 11
3312.7171178472158
 21
1282.5221341691411
 31
0.0
  0
LINE
  5
FA6
  8
0
 62
     1
 10
2968.7171178472158
 20
1282.5221341691411
 30
0.0
 11
2968.7171178472158
 21
1272.5221341691411
 31
0.0
  0
LINE
  5
FA7
  8
0
 62
     1
 10
2968.7171178472158
 20
1269.0221341691411
 30
0.0
 11
2968.7171178472158
 21
1259.0221341691411
 31
0.0
  0
LINE
  5
FA8
  8
0
 62
     1
 10
2968.7171178472158
 20
1255.5221341691411
 30
0.0
 11
2968.7171178472158
 21
1245.5221341691411
 31
0.0
  0
LINE
  5
FA9
  8
0
 62
     1
 10
2970.7171178472158
 20
1275.7721341691411
 30
0.0
 11
2970.7171178472158
 21
1265.7721341691411
 31
0.0
  0
LINE
  5
FAA
  8
0
 62
     1
 10
2970.7171178472158
 20
1282.5221341691411
 30
0.0
 11
2970.7171178472158
 21
1279.2721341691411
 31
0.0
  0
LINE
  5
FAB
  8
0
 62
     1
 10
2970.7171178472158
 20
1262.2721341691411
 30
0.0
 11
2970.7171178472158
 21
1252.2721341691411
 31
0.0
  0
LINE
  5
FAC
  8
0
 62
     1
 10
2970.7171178472158
 20
1248.7721341691411
 30
0.0
 11
2970.7171178472158
 21
1245.5221341691411
 31
0.0
  0
LINE
  5
FAD
  8
0
 62
     1
 10
2972.7171178472158
 20
1282.5221341691411
 30
0.0
 11
2972.7171178472158
 21
1272.5221341691411
 31
0.0
  0
LINE
  5
FAE
  8
0
 62
     1
 10
2972.7171178472158
 20
1269.0221341691411
 30
0.0
 11
2972.7171178472158
 21
1259.0221341691411
 31
0.0
  0
LINE
  5
FAF
  8
0
 62
     1
 10
2972.7171178472158
 20
1255.5221341691411
 30
0.0
 11
2972.7171178472158
 21
1245.5221341691411
 31
0.0
  0
LINE
  5
FB0
  8
0
 62
     1
 10
2974.7171178472158
 20
1275.7721341691411
 30
0.0
 11
2974.7171178472158
 21
1265.7721341691411
 31
0.0
  0
LINE
  5
FB1
  8
0
 62
     1
 10
2974.7171178472158
 20
1282.5221341691411
 30
0.0
 11
2974.7171178472158
 21
1279.2721341691411
 31
0.0
  0
LINE
  5
FB2
  8
0
 62
     1
 10
2974.7171178472158
 20
1262.2721341691411
 30
0.0
 11
2974.7171178472158
 21
1252.2721341691411
 31
0.0
  0
LINE
  5
FB3
  8
0
 62
     1
 10
2974.7171178472158
 20
1248.7721341691411
 30
0.0
 11
2974.7171178472158
 21
1245.5221341691411
 31
0.0
  0
LINE
  5
FB4
  8
0
 62
     1
 10
2976.7171178472172
 20
1282.5221341691411
 30
0.0
 11
2976.7171178472172
 21
1272.5221341691411
 31
0.0
  0
LINE
  5
FB5
  8
0
 62
     1
 10
2976.7171178472172
 20
1269.0221341691411
 30
0.0
 11
2976.7171178472172
 21
1259.0221341691411
 31
0.0
  0
LINE
  5
FB6
  8
0
 62
     1
 10
2976.7171178472172
 20
1255.5221341691411
 30
0.0
 11
2976.7171178472172
 21
1245.5221341691411
 31
0.0
  0
LINE
  5
FB7
  8
0
 62
     1
 10
2978.7171178472158
 20
1275.7721341691411
 30
0.0
 11
2978.7171178472158
 21
1265.7721341691411
 31
0.0
  0
LINE
  5
FB8
  8
0
 62
     1
 10
2978.7171178472158
 20
1282.5221341691411
 30
0.0
 11
2978.7171178472158
 21
1279.2721341691411
 31
0.0
  0
LINE
  5
FB9
  8
0
 62
     1
 10
2978.7171178472158
 20
1262.2721341691411
 30
0.0
 11
2978.7171178472158
 21
1252.2721341691411
 31
0.0
  0
LINE
  5
FBA
  8
0
 62
     1
 10
2978.7171178472158
 20
1248.7721341691411
 30
0.0
 11
2978.7171178472158
 21
1245.5221341691411
 31
0.0
  0
LINE
  5
FBB
  8
0
 62
     1
 10
2980.7171178472172
 20
1282.5221341691411
 30
0.0
 11
2980.7171178472172
 21
1272.5221341691411
 31
0.0
  0
LINE
  5
FBC
  8
0
 62
     1
 10
2980.7171178472172
 20
1269.0221341691411
 30
0.0
 11
2980.7171178472172
 21
1259.0221341691411
 31
0.0
  0
LINE
  5
FBD
  8
0
 62
     1
 10
2980.7171178472172
 20
1255.5221341691411
 30
0.0
 11
2980.7171178472172
 21
1245.5221341691411
 31
0.0
  0
LINE
  5
FBE
  8
0
 62
     1
 10
2982.7171178472172
 20
1275.7721341691411
 30
0.0
 11
2982.7171178472172
 21
1265.7721341691411
 31
0.0
  0
LINE
  5
FBF
  8
0
 62
     1
 10
2982.7171178472172
 20
1282.5221341691411
 30
0.0
 11
2982.7171178472172
 21
1279.2721341691411
 31
0.0
  0
LINE
  5
FC0
  8
0
 62
     1
 10
2982.7171178472172
 20
1262.2721341691411
 30
0.0
 11
2982.7171178472172
 21
1252.2721341691411
 31
0.0
  0
LINE
  5
FC1
  8
0
 62
     1
 10
2982.7171178472172
 20
1248.7721341691411
 30
0.0
 11
2982.7171178472172
 21
1245.5221341691411
 31
0.0
  0
LINE
  5
FC2
  8
0
 62
     1
 10
2984.7171178472158
 20
1282.5221341691411
 30
0.0
 11
2984.7171178472158
 21
1272.5221341691411
 31
0.0
  0
LINE
  5
FC3
  8
0
 62
     1
 10
2984.7171178472158
 20
1269.0221341691411
 30
0.0
 11
2984.7171178472158
 21
1259.0221341691411
 31
0.0
  0
LINE
  5
FC4
  8
0
 62
     1
 10
2984.7171178472158
 20
1255.5221341691411
 30
0.0
 11
2984.7171178472158
 21
1245.5221341691411
 31
0.0
  0
LINE
  5
FC5
  8
0
 62
     1
 10
2986.7171178472158
 20
1275.7721341691411
 30
0.0
 11
2986.7171178472158
 21
1265.7721341691411
 31
0.0
  0
LINE
  5
FC6
  8
0
 62
     1
 10
2986.7171178472158
 20
1282.5221341691411
 30
0.0
 11
2986.7171178472158
 21
1279.2721341691411
 31
0.0
  0
LINE
  5
FC7
  8
0
 62
     1
 10
2986.7171178472158
 20
1262.2721341691411
 30
0.0
 11
2986.7171178472158
 21
1252.2721341691411
 31
0.0
  0
LINE
  5
FC8
  8
0
 62
     1
 10
2986.7171178472158
 20
1248.7721341691411
 30
0.0
 11
2986.7171178472158
 21
1245.5221341691411
 31
0.0
  0
LINE
  5
FC9
  8
0
 62
     1
 10
2988.7171178472158
 20
1282.5221341691411
 30
0.0
 11
2988.7171178472158
 21
1272.5221341691411
 31
0.0
  0
LINE
  5
FCA
  8
0
 62
     1
 10
2988.7171178472158
 20
1269.0221341691411
 30
0.0
 11
2988.7171178472158
 21
1259.0221341691411
 31
0.0
  0
LINE
  5
FCB
  8
0
 62
     1
 10
2988.7171178472158
 20
1255.5221341691411
 30
0.0
 11
2988.7171178472158
 21
1245.5221341691411
 31
0.0
  0
LINE
  5
FCC
  8
0
 62
     1
 10
2990.7171178472158
 20
1275.7721341691411
 30
0.0
 11
2990.7171178472158
 21
1265.7721341691411
 31
0.0
  0
LINE
  5
FCD
  8
0
 62
     1
 10
2990.7171178472158
 20
1282.5221341691411
 30
0.0
 11
2990.7171178472158
 21
1279.2721341691411
 31
0.0
  0
LINE
  5
FCE
  8
0
 62
     1
 10
2990.7171178472158
 20
1262.2721341691411
 30
0.0
 11
2990.7171178472158
 21
1252.2721341691411
 31
0.0
  0
LINE
  5
FCF
  8
0
 62
     1
 10
2990.7171178472158
 20
1248.7721341691411
 30
0.0
 11
2990.7171178472158
 21
1245.5221341691411
 31
0.0
  0
LINE
  5
FD0
  8
0
 62
     1
 10
2992.7171178472172
 20
1282.5221341691411
 30
0.0
 11
2992.7171178472172
 21
1272.5221341691411
 31
0.0
  0
LINE
  5
FD1
  8
0
 62
     1
 10
2992.7171178472172
 20
1269.0221341691411
 30
0.0
 11
2992.7171178472172
 21
1259.0221341691411
 31
0.0
  0
LINE
  5
FD2
  8
0
 62
     1
 10
2992.7171178472172
 20
1255.5221341691411
 30
0.0
 11
2992.7171178472172
 21
1245.5221341691411
 31
0.0
  0
LINE
  5
FD3
  8
0
 62
     1
 10
2994.7171178472158
 20
1275.7721341691411
 30
0.0
 11
2994.7171178472158
 21
1265.7721341691411
 31
0.0
  0
LINE
  5
FD4
  8
0
 62
     1
 10
2994.7171178472158
 20
1282.5221341691411
 30
0.0
 11
2994.7171178472158
 21
1279.2721341691411
 31
0.0
  0
LINE
  5
FD5
  8
0
 62
     1
 10
2994.7171178472158
 20
1262.2721341691411
 30
0.0
 11
2994.7171178472158
 21
1252.2721341691411
 31
0.0
  0
LINE
  5
FD6
  8
0
 62
     1
 10
2994.7171178472158
 20
1248.7721341691411
 30
0.0
 11
2994.7171178472158
 21
1245.5221341691411
 31
0.0
  0
LINE
  5
FD7
  8
0
 62
     1
 10
2996.7171178472172
 20
1282.5221341691411
 30
0.0
 11
2996.7171178472172
 21
1272.5221341691411
 31
0.0
  0
LINE
  5
FD8
  8
0
 62
     1
 10
2996.7171178472172
 20
1269.0221341691411
 30
0.0
 11
2996.7171178472172
 21
1259.0221341691411
 31
0.0
  0
LINE
  5
FD9
  8
0
 62
     1
 10
2996.7171178472172
 20
1255.5221341691411
 30
0.0
 11
2996.7171178472172
 21
1245.5221341691411
 31
0.0
  0
LINE
  5
FDA
  8
0
 62
     1
 10
2998.7171178472172
 20
1275.7721341691411
 30
0.0
 11
2998.7171178472172
 21
1265.7721341691411
 31
0.0
  0
LINE
  5
FDB
  8
0
 62
     1
 10
2998.7171178472172
 20
1282.5221341691411
 30
0.0
 11
2998.7171178472172
 21
1279.2721341691411
 31
0.0
  0
LINE
  5
FDC
  8
0
 62
     1
 10
2998.7171178472172
 20
1262.2721341691411
 30
0.0
 11
2998.7171178472172
 21
1252.2721341691411
 31
0.0
  0
LINE
  5
FDD
  8
0
 62
     1
 10
2998.7171178472172
 20
1248.7721341691411
 30
0.0
 11
2998.7171178472172
 21
1245.5221341691411
 31
0.0
  0
LINE
  5
FDE
  8
0
 62
     1
 10
3000.7171178472158
 20
1282.5221341691411
 30
0.0
 11
3000.7171178472158
 21
1272.5221341691411
 31
0.0
  0
LINE
  5
FDF
  8
0
 62
     1
 10
3000.7171178472158
 20
1269.0221341691411
 30
0.0
 11
3000.7171178472158
 21
1259.0221341691411
 31
0.0
  0
LINE
  5
FE0
  8
0
 62
     1
 10
3000.7171178472158
 20
1255.5221341691411
 30
0.0
 11
3000.7171178472158
 21
1245.5221341691411
 31
0.0
  0
LINE
  5
FE1
  8
0
 62
     1
 10
3002.7171178472158
 20
1275.7721341691411
 30
0.0
 11
3002.7171178472158
 21
1265.7721341691411
 31
0.0
  0
LINE
  5
FE2
  8
0
 62
     1
 10
3002.7171178472158
 20
1282.5221341691411
 30
0.0
 11
3002.7171178472158
 21
1279.2721341691411
 31
0.0
  0
LINE
  5
FE3
  8
0
 62
     1
 10
3002.7171178472158
 20
1262.2721341691411
 30
0.0
 11
3002.7171178472158
 21
1252.2721341691411
 31
0.0
  0
LINE
  5
FE4
  8
0
 62
     1
 10
3002.7171178472158
 20
1248.7721341691411
 30
0.0
 11
3002.7171178472158
 21
1245.5221341691411
 31
0.0
  0
LINE
  5
FE5
  8
0
 62
     1
 10
3004.7171178472158
 20
1282.5221341691411
 30
0.0
 11
3004.7171178472158
 21
1272.5221341691411
 31
0.0
  0
LINE
  5
FE6
  8
0
 62
     1
 10
3004.7171178472158
 20
1269.0221341691411
 30
0.0
 11
3004.7171178472158
 21
1259.0221341691411
 31
0.0
  0
LINE
  5
FE7
  8
0
 62
     1
 10
3004.7171178472158
 20
1255.5221341691411
 30
0.0
 11
3004.7171178472158
 21
1245.5221341691411
 31
0.0
  0
LINE
  5
FE8
  8
0
 62
     1
 10
3006.7171178472158
 20
1275.7721341691411
 30
0.0
 11
3006.7171178472158
 21
1265.7721341691411
 31
0.0
  0
LINE
  5
FE9
  8
0
 62
     1
 10
3006.7171178472158
 20
1282.5221341691411
 30
0.0
 11
3006.7171178472158
 21
1279.2721341691411
 31
0.0
  0
LINE
  5
FEA
  8
0
 62
     1
 10
3006.7171178472158
 20
1262.2721341691411
 30
0.0
 11
3006.7171178472158
 21
1252.2721341691411
 31
0.0
  0
LINE
  5
FEB
  8
0
 62
     1
 10
3006.7171178472158
 20
1248.7721341691411
 30
0.0
 11
3006.7171178472158
 21
1245.5221341691411
 31
0.0
  0
LINE
  5
FEC
  8
0
 62
     1
 10
3008.7171178472172
 20
1282.5221341691411
 30
0.0
 11
3008.7171178472172
 21
1272.5221341691411
 31
0.0
  0
LINE
  5
FED
  8
0
 62
     1
 10
3008.7171178472172
 20
1269.0221341691411
 30
0.0
 11
3008.7171178472172
 21
1259.0221341691411
 31
0.0
  0
LINE
  5
FEE
  8
0
 62
     1
 10
3008.7171178472172
 20
1255.5221341691411
 30
0.0
 11
3008.7171178472172
 21
1245.5221341691411
 31
0.0
  0
LINE
  5
FEF
  8
0
 62
     1
 10
3010.7171178472158
 20
1275.7721341691411
 30
0.0
 11
3010.7171178472158
 21
1265.7721341691411
 31
0.0
  0
LINE
  5
FF0
  8
0
 62
     1
 10
3010.7171178472158
 20
1282.5221341691411
 30
0.0
 11
3010.7171178472158
 21
1279.2721341691411
 31
0.0
  0
LINE
  5
FF1
  8
0
 62
     1
 10
3010.7171178472158
 20
1262.2721341691411
 30
0.0
 11
3010.7171178472158
 21
1252.2721341691411
 31
0.0
  0
LINE
  5
FF2
  8
0
 62
     1
 10
3010.7171178472158
 20
1248.7721341691411
 30
0.0
 11
3010.7171178472158
 21
1245.5221341691411
 31
0.0
  0
LINE
  5
FF3
  8
0
 62
     1
 10
3012.7171178472172
 20
1282.5221341691411
 30
0.0
 11
3012.7171178472172
 21
1272.5221341691411
 31
0.0
  0
LINE
  5
FF4
  8
0
 62
     1
 10
3012.7171178472172
 20
1269.0221341691411
 30
0.0
 11
3012.7171178472172
 21
1259.0221341691411
 31
0.0
  0
LINE
  5
FF5
  8
0
 62
     1
 10
3012.7171178472172
 20
1255.5221341691411
 30
0.0
 11
3012.7171178472172
 21
1245.5221341691411
 31
0.0
  0
LINE
  5
FF6
  8
0
 62
     1
 10
3014.7171178472158
 20
1275.7721341691411
 30
0.0
 11
3014.7171178472158
 21
1265.7721341691411
 31
0.0
  0
LINE
  5
FF7
  8
0
 62
     1
 10
3014.7171178472158
 20
1282.5221341691411
 30
0.0
 11
3014.7171178472158
 21
1279.2721341691411
 31
0.0
  0
LINE
  5
FF8
  8
0
 62
     1
 10
3014.7171178472158
 20
1262.2721341691411
 30
0.0
 11
3014.7171178472158
 21
1252.2721341691411
 31
0.0
  0
LINE
  5
FF9
  8
0
 62
     1
 10
3014.7171178472158
 20
1248.7721341691411
 30
0.0
 11
3014.7171178472158
 21
1245.5221341691411
 31
0.0
  0
LINE
  5
FFA
  8
0
 62
     1
 10
3016.7171178472158
 20
1282.5221341691411
 30
0.0
 11
3016.7171178472158
 21
1272.5221341691411
 31
0.0
  0
LINE
  5
FFB
  8
0
 62
     1
 10
3016.7171178472158
 20
1269.0221341691411
 30
0.0
 11
3016.7171178472158
 21
1259.0221341691411
 31
0.0
  0
LINE
  5
FFC
  8
0
 62
     1
 10
3016.7171178472158
 20
1255.5221341691411
 30
0.0
 11
3016.7171178472158
 21
1245.5221341691411
 31
0.0
  0
LINE
  5
FFD
  8
0
 62
     1
 10
3018.7171178472158
 20
1275.7721341691411
 30
0.0
 11
3018.7171178472158
 21
1265.7721341691411
 31
0.0
  0
LINE
  5
FFE
  8
0
 62
     1
 10
3018.7171178472158
 20
1282.5221341691411
 30
0.0
 11
3018.7171178472158
 21
1279.2721341691411
 31
0.0
  0
LINE
  5
FFF
  8
0
 62
     1
 10
3018.7171178472158
 20
1262.2721341691411
 30
0.0
 11
3018.7171178472158
 21
1252.2721341691411
 31
0.0
  0
LINE
  5
1000
  8
0
 62
     1
 10
3018.7171178472158
 20
1248.7721341691411
 30
0.0
 11
3018.7171178472158
 21
1245.5221341691411
 31
0.0
  0
LINE
  5
1001
  8
0
 62
     1
 10
3020.7171178472158
 20
1282.5221341691411
 30
0.0
 11
3020.7171178472158
 21
1272.5221341691411
 31
0.0
  0
LINE
  5
1002
  8
0
 62
     1
 10
3020.7171178472158
 20
1269.0221341691411
 30
0.0
 11
3020.7171178472158
 21
1259.0221341691411
 31
0.0
  0
LINE
  5
1003
  8
0
 62
     1
 10
3020.7171178472158
 20
1255.5221341691411
 30
0.0
 11
3020.7171178472158
 21
1245.5221341691411
 31
0.0
  0
LINE
  5
1004
  8
0
 62
     1
 10
3022.7171178472158
 20
1275.7721341691411
 30
0.0
 11
3022.7171178472158
 21
1265.7721341691411
 31
0.0
  0
LINE
  5
1005
  8
0
 62
     1
 10
3022.7171178472158
 20
1282.5221341691411
 30
0.0
 11
3022.7171178472158
 21
1279.2721341691411
 31
0.0
  0
LINE
  5
1006
  8
0
 62
     1
 10
3022.7171178472158
 20
1262.2721341691411
 30
0.0
 11
3022.7171178472158
 21
1252.2721341691411
 31
0.0
  0
LINE
  5
1007
  8
0
 62
     1
 10
3022.7171178472158
 20
1248.7721341691411
 30
0.0
 11
3022.7171178472158
 21
1245.5221341691411
 31
0.0
  0
LINE
  5
1008
  8
0
 62
     1
 10
3024.7171178472172
 20
1282.5221341691411
 30
0.0
 11
3024.7171178472172
 21
1272.5221341691411
 31
0.0
  0
LINE
  5
1009
  8
0
 62
     1
 10
3024.7171178472172
 20
1269.0221341691411
 30
0.0
 11
3024.7171178472172
 21
1259.0221341691411
 31
0.0
  0
LINE
  5
100A
  8
0
 62
     1
 10
3024.7171178472172
 20
1255.5221341691411
 30
0.0
 11
3024.7171178472172
 21
1245.5221341691411
 31
0.0
  0
LINE
  5
100B
  8
0
 62
     1
 10
3026.7171178472158
 20
1275.7721341691411
 30
0.0
 11
3026.7171178472158
 21
1265.7721341691411
 31
0.0
  0
LINE
  5
100C
  8
0
 62
     1
 10
3026.7171178472158
 20
1282.5221341691411
 30
0.0
 11
3026.7171178472158
 21
1279.2721341691411
 31
0.0
  0
LINE
  5
100D
  8
0
 62
     1
 10
3026.7171178472158
 20
1262.2721341691411
 30
0.0
 11
3026.7171178472158
 21
1252.2721341691411
 31
0.0
  0
LINE
  5
100E
  8
0
 62
     1
 10
3026.7171178472158
 20
1248.7721341691411
 30
0.0
 11
3026.7171178472158
 21
1245.5221341691411
 31
0.0
  0
LINE
  5
100F
  8
0
 62
     1
 10
3028.7171178472172
 20
1282.5221341691411
 30
0.0
 11
3028.7171178472172
 21
1272.5221341691411
 31
0.0
  0
LINE
  5
1010
  8
0
 62
     1
 10
3028.7171178472172
 20
1269.0221341691411
 30
0.0
 11
3028.7171178472172
 21
1259.0221341691411
 31
0.0
  0
LINE
  5
1011
  8
0
 62
     1
 10
3028.7171178472172
 20
1255.5221341691411
 30
0.0
 11
3028.7171178472172
 21
1245.5221341691411
 31
0.0
  0
LINE
  5
1012
  8
0
 62
     1
 10
3030.7171178472158
 20
1275.7721341691411
 30
0.0
 11
3030.7171178472158
 21
1265.7721341691411
 31
0.0
  0
LINE
  5
1013
  8
0
 62
     1
 10
3030.7171178472158
 20
1282.5221341691411
 30
0.0
 11
3030.7171178472158
 21
1279.2721341691411
 31
0.0
  0
LINE
  5
1014
  8
0
 62
     1
 10
3030.7171178472158
 20
1262.2721341691411
 30
0.0
 11
3030.7171178472158
 21
1252.2721341691411
 31
0.0
  0
LINE
  5
1015
  8
0
 62
     1
 10
3030.7171178472158
 20
1248.7721341691411
 30
0.0
 11
3030.7171178472158
 21
1245.5221341691411
 31
0.0
  0
LINE
  5
1016
  8
0
 62
     1
 10
3032.7171178472158
 20
1282.5221341691411
 30
0.0
 11
3032.7171178472158
 21
1272.5221341691411
 31
0.0
  0
LINE
  5
1017
  8
0
 62
     1
 10
3032.7171178472158
 20
1269.0221341691411
 30
0.0
 11
3032.7171178472158
 21
1259.0221341691411
 31
0.0
  0
LINE
  5
1018
  8
0
 62
     1
 10
3032.7171178472158
 20
1255.5221341691411
 30
0.0
 11
3032.7171178472158
 21
1245.5221341691411
 31
0.0
  0
LINE
  5
1019
  8
0
 62
     1
 10
3034.7171178472158
 20
1275.7721341691411
 30
0.0
 11
3034.7171178472158
 21
1265.7721341691411
 31
0.0
  0
LINE
  5
101A
  8
0
 62
     1
 10
3034.7171178472158
 20
1282.5221341691411
 30
0.0
 11
3034.7171178472158
 21
1279.2721341691411
 31
0.0
  0
LINE
  5
101B
  8
0
 62
     1
 10
3034.7171178472158
 20
1262.2721341691411
 30
0.0
 11
3034.7171178472158
 21
1252.2721341691411
 31
0.0
  0
LINE
  5
101C
  8
0
 62
     1
 10
3034.7171178472158
 20
1248.7721341691411
 30
0.0
 11
3034.7171178472158
 21
1245.5221341691411
 31
0.0
  0
LINE
  5
101D
  8
0
 62
     1
 10
3036.7171178472158
 20
1282.5221341691411
 30
0.0
 11
3036.7171178472158
 21
1272.5221341691411
 31
0.0
  0
LINE
  5
101E
  8
0
 62
     1
 10
3036.7171178472158
 20
1269.0221341691411
 30
0.0
 11
3036.7171178472158
 21
1259.0221341691411
 31
0.0
  0
LINE
  5
101F
  8
0
 62
     1
 10
3036.7171178472158
 20
1255.5221341691411
 30
0.0
 11
3036.7171178472158
 21
1245.5221341691411
 31
0.0
  0
LINE
  5
1020
  8
0
 62
     1
 10
3038.7171178472158
 20
1275.7721341691411
 30
0.0
 11
3038.7171178472158
 21
1265.7721341691411
 31
0.0
  0
LINE
  5
1021
  8
0
 62
     1
 10
3038.7171178472158
 20
1282.5221341691411
 30
0.0
 11
3038.7171178472158
 21
1279.2721341691411
 31
0.0
  0
LINE
  5
1022
  8
0
 62
     1
 10
3038.7171178472158
 20
1262.2721341691411
 30
0.0
 11
3038.7171178472158
 21
1252.2721341691411
 31
0.0
  0
LINE
  5
1023
  8
0
 62
     1
 10
3038.7171178472158
 20
1248.7721341691411
 30
0.0
 11
3038.7171178472158
 21
1245.5221341691411
 31
0.0
  0
LINE
  5
1024
  8
0
 62
     1
 10
3040.7171178472172
 20
1282.5221341691411
 30
0.0
 11
3040.7171178472172
 21
1272.5221341691411
 31
0.0
  0
LINE
  5
1025
  8
0
 62
     1
 10
3040.7171178472172
 20
1269.0221341691411
 30
0.0
 11
3040.7171178472172
 21
1259.0221341691411
 31
0.0
  0
LINE
  5
1026
  8
0
 62
     1
 10
3040.7171178472172
 20
1255.5221341691411
 30
0.0
 11
3040.7171178472172
 21
1245.5221341691411
 31
0.0
  0
LINE
  5
1027
  8
0
 62
     1
 10
3042.7171178472158
 20
1275.7721341691411
 30
0.0
 11
3042.7171178472158
 21
1265.7721341691411
 31
0.0
  0
LINE
  5
1028
  8
0
 62
     1
 10
3042.7171178472158
 20
1282.5221341691411
 30
0.0
 11
3042.7171178472158
 21
1279.2721341691411
 31
0.0
  0
LINE
  5
1029
  8
0
 62
     1
 10
3042.7171178472158
 20
1262.2721341691411
 30
0.0
 11
3042.7171178472158
 21
1252.2721341691411
 31
0.0
  0
LINE
  5
102A
  8
0
 62
     1
 10
3042.7171178472158
 20
1248.7721341691411
 30
0.0
 11
3042.7171178472158
 21
1245.5221341691411
 31
0.0
  0
LINE
  5
102B
  8
0
 62
     1
 10
3044.7171178472172
 20
1282.5221341691411
 30
0.0
 11
3044.7171178472172
 21
1272.5221341691411
 31
0.0
  0
LINE
  5
102C
  8
0
 62
     1
 10
3044.7171178472172
 20
1269.0221341691411
 30
0.0
 11
3044.7171178472172
 21
1259.0221341691411
 31
0.0
  0
LINE
  5
102D
  8
0
 62
     1
 10
3044.7171178472172
 20
1255.5221341691411
 30
0.0
 11
3044.7171178472172
 21
1245.5221341691411
 31
0.0
  0
LINE
  5
102E
  8
0
 62
     1
 10
3046.7171178472158
 20
1275.7721341691411
 30
0.0
 11
3046.7171178472158
 21
1265.7721341691411
 31
0.0
  0
LINE
  5
102F
  8
0
 62
     1
 10
3046.7171178472158
 20
1282.5221341691411
 30
0.0
 11
3046.7171178472158
 21
1279.2721341691411
 31
0.0
  0
LINE
  5
1030
  8
0
 62
     1
 10
3046.7171178472158
 20
1262.2721341691411
 30
0.0
 11
3046.7171178472158
 21
1252.2721341691411
 31
0.0
  0
LINE
  5
1031
  8
0
 62
     1
 10
3046.7171178472158
 20
1248.7721341691411
 30
0.0
 11
3046.7171178472158
 21
1245.5221341691411
 31
0.0
  0
LINE
  5
1032
  8
0
 62
     1
 10
3048.7171178472158
 20
1282.5221341691411
 30
0.0
 11
3048.7171178472158
 21
1272.5221341691411
 31
0.0
  0
LINE
  5
1033
  8
0
 62
     1
 10
3048.7171178472158
 20
1269.0221341691411
 30
0.0
 11
3048.7171178472158
 21
1259.0221341691411
 31
0.0
  0
LINE
  5
1034
  8
0
 62
     1
 10
3048.7171178472158
 20
1255.5221341691411
 30
0.0
 11
3048.7171178472158
 21
1245.5221341691411
 31
0.0
  0
LINE
  5
1035
  8
0
 62
     1
 10
3050.7171178472158
 20
1275.7721341691411
 30
0.0
 11
3050.7171178472158
 21
1265.7721341691411
 31
0.0
  0
LINE
  5
1036
  8
0
 62
     1
 10
3050.7171178472158
 20
1282.5221341691411
 30
0.0
 11
3050.7171178472158
 21
1279.2721341691411
 31
0.0
  0
LINE
  5
1037
  8
0
 62
     1
 10
3050.7171178472158
 20
1262.2721341691411
 30
0.0
 11
3050.7171178472158
 21
1252.2721341691411
 31
0.0
  0
LINE
  5
1038
  8
0
 62
     1
 10
3050.7171178472158
 20
1248.7721341691411
 30
0.0
 11
3050.7171178472158
 21
1245.5221341691411
 31
0.0
  0
LINE
  5
1039
  8
0
 62
     1
 10
3052.7171178472158
 20
1282.5221341691411
 30
0.0
 11
3052.7171178472158
 21
1272.5221341691411
 31
0.0
  0
LINE
  5
103A
  8
0
 62
     1
 10
3052.7171178472158
 20
1269.0221341691411
 30
0.0
 11
3052.7171178472158
 21
1259.0221341691411
 31
0.0
  0
LINE
  5
103B
  8
0
 62
     1
 10
3052.7171178472158
 20
1255.5221341691411
 30
0.0
 11
3052.7171178472158
 21
1245.5221341691411
 31
0.0
  0
LINE
  5
103C
  8
0
 62
     1
 10
3054.7171178472172
 20
1275.7721341691411
 30
0.0
 11
3054.7171178472172
 21
1265.7721341691411
 31
0.0
  0
LINE
  5
103D
  8
0
 62
     1
 10
3054.7171178472172
 20
1282.5221341691411
 30
0.0
 11
3054.7171178472172
 21
1279.2721341691411
 31
0.0
  0
LINE
  5
103E
  8
0
 62
     1
 10
3054.7171178472172
 20
1262.2721341691411
 30
0.0
 11
3054.7171178472172
 21
1252.2721341691411
 31
0.0
  0
LINE
  5
103F
  8
0
 62
     1
 10
3054.7171178472172
 20
1248.7721341691411
 30
0.0
 11
3054.7171178472172
 21
1245.5221341691411
 31
0.0
  0
LINE
  5
1040
  8
0
 62
     1
 10
3056.7171178472172
 20
1282.5221341691411
 30
0.0
 11
3056.7171178472172
 21
1272.5221341691411
 31
0.0
  0
LINE
  5
1041
  8
0
 62
     1
 10
3056.7171178472172
 20
1269.0221341691411
 30
0.0
 11
3056.7171178472172
 21
1259.0221341691411
 31
0.0
  0
LINE
  5
1042
  8
0
 62
     1
 10
3056.7171178472172
 20
1255.5221341691411
 30
0.0
 11
3056.7171178472172
 21
1245.5221341691411
 31
0.0
  0
LINE
  5
1043
  8
0
 62
     1
 10
3058.7171178472172
 20
1275.7721341691411
 30
0.0
 11
3058.7171178472172
 21
1265.7721341691411
 31
0.0
  0
LINE
  5
1044
  8
0
 62
     1
 10
3058.7171178472172
 20
1282.5221341691411
 30
0.0
 11
3058.7171178472172
 21
1279.2721341691411
 31
0.0
  0
LINE
  5
1045
  8
0
 62
     1
 10
3058.7171178472172
 20
1262.2721341691411
 30
0.0
 11
3058.7171178472172
 21
1252.2721341691411
 31
0.0
  0
LINE
  5
1046
  8
0
 62
     1
 10
3058.7171178472172
 20
1248.7721341691411
 30
0.0
 11
3058.7171178472172
 21
1245.5221341691411
 31
0.0
  0
LINE
  5
1047
  8
0
 62
     1
 10
3060.7171178472172
 20
1282.5221341691411
 30
0.0
 11
3060.7171178472172
 21
1272.5221341691411
 31
0.0
  0
LINE
  5
1048
  8
0
 62
     1
 10
3060.7171178472172
 20
1269.0221341691411
 30
0.0
 11
3060.7171178472172
 21
1259.0221341691411
 31
0.0
  0
LINE
  5
1049
  8
0
 62
     1
 10
3060.7171178472172
 20
1255.5221341691411
 30
0.0
 11
3060.7171178472172
 21
1245.5221341691411
 31
0.0
  0
LINE
  5
104A
  8
0
 62
     1
 10
3062.7171178472172
 20
1275.7721341691411
 30
0.0
 11
3062.7171178472172
 21
1265.7721341691411
 31
0.0
  0
LINE
  5
104B
  8
0
 62
     1
 10
3062.7171178472172
 20
1282.5221341691411
 30
0.0
 11
3062.7171178472172
 21
1279.2721341691411
 31
0.0
  0
LINE
  5
104C
  8
0
 62
     1
 10
3062.7171178472172
 20
1262.2721341691411
 30
0.0
 11
3062.7171178472172
 21
1252.2721341691411
 31
0.0
  0
LINE
  5
104D
  8
0
 62
     1
 10
3062.7171178472172
 20
1248.7721341691411
 30
0.0
 11
3062.7171178472172
 21
1245.5221341691411
 31
0.0
  0
LINE
  5
104E
  8
0
 62
     1
 10
3064.7171178472158
 20
1282.5221341691411
 30
0.0
 11
3064.7171178472158
 21
1272.5221341691411
 31
0.0
  0
LINE
  5
104F
  8
0
 62
     1
 10
3064.7171178472158
 20
1269.0221341691411
 30
0.0
 11
3064.7171178472158
 21
1259.0221341691411
 31
0.0
  0
LINE
  5
1050
  8
0
 62
     1
 10
3064.7171178472158
 20
1255.5221341691411
 30
0.0
 11
3064.7171178472158
 21
1245.5221341691411
 31
0.0
  0
LINE
  5
1051
  8
0
 62
     1
 10
3066.7171178472172
 20
1275.7721341691411
 30
0.0
 11
3066.7171178472172
 21
1265.7721341691411
 31
0.0
  0
LINE
  5
1052
  8
0
 62
     1
 10
3066.7171178472172
 20
1282.5221341691411
 30
0.0
 11
3066.7171178472172
 21
1279.2721341691411
 31
0.0
  0
LINE
  5
1053
  8
0
 62
     1
 10
3066.7171178472172
 20
1262.2721341691411
 30
0.0
 11
3066.7171178472172
 21
1252.2721341691411
 31
0.0
  0
LINE
  5
1054
  8
0
 62
     1
 10
3066.7171178472172
 20
1248.7721341691411
 30
0.0
 11
3066.7171178472172
 21
1245.5221341691411
 31
0.0
  0
LINE
  5
1055
  8
0
 62
     1
 10
3068.7171178472158
 20
1282.5221341691411
 30
0.0
 11
3068.7171178472158
 21
1272.5221341691411
 31
0.0
  0
LINE
  5
1056
  8
0
 62
     1
 10
3068.7171178472158
 20
1269.0221341691411
 30
0.0
 11
3068.7171178472158
 21
1259.0221341691411
 31
0.0
  0
LINE
  5
1057
  8
0
 62
     1
 10
3068.7171178472158
 20
1255.5221341691411
 30
0.0
 11
3068.7171178472158
 21
1245.5221341691411
 31
0.0
  0
LINE
  5
1058
  8
0
 62
     1
 10
3070.7171178472172
 20
1275.7721341691411
 30
0.0
 11
3070.7171178472172
 21
1265.7721341691411
 31
0.0
  0
LINE
  5
1059
  8
0
 62
     1
 10
3070.7171178472172
 20
1282.5221341691411
 30
0.0
 11
3070.7171178472172
 21
1279.2721341691411
 31
0.0
  0
LINE
  5
105A
  8
0
 62
     1
 10
3070.7171178472172
 20
1262.2721341691411
 30
0.0
 11
3070.7171178472172
 21
1252.2721341691411
 31
0.0
  0
LINE
  5
105B
  8
0
 62
     1
 10
3070.7171178472172
 20
1248.7721341691411
 30
0.0
 11
3070.7171178472172
 21
1245.5221341691411
 31
0.0
  0
LINE
  5
105C
  8
0
 62
     1
 10
3072.7171178472172
 20
1282.5221341691411
 30
0.0
 11
3072.7171178472172
 21
1272.5221341691411
 31
0.0
  0
LINE
  5
105D
  8
0
 62
     1
 10
3072.7171178472172
 20
1269.0221341691411
 30
0.0
 11
3072.7171178472172
 21
1259.0221341691411
 31
0.0
  0
LINE
  5
105E
  8
0
 62
     1
 10
3072.7171178472172
 20
1255.5221341691411
 30
0.0
 11
3072.7171178472172
 21
1245.5221341691411
 31
0.0
  0
LINE
  5
105F
  8
0
 62
     1
 10
3074.7171178472172
 20
1275.7721341691411
 30
0.0
 11
3074.7171178472172
 21
1265.7721341691411
 31
0.0
  0
LINE
  5
1060
  8
0
 62
     1
 10
3074.7171178472172
 20
1282.5221341691411
 30
0.0
 11
3074.7171178472172
 21
1279.2721341691411
 31
0.0
  0
LINE
  5
1061
  8
0
 62
     1
 10
3074.7171178472172
 20
1262.2721341691411
 30
0.0
 11
3074.7171178472172
 21
1252.2721341691411
 31
0.0
  0
LINE
  5
1062
  8
0
 62
     1
 10
3074.7171178472172
 20
1248.7721341691411
 30
0.0
 11
3074.7171178472172
 21
1245.5221341691411
 31
0.0
  0
LINE
  5
1063
  8
0
 62
     1
 10
3076.7171178472172
 20
1282.5221341691411
 30
0.0
 11
3076.7171178472172
 21
1272.5221341691411
 31
0.0
  0
LINE
  5
1064
  8
0
 62
     1
 10
3076.7171178472172
 20
1269.0221341691411
 30
0.0
 11
3076.7171178472172
 21
1259.0221341691411
 31
0.0
  0
LINE
  5
1065
  8
0
 62
     1
 10
3076.7171178472172
 20
1255.5221341691411
 30
0.0
 11
3076.7171178472172
 21
1245.5221341691411
 31
0.0
  0
LINE
  5
1066
  8
0
 62
     1
 10
3078.7171178472172
 20
1275.7721341691411
 30
0.0
 11
3078.7171178472172
 21
1265.7721341691411
 31
0.0
  0
LINE
  5
1067
  8
0
 62
     1
 10
3078.7171178472172
 20
1282.5221341691411
 30
0.0
 11
3078.7171178472172
 21
1279.2721341691411
 31
0.0
  0
LINE
  5
1068
  8
0
 62
     1
 10
3078.7171178472172
 20
1262.2721341691411
 30
0.0
 11
3078.7171178472172
 21
1252.2721341691411
 31
0.0
  0
LINE
  5
1069
  8
0
 62
     1
 10
3078.7171178472172
 20
1248.7721341691411
 30
0.0
 11
3078.7171178472172
 21
1245.5221341691411
 31
0.0
  0
LINE
  5
106A
  8
0
 62
     1
 10
3080.7171178472158
 20
1282.5221341691411
 30
0.0
 11
3080.7171178472158
 21
1272.5221341691411
 31
0.0
  0
LINE
  5
106B
  8
0
 62
     1
 10
3080.7171178472158
 20
1269.0221341691411
 30
0.0
 11
3080.7171178472158
 21
1259.0221341691411
 31
0.0
  0
LINE
  5
106C
  8
0
 62
     1
 10
3080.7171178472158
 20
1255.5221341691411
 30
0.0
 11
3080.7171178472158
 21
1245.5221341691411
 31
0.0
  0
LINE
  5
106D
  8
0
 62
     1
 10
3082.7171178472172
 20
1275.7721341691411
 30
0.0
 11
3082.7171178472172
 21
1265.7721341691411
 31
0.0
  0
LINE
  5
106E
  8
0
 62
     1
 10
3082.7171178472172
 20
1282.5221341691411
 30
0.0
 11
3082.7171178472172
 21
1279.2721341691411
 31
0.0
  0
LINE
  5
106F
  8
0
 62
     1
 10
3082.7171178472172
 20
1262.2721341691411
 30
0.0
 11
3082.7171178472172
 21
1252.2721341691411
 31
0.0
  0
LINE
  5
1070
  8
0
 62
     1
 10
3082.7171178472172
 20
1248.7721341691411
 30
0.0
 11
3082.7171178472172
 21
1245.5221341691411
 31
0.0
  0
LINE
  5
1071
  8
0
 62
     1
 10
3084.7171178472158
 20
1282.5221341691411
 30
0.0
 11
3084.7171178472158
 21
1272.5221341691411
 31
0.0
  0
LINE
  5
1072
  8
0
 62
     1
 10
3084.7171178472158
 20
1269.0221341691411
 30
0.0
 11
3084.7171178472158
 21
1259.0221341691411
 31
0.0
  0
LINE
  5
1073
  8
0
 62
     1
 10
3084.7171178472158
 20
1255.5221341691411
 30
0.0
 11
3084.7171178472158
 21
1245.5221341691411
 31
0.0
  0
LINE
  5
1074
  8
0
 62
     1
 10
3086.7171178472172
 20
1275.7721341691411
 30
0.0
 11
3086.7171178472172
 21
1265.7721341691411
 31
0.0
  0
LINE
  5
1075
  8
0
 62
     1
 10
3086.7171178472172
 20
1282.5221341691411
 30
0.0
 11
3086.7171178472172
 21
1279.2721341691411
 31
0.0
  0
LINE
  5
1076
  8
0
 62
     1
 10
3086.7171178472172
 20
1262.2721341691411
 30
0.0
 11
3086.7171178472172
 21
1252.2721341691411
 31
0.0
  0
LINE
  5
1077
  8
0
 62
     1
 10
3086.7171178472172
 20
1248.7721341691411
 30
0.0
 11
3086.7171178472172
 21
1245.5221341691411
 31
0.0
  0
LINE
  5
1078
  8
0
 62
     1
 10
3088.7171178472158
 20
1282.5221341691411
 30
0.0
 11
3088.7171178472158
 21
1272.5221341691411
 31
0.0
  0
LINE
  5
1079
  8
0
 62
     1
 10
3088.7171178472158
 20
1269.0221341691411
 30
0.0
 11
3088.7171178472158
 21
1259.0221341691411
 31
0.0
  0
LINE
  5
107A
  8
0
 62
     1
 10
3088.7171178472158
 20
1255.5221341691411
 30
0.0
 11
3088.7171178472158
 21
1245.5221341691411
 31
0.0
  0
LINE
  5
107B
  8
0
 62
     1
 10
3090.7171178472172
 20
1275.7721341691411
 30
0.0
 11
3090.7171178472172
 21
1265.7721341691411
 31
0.0
  0
LINE
  5
107C
  8
0
 62
     1
 10
3090.7171178472172
 20
1282.5221341691411
 30
0.0
 11
3090.7171178472172
 21
1279.2721341691411
 31
0.0
  0
LINE
  5
107D
  8
0
 62
     1
 10
3090.7171178472172
 20
1262.2721341691411
 30
0.0
 11
3090.7171178472172
 21
1252.2721341691411
 31
0.0
  0
LINE
  5
107E
  8
0
 62
     1
 10
3090.7171178472172
 20
1248.7721341691411
 30
0.0
 11
3090.7171178472172
 21
1245.5221341691411
 31
0.0
  0
LINE
  5
107F
  8
0
 62
     1
 10
3092.7171178472172
 20
1282.5221341691411
 30
0.0
 11
3092.7171178472172
 21
1272.5221341691411
 31
0.0
  0
LINE
  5
1080
  8
0
 62
     1
 10
3092.7171178472172
 20
1269.0221341691411
 30
0.0
 11
3092.7171178472172
 21
1259.0221341691411
 31
0.0
  0
LINE
  5
1081
  8
0
 62
     1
 10
3092.7171178472172
 20
1255.5221341691411
 30
0.0
 11
3092.7171178472172
 21
1245.5221341691411
 31
0.0
  0
LINE
  5
1082
  8
0
 62
     1
 10
3094.7171178472172
 20
1275.7721341691411
 30
0.0
 11
3094.7171178472172
 21
1265.7721341691411
 31
0.0
  0
LINE
  5
1083
  8
0
 62
     1
 10
3094.7171178472172
 20
1282.5221341691411
 30
0.0
 11
3094.7171178472172
 21
1279.2721341691411
 31
0.0
  0
LINE
  5
1084
  8
0
 62
     1
 10
3094.7171178472172
 20
1262.2721341691411
 30
0.0
 11
3094.7171178472172
 21
1252.2721341691411
 31
0.0
  0
LINE
  5
1085
  8
0
 62
     1
 10
3094.7171178472172
 20
1248.7721341691411
 30
0.0
 11
3094.7171178472172
 21
1245.5221341691411
 31
0.0
  0
LINE
  5
1086
  8
0
 62
     1
 10
3096.7171178472158
 20
1282.5221341691411
 30
0.0
 11
3096.7171178472158
 21
1272.5221341691411
 31
0.0
  0
LINE
  5
1087
  8
0
 62
     1
 10
3096.7171178472158
 20
1269.0221341691411
 30
0.0
 11
3096.7171178472158
 21
1259.0221341691411
 31
0.0
  0
LINE
  5
1088
  8
0
 62
     1
 10
3096.7171178472158
 20
1255.5221341691411
 30
0.0
 11
3096.7171178472158
 21
1245.5221341691411
 31
0.0
  0
LINE
  5
1089
  8
0
 62
     1
 10
3098.7171178472172
 20
1275.7721341691411
 30
0.0
 11
3098.7171178472172
 21
1265.7721341691411
 31
0.0
  0
LINE
  5
108A
  8
0
 62
     1
 10
3098.7171178472172
 20
1282.5221341691411
 30
0.0
 11
3098.7171178472172
 21
1279.2721341691411
 31
0.0
  0
LINE
  5
108B
  8
0
 62
     1
 10
3098.7171178472172
 20
1262.2721341691411
 30
0.0
 11
3098.7171178472172
 21
1252.2721341691411
 31
0.0
  0
LINE
  5
108C
  8
0
 62
     1
 10
3098.7171178472172
 20
1248.7721341691411
 30
0.0
 11
3098.7171178472172
 21
1245.5221341691411
 31
0.0
  0
LINE
  5
108D
  8
0
 62
     1
 10
3100.7171178472158
 20
1282.5221341691411
 30
0.0
 11
3100.7171178472158
 21
1272.5221341691411
 31
0.0
  0
LINE
  5
108E
  8
0
 62
     1
 10
3100.7171178472158
 20
1269.0221341691411
 30
0.0
 11
3100.7171178472158
 21
1259.0221341691411
 31
0.0
  0
LINE
  5
108F
  8
0
 62
     1
 10
3100.7171178472158
 20
1255.5221341691411
 30
0.0
 11
3100.7171178472158
 21
1245.5221341691411
 31
0.0
  0
LINE
  5
1090
  8
0
 62
     1
 10
3102.7171178472172
 20
1275.7721341691411
 30
0.0
 11
3102.7171178472172
 21
1265.7721341691411
 31
0.0
  0
LINE
  5
1091
  8
0
 62
     1
 10
3102.7171178472172
 20
1282.5221341691411
 30
0.0
 11
3102.7171178472172
 21
1279.2721341691411
 31
0.0
  0
LINE
  5
1092
  8
0
 62
     1
 10
3102.7171178472172
 20
1262.2721341691411
 30
0.0
 11
3102.7171178472172
 21
1252.2721341691411
 31
0.0
  0
LINE
  5
1093
  8
0
 62
     1
 10
3102.7171178472172
 20
1248.7721341691411
 30
0.0
 11
3102.7171178472172
 21
1245.5221341691411
 31
0.0
  0
LINE
  5
1094
  8
0
 62
     1
 10
3104.7171178472158
 20
1282.5221341691411
 30
0.0
 11
3104.7171178472158
 21
1272.5221341691411
 31
0.0
  0
LINE
  5
1095
  8
0
 62
     1
 10
3104.7171178472158
 20
1269.0221341691411
 30
0.0
 11
3104.7171178472158
 21
1259.0221341691411
 31
0.0
  0
LINE
  5
1096
  8
0
 62
     1
 10
3104.7171178472158
 20
1255.5221341691411
 30
0.0
 11
3104.7171178472158
 21
1245.5221341691411
 31
0.0
  0
LINE
  5
1097
  8
0
 62
     1
 10
3106.7171178472172
 20
1275.7721341691411
 30
0.0
 11
3106.7171178472172
 21
1265.7721341691411
 31
0.0
  0
LINE
  5
1098
  8
0
 62
     1
 10
3106.7171178472172
 20
1282.5221341691411
 30
0.0
 11
3106.7171178472172
 21
1279.2721341691411
 31
0.0
  0
LINE
  5
1099
  8
0
 62
     1
 10
3106.7171178472172
 20
1262.2721341691411
 30
0.0
 11
3106.7171178472172
 21
1252.2721341691411
 31
0.0
  0
LINE
  5
109A
  8
0
 62
     1
 10
3106.7171178472172
 20
1248.7721341691411
 30
0.0
 11
3106.7171178472172
 21
1245.5221341691411
 31
0.0
  0
LINE
  5
109B
  8
0
 62
     1
 10
3108.7171178472172
 20
1282.5221341691411
 30
0.0
 11
3108.7171178472172
 21
1272.5221341691411
 31
0.0
  0
LINE
  5
109C
  8
0
 62
     1
 10
3108.7171178472172
 20
1269.0221341691411
 30
0.0
 11
3108.7171178472172
 21
1259.0221341691411
 31
0.0
  0
LINE
  5
109D
  8
0
 62
     1
 10
3108.7171178472172
 20
1255.5221341691411
 30
0.0
 11
3108.7171178472172
 21
1245.5221341691411
 31
0.0
  0
LINE
  5
109E
  8
0
 62
     1
 10
3110.7171178472172
 20
1275.7721341691411
 30
0.0
 11
3110.7171178472172
 21
1265.7721341691411
 31
0.0
  0
LINE
  5
109F
  8
0
 62
     1
 10
3110.7171178472172
 20
1282.5221341691411
 30
0.0
 11
3110.7171178472172
 21
1279.2721341691411
 31
0.0
  0
LINE
  5
10A0
  8
0
 62
     1
 10
3110.7171178472172
 20
1262.2721341691411
 30
0.0
 11
3110.7171178472172
 21
1252.2721341691411
 31
0.0
  0
LINE
  5
10A1
  8
0
 62
     1
 10
3110.7171178472172
 20
1248.7721341691411
 30
0.0
 11
3110.7171178472172
 21
1245.5221341691411
 31
0.0
  0
LINE
  5
10A2
  8
0
 62
     1
 10
3112.7171178472158
 20
1282.5221341691411
 30
0.0
 11
3112.7171178472158
 21
1272.5221341691411
 31
0.0
  0
LINE
  5
10A3
  8
0
 62
     1
 10
3112.7171178472158
 20
1269.0221341691411
 30
0.0
 11
3112.7171178472158
 21
1259.0221341691411
 31
0.0
  0
LINE
  5
10A4
  8
0
 62
     1
 10
3112.7171178472158
 20
1255.5221341691411
 30
0.0
 11
3112.7171178472158
 21
1245.5221341691411
 31
0.0
  0
LINE
  5
10A5
  8
0
 62
     1
 10
3114.7171178472172
 20
1275.7721341691411
 30
0.0
 11
3114.7171178472172
 21
1265.7721341691411
 31
0.0
  0
LINE
  5
10A6
  8
0
 62
     1
 10
3114.7171178472172
 20
1282.5221341691411
 30
0.0
 11
3114.7171178472172
 21
1279.2721341691411
 31
0.0
  0
LINE
  5
10A7
  8
0
 62
     1
 10
3114.7171178472172
 20
1262.2721341691411
 30
0.0
 11
3114.7171178472172
 21
1252.2721341691411
 31
0.0
  0
LINE
  5
10A8
  8
0
 62
     1
 10
3114.7171178472172
 20
1248.7721341691411
 30
0.0
 11
3114.7171178472172
 21
1245.5221341691411
 31
0.0
  0
LINE
  5
10A9
  8
0
 62
     1
 10
3116.7171178472158
 20
1282.5221341691411
 30
0.0
 11
3116.7171178472158
 21
1272.5221341691411
 31
0.0
  0
LINE
  5
10AA
  8
0
 62
     1
 10
3116.7171178472158
 20
1269.0221341691411
 30
0.0
 11
3116.7171178472158
 21
1259.0221341691411
 31
0.0
  0
LINE
  5
10AB
  8
0
 62
     1
 10
3116.7171178472158
 20
1255.5221341691411
 30
0.0
 11
3116.7171178472158
 21
1245.5221341691411
 31
0.0
  0
LINE
  5
10AC
  8
0
 62
     1
 10
3118.7171178472172
 20
1275.7721341691411
 30
0.0
 11
3118.7171178472172
 21
1265.7721341691411
 31
0.0
  0
LINE
  5
10AD
  8
0
 62
     1
 10
3118.7171178472172
 20
1282.5221341691411
 30
0.0
 11
3118.7171178472172
 21
1279.2721341691411
 31
0.0
  0
LINE
  5
10AE
  8
0
 62
     1
 10
3118.7171178472172
 20
1262.2721341691411
 30
0.0
 11
3118.7171178472172
 21
1252.2721341691411
 31
0.0
  0
LINE
  5
10AF
  8
0
 62
     1
 10
3118.7171178472172
 20
1248.7721341691411
 30
0.0
 11
3118.7171178472172
 21
1245.5221341691411
 31
0.0
  0
LINE
  5
10B0
  8
0
 62
     1
 10
3120.7171178472158
 20
1282.5221341691411
 30
0.0
 11
3120.7171178472158
 21
1272.5221341691411
 31
0.0
  0
LINE
  5
10B1
  8
0
 62
     1
 10
3120.7171178472158
 20
1269.0221341691411
 30
0.0
 11
3120.7171178472158
 21
1259.0221341691411
 31
0.0
  0
LINE
  5
10B2
  8
0
 62
     1
 10
3120.7171178472158
 20
1255.5221341691411
 30
0.0
 11
3120.7171178472158
 21
1245.5221341691411
 31
0.0
  0
LINE
  5
10B3
  8
0
 62
     1
 10
3122.7171178472172
 20
1275.7721341691411
 30
0.0
 11
3122.7171178472172
 21
1265.7721341691411
 31
0.0
  0
LINE
  5
10B4
  8
0
 62
     1
 10
3122.7171178472172
 20
1282.5221341691411
 30
0.0
 11
3122.7171178472172
 21
1279.2721341691411
 31
0.0
  0
LINE
  5
10B5
  8
0
 62
     1
 10
3122.7171178472172
 20
1262.2721341691411
 30
0.0
 11
3122.7171178472172
 21
1252.2721341691411
 31
0.0
  0
LINE
  5
10B6
  8
0
 62
     1
 10
3122.7171178472172
 20
1248.7721341691411
 30
0.0
 11
3122.7171178472172
 21
1245.5221341691411
 31
0.0
  0
LINE
  5
10B7
  8
0
 62
     1
 10
3124.7171178472172
 20
1282.5221341691411
 30
0.0
 11
3124.7171178472172
 21
1272.5221341691411
 31
0.0
  0
LINE
  5
10B8
  8
0
 62
     1
 10
3124.7171178472172
 20
1269.0221341691411
 30
0.0
 11
3124.7171178472172
 21
1259.0221341691411
 31
0.0
  0
LINE
  5
10B9
  8
0
 62
     1
 10
3124.7171178472172
 20
1255.5221341691411
 30
0.0
 11
3124.7171178472172
 21
1245.5221341691411
 31
0.0
  0
LINE
  5
10BA
  8
0
 62
     1
 10
3126.7171178472172
 20
1275.7721341691411
 30
0.0
 11
3126.7171178472172
 21
1265.7721341691411
 31
0.0
  0
LINE
  5
10BB
  8
0
 62
     1
 10
3126.7171178472172
 20
1282.5221341691411
 30
0.0
 11
3126.7171178472172
 21
1279.2721341691411
 31
0.0
  0
LINE
  5
10BC
  8
0
 62
     1
 10
3126.7171178472172
 20
1262.2721341691411
 30
0.0
 11
3126.7171178472172
 21
1252.2721341691411
 31
0.0
  0
LINE
  5
10BD
  8
0
 62
     1
 10
3126.7171178472172
 20
1248.7721341691411
 30
0.0
 11
3126.7171178472172
 21
1245.5221341691411
 31
0.0
  0
LINE
  5
10BE
  8
0
 62
     1
 10
3128.7171178472158
 20
1282.5221341691411
 30
0.0
 11
3128.7171178472158
 21
1272.5221341691411
 31
0.0
  0
LINE
  5
10BF
  8
0
 62
     1
 10
3128.7171178472158
 20
1269.0221341691411
 30
0.0
 11
3128.7171178472158
 21
1259.0221341691411
 31
0.0
  0
LINE
  5
10C0
  8
0
 62
     1
 10
3128.7171178472158
 20
1255.5221341691411
 30
0.0
 11
3128.7171178472158
 21
1245.5221341691411
 31
0.0
  0
LINE
  5
10C1
  8
0
 62
     1
 10
3130.7171178472172
 20
1275.7721341691411
 30
0.0
 11
3130.7171178472172
 21
1265.7721341691411
 31
0.0
  0
LINE
  5
10C2
  8
0
 62
     1
 10
3130.7171178472172
 20
1282.5221341691411
 30
0.0
 11
3130.7171178472172
 21
1279.2721341691411
 31
0.0
  0
LINE
  5
10C3
  8
0
 62
     1
 10
3130.7171178472172
 20
1262.2721341691411
 30
0.0
 11
3130.7171178472172
 21
1252.2721341691411
 31
0.0
  0
LINE
  5
10C4
  8
0
 62
     1
 10
3130.7171178472172
 20
1248.7721341691411
 30
0.0
 11
3130.7171178472172
 21
1245.5221341691411
 31
0.0
  0
LINE
  5
10C5
  8
0
 62
     1
 10
3132.7171178472158
 20
1282.5221341691411
 30
0.0
 11
3132.7171178472158
 21
1272.5221341691411
 31
0.0
  0
LINE
  5
10C6
  8
0
 62
     1
 10
3132.7171178472158
 20
1269.0221341691411
 30
0.0
 11
3132.7171178472158
 21
1259.0221341691411
 31
0.0
  0
LINE
  5
10C7
  8
0
 62
     1
 10
3132.7171178472158
 20
1255.5221341691411
 30
0.0
 11
3132.7171178472158
 21
1245.5221341691411
 31
0.0
  0
LINE
  5
10C8
  8
0
 62
     1
 10
3134.7171178472172
 20
1275.7721341691411
 30
0.0
 11
3134.7171178472172
 21
1265.7721341691411
 31
0.0
  0
LINE
  5
10C9
  8
0
 62
     1
 10
3134.7171178472172
 20
1282.5221341691411
 30
0.0
 11
3134.7171178472172
 21
1279.2721341691411
 31
0.0
  0
LINE
  5
10CA
  8
0
 62
     1
 10
3134.7171178472172
 20
1262.2721341691411
 30
0.0
 11
3134.7171178472172
 21
1252.2721341691411
 31
0.0
  0
LINE
  5
10CB
  8
0
 62
     1
 10
3134.7171178472172
 20
1248.7721341691411
 30
0.0
 11
3134.7171178472172
 21
1245.5221341691411
 31
0.0
  0
LINE
  5
10CC
  8
0
 62
     1
 10
3136.7171178472158
 20
1282.5221341691411
 30
0.0
 11
3136.7171178472158
 21
1272.5221341691411
 31
0.0
  0
LINE
  5
10CD
  8
0
 62
     1
 10
3136.7171178472158
 20
1269.0221341691411
 30
0.0
 11
3136.7171178472158
 21
1259.0221341691411
 31
0.0
  0
LINE
  5
10CE
  8
0
 62
     1
 10
3136.7171178472158
 20
1255.5221341691411
 30
0.0
 11
3136.7171178472158
 21
1245.5221341691411
 31
0.0
  0
LINE
  5
10CF
  8
0
 62
     1
 10
3138.7171178472158
 20
1275.7721341691411
 30
0.0
 11
3138.7171178472158
 21
1265.7721341691411
 31
0.0
  0
LINE
  5
10D0
  8
0
 62
     1
 10
3138.7171178472158
 20
1282.5221341691411
 30
0.0
 11
3138.7171178472158
 21
1279.2721341691411
 31
0.0
  0
LINE
  5
10D1
  8
0
 62
     1
 10
3138.7171178472158
 20
1262.2721341691411
 30
0.0
 11
3138.7171178472158
 21
1252.2721341691411
 31
0.0
  0
LINE
  5
10D2
  8
0
 62
     1
 10
3138.7171178472158
 20
1248.7721341691411
 30
0.0
 11
3138.7171178472158
 21
1245.5221341691411
 31
0.0
  0
LINE
  5
10D3
  8
0
 62
     1
 10
3140.7171178472172
 20
1282.5221341691411
 30
0.0
 11
3140.7171178472172
 21
1272.5221341691411
 31
0.0
  0
LINE
  5
10D4
  8
0
 62
     1
 10
3140.7171178472172
 20
1269.0221341691411
 30
0.0
 11
3140.7171178472172
 21
1259.0221341691411
 31
0.0
  0
LINE
  5
10D5
  8
0
 62
     1
 10
3140.7171178472172
 20
1255.5221341691411
 30
0.0
 11
3140.7171178472172
 21
1245.5221341691411
 31
0.0
  0
LINE
  5
10D6
  8
0
 62
     1
 10
3142.7171178472172
 20
1275.7721341691411
 30
0.0
 11
3142.7171178472172
 21
1265.7721341691411
 31
0.0
  0
LINE
  5
10D7
  8
0
 62
     1
 10
3142.7171178472172
 20
1282.5221341691411
 30
0.0
 11
3142.7171178472172
 21
1279.2721341691411
 31
0.0
  0
LINE
  5
10D8
  8
0
 62
     1
 10
3142.7171178472172
 20
1262.2721341691411
 30
0.0
 11
3142.7171178472172
 21
1252.2721341691411
 31
0.0
  0
LINE
  5
10D9
  8
0
 62
     1
 10
3142.7171178472172
 20
1248.7721341691411
 30
0.0
 11
3142.7171178472172
 21
1245.5221341691411
 31
0.0
  0
LINE
  5
10DA
  8
0
 62
     1
 10
3144.7171178472158
 20
1282.5221341691411
 30
0.0
 11
3144.7171178472158
 21
1272.5221341691411
 31
0.0
  0
LINE
  5
10DB
  8
0
 62
     1
 10
3144.7171178472158
 20
1269.0221341691411
 30
0.0
 11
3144.7171178472158
 21
1259.0221341691411
 31
0.0
  0
LINE
  5
10DC
  8
0
 62
     1
 10
3144.7171178472158
 20
1255.5221341691411
 30
0.0
 11
3144.7171178472158
 21
1245.5221341691411
 31
0.0
  0
LINE
  5
10DD
  8
0
 62
     1
 10
3146.7171178472172
 20
1275.7721341691411
 30
0.0
 11
3146.7171178472172
 21
1265.7721341691411
 31
0.0
  0
LINE
  5
10DE
  8
0
 62
     1
 10
3146.7171178472172
 20
1282.5221341691411
 30
0.0
 11
3146.7171178472172
 21
1279.2721341691411
 31
0.0
  0
LINE
  5
10DF
  8
0
 62
     1
 10
3146.7171178472172
 20
1262.2721341691411
 30
0.0
 11
3146.7171178472172
 21
1252.2721341691411
 31
0.0
  0
LINE
  5
10E0
  8
0
 62
     1
 10
3146.7171178472172
 20
1248.7721341691411
 30
0.0
 11
3146.7171178472172
 21
1245.5221341691411
 31
0.0
  0
LINE
  5
10E1
  8
0
 62
     1
 10
3148.7171178472158
 20
1282.5221341691411
 30
0.0
 11
3148.7171178472158
 21
1272.5221341691411
 31
0.0
  0
LINE
  5
10E2
  8
0
 62
     1
 10
3148.7171178472158
 20
1269.0221341691411
 30
0.0
 11
3148.7171178472158
 21
1259.0221341691411
 31
0.0
  0
LINE
  5
10E3
  8
0
 62
     1
 10
3148.7171178472158
 20
1255.5221341691411
 30
0.0
 11
3148.7171178472158
 21
1245.5221341691411
 31
0.0
  0
LINE
  5
10E4
  8
0
 62
     1
 10
3150.7171178472172
 20
1275.7721341691411
 30
0.0
 11
3150.7171178472172
 21
1265.7721341691411
 31
0.0
  0
LINE
  5
10E5
  8
0
 62
     1
 10
3150.7171178472172
 20
1282.5221341691411
 30
0.0
 11
3150.7171178472172
 21
1279.2721341691411
 31
0.0
  0
LINE
  5
10E6
  8
0
 62
     1
 10
3150.7171178472172
 20
1262.2721341691411
 30
0.0
 11
3150.7171178472172
 21
1252.2721341691411
 31
0.0
  0
LINE
  5
10E7
  8
0
 62
     1
 10
3150.7171178472172
 20
1248.7721341691411
 30
0.0
 11
3150.7171178472172
 21
1245.5221341691411
 31
0.0
  0
LINE
  5
10E8
  8
0
 62
     1
 10
3152.7171178472158
 20
1282.5221341691411
 30
0.0
 11
3152.7171178472158
 21
1272.5221341691411
 31
0.0
  0
LINE
  5
10E9
  8
0
 62
     1
 10
3152.7171178472158
 20
1269.0221341691411
 30
0.0
 11
3152.7171178472158
 21
1259.0221341691411
 31
0.0
  0
LINE
  5
10EA
  8
0
 62
     1
 10
3152.7171178472158
 20
1255.5221341691411
 30
0.0
 11
3152.7171178472158
 21
1245.5221341691411
 31
0.0
  0
LINE
  5
10EB
  8
0
 62
     1
 10
3154.7171178472158
 20
1275.7721341691411
 30
0.0
 11
3154.7171178472158
 21
1265.7721341691411
 31
0.0
  0
LINE
  5
10EC
  8
0
 62
     1
 10
3154.7171178472158
 20
1282.5221341691411
 30
0.0
 11
3154.7171178472158
 21
1279.2721341691411
 31
0.0
  0
LINE
  5
10ED
  8
0
 62
     1
 10
3154.7171178472158
 20
1262.2721341691411
 30
0.0
 11
3154.7171178472158
 21
1252.2721341691411
 31
0.0
  0
LINE
  5
10EE
  8
0
 62
     1
 10
3154.7171178472158
 20
1248.7721341691411
 30
0.0
 11
3154.7171178472158
 21
1245.5221341691411
 31
0.0
  0
LINE
  5
10EF
  8
0
 62
     1
 10
3156.7171178472172
 20
1282.5221341691411
 30
0.0
 11
3156.7171178472172
 21
1272.5221341691411
 31
0.0
  0
LINE
  5
10F0
  8
0
 62
     1
 10
3156.7171178472172
 20
1269.0221341691411
 30
0.0
 11
3156.7171178472172
 21
1259.0221341691411
 31
0.0
  0
LINE
  5
10F1
  8
0
 62
     1
 10
3156.7171178472172
 20
1255.5221341691411
 30
0.0
 11
3156.7171178472172
 21
1245.5221341691411
 31
0.0
  0
LINE
  5
10F2
  8
0
 62
     1
 10
3158.7171178472172
 20
1275.7721341691411
 30
0.0
 11
3158.7171178472172
 21
1265.7721341691411
 31
0.0
  0
LINE
  5
10F3
  8
0
 62
     1
 10
3158.7171178472172
 20
1282.5221341691411
 30
0.0
 11
3158.7171178472172
 21
1279.2721341691411
 31
0.0
  0
LINE
  5
10F4
  8
0
 62
     1
 10
3158.7171178472172
 20
1262.2721341691411
 30
0.0
 11
3158.7171178472172
 21
1252.2721341691411
 31
0.0
  0
LINE
  5
10F5
  8
0
 62
     1
 10
3158.7171178472172
 20
1248.7721341691411
 30
0.0
 11
3158.7171178472172
 21
1245.5221341691411
 31
0.0
  0
LINE
  5
10F6
  8
0
 62
     1
 10
3160.7171178472158
 20
1282.5221341691411
 30
0.0
 11
3160.7171178472158
 21
1272.5221341691411
 31
0.0
  0
LINE
  5
10F7
  8
0
 62
     1
 10
3160.7171178472158
 20
1269.0221341691411
 30
0.0
 11
3160.7171178472158
 21
1259.0221341691411
 31
0.0
  0
LINE
  5
10F8
  8
0
 62
     1
 10
3160.7171178472158
 20
1255.5221341691411
 30
0.0
 11
3160.7171178472158
 21
1245.5221341691411
 31
0.0
  0
LINE
  5
10F9
  8
0
 62
     1
 10
3162.7171178472172
 20
1275.7721341691411
 30
0.0
 11
3162.7171178472172
 21
1265.7721341691411
 31
0.0
  0
LINE
  5
10FA
  8
0
 62
     1
 10
3162.7171178472172
 20
1282.5221341691411
 30
0.0
 11
3162.7171178472172
 21
1279.2721341691411
 31
0.0
  0
LINE
  5
10FB
  8
0
 62
     1
 10
3162.7171178472172
 20
1262.2721341691411
 30
0.0
 11
3162.7171178472172
 21
1252.2721341691411
 31
0.0
  0
LINE
  5
10FC
  8
0
 62
     1
 10
3162.7171178472172
 20
1248.7721341691411
 30
0.0
 11
3162.7171178472172
 21
1245.5221341691411
 31
0.0
  0
LINE
  5
10FD
  8
0
 62
     1
 10
3164.7171178472158
 20
1282.5221341691411
 30
0.0
 11
3164.7171178472158
 21
1272.5221341691411
 31
0.0
  0
LINE
  5
10FE
  8
0
 62
     1
 10
3164.7171178472158
 20
1269.0221341691411
 30
0.0
 11
3164.7171178472158
 21
1259.0221341691411
 31
0.0
  0
LINE
  5
10FF
  8
0
 62
     1
 10
3164.7171178472158
 20
1255.5221341691411
 30
0.0
 11
3164.7171178472158
 21
1245.5221341691411
 31
0.0
  0
LINE
  5
1100
  8
0
 62
     1
 10
3166.7171178472172
 20
1275.7721341691411
 30
0.0
 11
3166.7171178472172
 21
1265.7721341691411
 31
0.0
  0
LINE
  5
1101
  8
0
 62
     1
 10
3166.7171178472172
 20
1282.5221341691411
 30
0.0
 11
3166.7171178472172
 21
1279.2721341691411
 31
0.0
  0
LINE
  5
1102
  8
0
 62
     1
 10
3166.7171178472172
 20
1262.2721341691411
 30
0.0
 11
3166.7171178472172
 21
1252.2721341691411
 31
0.0
  0
LINE
  5
1103
  8
0
 62
     1
 10
3166.7171178472172
 20
1248.7721341691411
 30
0.0
 11
3166.7171178472172
 21
1245.5221341691411
 31
0.0
  0
LINE
  5
1104
  8
0
 62
     1
 10
3168.7171178472158
 20
1282.5221341691411
 30
0.0
 11
3168.7171178472158
 21
1272.5221341691411
 31
0.0
  0
LINE
  5
1105
  8
0
 62
     1
 10
3168.7171178472158
 20
1269.0221341691411
 30
0.0
 11
3168.7171178472158
 21
1259.0221341691411
 31
0.0
  0
LINE
  5
1106
  8
0
 62
     1
 10
3168.7171178472158
 20
1255.5221341691411
 30
0.0
 11
3168.7171178472158
 21
1245.5221341691411
 31
0.0
  0
LINE
  5
1107
  8
0
 62
     1
 10
3170.7171178472158
 20
1275.7721341691411
 30
0.0
 11
3170.7171178472158
 21
1265.7721341691411
 31
0.0
  0
LINE
  5
1108
  8
0
 62
     1
 10
3170.7171178472158
 20
1282.5221341691411
 30
0.0
 11
3170.7171178472158
 21
1279.2721341691411
 31
0.0
  0
LINE
  5
1109
  8
0
 62
     1
 10
3170.7171178472158
 20
1262.2721341691411
 30
0.0
 11
3170.7171178472158
 21
1252.2721341691411
 31
0.0
  0
LINE
  5
110A
  8
0
 62
     1
 10
3170.7171178472158
 20
1248.7721341691411
 30
0.0
 11
3170.7171178472158
 21
1245.5221341691411
 31
0.0
  0
LINE
  5
110B
  8
0
 62
     1
 10
3172.7171178472172
 20
1282.5221341691411
 30
0.0
 11
3172.7171178472172
 21
1272.5221341691411
 31
0.0
  0
LINE
  5
110C
  8
0
 62
     1
 10
3172.7171178472172
 20
1269.0221341691411
 30
0.0
 11
3172.7171178472172
 21
1259.0221341691411
 31
0.0
  0
LINE
  5
110D
  8
0
 62
     1
 10
3172.7171178472172
 20
1255.5221341691411
 30
0.0
 11
3172.7171178472172
 21
1245.5221341691411
 31
0.0
  0
LINE
  5
110E
  8
0
 62
     1
 10
3174.7171178472172
 20
1275.7721341691411
 30
0.0
 11
3174.7171178472172
 21
1265.7721341691411
 31
0.0
  0
LINE
  5
110F
  8
0
 62
     1
 10
3174.7171178472172
 20
1282.5221341691411
 30
0.0
 11
3174.7171178472172
 21
1279.2721341691411
 31
0.0
  0
LINE
  5
1110
  8
0
 62
     1
 10
3174.7171178472172
 20
1262.2721341691411
 30
0.0
 11
3174.7171178472172
 21
1252.2721341691411
 31
0.0
  0
LINE
  5
1111
  8
0
 62
     1
 10
3174.7171178472172
 20
1248.7721341691411
 30
0.0
 11
3174.7171178472172
 21
1245.5221341691411
 31
0.0
  0
LINE
  5
1112
  8
0
 62
     1
 10
3176.7171178472158
 20
1282.5221341691411
 30
0.0
 11
3176.7171178472158
 21
1272.5221341691411
 31
0.0
  0
LINE
  5
1113
  8
0
 62
     1
 10
3176.7171178472158
 20
1269.0221341691411
 30
0.0
 11
3176.7171178472158
 21
1259.0221341691411
 31
0.0
  0
LINE
  5
1114
  8
0
 62
     1
 10
3176.7171178472158
 20
1255.5221341691411
 30
0.0
 11
3176.7171178472158
 21
1245.5221341691411
 31
0.0
  0
LINE
  5
1115
  8
0
 62
     1
 10
3178.7171178472172
 20
1275.7721341691411
 30
0.0
 11
3178.7171178472172
 21
1265.7721341691411
 31
0.0
  0
LINE
  5
1116
  8
0
 62
     1
 10
3178.7171178472172
 20
1282.5221341691411
 30
0.0
 11
3178.7171178472172
 21
1279.2721341691411
 31
0.0
  0
LINE
  5
1117
  8
0
 62
     1
 10
3178.7171178472172
 20
1262.2721341691411
 30
0.0
 11
3178.7171178472172
 21
1252.2721341691411
 31
0.0
  0
LINE
  5
1118
  8
0
 62
     1
 10
3178.7171178472172
 20
1248.7721341691411
 30
0.0
 11
3178.7171178472172
 21
1245.5221341691411
 31
0.0
  0
LINE
  5
1119
  8
0
 62
     1
 10
3180.7171178472158
 20
1282.5221341691411
 30
0.0
 11
3180.7171178472158
 21
1272.5221341691411
 31
0.0
  0
LINE
  5
111A
  8
0
 62
     1
 10
3180.7171178472158
 20
1269.0221341691411
 30
0.0
 11
3180.7171178472158
 21
1259.0221341691411
 31
0.0
  0
LINE
  5
111B
  8
0
 62
     1
 10
3180.7171178472158
 20
1255.5221341691411
 30
0.0
 11
3180.7171178472158
 21
1245.5221341691411
 31
0.0
  0
LINE
  5
111C
  8
0
 62
     1
 10
3182.7171178472172
 20
1275.7721341691411
 30
0.0
 11
3182.7171178472172
 21
1265.7721341691411
 31
0.0
  0
LINE
  5
111D
  8
0
 62
     1
 10
3182.7171178472172
 20
1282.5221341691411
 30
0.0
 11
3182.7171178472172
 21
1279.2721341691411
 31
0.0
  0
LINE
  5
111E
  8
0
 62
     1
 10
3182.7171178472172
 20
1262.2721341691411
 30
0.0
 11
3182.7171178472172
 21
1252.2721341691411
 31
0.0
  0
LINE
  5
111F
  8
0
 62
     1
 10
3182.7171178472172
 20
1248.7721341691411
 30
0.0
 11
3182.7171178472172
 21
1245.5221341691411
 31
0.0
  0
LINE
  5
1120
  8
0
 62
     1
 10
3184.7171178472158
 20
1282.5221341691411
 30
0.0
 11
3184.7171178472158
 21
1272.5221341691411
 31
0.0
  0
LINE
  5
1121
  8
0
 62
     1
 10
3184.7171178472158
 20
1269.0221341691411
 30
0.0
 11
3184.7171178472158
 21
1259.0221341691411
 31
0.0
  0
LINE
  5
1122
  8
0
 62
     1
 10
3184.7171178472158
 20
1255.5221341691411
 30
0.0
 11
3184.7171178472158
 21
1245.5221341691411
 31
0.0
  0
LINE
  5
1123
  8
0
 62
     1
 10
3186.7171178472158
 20
1275.7721341691411
 30
0.0
 11
3186.7171178472158
 21
1265.7721341691411
 31
0.0
  0
LINE
  5
1124
  8
0
 62
     1
 10
3186.7171178472158
 20
1282.5221341691411
 30
0.0
 11
3186.7171178472158
 21
1279.2721341691411
 31
0.0
  0
LINE
  5
1125
  8
0
 62
     1
 10
3186.7171178472158
 20
1262.2721341691411
 30
0.0
 11
3186.7171178472158
 21
1252.2721341691411
 31
0.0
  0
LINE
  5
1126
  8
0
 62
     1
 10
3186.7171178472158
 20
1248.7721341691411
 30
0.0
 11
3186.7171178472158
 21
1245.5221341691411
 31
0.0
  0
LINE
  5
1127
  8
0
 62
     1
 10
3188.7171178472158
 20
1282.5221341691411
 30
0.0
 11
3188.7171178472158
 21
1272.5221341691411
 31
0.0
  0
LINE
  5
1128
  8
0
 62
     1
 10
3188.7171178472158
 20
1269.0221341691411
 30
0.0
 11
3188.7171178472158
 21
1259.0221341691411
 31
0.0
  0
LINE
  5
1129
  8
0
 62
     1
 10
3188.7171178472158
 20
1255.5221341691411
 30
0.0
 11
3188.7171178472158
 21
1245.5221341691411
 31
0.0
  0
LINE
  5
112A
  8
0
 62
     1
 10
3190.7171178472172
 20
1275.7721341691411
 30
0.0
 11
3190.7171178472172
 21
1265.7721341691411
 31
0.0
  0
LINE
  5
112B
  8
0
 62
     1
 10
3190.7171178472172
 20
1282.5221341691411
 30
0.0
 11
3190.7171178472172
 21
1279.2721341691411
 31
0.0
  0
LINE
  5
112C
  8
0
 62
     1
 10
3190.7171178472172
 20
1262.2721341691411
 30
0.0
 11
3190.7171178472172
 21
1252.2721341691411
 31
0.0
  0
LINE
  5
112D
  8
0
 62
     1
 10
3190.7171178472172
 20
1248.7721341691411
 30
0.0
 11
3190.7171178472172
 21
1245.5221341691411
 31
0.0
  0
LINE
  5
112E
  8
0
 62
     1
 10
3192.7171178472158
 20
1282.5221341691411
 30
0.0
 11
3192.7171178472158
 21
1272.5221341691411
 31
0.0
  0
LINE
  5
112F
  8
0
 62
     1
 10
3192.7171178472158
 20
1269.0221341691411
 30
0.0
 11
3192.7171178472158
 21
1259.0221341691411
 31
0.0
  0
LINE
  5
1130
  8
0
 62
     1
 10
3192.7171178472158
 20
1255.5221341691411
 30
0.0
 11
3192.7171178472158
 21
1245.5221341691411
 31
0.0
  0
LINE
  5
1131
  8
0
 62
     1
 10
3194.7171178472172
 20
1275.7721341691411
 30
0.0
 11
3194.7171178472172
 21
1265.7721341691411
 31
0.0
  0
LINE
  5
1132
  8
0
 62
     1
 10
3194.7171178472172
 20
1282.5221341691411
 30
0.0
 11
3194.7171178472172
 21
1279.2721341691411
 31
0.0
  0
LINE
  5
1133
  8
0
 62
     1
 10
3194.7171178472172
 20
1262.2721341691411
 30
0.0
 11
3194.7171178472172
 21
1252.2721341691411
 31
0.0
  0
LINE
  5
1134
  8
0
 62
     1
 10
3194.7171178472172
 20
1248.7721341691411
 30
0.0
 11
3194.7171178472172
 21
1245.5221341691411
 31
0.0
  0
LINE
  5
1135
  8
0
 62
     1
 10
3196.7171178472158
 20
1282.5221341691411
 30
0.0
 11
3196.7171178472158
 21
1272.5221341691411
 31
0.0
  0
LINE
  5
1136
  8
0
 62
     1
 10
3196.7171178472158
 20
1269.0221341691411
 30
0.0
 11
3196.7171178472158
 21
1259.0221341691411
 31
0.0
  0
LINE
  5
1137
  8
0
 62
     1
 10
3196.7171178472158
 20
1255.5221341691411
 30
0.0
 11
3196.7171178472158
 21
1245.5221341691411
 31
0.0
  0
LINE
  5
1138
  8
0
 62
     1
 10
3198.7171178472172
 20
1275.7721341691411
 30
0.0
 11
3198.7171178472172
 21
1265.7721341691411
 31
0.0
  0
LINE
  5
1139
  8
0
 62
     1
 10
3198.7171178472172
 20
1282.5221341691411
 30
0.0
 11
3198.7171178472172
 21
1279.2721341691411
 31
0.0
  0
LINE
  5
113A
  8
0
 62
     1
 10
3198.7171178472172
 20
1262.2721341691411
 30
0.0
 11
3198.7171178472172
 21
1252.2721341691411
 31
0.0
  0
LINE
  5
113B
  8
0
 62
     1
 10
3198.7171178472172
 20
1248.7721341691411
 30
0.0
 11
3198.7171178472172
 21
1245.5221341691411
 31
0.0
  0
LINE
  5
113C
  8
0
 62
     1
 10
3200.7171178472158
 20
1282.5221341691411
 30
0.0
 11
3200.7171178472158
 21
1272.5221341691411
 31
0.0
  0
LINE
  5
113D
  8
0
 62
     1
 10
3200.7171178472158
 20
1269.0221341691411
 30
0.0
 11
3200.7171178472158
 21
1259.0221341691411
 31
0.0
  0
LINE
  5
113E
  8
0
 62
     1
 10
3200.7171178472158
 20
1255.5221341691411
 30
0.0
 11
3200.7171178472158
 21
1245.5221341691411
 31
0.0
  0
LINE
  5
113F
  8
0
 62
     1
 10
3202.7171178472172
 20
1275.7721341691411
 30
0.0
 11
3202.7171178472172
 21
1265.7721341691411
 31
0.0
  0
LINE
  5
1140
  8
0
 62
     1
 10
3202.7171178472172
 20
1282.5221341691411
 30
0.0
 11
3202.7171178472172
 21
1279.2721341691411
 31
0.0
  0
LINE
  5
1141
  8
0
 62
     1
 10
3202.7171178472172
 20
1262.2721341691411
 30
0.0
 11
3202.7171178472172
 21
1252.2721341691411
 31
0.0
  0
LINE
  5
1142
  8
0
 62
     1
 10
3202.7171178472172
 20
1248.7721341691411
 30
0.0
 11
3202.7171178472172
 21
1245.5221341691411
 31
0.0
  0
LINE
  5
1143
  8
0
 62
     1
 10
3204.7171178472158
 20
1282.5221341691411
 30
0.0
 11
3204.7171178472158
 21
1272.5221341691411
 31
0.0
  0
LINE
  5
1144
  8
0
 62
     1
 10
3204.7171178472158
 20
1269.0221341691411
 30
0.0
 11
3204.7171178472158
 21
1259.0221341691411
 31
0.0
  0
LINE
  5
1145
  8
0
 62
     1
 10
3204.7171178472158
 20
1255.5221341691411
 30
0.0
 11
3204.7171178472158
 21
1245.5221341691411
 31
0.0
  0
LINE
  5
1146
  8
0
 62
     1
 10
3206.7171178472172
 20
1275.7721341691411
 30
0.0
 11
3206.7171178472172
 21
1265.7721341691411
 31
0.0
  0
LINE
  5
1147
  8
0
 62
     1
 10
3206.7171178472172
 20
1282.5221341691411
 30
0.0
 11
3206.7171178472172
 21
1279.2721341691411
 31
0.0
  0
LINE
  5
1148
  8
0
 62
     1
 10
3206.7171178472172
 20
1262.2721341691411
 30
0.0
 11
3206.7171178472172
 21
1252.2721341691411
 31
0.0
  0
LINE
  5
1149
  8
0
 62
     1
 10
3206.7171178472172
 20
1248.7721341691411
 30
0.0
 11
3206.7171178472172
 21
1245.5221341691411
 31
0.0
  0
LINE
  5
114A
  8
0
 62
     1
 10
3208.7171178472158
 20
1282.5221341691411
 30
0.0
 11
3208.7171178472158
 21
1272.5221341691411
 31
0.0
  0
LINE
  5
114B
  8
0
 62
     1
 10
3208.7171178472158
 20
1269.0221341691411
 30
0.0
 11
3208.7171178472158
 21
1259.0221341691411
 31
0.0
  0
LINE
  5
114C
  8
0
 62
     1
 10
3208.7171178472158
 20
1255.5221341691411
 30
0.0
 11
3208.7171178472158
 21
1245.5221341691411
 31
0.0
  0
LINE
  5
114D
  8
0
 62
     1
 10
3210.7171178472172
 20
1275.7721341691411
 30
0.0
 11
3210.7171178472172
 21
1265.7721341691411
 31
0.0
  0
LINE
  5
114E
  8
0
 62
     1
 10
3210.7171178472172
 20
1282.5221341691411
 30
0.0
 11
3210.7171178472172
 21
1279.2721341691411
 31
0.0
  0
LINE
  5
114F
  8
0
 62
     1
 10
3210.7171178472172
 20
1262.2721341691411
 30
0.0
 11
3210.7171178472172
 21
1252.2721341691411
 31
0.0
  0
LINE
  5
1150
  8
0
 62
     1
 10
3210.7171178472172
 20
1248.7721341691411
 30
0.0
 11
3210.7171178472172
 21
1245.5221341691411
 31
0.0
  0
LINE
  5
1151
  8
0
 62
     1
 10
3212.7171178472158
 20
1282.5221341691411
 30
0.0
 11
3212.7171178472158
 21
1272.5221341691411
 31
0.0
  0
LINE
  5
1152
  8
0
 62
     1
 10
3212.7171178472158
 20
1269.0221341691411
 30
0.0
 11
3212.7171178472158
 21
1259.0221341691411
 31
0.0
  0
LINE
  5
1153
  8
0
 62
     1
 10
3212.7171178472158
 20
1255.5221341691411
 30
0.0
 11
3212.7171178472158
 21
1245.5221341691411
 31
0.0
  0
LINE
  5
1154
  8
0
 62
     1
 10
3214.7171178472172
 20
1275.7721341691411
 30
0.0
 11
3214.7171178472172
 21
1265.7721341691411
 31
0.0
  0
LINE
  5
1155
  8
0
 62
     1
 10
3214.7171178472172
 20
1282.5221341691411
 30
0.0
 11
3214.7171178472172
 21
1279.2721341691411
 31
0.0
  0
LINE
  5
1156
  8
0
 62
     1
 10
3214.7171178472172
 20
1262.2721341691411
 30
0.0
 11
3214.7171178472172
 21
1252.2721341691411
 31
0.0
  0
LINE
  5
1157
  8
0
 62
     1
 10
3214.7171178472172
 20
1248.7721341691411
 30
0.0
 11
3214.7171178472172
 21
1245.5221341691411
 31
0.0
  0
LINE
  5
1158
  8
0
 62
     1
 10
3216.7171178472172
 20
1282.5221341691411
 30
0.0
 11
3216.7171178472172
 21
1272.5221341691411
 31
0.0
  0
LINE
  5
1159
  8
0
 62
     1
 10
3216.7171178472172
 20
1269.0221341691411
 30
0.0
 11
3216.7171178472172
 21
1259.0221341691411
 31
0.0
  0
LINE
  5
115A
  8
0
 62
     1
 10
3216.7171178472172
 20
1255.5221341691411
 30
0.0
 11
3216.7171178472172
 21
1245.5221341691411
 31
0.0
  0
LINE
  5
115B
  8
0
 62
     1
 10
3218.7171178472158
 20
1275.7721341691411
 30
0.0
 11
3218.7171178472158
 21
1265.7721341691411
 31
0.0
  0
LINE
  5
115C
  8
0
 62
     1
 10
3218.7171178472158
 20
1282.5221341691411
 30
0.0
 11
3218.7171178472158
 21
1279.2721341691411
 31
0.0
  0
LINE
  5
115D
  8
0
 62
     1
 10
3218.7171178472158
 20
1262.2721341691411
 30
0.0
 11
3218.7171178472158
 21
1252.2721341691411
 31
0.0
  0
LINE
  5
115E
  8
0
 62
     1
 10
3218.7171178472158
 20
1248.7721341691411
 30
0.0
 11
3218.7171178472158
 21
1245.5221341691411
 31
0.0
  0
LINE
  5
115F
  8
0
 62
     1
 10
3220.7171178472172
 20
1282.5221341691411
 30
0.0
 11
3220.7171178472172
 21
1272.5221341691411
 31
0.0
  0
LINE
  5
1160
  8
0
 62
     1
 10
3220.7171178472172
 20
1269.0221341691411
 30
0.0
 11
3220.7171178472172
 21
1259.0221341691411
 31
0.0
  0
LINE
  5
1161
  8
0
 62
     1
 10
3220.7171178472172
 20
1255.5221341691411
 30
0.0
 11
3220.7171178472172
 21
1245.5221341691411
 31
0.0
  0
LINE
  5
1162
  8
0
 62
     1
 10
3222.7171178472158
 20
1275.7721341691411
 30
0.0
 11
3222.7171178472158
 21
1265.7721341691411
 31
0.0
  0
LINE
  5
1163
  8
0
 62
     1
 10
3222.7171178472158
 20
1282.5221341691411
 30
0.0
 11
3222.7171178472158
 21
1279.2721341691411
 31
0.0
  0
LINE
  5
1164
  8
0
 62
     1
 10
3222.7171178472158
 20
1262.2721341691411
 30
0.0
 11
3222.7171178472158
 21
1252.2721341691411
 31
0.0
  0
LINE
  5
1165
  8
0
 62
     1
 10
3222.7171178472158
 20
1248.7721341691411
 30
0.0
 11
3222.7171178472158
 21
1245.5221341691411
 31
0.0
  0
LINE
  5
1166
  8
0
 62
     1
 10
3224.7171178472158
 20
1282.5221341691411
 30
0.0
 11
3224.7171178472158
 21
1272.5221341691411
 31
0.0
  0
LINE
  5
1167
  8
0
 62
     1
 10
3224.7171178472158
 20
1269.0221341691411
 30
0.0
 11
3224.7171178472158
 21
1259.0221341691411
 31
0.0
  0
LINE
  5
1168
  8
0
 62
     1
 10
3224.7171178472158
 20
1255.5221341691411
 30
0.0
 11
3224.7171178472158
 21
1245.5221341691411
 31
0.0
  0
LINE
  5
1169
  8
0
 62
     1
 10
3226.7171178472158
 20
1275.7721341691411
 30
0.0
 11
3226.7171178472158
 21
1265.7721341691411
 31
0.0
  0
LINE
  5
116A
  8
0
 62
     1
 10
3226.7171178472158
 20
1282.5221341691411
 30
0.0
 11
3226.7171178472158
 21
1279.2721341691411
 31
0.0
  0
LINE
  5
116B
  8
0
 62
     1
 10
3226.7171178472158
 20
1262.2721341691411
 30
0.0
 11
3226.7171178472158
 21
1252.2721341691411
 31
0.0
  0
LINE
  5
116C
  8
0
 62
     1
 10
3226.7171178472158
 20
1248.7721341691411
 30
0.0
 11
3226.7171178472158
 21
1245.5221341691411
 31
0.0
  0
LINE
  5
116D
  8
0
 62
     1
 10
3228.7171178472158
 20
1282.5221341691411
 30
0.0
 11
3228.7171178472158
 21
1272.5221341691411
 31
0.0
  0
LINE
  5
116E
  8
0
 62
     1
 10
3228.7171178472158
 20
1269.0221341691411
 30
0.0
 11
3228.7171178472158
 21
1259.0221341691411
 31
0.0
  0
LINE
  5
116F
  8
0
 62
     1
 10
3228.7171178472158
 20
1255.5221341691411
 30
0.0
 11
3228.7171178472158
 21
1245.5221341691411
 31
0.0
  0
LINE
  5
1170
  8
0
 62
     1
 10
3230.7171178472158
 20
1275.7721341691411
 30
0.0
 11
3230.7171178472158
 21
1265.7721341691411
 31
0.0
  0
LINE
  5
1171
  8
0
 62
     1
 10
3230.7171178472158
 20
1282.5221341691411
 30
0.0
 11
3230.7171178472158
 21
1279.2721341691411
 31
0.0
  0
LINE
  5
1172
  8
0
 62
     1
 10
3230.7171178472158
 20
1262.2721341691411
 30
0.0
 11
3230.7171178472158
 21
1252.2721341691411
 31
0.0
  0
LINE
  5
1173
  8
0
 62
     1
 10
3230.7171178472158
 20
1248.7721341691411
 30
0.0
 11
3230.7171178472158
 21
1245.5221341691411
 31
0.0
  0
LINE
  5
1174
  8
0
 62
     1
 10
3232.7171178472158
 20
1282.5221341691411
 30
0.0
 11
3232.7171178472158
 21
1272.5221341691411
 31
0.0
  0
LINE
  5
1175
  8
0
 62
     1
 10
3232.7171178472158
 20
1269.0221341691411
 30
0.0
 11
3232.7171178472158
 21
1259.0221341691411
 31
0.0
  0
LINE
  5
1176
  8
0
 62
     1
 10
3232.7171178472158
 20
1255.5221341691411
 30
0.0
 11
3232.7171178472158
 21
1245.5221341691411
 31
0.0
  0
LINE
  5
1177
  8
0
 62
     1
 10
3234.7171178472172
 20
1275.7721341691411
 30
0.0
 11
3234.7171178472172
 21
1265.7721341691411
 31
0.0
  0
LINE
  5
1178
  8
0
 62
     1
 10
3234.7171178472172
 20
1282.5221341691411
 30
0.0
 11
3234.7171178472172
 21
1279.2721341691411
 31
0.0
  0
LINE
  5
1179
  8
0
 62
     1
 10
3234.7171178472172
 20
1262.2721341691411
 30
0.0
 11
3234.7171178472172
 21
1252.2721341691411
 31
0.0
  0
LINE
  5
117A
  8
0
 62
     1
 10
3234.7171178472172
 20
1248.7721341691411
 30
0.0
 11
3234.7171178472172
 21
1245.5221341691411
 31
0.0
  0
LINE
  5
117B
  8
0
 62
     1
 10
3236.7171178472158
 20
1282.5221341691411
 30
0.0
 11
3236.7171178472158
 21
1272.5221341691411
 31
0.0
  0
LINE
  5
117C
  8
0
 62
     1
 10
3236.7171178472158
 20
1269.0221341691411
 30
0.0
 11
3236.7171178472158
 21
1259.0221341691411
 31
0.0
  0
LINE
  5
117D
  8
0
 62
     1
 10
3236.7171178472158
 20
1255.5221341691411
 30
0.0
 11
3236.7171178472158
 21
1245.5221341691411
 31
0.0
  0
LINE
  5
117E
  8
0
 62
     1
 10
3238.7171178472172
 20
1275.7721341691411
 30
0.0
 11
3238.7171178472172
 21
1265.7721341691411
 31
0.0
  0
LINE
  5
117F
  8
0
 62
     1
 10
3238.7171178472172
 20
1282.5221341691411
 30
0.0
 11
3238.7171178472172
 21
1279.2721341691411
 31
0.0
  0
LINE
  5
1180
  8
0
 62
     1
 10
3238.7171178472172
 20
1262.2721341691411
 30
0.0
 11
3238.7171178472172
 21
1252.2721341691411
 31
0.0
  0
LINE
  5
1181
  8
0
 62
     1
 10
3238.7171178472172
 20
1248.7721341691411
 30
0.0
 11
3238.7171178472172
 21
1245.5221341691411
 31
0.0
  0
LINE
  5
1182
  8
0
 62
     1
 10
3240.7171178472158
 20
1282.5221341691411
 30
0.0
 11
3240.7171178472158
 21
1272.5221341691411
 31
0.0
  0
LINE
  5
1183
  8
0
 62
     1
 10
3240.7171178472158
 20
1269.0221341691411
 30
0.0
 11
3240.7171178472158
 21
1259.0221341691411
 31
0.0
  0
LINE
  5
1184
  8
0
 62
     1
 10
3240.7171178472158
 20
1255.5221341691411
 30
0.0
 11
3240.7171178472158
 21
1245.5221341691411
 31
0.0
  0
LINE
  5
1185
  8
0
 62
     1
 10
3242.7171178472172
 20
1275.7721341691411
 30
0.0
 11
3242.7171178472172
 21
1265.7721341691411
 31
0.0
  0
LINE
  5
1186
  8
0
 62
     1
 10
3242.7171178472172
 20
1282.5221341691411
 30
0.0
 11
3242.7171178472172
 21
1279.2721341691411
 31
0.0
  0
LINE
  5
1187
  8
0
 62
     1
 10
3242.7171178472172
 20
1262.2721341691411
 30
0.0
 11
3242.7171178472172
 21
1252.2721341691411
 31
0.0
  0
LINE
  5
1188
  8
0
 62
     1
 10
3242.7171178472172
 20
1248.7721341691411
 30
0.0
 11
3242.7171178472172
 21
1245.5221341691411
 31
0.0
  0
LINE
  5
1189
  8
0
 62
     1
 10
3244.7171178472158
 20
1282.5221341691411
 30
0.0
 11
3244.7171178472158
 21
1272.5221341691411
 31
0.0
  0
LINE
  5
118A
  8
0
 62
     1
 10
3244.7171178472158
 20
1269.0221341691411
 30
0.0
 11
3244.7171178472158
 21
1259.0221341691411
 31
0.0
  0
LINE
  5
118B
  8
0
 62
     1
 10
3244.7171178472158
 20
1255.5221341691411
 30
0.0
 11
3244.7171178472158
 21
1245.5221341691411
 31
0.0
  0
LINE
  5
118C
  8
0
 62
     1
 10
3246.7171178472172
 20
1275.7721341691411
 30
0.0
 11
3246.7171178472172
 21
1265.7721341691411
 31
0.0
  0
LINE
  5
118D
  8
0
 62
     1
 10
3246.7171178472172
 20
1282.5221341691411
 30
0.0
 11
3246.7171178472172
 21
1279.2721341691411
 31
0.0
  0
LINE
  5
118E
  8
0
 62
     1
 10
3246.7171178472172
 20
1262.2721341691411
 30
0.0
 11
3246.7171178472172
 21
1252.2721341691411
 31
0.0
  0
LINE
  5
118F
  8
0
 62
     1
 10
3246.7171178472172
 20
1248.7721341691411
 30
0.0
 11
3246.7171178472172
 21
1245.5221341691411
 31
0.0
  0
LINE
  5
1190
  8
0
 62
     1
 10
3248.7171178472172
 20
1282.5221341691411
 30
0.0
 11
3248.7171178472172
 21
1272.5221341691411
 31
0.0
  0
LINE
  5
1191
  8
0
 62
     1
 10
3248.7171178472172
 20
1269.0221341691411
 30
0.0
 11
3248.7171178472172
 21
1259.0221341691411
 31
0.0
  0
LINE
  5
1192
  8
0
 62
     1
 10
3248.7171178472172
 20
1255.5221341691411
 30
0.0
 11
3248.7171178472172
 21
1245.5221341691411
 31
0.0
  0
LINE
  5
1193
  8
0
 62
     1
 10
3250.7171178472158
 20
1275.7721341691411
 30
0.0
 11
3250.7171178472158
 21
1265.7721341691411
 31
0.0
  0
LINE
  5
1194
  8
0
 62
     1
 10
3250.7171178472158
 20
1282.5221341691411
 30
0.0
 11
3250.7171178472158
 21
1279.2721341691411
 31
0.0
  0
LINE
  5
1195
  8
0
 62
     1
 10
3250.7171178472158
 20
1262.2721341691411
 30
0.0
 11
3250.7171178472158
 21
1252.2721341691411
 31
0.0
  0
LINE
  5
1196
  8
0
 62
     1
 10
3250.7171178472158
 20
1248.7721341691411
 30
0.0
 11
3250.7171178472158
 21
1245.5221341691411
 31
0.0
  0
LINE
  5
1197
  8
0
 62
     1
 10
3252.7171178472172
 20
1282.5221341691411
 30
0.0
 11
3252.7171178472172
 21
1272.5221341691411
 31
0.0
  0
LINE
  5
1198
  8
0
 62
     1
 10
3252.7171178472172
 20
1269.0221341691411
 30
0.0
 11
3252.7171178472172
 21
1259.0221341691411
 31
0.0
  0
LINE
  5
1199
  8
0
 62
     1
 10
3252.7171178472172
 20
1255.5221341691411
 30
0.0
 11
3252.7171178472172
 21
1245.5221341691411
 31
0.0
  0
LINE
  5
119A
  8
0
 62
     1
 10
3254.7171178472158
 20
1275.7721341691411
 30
0.0
 11
3254.7171178472158
 21
1265.7721341691411
 31
0.0
  0
LINE
  5
119B
  8
0
 62
     1
 10
3254.7171178472158
 20
1282.5221341691411
 30
0.0
 11
3254.7171178472158
 21
1279.2721341691411
 31
0.0
  0
LINE
  5
119C
  8
0
 62
     1
 10
3254.7171178472158
 20
1262.2721341691411
 30
0.0
 11
3254.7171178472158
 21
1252.2721341691411
 31
0.0
  0
LINE
  5
119D
  8
0
 62
     1
 10
3254.7171178472158
 20
1248.7721341691411
 30
0.0
 11
3254.7171178472158
 21
1245.5221341691411
 31
0.0
  0
LINE
  5
119E
  8
0
 62
     1
 10
3256.7171178472158
 20
1282.5221341691411
 30
0.0
 11
3256.7171178472158
 21
1272.5221341691411
 31
0.0
  0
LINE
  5
119F
  8
0
 62
     1
 10
3256.7171178472158
 20
1269.0221341691411
 30
0.0
 11
3256.7171178472158
 21
1259.0221341691411
 31
0.0
  0
LINE
  5
11A0
  8
0
 62
     1
 10
3256.7171178472158
 20
1255.5221341691411
 30
0.0
 11
3256.7171178472158
 21
1245.5221341691411
 31
0.0
  0
LINE
  5
11A1
  8
0
 62
     1
 10
3258.7171178472158
 20
1275.7721341691411
 30
0.0
 11
3258.7171178472158
 21
1265.7721341691411
 31
0.0
  0
LINE
  5
11A2
  8
0
 62
     1
 10
3258.7171178472158
 20
1282.5221341691411
 30
0.0
 11
3258.7171178472158
 21
1279.2721341691411
 31
0.0
  0
LINE
  5
11A3
  8
0
 62
     1
 10
3258.7171178472158
 20
1262.2721341691411
 30
0.0
 11
3258.7171178472158
 21
1252.2721341691411
 31
0.0
  0
LINE
  5
11A4
  8
0
 62
     1
 10
3258.7171178472158
 20
1248.7721341691411
 30
0.0
 11
3258.7171178472158
 21
1245.5221341691411
 31
0.0
  0
LINE
  5
11A5
  8
0
 62
     1
 10
3260.7171178472158
 20
1282.5221341691411
 30
0.0
 11
3260.7171178472158
 21
1272.5221341691411
 31
0.0
  0
LINE
  5
11A6
  8
0
 62
     1
 10
3260.7171178472158
 20
1269.0221341691411
 30
0.0
 11
3260.7171178472158
 21
1259.0221341691411
 31
0.0
  0
LINE
  5
11A7
  8
0
 62
     1
 10
3260.7171178472158
 20
1255.5221341691411
 30
0.0
 11
3260.7171178472158
 21
1245.5221341691411
 31
0.0
  0
LINE
  5
11A8
  8
0
 62
     1
 10
3262.7171178472158
 20
1275.7721341691411
 30
0.0
 11
3262.7171178472158
 21
1265.7721341691411
 31
0.0
  0
LINE
  5
11A9
  8
0
 62
     1
 10
3262.7171178472158
 20
1282.5221341691411
 30
0.0
 11
3262.7171178472158
 21
1279.2721341691411
 31
0.0
  0
LINE
  5
11AA
  8
0
 62
     1
 10
3262.7171178472158
 20
1262.2721341691411
 30
0.0
 11
3262.7171178472158
 21
1252.2721341691411
 31
0.0
  0
LINE
  5
11AB
  8
0
 62
     1
 10
3262.7171178472158
 20
1248.7721341691411
 30
0.0
 11
3262.7171178472158
 21
1245.5221341691411
 31
0.0
  0
LINE
  5
11AC
  8
0
 62
     1
 10
3264.7171178472158
 20
1282.5221341691411
 30
0.0
 11
3264.7171178472158
 21
1272.5221341691411
 31
0.0
  0
LINE
  5
11AD
  8
0
 62
     1
 10
3264.7171178472158
 20
1269.0221341691411
 30
0.0
 11
3264.7171178472158
 21
1259.0221341691411
 31
0.0
  0
LINE
  5
11AE
  8
0
 62
     1
 10
3264.7171178472158
 20
1255.5221341691411
 30
0.0
 11
3264.7171178472158
 21
1245.5221341691411
 31
0.0
  0
LINE
  5
11AF
  8
0
 62
     1
 10
3266.7171178472172
 20
1275.7721341691411
 30
0.0
 11
3266.7171178472172
 21
1265.7721341691411
 31
0.0
  0
LINE
  5
11B0
  8
0
 62
     1
 10
3266.7171178472172
 20
1282.5221341691411
 30
0.0
 11
3266.7171178472172
 21
1279.2721341691411
 31
0.0
  0
LINE
  5
11B1
  8
0
 62
     1
 10
3266.7171178472172
 20
1262.2721341691411
 30
0.0
 11
3266.7171178472172
 21
1252.2721341691411
 31
0.0
  0
LINE
  5
11B2
  8
0
 62
     1
 10
3266.7171178472172
 20
1248.7721341691411
 30
0.0
 11
3266.7171178472172
 21
1245.5221341691411
 31
0.0
  0
LINE
  5
11B3
  8
0
 62
     1
 10
3268.7171178472158
 20
1282.5221341691411
 30
0.0
 11
3268.7171178472158
 21
1272.5221341691411
 31
0.0
  0
LINE
  5
11B4
  8
0
 62
     1
 10
3268.7171178472158
 20
1269.0221341691411
 30
0.0
 11
3268.7171178472158
 21
1259.0221341691411
 31
0.0
  0
LINE
  5
11B5
  8
0
 62
     1
 10
3268.7171178472158
 20
1255.5221341691411
 30
0.0
 11
3268.7171178472158
 21
1245.5221341691411
 31
0.0
  0
LINE
  5
11B6
  8
0
 62
     1
 10
3270.7171178472172
 20
1275.7721341691411
 30
0.0
 11
3270.7171178472172
 21
1265.7721341691411
 31
0.0
  0
LINE
  5
11B7
  8
0
 62
     1
 10
3270.7171178472172
 20
1282.5221341691411
 30
0.0
 11
3270.7171178472172
 21
1279.2721341691411
 31
0.0
  0
LINE
  5
11B8
  8
0
 62
     1
 10
3270.7171178472172
 20
1262.2721341691411
 30
0.0
 11
3270.7171178472172
 21
1252.2721341691411
 31
0.0
  0
LINE
  5
11B9
  8
0
 62
     1
 10
3270.7171178472172
 20
1248.7721341691411
 30
0.0
 11
3270.7171178472172
 21
1245.5221341691411
 31
0.0
  0
LINE
  5
11BA
  8
0
 62
     1
 10
3272.7171178472158
 20
1282.5221341691411
 30
0.0
 11
3272.7171178472158
 21
1272.5221341691411
 31
0.0
  0
LINE
  5
11BB
  8
0
 62
     1
 10
3272.7171178472158
 20
1269.0221341691411
 30
0.0
 11
3272.7171178472158
 21
1259.0221341691411
 31
0.0
  0
LINE
  5
11BC
  8
0
 62
     1
 10
3272.7171178472158
 20
1255.5221341691411
 30
0.0
 11
3272.7171178472158
 21
1245.5221341691411
 31
0.0
  0
LINE
  5
11BD
  8
0
 62
     1
 10
3274.7171178472172
 20
1275.7721341691411
 30
0.0
 11
3274.7171178472172
 21
1265.7721341691411
 31
0.0
  0
LINE
  5
11BE
  8
0
 62
     1
 10
3274.7171178472172
 20
1282.5221341691411
 30
0.0
 11
3274.7171178472172
 21
1279.2721341691411
 31
0.0
  0
LINE
  5
11BF
  8
0
 62
     1
 10
3274.7171178472172
 20
1262.2721341691411
 30
0.0
 11
3274.7171178472172
 21
1252.2721341691411
 31
0.0
  0
LINE
  5
11C0
  8
0
 62
     1
 10
3274.7171178472172
 20
1248.7721341691411
 30
0.0
 11
3274.7171178472172
 21
1245.5221341691411
 31
0.0
  0
LINE
  5
11C1
  8
0
 62
     1
 10
3276.7171178472158
 20
1282.5221341691411
 30
0.0
 11
3276.7171178472158
 21
1272.5221341691411
 31
0.0
  0
LINE
  5
11C2
  8
0
 62
     1
 10
3276.7171178472158
 20
1269.0221341691411
 30
0.0
 11
3276.7171178472158
 21
1259.0221341691411
 31
0.0
  0
LINE
  5
11C3
  8
0
 62
     1
 10
3276.7171178472158
 20
1255.5221341691411
 30
0.0
 11
3276.7171178472158
 21
1245.5221341691411
 31
0.0
  0
LINE
  5
11C4
  8
0
 62
     1
 10
3278.7171178472172
 20
1275.7721341691411
 30
0.0
 11
3278.7171178472172
 21
1265.7721341691411
 31
0.0
  0
LINE
  5
11C5
  8
0
 62
     1
 10
3278.7171178472172
 20
1282.5221341691411
 30
0.0
 11
3278.7171178472172
 21
1279.2721341691411
 31
0.0
  0
LINE
  5
11C6
  8
0
 62
     1
 10
3278.7171178472172
 20
1262.2721341691411
 30
0.0
 11
3278.7171178472172
 21
1252.2721341691411
 31
0.0
  0
LINE
  5
11C7
  8
0
 62
     1
 10
3278.7171178472172
 20
1248.7721341691411
 30
0.0
 11
3278.7171178472172
 21
1245.5221341691411
 31
0.0
  0
LINE
  5
11C8
  8
0
 62
     1
 10
3280.7171178472158
 20
1282.5221341691411
 30
0.0
 11
3280.7171178472158
 21
1272.5221341691411
 31
0.0
  0
LINE
  5
11C9
  8
0
 62
     1
 10
3280.7171178472158
 20
1269.0221341691411
 30
0.0
 11
3280.7171178472158
 21
1259.0221341691411
 31
0.0
  0
LINE
  5
11CA
  8
0
 62
     1
 10
3280.7171178472158
 20
1255.5221341691411
 30
0.0
 11
3280.7171178472158
 21
1245.5221341691411
 31
0.0
  0
LINE
  5
11CB
  8
0
 62
     1
 10
3282.7171178472158
 20
1275.7721341691411
 30
0.0
 11
3282.7171178472158
 21
1265.7721341691411
 31
0.0
  0
LINE
  5
11CC
  8
0
 62
     1
 10
3282.7171178472158
 20
1282.5221341691411
 30
0.0
 11
3282.7171178472158
 21
1279.2721341691411
 31
0.0
  0
LINE
  5
11CD
  8
0
 62
     1
 10
3282.7171178472158
 20
1262.2721341691411
 30
0.0
 11
3282.7171178472158
 21
1252.2721341691411
 31
0.0
  0
LINE
  5
11CE
  8
0
 62
     1
 10
3282.7171178472158
 20
1248.7721341691411
 30
0.0
 11
3282.7171178472158
 21
1245.5221341691411
 31
0.0
  0
LINE
  5
11CF
  8
0
 62
     1
 10
3284.7171178472172
 20
1282.5221341691411
 30
0.0
 11
3284.7171178472172
 21
1272.5221341691411
 31
0.0
  0
LINE
  5
11D0
  8
0
 62
     1
 10
3284.7171178472172
 20
1269.0221341691411
 30
0.0
 11
3284.7171178472172
 21
1259.0221341691411
 31
0.0
  0
LINE
  5
11D1
  8
0
 62
     1
 10
3284.7171178472172
 20
1255.5221341691411
 30
0.0
 11
3284.7171178472172
 21
1245.5221341691411
 31
0.0
  0
LINE
  5
11D2
  8
0
 62
     1
 10
3286.7171178472158
 20
1275.7721341691411
 30
0.0
 11
3286.7171178472158
 21
1265.7721341691411
 31
0.0
  0
LINE
  5
11D3
  8
0
 62
     1
 10
3286.7171178472158
 20
1282.5221341691411
 30
0.0
 11
3286.7171178472158
 21
1279.2721341691411
 31
0.0
  0
LINE
  5
11D4
  8
0
 62
     1
 10
3286.7171178472158
 20
1262.2721341691411
 30
0.0
 11
3286.7171178472158
 21
1252.2721341691411
 31
0.0
  0
LINE
  5
11D5
  8
0
 62
     1
 10
3286.7171178472158
 20
1248.7721341691411
 30
0.0
 11
3286.7171178472158
 21
1245.5221341691411
 31
0.0
  0
LINE
  5
11D6
  8
0
 62
     1
 10
3288.7171178472158
 20
1282.5221341691411
 30
0.0
 11
3288.7171178472158
 21
1272.5221341691411
 31
0.0
  0
LINE
  5
11D7
  8
0
 62
     1
 10
3288.7171178472158
 20
1269.0221341691411
 30
0.0
 11
3288.7171178472158
 21
1259.0221341691411
 31
0.0
  0
LINE
  5
11D8
  8
0
 62
     1
 10
3288.7171178472158
 20
1255.5221341691411
 30
0.0
 11
3288.7171178472158
 21
1245.5221341691411
 31
0.0
  0
LINE
  5
11D9
  8
0
 62
     1
 10
3290.7171178472158
 20
1275.7721341691411
 30
0.0
 11
3290.7171178472158
 21
1265.7721341691411
 31
0.0
  0
LINE
  5
11DA
  8
0
 62
     1
 10
3290.7171178472158
 20
1282.5221341691411
 30
0.0
 11
3290.7171178472158
 21
1279.2721341691411
 31
0.0
  0
LINE
  5
11DB
  8
0
 62
     1
 10
3290.7171178472158
 20
1262.2721341691411
 30
0.0
 11
3290.7171178472158
 21
1252.2721341691411
 31
0.0
  0
LINE
  5
11DC
  8
0
 62
     1
 10
3290.7171178472158
 20
1248.7721341691411
 30
0.0
 11
3290.7171178472158
 21
1245.5221341691411
 31
0.0
  0
LINE
  5
11DD
  8
0
 62
     1
 10
3292.7171178472158
 20
1282.5221341691411
 30
0.0
 11
3292.7171178472158
 21
1272.5221341691411
 31
0.0
  0
LINE
  5
11DE
  8
0
 62
     1
 10
3292.7171178472158
 20
1269.0221341691411
 30
0.0
 11
3292.7171178472158
 21
1259.0221341691411
 31
0.0
  0
LINE
  5
11DF
  8
0
 62
     1
 10
3292.7171178472158
 20
1255.5221341691411
 30
0.0
 11
3292.7171178472158
 21
1245.5221341691411
 31
0.0
  0
LINE
  5
11E0
  8
0
 62
     1
 10
3294.7171178472158
 20
1275.7721341691411
 30
0.0
 11
3294.7171178472158
 21
1265.7721341691411
 31
0.0
  0
LINE
  5
11E1
  8
0
 62
     1
 10
3294.7171178472158
 20
1282.5221341691411
 30
0.0
 11
3294.7171178472158
 21
1279.2721341691411
 31
0.0
  0
LINE
  5
11E2
  8
0
 62
     1
 10
3294.7171178472158
 20
1262.2721341691411
 30
0.0
 11
3294.7171178472158
 21
1252.2721341691411
 31
0.0
  0
LINE
  5
11E3
  8
0
 62
     1
 10
3294.7171178472158
 20
1248.7721341691411
 30
0.0
 11
3294.7171178472158
 21
1245.5221341691411
 31
0.0
  0
LINE
  5
11E4
  8
0
 62
     1
 10
3296.7171178472158
 20
1282.5221341691411
 30
0.0
 11
3296.7171178472158
 21
1272.5221341691411
 31
0.0
  0
LINE
  5
11E5
  8
0
 62
     1
 10
3296.7171178472158
 20
1269.0221341691411
 30
0.0
 11
3296.7171178472158
 21
1259.0221341691411
 31
0.0
  0
LINE
  5
11E6
  8
0
 62
     1
 10
3296.7171178472158
 20
1255.5221341691411
 30
0.0
 11
3296.7171178472158
 21
1245.5221341691411
 31
0.0
  0
LINE
  5
11E7
  8
0
 62
     1
 10
3298.7171178472172
 20
1275.7721341691411
 30
0.0
 11
3298.7171178472172
 21
1265.7721341691411
 31
0.0
  0
LINE
  5
11E8
  8
0
 62
     1
 10
3298.7171178472172
 20
1282.5221341691411
 30
0.0
 11
3298.7171178472172
 21
1279.2721341691411
 31
0.0
  0
LINE
  5
11E9
  8
0
 62
     1
 10
3298.7171178472172
 20
1262.2721341691411
 30
0.0
 11
3298.7171178472172
 21
1252.2721341691411
 31
0.0
  0
LINE
  5
11EA
  8
0
 62
     1
 10
3298.7171178472172
 20
1248.7721341691411
 30
0.0
 11
3298.7171178472172
 21
1245.5221341691411
 31
0.0
  0
LINE
  5
11EB
  8
0
 62
     1
 10
3300.7171178472158
 20
1282.5221341691411
 30
0.0
 11
3300.7171178472158
 21
1272.5221341691411
 31
0.0
  0
LINE
  5
11EC
  8
0
 62
     1
 10
3300.7171178472158
 20
1269.0221341691411
 30
0.0
 11
3300.7171178472158
 21
1259.0221341691411
 31
0.0
  0
LINE
  5
11ED
  8
0
 62
     1
 10
3300.7171178472158
 20
1255.5221341691411
 30
0.0
 11
3300.7171178472158
 21
1245.5221341691411
 31
0.0
  0
LINE
  5
11EE
  8
0
 62
     1
 10
3302.7171178472172
 20
1275.7721341691411
 30
0.0
 11
3302.7171178472172
 21
1265.7721341691411
 31
0.0
  0
LINE
  5
11EF
  8
0
 62
     1
 10
3302.7171178472172
 20
1282.5221341691411
 30
0.0
 11
3302.7171178472172
 21
1279.2721341691411
 31
0.0
  0
LINE
  5
11F0
  8
0
 62
     1
 10
3302.7171178472172
 20
1262.2721341691411
 30
0.0
 11
3302.7171178472172
 21
1252.2721341691411
 31
0.0
  0
LINE
  5
11F1
  8
0
 62
     1
 10
3302.7171178472172
 20
1248.7721341691411
 30
0.0
 11
3302.7171178472172
 21
1245.5221341691411
 31
0.0
  0
LINE
  5
11F2
  8
0
 62
     1
 10
3304.7171178472172
 20
1282.5221341691411
 30
0.0
 11
3304.7171178472172
 21
1272.5221341691411
 31
0.0
  0
LINE
  5
11F3
  8
0
 62
     1
 10
3304.7171178472172
 20
1269.0221341691411
 30
0.0
 11
3304.7171178472172
 21
1259.0221341691411
 31
0.0
  0
LINE
  5
11F4
  8
0
 62
     1
 10
3304.7171178472172
 20
1255.5221341691411
 30
0.0
 11
3304.7171178472172
 21
1245.5221341691411
 31
0.0
  0
LINE
  5
11F5
  8
0
 62
     1
 10
3306.7171178472172
 20
1275.7721341691411
 30
0.0
 11
3306.7171178472172
 21
1265.7721341691411
 31
0.0
  0
LINE
  5
11F6
  8
0
 62
     1
 10
3306.7171178472172
 20
1282.5221341691411
 30
0.0
 11
3306.7171178472172
 21
1279.2721341691411
 31
0.0
  0
LINE
  5
11F7
  8
0
 62
     1
 10
3306.7171178472172
 20
1262.2721341691411
 30
0.0
 11
3306.7171178472172
 21
1252.2721341691411
 31
0.0
  0
LINE
  5
11F8
  8
0
 62
     1
 10
3306.7171178472172
 20
1248.7721341691411
 30
0.0
 11
3306.7171178472172
 21
1245.5221341691411
 31
0.0
  0
LINE
  5
11F9
  8
0
 62
     1
 10
3308.7171178472158
 20
1282.5221341691411
 30
0.0
 11
3308.7171178472158
 21
1272.5221341691411
 31
0.0
  0
LINE
  5
11FA
  8
0
 62
     1
 10
3308.7171178472158
 20
1269.0221341691411
 30
0.0
 11
3308.7171178472158
 21
1259.0221341691411
 31
0.0
  0
LINE
  5
11FB
  8
0
 62
     1
 10
3308.7171178472158
 20
1255.5221341691411
 30
0.0
 11
3308.7171178472158
 21
1245.5221341691411
 31
0.0
  0
LINE
  5
11FC
  8
0
 62
     1
 10
3310.7171178472172
 20
1275.7721341691411
 30
0.0
 11
3310.7171178472172
 21
1265.7721341691411
 31
0.0
  0
LINE
  5
11FD
  8
0
 62
     1
 10
3310.7171178472172
 20
1282.5221341691411
 30
0.0
 11
3310.7171178472172
 21
1279.2721341691411
 31
0.0
  0
LINE
  5
11FE
  8
0
 62
     1
 10
3310.7171178472172
 20
1262.2721341691411
 30
0.0
 11
3310.7171178472172
 21
1252.2721341691411
 31
0.0
  0
LINE
  5
11FF
  8
0
 62
     1
 10
3310.7171178472172
 20
1248.7721341691411
 30
0.0
 11
3310.7171178472172
 21
1245.5221341691411
 31
0.0
  0
LINE
  5
1200
  8
0
 62
     1
 10
3312.7171178472158
 20
1282.5221341691411
 30
0.0
 11
3312.7171178472158
 21
1272.5221341691411
 31
0.0
  0
LINE
  5
1201
  8
0
 62
     1
 10
3312.7171178472158
 20
1269.0221341691411
 30
0.0
 11
3312.7171178472158
 21
1259.0221341691411
 31
0.0
  0
LINE
  5
1202
  8
0
 62
     1
 10
3312.7171178472158
 20
1255.5221341691411
 30
0.0
 11
3312.7171178472158
 21
1245.5221341691411
 31
0.0
  0
LINE
  5
1203
  8
0
 62
     1
 10
3314.7171178472158
 20
1275.7721341691411
 30
0.0
 11
3314.7171178472158
 21
1265.7721341691411
 31
0.0
  0
LINE
  5
1204
  8
0
 62
     1
 10
3314.7171178472158
 20
1282.5221341691411
 30
0.0
 11
3314.7171178472158
 21
1279.2721341691411
 31
0.0
  0
LINE
  5
1205
  8
0
 62
     1
 10
3314.7171178472158
 20
1262.2721341691411
 30
0.0
 11
3314.7171178472158
 21
1252.2721341691411
 31
0.0
  0
LINE
  5
1206
  8
0
 62
     1
 10
3314.7171178472158
 20
1248.7721341691411
 30
0.0
 11
3314.7171178472158
 21
1245.5221341691411
 31
0.0
  0
LINE
  5
1207
  8
0
 62
     1
 10
3314.7171178472158
 20
1282.5221341691411
 30
0.0
 11
3314.7171178472158
 21
1245.5221341691411
 31
0.0
  0
LINE
  5
1208
  8
0
 62
     1
 10
3314.7171178472158
 20
1239.7263204265089
 30
0.0
 11
3314.7171178472158
 21
1202.7263204265089
 31
0.0
  0
LINE
  5
1209
  8
0
 62
     1
 10
3312.7171178472158
 20
1282.5221341691411
 30
0.0
 11
3314.7171178472158
 21
1282.5221341691411
 31
0.0
  0
LINE
  5
130F
  8
0
 62
     1
 10
3536.7171178472172
 20
1272.7263204265089
 30
0.0
 11
3536.7171178472172
 21
1207.726320426508
 31
0.0
  0
LINE
  5
1310
  8
0
 62
     1
 10
3531.7171178472181
 20
1202.7263204265089
 30
0.0
 11
3658.7171178472172
 21
1202.7263204265089
 31
0.0
  0
LINE
  5
1311
  8
0
 62
     1
 10
3653.7171178472172
 20
1207.726320426508
 30
0.0
 11
3653.7171178472172
 21
1272.7263204265089
 31
0.0
  0
LINE
  5
1312
  8
0
 62
     1
 10
3531.7171178472181
 20
1277.7263204265089
 30
0.0
 11
3658.7171178472172
 21
1277.7263204265089
 31
0.0
  0
LINE
  5
1316
  8
0
 62
     1
 10
3653.7171178472172
 20
1272.7263204265089
 30
0.0
 11
3536.7171178472172
 21
1272.7263204265089
 31
0.0
  0
LINE
  5
1317
  8
0
 62
     1
 10
3653.7171178472172
 20
1207.7263204265089
 30
0.0
 11
3536.7171178472172
 21
1207.7263204265089
 31
0.0
  0
LINE
  5
1318
  8
0
 62
     1
 10
3658.7171178472172
 20
1277.7263204265089
 30
0.0
 11
3658.7171178472172
 21
1202.7263204265089
 31
0.0
  0
LINE
  5
1319
  8
0
 62
     1
 10
3531.7171178472172
 20
1277.7263204265089
 30
0.0
 11
3531.7171178472181
 21
1202.7263204265089
 31
0.0
  0
LINE
  5
131C
  8
TWEEDE_SNIJDEN
 62
     1
 10
3595.2171178472172
 20
1207.7263204265089
 30
0.0
 11
3637.2171178472172
 21
1207.7263204265089
 31
0.0
  0
CIRCLE
  5
1336
  8
EERST_SNIJDEN
 62
     1
 10
3595.2171178472172
 20
1273.7263204265089
 30
0.0
 40
0.5
  0
CIRCLE
  5
133B
  8
EERST_SNIJDEN
 62
     1
 10
3552.2171178472172
 20
1206.7263204265089
 30
0.0
 40
0.5
  0
CIRCLE
  5
133C
  8
EERST_SNIJDEN
 62
     1
 10
3638.2171178472172
 20
1206.7263204265089
 30
0.0
 40
0.5
  0
LINE
  5
133E
  8
0
 62
     1
 10
3475.7171178472172
 20
1210.726320426508
 30
0.0
 11
3500.7171178472172
 21
1210.726320426508
 31
0.0
  0
LINE
  5
133F
  8
0
 62
     1
 10
3500.7171178472172
 20
1210.726320426508
 30
0.0
 11
3500.7171178472172
 21
1269.7263204265089
 31
0.0
  0
LINE
  5
1340
  8
0
 62
     1
 10
3500.7171178472172
 20
1269.7263204265089
 30
0.0
 11
3475.7171178472172
 21
1269.7263204265089
 31
0.0
  0
LINE
  5
1341
  8
0
 62
     1
 10
3475.7171178472172
 20
1269.7263204265089
 30
0.0
 11
3475.7171178472172
 21
1210.726320426508
 31
0.0
  0
LINE
  5
134A
  8
0
 62
     1
 10
3503.7171178472172
 20
1210.726320426508
 30
0.0
 11
3528.7171178472172
 21
1210.726320426508
 31
0.0
  0
LINE
  5
134B
  8
0
 62
     1
 10
3528.7171178472172
 20
1210.726320426508
 30
0.0
 11
3528.7171178472172
 21
1269.7263204265089
 31
0.0
  0
LINE
  5
134C
  8
0
 62
     1
 10
3528.7171178472172
 20
1269.7263204265089
 30
0.0
 11
3503.7171178472172
 21
1269.7263204265089
 31
0.0
  0
LINE
  5
134D
  8
0
 62
     1
 10
3503.7171178472172
 20
1269.7263204265089
 30
0.0
 11
3503.7171178472172
 21
1210.726320426508
 31
0.0
  0
LINE
  5
134E
  8
0
 62
     1
 10
3605.7171178472181
 20
1465.7263204265089
 30
0.0
 11
3605.7171178472181
 21
1348.7263204265089
 31
0.0
  0
LINE
  5
134F
  8
0
 62
     1
 10
3605.7171178472181
 20
1348.7263204265089
 30
0.0
 11
3630.7171178472172
 21
1348.7263204265089
 31
0.0
  0
LINE
  5
1350
  8
0
 62
     1
 10
3630.7171178472172
 20
1391.7263204265089
 30
0.0
 11
3630.7171178472172
 21
1422.7263204265089
 31
0.0
  0
LINE
  5
1351
  8
0
 62
     1
 10
3630.7171178472172
 20
1465.7263204265089
 30
0.0
 11
3605.7171178472181
 21
1465.7263204265089
 31
0.0
  0
LINE
  5
1352
  8
0
 62
     1
 10
3633.7171178472181
 20
1465.7263204265089
 30
0.0
 11
3658.7171178472172
 21
1465.7263204265089
 31
0.0
  0
LINE
  5
1353
  8
0
 62
     1
 10
3658.7171178472172
 20
1465.7263204265089
 30
0.0
 11
3658.7171178472172
 21
1452.7263204265089
 31
0.0
  0
LINE
  5
1354
  8
0
 62
     1
 10
3658.7171178472172
 20
1348.7263204265089
 30
0.0
 11
3633.7171178472181
 21
1348.7263204265089
 31
0.0
  0
LINE
  5
1355
  8
0
 62
     1
 10
3633.7171178472181
 20
1348.7263204265089
 30
0.0
 11
3633.7171178472181
 21
1465.7263204265089
 31
0.0
  0
LINE
  5
1358
  8
TWEEDE_SNIJDEN
 62
     1
 10
3647.7171178472172
 20
1210.7263204265089
 30
0.0
 11
3647.7171178472172
 21
1269.7263204265089
 31
0.0
  0
LINE
  5
1359
  8
TWEEDE_SNIJDEN
 62
     1
 10
3647.7171178472172
 20
1269.7263204265089
 30
0.0
 11
3637.7171178472158
 21
1269.7263204265089
 31
0.0
  0
LINE
  5
135A
  8
TWEEDE_SNIJDEN
 62
     1
 10
3536.7171178472172
 20
1269.7263204265089
 30
0.0
 11
3536.7171178472172
 21
1210.7263204265089
 31
0.0
  0
LINE
  5
1367
  8
TWEEDE_SNIJDEN
 62
     1
 10
3546.7171178472172
 20
1210.7263204265089
 30
0.0
 11
3546.7171178472172
 21
1207.7263204265089
 31
0.0
  0
LINE
  5
1369
  8
TWEEDE_SNIJDEN
 62
     1
 10
3546.7171178472172
 20
1207.7263204265089
 30
0.0
 11
3637.7171178472172
 21
1207.7263204265089
 31
0.0
  0
LINE
  5
136B
  8
TWEEDE_SNIJDEN
 62
     1
 10
3647.7171178472172
 20
1210.7263204265089
 30
0.0
 11
3637.7171178472172
 21
1210.7263204265089
 31
0.0
  0
LINE
  5
136C
  8
TWEEDE_SNIJDEN
 62
     1
 10
3637.7171178472172
 20
1210.7263204265089
 30
0.0
 11
3637.7171178472172
 21
1207.7263204265089
 31
0.0
  0
LINE
  5
136F
  8
TWEEDE_SNIJDEN
 62
     1
 10
3536.7171178472172
 20
1210.7263204265089
 30
0.0
 11
3546.7171178472172
 21
1210.7263204265089
 31
0.0
  0
LINE
  5
1371
  8
TWEEDE_SNIJDEN
 62
     1
 10
3546.7171178472172
 20
1269.7263204265089
 30
0.0
 11
3546.7171178472172
 21
1272.7263204265089
 31
0.0
  0
LINE
  5
1372
  8
TWEEDE_SNIJDEN
 62
     1
 10
3546.7171178472172
 20
1272.7263204265089
 30
0.0
 11
3576.7171178472172
 21
1272.7263204265089
 31
0.0
  0
LINE
  5
1373
  8
TWEEDE_SNIJDEN
 62
     1
 10
3576.7171178472172
 20
1272.7263204265089
 30
0.0
 11
3576.7171178472181
 21
1269.7263204265089
 31
0.0
  0
LINE
  5
1374
  8
TWEEDE_SNIJDEN
 62
     1
 10
3637.7171178472172
 20
1269.7263204265089
 30
0.0
 11
3637.7171178472172
 21
1272.7263204265089
 31
0.0
  0
LINE
  5
1375
  8
TWEEDE_SNIJDEN
 62
     1
 10
3637.7171178472172
 20
1272.7263204265089
 30
0.0
 11
3607.7171178472172
 21
1272.7263204265089
 31
0.0
  0
LINE
  5
1376
  8
TWEEDE_SNIJDEN
 62
     1
 10
3607.7171178472172
 20
1272.7263204265089
 30
0.0
 11
3607.7171178472172
 21
1269.7263204265089
 31
0.0
  0
LINE
  5
1377
  8
TWEEDE_SNIJDEN
 62
     1
 10
3546.7171178472172
 20
1269.7263204265089
 30
0.0
 11
3536.7171178472172
 21
1269.7263204265089
 31
0.0
  0
LINE
  5
137A
  8
TWEEDE_SNIJDEN
 62
     1
 10
3607.7171178472172
 20
1269.7263204265089
 30
0.0
 11
3576.7171178472181
 21
1269.7263204265089
 31
0.0
  0
LINE
  5
137B
  8
0
 62
     1
 10
3658.7171178472172
 20
1465.7263204265089
 30
0.0
 11
3658.7171178472172
 21
1455.7263204265089
 31
0.0
  0
LINE
  5
137C
  8
0
 62
     1
 10
3658.7171178472172
 20
1452.7263204265089
 30
0.0
 11
3654.7171178472181
 21
1452.7263204265089
 31
0.0
  0
LINE
  5
137D
  8
0
 62
     1
 10
3654.7171178472181
 20
1452.7263204265089
 30
0.0
 11
3654.7171178472181
 21
1361.7263204265089
 31
0.0
  0
LINE
  5
137F
  8
0
 62
     1
 10
3658.7171178472172
 20
1361.7263204265089
 30
0.0
 11
3654.7171178472181
 21
1361.7263204265089
 31
0.0
  0
LINE
  5
1392
  8
0
 62
     1
 10
3658.7171178472172
 20
1361.7263204265089
 30
0.0
 11
3658.7171178472172
 21
1348.7263204265089
 31
0.0
  0
LINE
  5
13A1
  8
0
 62
     1
 10
3630.7171178472172
 20
1452.7263204265089
 30
0.0
 11
3626.7171178472172
 21
1452.7263204265089
 31
0.0
  0
LINE
  5
13A2
  8
0
 62
     1
 10
3626.7171178472172
 20
1452.7263204265089
 30
0.0
 11
3626.7171178472172
 21
1422.7263204265089
 31
0.0
  0
LINE
  5
13A3
  8
0
 62
     1
 10
3626.7171178472172
 20
1422.7263204265089
 30
0.0
 11
3630.7171178472172
 21
1422.7263204265089
 31
0.0
  0
LINE
  5
13A4
  8
0
 62
     1
 10
3630.7171178472172
 20
1361.7263204265089
 30
0.0
 11
3626.7171178472172
 21
1361.7263204265089
 31
0.0
  0
LINE
  5
13A5
  8
0
 62
     1
 10
3626.7171178472172
 20
1361.7263204265089
 30
0.0
 11
3626.7171178472172
 21
1391.7263204265089
 31
0.0
  0
LINE
  5
13A6
  8
0
 62
     1
 10
3626.7171178472172
 20
1391.7263204265089
 30
0.0
 11
3630.7171178472172
 21
1391.7263204265089
 31
0.0
  0
LINE
  5
13A7
  8
0
 62
     1
 10
3630.7171178472172
 20
1452.7263204265089
 30
0.0
 11
3630.7171178472172
 21
1465.7263204265089
 31
0.0
  0
LINE
  5
13A8
  8
0
 62
     1
 10
3630.7171178472172
 20
1361.7263204265089
 30
0.0
 11
3630.7171178472172
 21
1348.7263204265089
 31
0.0
  0
LINE
  5
13A9
  8
EERST_SNIJDEN
 62
     1
 10
3541.159629361081
 20
1258.75687736959
 30
0.0
 11
3541.159629361081
 21
1221.75687736959
 31
0.0
  0
LINE
  5
13AF
  8
EERST_SNIJDEN
 62
     1
 10
3546.1596293610801
 20
1216.75687736959
 30
0.0
 11
3638.1596293610801
 21
1216.75687736959
 31
0.0
  0
LINE
  5
13B0
  8
EERST_SNIJDEN
 62
     1
 10
3546.1596293610801
 20
1263.75687736959
 30
0.0
 11
3638.1596293610801
 21
1263.75687736959
 31
0.0
  0
LINE
  5
13B1
  8
EERST_SNIJDEN
 62
     1
 10
3643.159629361081
 20
1258.75687736959
 30
0.0
 11
3643.159629361081
 21
1221.75687736959
 31
0.0
  0
ARC
  5
13B4
  8
EERST_SNIJDEN
 62
     1
 10
3638.1596293610801
 20
1258.75687736959
 30
0.0
 40
5.0
 50
0.0
 51
90.0
  0
ARC
  5
13B5
  8
EERST_SNIJDEN
 62
     1
 10
3638.1596293610801
 20
1221.75687736959
 30
0.0
 40
5.0
 50
270.0
 51
0.0
  0
ARC
  5
13B6
  8
EERST_SNIJDEN
 62
     1
 10
3546.1596293610801
 20
1221.75687736959
 30
0.0
 40
5.0
 50
180.0
 51
270.0
  0
ARC
  5
13B7
  8
EERST_SNIJDEN
 62
     1
 10
3546.1596293610801
 20
1258.75687736959
 30
0.0
 40
5.0
 50
90.0
 51
180.0
  0
LINE
  5
13B8
  8
0
 62
     1
 10
3541.7171178472172
 20
1280.7263204265089
 30
0.0
 11
3658.7171178472172
 21
1280.7263204265089
 31
0.0
  0
LINE
  5
13B9
  8
0
 62
     1
 10
3658.7171178472172
 20
1280.7263204265089
 30
0.0
 11
3658.7171178472172
 21
1345.7263204265089
 31
0.0
  0
LINE
  5
13BA
  8
0
 62
     1
 10
3658.7171178472172
 20
1345.7263204265089
 30
0.0
 11
3541.7171178472172
 21
1345.7263204265089
 31
0.0
  0
LINE
  5
13BB
  8
0
 62
     1
 10
3541.7171178472172
 20
1345.7263204265089
 30
0.0
 11
3541.7171178472172
 21
1280.7263204265089
 31
0.0
  0
CIRCLE
  5
13CC
  8
EERST_SNIJDEN
 62
     1
 10
3537.7121450636459
 20
1607.66660244899
 30
0.0
 40
5.5
  0
CIRCLE
  5
13CE
  8
0
 62
     1
 10
3537.7121450636459
 20
1607.66660244899
 30
0.0
 40
7.5
  0
CIRCLE
  5
13D7
  8
EERST_SNIJDEN
 62
     1
 10
3555.7121450636459
 20
1607.66660244899
 30
0.0
 40
5.5
  0
CIRCLE
  5
13D8
  8
0
 62
     1
 10
3555.7121450636459
 20
1607.66660244899
 30
0.0
 40
7.5
  0
CIRCLE
  5
13E1
  8
EERST_SNIJDEN
 62
     1
 10
3573.7121450636459
 20
1607.66660244899
 30
0.0
 40
5.5
  0
CIRCLE
  5
13E2
  8
0
 62
     1
 10
3573.7121450636459
 20
1607.66660244899
 30
0.0
 40
7.5
  0
CIRCLE
  5
13EB
  8
EERST_SNIJDEN
 62
     1
 10
3591.7121450636459
 20
1607.66660244899
 30
0.0
 40
5.5
  0
CIRCLE
  5
13EC
  8
0
 62
     1
 10
3591.7121450636459
 20
1607.66660244899
 30
0.0
 40
7.5
  0
CIRCLE
  5
13FB
  8
EERST_SNIJDEN
 62
     1
 10
3537.315653903373
 20
1589.692918746942
 30
0.0
 40
5.5
  0
CIRCLE
  5
13FC
  8
0
 62
     1
 10
3537.315653903373
 20
1589.692918746942
 30
0.0
 40
7.5
  0
CIRCLE
  5
13FD
  8
EERST_SNIJDEN
 62
     1
 10
3555.315653903373
 20
1589.692918746942
 30
0.0
 40
5.5
  0
CIRCLE
  5
13FE
  8
0
 62
     1
 10
3555.315653903373
 20
1589.692918746942
 30
0.0
 40
7.5
  0
CIRCLE
  5
13FF
  8
EERST_SNIJDEN
 62
     1
 10
3573.315653903373
 20
1589.692918746942
 30
0.0
 40
5.5
  0
CIRCLE
  5
1400
  8
0
 62
     1
 10
3573.315653903373
 20
1589.692918746942
 30
0.0
 40
7.5
  0
CIRCLE
  5
1401
  8
EERST_SNIJDEN
 62
     1
 10
3591.315653903373
 20
1589.692918746942
 30
0.0
 40
5.5
  0
CIRCLE
  5
1402
  8
0
 62
     1
 10
3591.315653903373
 20
1589.692918746942
 30
0.0
 40
7.5
  0
CIRCLE
  5
1411
  8
EERST_SNIJDEN
 62
     1
 10
3536.9191627431001
 20
1571.719235044894
 30
0.0
 40
5.5
  0
CIRCLE
  5
1412
  8
0
 62
     1
 10
3536.9191627431001
 20
1571.719235044894
 30
0.0
 40
7.5
  0
CIRCLE
  5
1413
  8
EERST_SNIJDEN
 62
     1
 10
3554.9191627430992
 20
1571.719235044894
 30
0.0
 40
5.5
  0
CIRCLE
  5
1414
  8
0
 62
     1
 10
3554.9191627430992
 20
1571.719235044894
 30
0.0
 40
7.5
  0
CIRCLE
  5
1415
  8
EERST_SNIJDEN
 62
     1
 10
3572.9191627431001
 20
1571.719235044894
 30
0.0
 40
5.5
  0
CIRCLE
  5
1416
  8
0
 62
     1
 10
3572.9191627431001
 20
1571.719235044894
 30
0.0
 40
7.5
  0
CIRCLE
  5
1417
  8
EERST_SNIJDEN
 62
     1
 10
3590.9191627430992
 20
1571.719235044894
 30
0.0
 40
5.5
  0
CIRCLE
  5
1418
  8
0
 62
     1
 10
3590.9191627430992
 20
1571.719235044894
 30
0.0
 40
7.5
  0
CIRCLE
  5
1452
  8
EERST_SNIJDEN
 62
     1
 10
3641.3639482983308
 20
1441.299269443384
 30
0.0
 40
0.75
  0
CIRCLE
  5
145A
  8
EERST_SNIJDEN
 62
     1
 10
3641.3639482983308
 20
1443.1533714096331
 30
0.0
 40
0.75
  0
CIRCLE
  5
1462
  8
EERST_SNIJDEN
 62
     1
 10
3642.4537620903402
 20
1444.6533714096331
 30
0.0
 40
0.75
  0
CIRCLE
  5
149B
  8
EERST_SNIJDEN
 62
     1
 10
3644.2171178472172
 20
1445.22632042651
 30
0.0
 40
0.75
  0
CIRCLE
  5
149C
  8
EERST_SNIJDEN
 62
     1
 10
3645.9804736040942
 20
1444.653371409634
 30
0.0
 40
0.75
  0
CIRCLE
  5
149D
  8
EERST_SNIJDEN
 62
     1
 10
3647.0702873961031
 20
1443.153371409634
 30
0.0
 40
0.75
  0
CIRCLE
  5
14AB
  8
EERST_SNIJDEN
 62
     1
 10
3647.0702873961031
 20
1441.2992694433849
 30
0.0
 40
0.75
  0
CIRCLE
  5
14AC
  8
EERST_SNIJDEN
 62
     1
 10
3645.9804736040942
 20
1439.799269443384
 30
0.0
 40
0.75
  0
CIRCLE
  5
14AD
  8
EERST_SNIJDEN
 62
     1
 10
3644.2171178472181
 20
1439.226320426508
 30
0.0
 40
0.75
  0
CIRCLE
  5
14AE
  8
EERST_SNIJDEN
 62
     1
 10
3642.4537620903402
 20
1439.799269443384
 30
0.0
 40
0.75
  0
CIRCLE
  5
14C0
  8
EERST_SNIJDEN
 62
     1
 10
3641.3639482983308
 20
1421.299269443384
 30
0.0
 40
0.75
  0
CIRCLE
  5
14C1
  8
EERST_SNIJDEN
 62
     1
 10
3641.3639482983308
 20
1423.153371409634
 30
0.0
 40
0.75
  0
CIRCLE
  5
14C2
  8
EERST_SNIJDEN
 62
     1
 10
3642.4537620903402
 20
1424.6533714096331
 30
0.0
 40
0.75
  0
CIRCLE
  5
14C3
  8
EERST_SNIJDEN
 62
     1
 10
3644.2171178472172
 20
1425.22632042651
 30
0.0
 40
0.75
  0
CIRCLE
  5
14C4
  8
EERST_SNIJDEN
 62
     1
 10
3645.9804736040942
 20
1424.653371409634
 30
0.0
 40
0.75
  0
CIRCLE
  5
14C5
  8
EERST_SNIJDEN
 62
     1
 10
3647.0702873961031
 20
1423.153371409634
 30
0.0
 40
0.75
  0
CIRCLE
  5
14C6
  8
EERST_SNIJDEN
 62
     1
 10
3647.0702873961031
 20
1421.2992694433849
 30
0.0
 40
0.75
  0
CIRCLE
  5
14C7
  8
EERST_SNIJDEN
 62
     1
 10
3645.9804736040942
 20
1419.7992694433849
 30
0.0
 40
0.75
  0
CIRCLE
  5
14C8
  8
EERST_SNIJDEN
 62
     1
 10
3644.2171178472181
 20
1419.226320426508
 30
0.0
 40
0.75
  0
CIRCLE
  5
14C9
  8
EERST_SNIJDEN
 62
     1
 10
3642.4537620903402
 20
1419.799269443384
 30
0.0
 40
0.75
  0
CIRCLE
  5
14DA
  8
EERST_SNIJDEN
 62
     1
 10
3641.3639482983308
 20
1391.299269443384
 30
0.0
 40
0.75
  0
CIRCLE
  5
14DB
  8
EERST_SNIJDEN
 62
     1
 10
3641.3639482983308
 20
1393.1533714096331
 30
0.0
 40
0.75
  0
CIRCLE
  5
14DC
  8
EERST_SNIJDEN
 62
     1
 10
3642.4537620903402
 20
1394.6533714096331
 30
0.0
 40
0.75
  0
CIRCLE
  5
14DD
  8
EERST_SNIJDEN
 62
     1
 10
3644.2171178472172
 20
1395.22632042651
 30
0.0
 40
0.75
  0
CIRCLE
  5
14DE
  8
EERST_SNIJDEN
 62
     1
 10
3645.9804736040942
 20
1394.653371409634
 30
0.0
 40
0.75
  0
CIRCLE
  5
14DF
  8
EERST_SNIJDEN
 62
     1
 10
3647.0702873961031
 20
1393.153371409634
 30
0.0
 40
0.75
  0
CIRCLE
  5
14E0
  8
EERST_SNIJDEN
 62
     1
 10
3647.0702873961031
 20
1391.2992694433849
 30
0.0
 40
0.75
  0
CIRCLE
  5
14E1
  8
EERST_SNIJDEN
 62
     1
 10
3645.9804736040942
 20
1389.7992694433849
 30
0.0
 40
0.75
  0
CIRCLE
  5
14E2
  8
EERST_SNIJDEN
 62
     1
 10
3644.2171178472181
 20
1389.226320426508
 30
0.0
 40
0.75
  0
CIRCLE
  5
14E3
  8
EERST_SNIJDEN
 62
     1
 10
3642.4537620903402
 20
1389.799269443384
 30
0.0
 40
0.75
  0
CIRCLE
  5
14F4
  8
EERST_SNIJDEN
 62
     1
 10
3641.3639482983308
 20
1371.299269443384
 30
0.0
 40
0.75
  0
CIRCLE
  5
14F5
  8
EERST_SNIJDEN
 62
     1
 10
3641.3639482983308
 20
1373.153371409634
 30
0.0
 40
0.75
  0
CIRCLE
  5
14F6
  8
EERST_SNIJDEN
 62
     1
 10
3642.4537620903402
 20
1374.6533714096331
 30
0.0
 40
0.75
  0
CIRCLE
  5
14F7
  8
EERST_SNIJDEN
 62
     1
 10
3644.2171178472172
 20
1375.22632042651
 30
0.0
 40
0.75
  0
CIRCLE
  5
14F8
  8
EERST_SNIJDEN
 62
     1
 10
3645.9804736040942
 20
1374.653371409634
 30
0.0
 40
0.75
  0
CIRCLE
  5
14F9
  8
EERST_SNIJDEN
 62
     1
 10
3647.0702873961031
 20
1373.153371409634
 30
0.0
 40
0.75
  0
CIRCLE
  5
14FA
  8
EERST_SNIJDEN
 62
     1
 10
3647.0702873961031
 20
1371.299269443384
 30
0.0
 40
0.75
  0
CIRCLE
  5
14FB
  8
EERST_SNIJDEN
 62
     1
 10
3645.9804736040942
 20
1369.799269443384
 30
0.0
 40
0.75
  0
CIRCLE
  5
14FC
  8
EERST_SNIJDEN
 62
     1
 10
3644.2171178472181
 20
1369.226320426508
 30
0.0
 40
0.75
  0
CIRCLE
  5
14FD
  8
EERST_SNIJDEN
 62
     1
 10
3642.4537620903402
 20
1369.799269443384
 30
0.0
 40
0.75
  0
ENDSEC
  0
EOF
