0
SECTION
2
HEADER
9
$INSUNITS
70
4
9
$ACADVER
1
AC1014
9
$HANDSEED
5
FFFF
0
ENDSEC
0
SECTION
2
TABLES
0
TABLE
2
VPORT
5
8
100
AcDbSymbolTable
0
ENDTAB
0
TABLE
2
LTYPE
5
5
100
AcDbSymbolTable
0
LTYPE
5
14
100
AcDbSymbolTableRecord
100
AcDbLinetypeTableRecord
2
BYBLOCK
70
0
0
LTYPE
5
15
100
AcDbSymbolTableRecord
100
AcDbLinetypeTableRecord
2
BYLAYER
70
0
0
ENDTAB
0
TABLE
2
LAYER
5
2
100
AcDbSymbolTable
70
2
0
LAYER
5
50
100
AcDbSymbolTableRecord
100
AcDbLayerTableRecord
2
0
70
0
6
CONTINUOUS
0
ENDTAB
0
TABLE
2
STYLE
5
3
100
AcDbSymbolTable
70
1
0
STYLE
5
11
100
AcDbSymbolTableRecord
100
AcDbTextStyleTableRecord
2
STANDARD
70
0
0
ENDTAB
0
TABLE
2
VIEW
5
6
100
AcDbSymbolTable
70
0
0
ENDTAB
0
TABLE
2
UCS
5
7
100
AcDbSymbolTable
70
0
0
ENDTAB
0
TABLE
2
APPID
5
9
100
AcDbSymbolTable
70
2
0
APPID
5
12
100
AcDbSymbolTableRecord
100
AcDbRegAppTableRecord
2
ACAD
70
0
0
ENDTAB
0
TABLE
2
DIMSTYLE
5
A
100
AcDbSymbolTable
70
1
0
ENDTAB
0
TABLE
2
BLOCK_RECORD
5
1
100
AcDbSymbolTable
70
1
0
BLOCK_RECORD
5
1F
100
AcDbSymbolTableRecord
100
AcDbBlockTableRecord
2
*MODEL_SPACE
0
BLOCK_RECORD
5
1B
100
AcDbSymbolTableRecord
100
AcDbBlockTableRecord
2
*PAPER_SPACE
0
ENDTAB
0
ENDSEC
0
SECTION
2
BLOCKS
0
BLOCK
5
20
100
AcDbEntity
100
AcDbBlockBegin
2
*MODEL_SPACE
0
ENDBLK
5
21
100
AcDbEntity
100
AcDbBlockEnd
0
BLOCK
5
1C
100
AcDbEntity
100
AcDbBlockBegin
2
*PAPER_SPACE
0
ENDBLK
5
1D
100
AcDbEntity
100
AcDbBlockEnd
0
ENDSEC
0
SECTION
2
ENTITIES
0
LWPOLYLINE
5
100
100
AcDbEntity
8
0
100
AcDbPolyline
90
4
70
1
43
0.0
10
-6.0000006705522395
20
44.300000223517429
10
-15.000000670552234
20
44.300000223517429
10
-15.000000670552234
20
38.300000223517436
10
-6.0000006705522395
20
38.300000223517436
0
LWPOLYLINE
5
101
100
AcDbEntity
8
0
100
AcDbPolyline
90
4
70
1
43
0.0
10
14.999999329447753
20
38.300000223517436
10
14.999999329447753
20
44.300000223517429
10
5.9999993294477587
20
44.300000223517429
10
5.9999993294477587
20
38.300000223517443
0
LWPOLYLINE
5
102
100
AcDbEntity
8
0
100
AcDbPolyline
90
91
70
1
43
0.0
10
-27.700001182158836
20
-13.999999776482513
10
-27.700001182158836
20
-16.19999977648251
10
-26.50000118215884
20
-16.199999776482507
10
-26.500001182158847
20
-23.9999997764825
10
-44.999999821186087
20
-23.9999997764825
10
-45.000001341104522
20
2.2351747680118288e-07
10
-57.00000067055224
20
2.2351747563931212e-07
10
-57.000000670552247
20
10.000000372529076
10
-45.000001341104522
20
10.00000037252908
10
-45.000001341104522
20
13.500000447034878
10
-39.250000670552247
20
13.500000447034877
10
-39.250000670552247
20
12.250000447034878
10
-37.000000670552247
20
12.250000447034882
10
-37.000000670552247
20
17.750000447034875
10
-39.250000670552247
20
17.750000447034875
10
-39.250000670552254
20
16.500000447034878
10
-45.000001341104522
20
16.500000447034878
10
-45.000001341104522
20
20.000000521540677
10
-57.00000067055224
20
20.000000521540677
10
-57.000000670552247
20
30.000000670552286
10
-45.000001341104522
20
30.000000670552286
10
-45.000001341104522
20
33.500000745058081
10
-39.250000670552247
20
33.500000745058088
10
-39.250000670552247
20
32.250000745058088
10
-37.000000670552247
20
32.250000745058088
10
-37.000000670552247
20
37.750000745058088
10
-39.250000670552247
20
37.750000745058088
10
-39.250000670552254
20
36.500000745058088
10
-45.000001341104522
20
36.500000745058074
10
-45.000001341104522
20
40.000000819563873
10
-57.00000067055224
20
40.000000819563873
10
-57.000000670552247
20
50.000000223517418
10
-48.500001341104522
20
50.000000223517418
10
-45.500000099723096
20
50.000000559530513
42
0.41421357252711771
10
-42.00000049173822
20
53.500001072883606
42
-0.41421356237309948
10
-38.50000049173822
20
57.000001072883606
10
-19.500000983476564
20
57.000001072883713
42
-0.41421356237309703
10
-16.000000983476461
20
53.50000107288362
42
0.41421363345126794
10
-12.500000983476564
20
50.000000223517425
10
12.499999642372083
20
50.000000223517425
42
0.4142136334512681
10
15.999999642372078
20
53.50000107288362
42
-0.41421356237309576
10
19.499999642372082
20
57.000001072883613
10
38.499999999999936
20
57.000001072883713
42
-0.41421356237309576
10
42.000000000000036
20
53.50000107288362
42
0.41421363345126794
10
45.499999999999936
20
50.000000223517425
10
56.999999329447697
20
50.000000223517425
10
57.00000008940691
20
40.00000081956388
10
44.999999999999943
20
40.000000819563894
10
44.999999999999943
20
36.500000745058088
10
39.249999329447732
20
36.500000745058088
10
39.249999329447739
20
37.750000745058017
10
36.999999329447739
20
37.750000745058017
10
36.999999329447732
20
32.250000745058017
10
39.249999329447732
20
32.25000074505801
10
39.249999329447732
20
33.500000745058088
10
44.999999999999943
20
33.500000745058088
10
44.999999999999943
20
30.000000670552289
10
57.000000089406903
20
30.000000819563901
10
57.00000008940691
20
20.000000521540684
10
44.999999999999943
20
20.000000521540684
10
44.999999999999943
20
16.500000447034886
10
39.249999329447704
20
16.500000447034886
10
39.249999329447704
20
17.750000447034807
10
36.999999329447704
20
17.750000447034807
10
36.999999329447697
20
12.250000447034813
10
39.249999329447697
20
12.250000447034811
10
39.249999329447704
20
13.500000447034886
10
44.999999999999943
20
13.500000447034886
10
44.999999999999943
20
10.000000372529083
10
57.000000089406903
20
10.000000521540697
10
56.999999329447704
20
2.2351748423363129e-07
10
44.999999999999943
20
2.2351748452109632e-07
10
44.999999841054219
20
-23.999999776482461
10
26.499999841054223
20
-23.999999776482465
10
26.499999841054223
20
-16.199999776482471
10
27.699999841054222
20
-16.199999776482471
10
27.699999841054222
20
-13.999999776482476
10
22.299999841054227
20
-13.999999776482476
10
22.299999841054227
20
-16.199999776482471
10
23.499999841054226
20
-16.199999776482468
10
23.499999841054226
20
-23.999999776482461
10
12.99999984105423
20
-23.999999776482461
10
12.99999984105423
20
-3.4999997764825164
42
0.41421356237309476
10
9.499999841054235
20
2.2351748077244214e-07
10
-9.4999998211860994
20
2.2351747785975817e-07
42
0.41421356237309515
10
-12.999999821186098
20
-3.4999997764825208
10
-12.999999821186099
20
-23.9999997764825
10
-23.500001182158844
20
-23.9999997764825
10
-23.500001182158844
20
-16.19999977648251
10
-22.300001182158841
20
-16.19999977648251
10
-22.300001182158837
20
-13.999999776482513
0
LINE
5
103
100
AcDbEntity
8
0
100
AcDbLine
10
31.49999848008153
20
1.0000005960465121
30
0
11
26.49999848008153
21
1.0000005960465117
31
-3.9517892825903153e-32
0
ARC
5
104
100
AcDbEntity
8
0
100
AcDbCircle
10
26.499998480081523
20
3.5000002384186395
30
0
40
2.5
210
-1.7406027431415131e-33
220
-1.9324572421614159e-49
230
1
100
AcDbArc
50
180
51
270.00000000000017
0
LINE
5
105
100
AcDbEntity
8
0
100
AcDbLine
10
23.999998480081523
20
3.5000002384186391
30
-4.3515068578537827e-33
11
23.99999848008153
21
46.500000953674331
31
0
0
ARC
5
106
100
AcDbEntity
8
0
100
AcDbCircle
10
26.49999848008153
20
46.500000953674331
30
0
40
2.5
210
-7.90357856518022e-33
220
1.2587712011246466e-47
230
1
100
AcDbArc
50
89.999999999999929
51
180
0
LINE
5
107
100
AcDbEntity
8
0
100
AcDbLine
10
26.499998480081533
20
49.000000953674331
30
3.6296595718715937e-48
11
31.49999848008153
21
49.000000953674324
31
3.9517892825903246e-32
0
ARC
5
108
100
AcDbEntity
8
0
100
AcDbCircle
10
31.49999848008153
20
46.500000953674331
30
0
40
2.5
210
-1.7406027431415131e-33
220
-1.9324572421614182e-49
230
1
100
AcDbArc
50
0
51
90
0
LINE
5
109
100
AcDbEntity
8
0
100
AcDbLine
10
33.99999848008153
20
46.500000953674331
30
4.3515068578537827e-33
11
33.99999848008153
21
3.5000002384186413
31
0
0
ARC
5
110
100
AcDbEntity
8
0
100
AcDbCircle
10
31.49999848008153
20
3.5000002384186404
30
0
40
2.4999996423721278
210
-1.7406027431415361e-33
220
0
230
1
100
AcDbArc
50
-90
51
0
0
LINE
5
111
100
AcDbEntity
8
0
100
AcDbLine
10
-26.499999821186087
20
1.0000002384186384
30
0
11
-31.499999821186087
21
1.0000002384186379
31
-3.9517892825903246e-32
0
ARC
5
112
100
AcDbEntity
8
0
100
AcDbCircle
10
-31.499999821186087
20
3.5000002384186351
30
0
40
2.5
210
-1.7406027431415131e-33
220
-1.9324572421614159e-49
230
1
100
AcDbArc
50
180
51
270
0
LINE
5
113
100
AcDbEntity
8
0
100
AcDbLine
10
-33.999999821186087
20
3.5000002384186346
30
-4.3515068578537827e-33
11
-33.999999821186087
21
46.500000953674324
31
0
0
ARC
5
114
100
AcDbEntity
8
0
100
AcDbCircle
10
-31.499999821186087
20
46.500000953674324
30
0
40
2.5
210
-1.7406027431415361e-33
220
-3.1974353669630756e-49
230
1
100
AcDbArc
50
90
51
180
0
LINE
5
115
100
AcDbEntity
8
0
100
AcDbLine
10
-31.499999821186087
20
49.000000953674324
30
7.9935884174076894e-49
11
-26.499999821186087
21
49.000000596046448
31
3.9517892825903153e-32
0
ARC
5
116
100
AcDbEntity
8
0
100
AcDbCircle
10
-26.499999821186083
20
46.500000953674324
30
0
40
2.5
210
-1.7406027431415131e-33
220
-1.9324572421614182e-49
230
1
100
AcDbArc
50
0
51
90.000000000000071
0
LINE
5
117
100
AcDbEntity
8
0
100
AcDbLine
10
-23.999999821186083
20
46.500000953674324
30
4.3515068578537827e-33
11
-23.999999821186087
21
3.5000002384186324
31
0
0
ARC
5
118
100
AcDbEntity
8
0
100
AcDbCircle
10
-26.499999821186087
20
3.5000002384186359
30
0
40
2.4999999999999973
210
-1.7406027431415361e-33
220
0
230
1
100
AcDbArc
50
270
51
360
0
ENDSEC
0
SECTION
2
OBJECTS
0
DICTIONARY
5
C
100
AcDbDictionary
3
ACAD_GROUP
350
D
3
ACAD_MLINESTYLE
350
17
0
DICTIONARY
5
D
100
AcDbDictionary
0
DICTIONARY
5
1A
330
C
100
AcDbDictionary
0
DICTIONARY
5
17
100
AcDbDictionary
0
ENDSEC
0
EOF
