ISO-10303-21;
HEADER;
/* Generated by software containing ST-Developer
 * from STEP Tools, Inc. (www.steptools.com) 
 */

FILE_DESCRIPTION(
/* description */ (''),
/* implementation_level */ '2;1');

FILE_NAME(
/* name */ 
'C:\\Users\\Sybrandt\\Google Drive\\Projekte\\Ringlight\\3D print cove
r final top.stp',
/* time_stamp */ '2017-08-20T12:12:27+02:00',
/* author */ ('Sybrandt'),
/* organization */ (''),
/* preprocessor_version */ 'ST-DEVELOPER v16.5',
/* originating_system */ 'Autodesk Inventor 2017',
/* authorisation */ '');

FILE_SCHEMA (('AUTOMOTIVE_DESIGN { 1 0 10303 214 3 1 1 }'));
ENDSEC;

DATA;
#10=MECHANICAL_DESIGN_GEOMETRIC_PRESENTATION_REPRESENTATION('',(#13),#177);
#11=SHAPE_REPRESENTATION_RELATIONSHIP('SRR','None',#186,#12);
#12=ADVANCED_BREP_SHAPE_REPRESENTATION('',(#14),#176);
#13=STYLED_ITEM('',(#195),#14);
#14=MANIFOLD_SOLID_BREP('Solid2',#99);
#15=PLANE('',#119);
#16=PLANE('',#120);
#17=FACE_BOUND('',#34,.T.);
#18=FACE_BOUND('',#36,.T.);
#19=FACE_BOUND('',#38,.T.);
#20=FACE_BOUND('',#40,.T.);
#21=FACE_BOUND('',#42,.T.);
#22=FACE_BOUND('',#43,.T.);
#23=FACE_BOUND('',#44,.T.);
#24=FACE_BOUND('',#46,.T.);
#25=FACE_BOUND('',#47,.T.);
#26=FACE_BOUND('',#48,.T.);
#27=FACE_OUTER_BOUND('',#33,.T.);
#28=FACE_OUTER_BOUND('',#35,.T.);
#29=FACE_OUTER_BOUND('',#37,.T.);
#30=FACE_OUTER_BOUND('',#39,.T.);
#31=FACE_OUTER_BOUND('',#41,.T.);
#32=FACE_OUTER_BOUND('',#45,.T.);
#33=EDGE_LOOP('',(#73));
#34=EDGE_LOOP('',(#74));
#35=EDGE_LOOP('',(#75));
#36=EDGE_LOOP('',(#76));
#37=EDGE_LOOP('',(#77));
#38=EDGE_LOOP('',(#78));
#39=EDGE_LOOP('',(#79));
#40=EDGE_LOOP('',(#80));
#41=EDGE_LOOP('',(#81));
#42=EDGE_LOOP('',(#82));
#43=EDGE_LOOP('',(#83));
#44=EDGE_LOOP('',(#84));
#45=EDGE_LOOP('',(#85));
#46=EDGE_LOOP('',(#86));
#47=EDGE_LOOP('',(#87));
#48=EDGE_LOOP('',(#88));
#49=CIRCLE('',#108,45.);
#50=CIRCLE('',#109,45.);
#51=CIRCLE('',#111,1.5);
#52=CIRCLE('',#112,1.5);
#53=CIRCLE('',#114,1.5);
#54=CIRCLE('',#115,1.5);
#55=CIRCLE('',#117,67.5);
#56=CIRCLE('',#118,67.5);
#57=VERTEX_POINT('',#153);
#58=VERTEX_POINT('',#155);
#59=VERTEX_POINT('',#158);
#60=VERTEX_POINT('',#160);
#61=VERTEX_POINT('',#163);
#62=VERTEX_POINT('',#165);
#63=VERTEX_POINT('',#168);
#64=VERTEX_POINT('',#170);
#65=EDGE_CURVE('',#57,#57,#49,.T.);
#66=EDGE_CURVE('',#58,#58,#50,.T.);
#67=EDGE_CURVE('',#59,#59,#51,.T.);
#68=EDGE_CURVE('',#60,#60,#52,.T.);
#69=EDGE_CURVE('',#61,#61,#53,.T.);
#70=EDGE_CURVE('',#62,#62,#54,.T.);
#71=EDGE_CURVE('',#63,#63,#55,.T.);
#72=EDGE_CURVE('',#64,#64,#56,.T.);
#73=ORIENTED_EDGE('',*,*,#65,.F.);
#74=ORIENTED_EDGE('',*,*,#66,.F.);
#75=ORIENTED_EDGE('',*,*,#67,.F.);
#76=ORIENTED_EDGE('',*,*,#68,.F.);
#77=ORIENTED_EDGE('',*,*,#69,.F.);
#78=ORIENTED_EDGE('',*,*,#70,.F.);
#79=ORIENTED_EDGE('',*,*,#71,.F.);
#80=ORIENTED_EDGE('',*,*,#72,.F.);
#81=ORIENTED_EDGE('',*,*,#72,.T.);
#82=ORIENTED_EDGE('',*,*,#66,.T.);
#83=ORIENTED_EDGE('',*,*,#68,.T.);
#84=ORIENTED_EDGE('',*,*,#70,.T.);
#85=ORIENTED_EDGE('',*,*,#71,.T.);
#86=ORIENTED_EDGE('',*,*,#65,.T.);
#87=ORIENTED_EDGE('',*,*,#67,.T.);
#88=ORIENTED_EDGE('',*,*,#69,.T.);
#89=CYLINDRICAL_SURFACE('',#107,45.);
#90=CYLINDRICAL_SURFACE('',#110,1.5);
#91=CYLINDRICAL_SURFACE('',#113,1.5);
#92=CYLINDRICAL_SURFACE('',#116,67.5);
#93=ADVANCED_FACE('',(#27,#17),#89,.F.);
#94=ADVANCED_FACE('',(#28,#18),#90,.F.);
#95=ADVANCED_FACE('',(#29,#19),#91,.F.);
#96=ADVANCED_FACE('',(#30,#20),#92,.T.);
#97=ADVANCED_FACE('',(#31,#21,#22,#23),#15,.F.);
#98=ADVANCED_FACE('',(#32,#24,#25,#26),#16,.T.);
#99=CLOSED_SHELL('',(#93,#94,#95,#96,#97,#98));
#100=DATE_TIME_ROLE('creation_date');
#101=APPLIED_DATE_AND_TIME_ASSIGNMENT(#102,#100,(#188));
#102=DATE_AND_TIME(#103,#104);
#103=CALENDAR_DATE(2016,8,8);
#104=LOCAL_TIME(8,4,52.,#105);
#105=COORDINATED_UNIVERSAL_TIME_OFFSET(0,0,.BEHIND.);
#106=AXIS2_PLACEMENT_3D('placement',#151,#121,#122);
#107=AXIS2_PLACEMENT_3D('',#152,#123,#124);
#108=AXIS2_PLACEMENT_3D('',#154,#125,#126);
#109=AXIS2_PLACEMENT_3D('',#156,#127,#128);
#110=AXIS2_PLACEMENT_3D('',#157,#129,#130);
#111=AXIS2_PLACEMENT_3D('',#159,#131,#132);
#112=AXIS2_PLACEMENT_3D('',#161,#133,#134);
#113=AXIS2_PLACEMENT_3D('',#162,#135,#136);
#114=AXIS2_PLACEMENT_3D('',#164,#137,#138);
#115=AXIS2_PLACEMENT_3D('',#166,#139,#140);
#116=AXIS2_PLACEMENT_3D('',#167,#141,#142);
#117=AXIS2_PLACEMENT_3D('',#169,#143,#144);
#118=AXIS2_PLACEMENT_3D('',#171,#145,#146);
#119=AXIS2_PLACEMENT_3D('',#172,#147,#148);
#120=AXIS2_PLACEMENT_3D('',#173,#149,#150);
#121=DIRECTION('axis',(0.,0.,1.));
#122=DIRECTION('refdir',(1.,0.,0.));
#123=DIRECTION('center_axis',(0.,0.,1.));
#124=DIRECTION('ref_axis',(-1.,0.,0.));
#125=DIRECTION('center_axis',(0.,0.,-1.));
#126=DIRECTION('ref_axis',(-1.,0.,0.));
#127=DIRECTION('center_axis',(0.,0.,1.));
#128=DIRECTION('ref_axis',(-1.,0.,0.));
#129=DIRECTION('center_axis',(0.,0.,1.));
#130=DIRECTION('ref_axis',(-1.,0.,0.));
#131=DIRECTION('center_axis',(0.,0.,-1.));
#132=DIRECTION('ref_axis',(-1.,0.,0.));
#133=DIRECTION('center_axis',(0.,0.,1.));
#134=DIRECTION('ref_axis',(-1.,0.,0.));
#135=DIRECTION('center_axis',(0.,0.,1.));
#136=DIRECTION('ref_axis',(-1.,0.,0.));
#137=DIRECTION('center_axis',(0.,0.,-1.));
#138=DIRECTION('ref_axis',(-1.,0.,0.));
#139=DIRECTION('center_axis',(0.,0.,1.));
#140=DIRECTION('ref_axis',(-1.,0.,0.));
#141=DIRECTION('center_axis',(0.,0.,1.));
#142=DIRECTION('ref_axis',(-1.,0.,0.));
#143=DIRECTION('center_axis',(0.,0.,1.));
#144=DIRECTION('ref_axis',(-1.,0.,0.));
#145=DIRECTION('center_axis',(0.,0.,-1.));
#146=DIRECTION('ref_axis',(-1.,0.,0.));
#147=DIRECTION('center_axis',(0.,0.,1.));
#148=DIRECTION('ref_axis',(1.,0.,0.));
#149=DIRECTION('center_axis',(0.,0.,1.));
#150=DIRECTION('ref_axis',(1.,0.,0.));
#151=CARTESIAN_POINT('',(0.,0.,0.));
#152=CARTESIAN_POINT('Origin',(0.,0.,0.));
#153=CARTESIAN_POINT('',(45.,5.51091059616309E-15,2.));
#154=CARTESIAN_POINT('Origin',(0.,0.,2.));
#155=CARTESIAN_POINT('',(45.,5.51091059616309E-15,0.));
#156=CARTESIAN_POINT('Origin',(0.,0.,0.));
#157=CARTESIAN_POINT('Origin',(0.,56.2,0.));
#158=CARTESIAN_POINT('',(1.5,56.2,2.));
#159=CARTESIAN_POINT('Origin',(0.,56.2,2.));
#160=CARTESIAN_POINT('',(1.5,56.2,0.));
#161=CARTESIAN_POINT('Origin',(0.,56.2,0.));
#162=CARTESIAN_POINT('Origin',(0.,-56.2,0.));
#163=CARTESIAN_POINT('',(1.5,-56.2,2.));
#164=CARTESIAN_POINT('Origin',(0.,-56.2,2.));
#165=CARTESIAN_POINT('',(1.5,-56.2,0.));
#166=CARTESIAN_POINT('Origin',(0.,-56.2,0.));
#167=CARTESIAN_POINT('Origin',(0.,0.,0.));
#168=CARTESIAN_POINT('',(67.5,8.26636589424464E-15,2.));
#169=CARTESIAN_POINT('Origin',(0.,0.,2.));
#170=CARTESIAN_POINT('',(67.5,8.26636589424464E-15,0.));
#171=CARTESIAN_POINT('Origin',(0.,0.,0.));
#172=CARTESIAN_POINT('Origin',(-4.19771684061965E-15,1.75442650804963E-15,
0.));
#173=CARTESIAN_POINT('Origin',(-4.19771684061965E-15,1.75442650804963E-15,
2.));
#174=UNCERTAINTY_MEASURE_WITH_UNIT(LENGTH_MEASURE(0.01),#178,
'DISTANCE_ACCURACY_VALUE',
'Maximum model space distance between geometric entities at asserted c
onnectivities');
#175=UNCERTAINTY_MEASURE_WITH_UNIT(LENGTH_MEASURE(1.E-6),#178,
'DISTANCE_ACCURACY_VALUE',
'Maximum model space distance between geometric entities at asserted c
onnectivities');
#176=(
GEOMETRIC_REPRESENTATION_CONTEXT(3)
GLOBAL_UNCERTAINTY_ASSIGNED_CONTEXT((#174))
GLOBAL_UNIT_ASSIGNED_CONTEXT((#178,#181,#179))
REPRESENTATION_CONTEXT('','3D')
);
#177=(
GEOMETRIC_REPRESENTATION_CONTEXT(3)
GLOBAL_UNCERTAINTY_ASSIGNED_CONTEXT((#175))
GLOBAL_UNIT_ASSIGNED_CONTEXT((#178,#181,#179))
REPRESENTATION_CONTEXT('','3D')
);
#178=(
LENGTH_UNIT()
NAMED_UNIT(*)
SI_UNIT(.MILLI.,.METRE.)
);
#179=(
NAMED_UNIT(*)
SI_UNIT($,.STERADIAN.)
SOLID_ANGLE_UNIT()
);
#180=DIMENSIONAL_EXPONENTS(0.,0.,0.,0.,0.,0.,0.);
#181=(
CONVERSION_BASED_UNIT('degree',#183)
NAMED_UNIT(#180)
PLANE_ANGLE_UNIT()
);
#182=(
NAMED_UNIT(*)
PLANE_ANGLE_UNIT()
SI_UNIT($,.RADIAN.)
);
#183=PLANE_ANGLE_MEASURE_WITH_UNIT(PLANE_ANGLE_MEASURE(0.01745329252),#182);
#184=SHAPE_DEFINITION_REPRESENTATION(#185,#186);
#185=PRODUCT_DEFINITION_SHAPE('',$,#188);
#186=SHAPE_REPRESENTATION('',(#106),#176);
#187=PRODUCT_DEFINITION_CONTEXT('part definition',#192,'design');
#188=PRODUCT_DEFINITION('3D print cover','3D print cover final top',#189,
#187);
#189=PRODUCT_DEFINITION_FORMATION('',$,#194);
#190=PRODUCT_RELATED_PRODUCT_CATEGORY('3D print cover final top',
'3D print cover final top',(#194));
#191=APPLICATION_PROTOCOL_DEFINITION('international standard',
'automotive_design',2009,#192);
#192=APPLICATION_CONTEXT(
'Core Data for Automotive Mechanical Design Process');
#193=PRODUCT_CONTEXT('part definition',#192,'mechanical');
#194=PRODUCT('3D print cover','3D print cover final top',$,(#193));
#195=PRESENTATION_STYLE_ASSIGNMENT((#196));
#196=SURFACE_STYLE_USAGE(.BOTH.,#197);
#197=SURFACE_SIDE_STYLE('',(#198));
#198=SURFACE_STYLE_FILL_AREA(#199);
#199=FILL_AREA_STYLE('',(#200));
#200=FILL_AREA_STYLE_COLOUR('',#201);
#201=COLOUR_RGB('',0.749019607843137,0.749019607843137,0.749019607843137);
ENDSEC;
END-ISO-10303-21;
