ISO-10303-21;
HEADER;
/* Generated by software containing ST-Developer
 * from STEP Tools, Inc. (www.steptools.com) 
 */

FILE_DESCRIPTION(
/* description */ (''),
/* implementation_level */ '2;1');

FILE_NAME(
/* name */ 
'C:\\Users\\Mark\\Desktop\\Inventor Projects\\Khun_Phaen_Puzzle\\Base.
stp',
/* time_stamp */ '2017-10-22T19:14:19-04:00',
/* author */ ('Mark'),
/* organization */ (''),
/* preprocessor_version */ 'ST-DEVELOPER v16.1',
/* originating_system */ 'Autodesk Inventor 2016',
/* authorisation */ '');

FILE_SCHEMA (('AUTOMOTIVE_DESIGN { 1 0 10303 214 3 1 1 }'));
ENDSEC;

DATA;
#10=MECHANICAL_DESIGN_GEOMETRIC_PRESENTATION_REPRESENTATION('',(#13),#579);
#11=SHAPE_REPRESENTATION_RELATIONSHIP('SRR','None',#591,#12);
#12=ADVANCED_BREP_SHAPE_REPRESENTATION('',(#14),#578);
#13=STYLED_ITEM('',(#600),#14);
#14=MANIFOLD_SOLID_BREP('Solid1',#355);
#15=FACE_BOUND('',#65,.T.);
#16=FACE_BOUND('',#67,.T.);
#17=PLANE('',#360);
#18=PLANE('',#364);
#19=PLANE('',#368);
#20=PLANE('',#372);
#21=PLANE('',#373);
#22=PLANE('',#374);
#23=PLANE('',#375);
#24=PLANE('',#376);
#25=PLANE('',#377);
#26=PLANE('',#378);
#27=PLANE('',#379);
#28=PLANE('',#380);
#29=PLANE('',#381);
#30=PLANE('',#382);
#31=FACE_OUTER_BOUND('',#49,.T.);
#32=FACE_OUTER_BOUND('',#50,.T.);
#33=FACE_OUTER_BOUND('',#51,.T.);
#34=FACE_OUTER_BOUND('',#52,.T.);
#35=FACE_OUTER_BOUND('',#53,.T.);
#36=FACE_OUTER_BOUND('',#54,.T.);
#37=FACE_OUTER_BOUND('',#55,.T.);
#38=FACE_OUTER_BOUND('',#56,.T.);
#39=FACE_OUTER_BOUND('',#57,.T.);
#40=FACE_OUTER_BOUND('',#58,.T.);
#41=FACE_OUTER_BOUND('',#59,.T.);
#42=FACE_OUTER_BOUND('',#60,.T.);
#43=FACE_OUTER_BOUND('',#61,.T.);
#44=FACE_OUTER_BOUND('',#62,.T.);
#45=FACE_OUTER_BOUND('',#63,.T.);
#46=FACE_OUTER_BOUND('',#64,.T.);
#47=FACE_OUTER_BOUND('',#66,.T.);
#48=FACE_OUTER_BOUND('',#68,.T.);
#49=EDGE_LOOP('',(#237,#238,#239,#240));
#50=EDGE_LOOP('',(#241,#242,#243,#244));
#51=EDGE_LOOP('',(#245,#246,#247,#248));
#52=EDGE_LOOP('',(#249,#250,#251,#252,#253,#254,#255,#256));
#53=EDGE_LOOP('',(#257,#258,#259,#260));
#54=EDGE_LOOP('',(#261,#262,#263,#264));
#55=EDGE_LOOP('',(#265,#266,#267,#268));
#56=EDGE_LOOP('',(#269,#270,#271,#272));
#57=EDGE_LOOP('',(#273,#274,#275,#276));
#58=EDGE_LOOP('',(#277,#278,#279,#280));
#59=EDGE_LOOP('',(#281,#282,#283,#284));
#60=EDGE_LOOP('',(#285,#286,#287,#288,#289,#290,#291,#292,#293,#294,#295,
#296));
#61=EDGE_LOOP('',(#297,#298,#299,#300));
#62=EDGE_LOOP('',(#301,#302,#303,#304));
#63=EDGE_LOOP('',(#305,#306,#307,#308));
#64=EDGE_LOOP('',(#309,#310,#311,#312));
#65=EDGE_LOOP('',(#313,#314,#315,#316,#317,#318,#319,#320));
#66=EDGE_LOOP('',(#321,#322,#323,#324));
#67=EDGE_LOOP('',(#325,#326,#327,#328));
#68=EDGE_LOOP('',(#329,#330,#331,#332));
#69=LINE('',#483,#109);
#70=LINE('',#486,#110);
#71=LINE('',#489,#111);
#72=LINE('',#491,#112);
#73=LINE('',#492,#113);
#74=LINE('',#498,#114);
#75=LINE('',#501,#115);
#76=LINE('',#504,#116);
#77=LINE('',#506,#117);
#78=LINE('',#508,#118);
#79=LINE('',#510,#119);
#80=LINE('',#512,#120);
#81=LINE('',#514,#121);
#82=LINE('',#515,#122);
#83=LINE('',#520,#123);
#84=LINE('',#524,#124);
#85=LINE('',#526,#125);
#86=LINE('',#527,#126);
#87=LINE('',#532,#127);
#88=LINE('',#533,#128);
#89=LINE('',#537,#129);
#90=LINE('',#538,#130);
#91=LINE('',#539,#131);
#92=LINE('',#542,#132);
#93=LINE('',#543,#133);
#94=LINE('',#546,#134);
#95=LINE('',#547,#135);
#96=LINE('',#549,#136);
#97=LINE('',#553,#137);
#98=LINE('',#555,#138);
#99=LINE('',#557,#139);
#100=LINE('',#558,#140);
#101=LINE('',#561,#141);
#102=LINE('',#563,#142);
#103=LINE('',#564,#143);
#104=LINE('',#567,#144);
#105=LINE('',#569,#145);
#106=LINE('',#570,#146);
#107=LINE('',#572,#147);
#108=LINE('',#573,#148);
#109=VECTOR('',#389,0.250000000000001);
#110=VECTOR('',#392,0.250000000000001);
#111=VECTOR('',#395,2.09375);
#112=VECTOR('',#396,0.250000000000002);
#113=VECTOR('',#397,2.09375);
#114=VECTOR('',#402,0.250000000000001);
#115=VECTOR('',#405,0.250000000000001);
#116=VECTOR('',#408,1.015625);
#117=VECTOR('',#409,5.125);
#118=VECTOR('',#410,4.125);
#119=VECTOR('',#411,5.125);
#120=VECTOR('',#412,1.015625);
#121=VECTOR('',#413,0.250000000000002);
#122=VECTOR('',#414,2.09375);
#123=VECTOR('',#419,0.250000000000002);
#124=VECTOR('',#424,0.35375);
#125=VECTOR('',#425,0.250000000000002);
#126=VECTOR('',#426,0.35375);
#127=VECTOR('',#435,0.35375);
#128=VECTOR('',#436,0.35375);
#129=VECTOR('',#439,5.125);
#130=VECTOR('',#440,0.625);
#131=VECTOR('',#441,0.625);
#132=VECTOR('',#444,4.125);
#133=VECTOR('',#445,0.625);
#134=VECTOR('',#448,5.125);
#135=VECTOR('',#449,0.625);
#136=VECTOR('',#452,4.125);
#137=VECTOR('',#455,5.625);
#138=VECTOR('',#456,0.875);
#139=VECTOR('',#457,5.625);
#140=VECTOR('',#458,0.875);
#141=VECTOR('',#461,4.625);
#142=VECTOR('',#462,4.625);
#143=VECTOR('',#463,0.875);
#144=VECTOR('',#466,5.625);
#145=VECTOR('',#467,5.625);
#146=VECTOR('',#468,0.875);
#147=VECTOR('',#471,4.625);
#148=VECTOR('',#472,4.625);
#149=CIRCLE('',#358,0.015625);
#150=CIRCLE('',#359,0.015625);
#151=CIRCLE('',#362,0.015625);
#152=CIRCLE('',#363,0.015625);
#153=CIRCLE('',#366,0.015625);
#154=CIRCLE('',#367,0.015625);
#155=CIRCLE('',#370,0.015625);
#156=CIRCLE('',#371,0.015625);
#157=VERTEX_POINT('',#479);
#158=VERTEX_POINT('',#480);
#159=VERTEX_POINT('',#482);
#160=VERTEX_POINT('',#484);
#161=VERTEX_POINT('',#488);
#162=VERTEX_POINT('',#490);
#163=VERTEX_POINT('',#494);
#164=VERTEX_POINT('',#495);
#165=VERTEX_POINT('',#497);
#166=VERTEX_POINT('',#499);
#167=VERTEX_POINT('',#503);
#168=VERTEX_POINT('',#505);
#169=VERTEX_POINT('',#507);
#170=VERTEX_POINT('',#509);
#171=VERTEX_POINT('',#511);
#172=VERTEX_POINT('',#513);
#173=VERTEX_POINT('',#517);
#174=VERTEX_POINT('',#519);
#175=VERTEX_POINT('',#523);
#176=VERTEX_POINT('',#525);
#177=VERTEX_POINT('',#535);
#178=VERTEX_POINT('',#536);
#179=VERTEX_POINT('',#541);
#180=VERTEX_POINT('',#545);
#181=VERTEX_POINT('',#551);
#182=VERTEX_POINT('',#552);
#183=VERTEX_POINT('',#554);
#184=VERTEX_POINT('',#556);
#185=VERTEX_POINT('',#560);
#186=VERTEX_POINT('',#562);
#187=VERTEX_POINT('',#566);
#188=VERTEX_POINT('',#568);
#189=EDGE_CURVE('',#157,#158,#149,.T.);
#190=EDGE_CURVE('',#158,#159,#69,.T.);
#191=EDGE_CURVE('',#159,#160,#150,.T.);
#192=EDGE_CURVE('',#160,#157,#70,.T.);
#193=EDGE_CURVE('',#161,#158,#71,.T.);
#194=EDGE_CURVE('',#162,#161,#72,.T.);
#195=EDGE_CURVE('',#159,#162,#73,.T.);
#196=EDGE_CURVE('',#163,#164,#151,.T.);
#197=EDGE_CURVE('',#164,#165,#74,.T.);
#198=EDGE_CURVE('',#165,#166,#152,.T.);
#199=EDGE_CURVE('',#166,#163,#75,.T.);
#200=EDGE_CURVE('',#167,#164,#76,.T.);
#201=EDGE_CURVE('',#168,#167,#77,.T.);
#202=EDGE_CURVE('',#169,#168,#78,.T.);
#203=EDGE_CURVE('',#170,#169,#79,.T.);
#204=EDGE_CURVE('',#171,#170,#80,.T.);
#205=EDGE_CURVE('',#172,#171,#81,.T.);
#206=EDGE_CURVE('',#165,#172,#82,.T.);
#207=EDGE_CURVE('',#171,#173,#153,.T.);
#208=EDGE_CURVE('',#173,#174,#83,.T.);
#209=EDGE_CURVE('',#174,#172,#154,.T.);
#210=EDGE_CURVE('',#175,#173,#84,.T.);
#211=EDGE_CURVE('',#176,#175,#85,.T.);
#212=EDGE_CURVE('',#174,#176,#86,.T.);
#213=EDGE_CURVE('',#161,#176,#155,.T.);
#214=EDGE_CURVE('',#175,#162,#156,.T.);
#215=EDGE_CURVE('',#163,#160,#87,.T.);
#216=EDGE_CURVE('',#157,#166,#88,.T.);
#217=EDGE_CURVE('',#177,#178,#89,.T.);
#218=EDGE_CURVE('',#177,#168,#90,.T.);
#219=EDGE_CURVE('',#178,#167,#91,.T.);
#220=EDGE_CURVE('',#179,#177,#92,.T.);
#221=EDGE_CURVE('',#179,#169,#93,.T.);
#222=EDGE_CURVE('',#180,#179,#94,.T.);
#223=EDGE_CURVE('',#180,#170,#95,.T.);
#224=EDGE_CURVE('',#178,#180,#96,.T.);
#225=EDGE_CURVE('',#181,#182,#97,.T.);
#226=EDGE_CURVE('',#182,#183,#98,.T.);
#227=EDGE_CURVE('',#184,#183,#99,.T.);
#228=EDGE_CURVE('',#181,#184,#100,.T.);
#229=EDGE_CURVE('',#185,#181,#101,.T.);
#230=EDGE_CURVE('',#186,#184,#102,.T.);
#231=EDGE_CURVE('',#185,#186,#103,.T.);
#232=EDGE_CURVE('',#187,#185,#104,.T.);
#233=EDGE_CURVE('',#188,#186,#105,.T.);
#234=EDGE_CURVE('',#187,#188,#106,.T.);
#235=EDGE_CURVE('',#182,#187,#107,.T.);
#236=EDGE_CURVE('',#183,#188,#108,.T.);
#237=ORIENTED_EDGE('',*,*,#189,.T.);
#238=ORIENTED_EDGE('',*,*,#190,.T.);
#239=ORIENTED_EDGE('',*,*,#191,.T.);
#240=ORIENTED_EDGE('',*,*,#192,.T.);
#241=ORIENTED_EDGE('',*,*,#190,.F.);
#242=ORIENTED_EDGE('',*,*,#193,.F.);
#243=ORIENTED_EDGE('',*,*,#194,.F.);
#244=ORIENTED_EDGE('',*,*,#195,.F.);
#245=ORIENTED_EDGE('',*,*,#196,.T.);
#246=ORIENTED_EDGE('',*,*,#197,.T.);
#247=ORIENTED_EDGE('',*,*,#198,.T.);
#248=ORIENTED_EDGE('',*,*,#199,.T.);
#249=ORIENTED_EDGE('',*,*,#197,.F.);
#250=ORIENTED_EDGE('',*,*,#200,.F.);
#251=ORIENTED_EDGE('',*,*,#201,.F.);
#252=ORIENTED_EDGE('',*,*,#202,.F.);
#253=ORIENTED_EDGE('',*,*,#203,.F.);
#254=ORIENTED_EDGE('',*,*,#204,.F.);
#255=ORIENTED_EDGE('',*,*,#205,.F.);
#256=ORIENTED_EDGE('',*,*,#206,.F.);
#257=ORIENTED_EDGE('',*,*,#207,.T.);
#258=ORIENTED_EDGE('',*,*,#208,.T.);
#259=ORIENTED_EDGE('',*,*,#209,.T.);
#260=ORIENTED_EDGE('',*,*,#205,.T.);
#261=ORIENTED_EDGE('',*,*,#208,.F.);
#262=ORIENTED_EDGE('',*,*,#210,.F.);
#263=ORIENTED_EDGE('',*,*,#211,.F.);
#264=ORIENTED_EDGE('',*,*,#212,.F.);
#265=ORIENTED_EDGE('',*,*,#213,.T.);
#266=ORIENTED_EDGE('',*,*,#211,.T.);
#267=ORIENTED_EDGE('',*,*,#214,.T.);
#268=ORIENTED_EDGE('',*,*,#194,.T.);
#269=ORIENTED_EDGE('',*,*,#192,.F.);
#270=ORIENTED_EDGE('',*,*,#215,.F.);
#271=ORIENTED_EDGE('',*,*,#199,.F.);
#272=ORIENTED_EDGE('',*,*,#216,.F.);
#273=ORIENTED_EDGE('',*,*,#217,.F.);
#274=ORIENTED_EDGE('',*,*,#218,.T.);
#275=ORIENTED_EDGE('',*,*,#201,.T.);
#276=ORIENTED_EDGE('',*,*,#219,.F.);
#277=ORIENTED_EDGE('',*,*,#220,.F.);
#278=ORIENTED_EDGE('',*,*,#221,.T.);
#279=ORIENTED_EDGE('',*,*,#202,.T.);
#280=ORIENTED_EDGE('',*,*,#218,.F.);
#281=ORIENTED_EDGE('',*,*,#222,.F.);
#282=ORIENTED_EDGE('',*,*,#223,.T.);
#283=ORIENTED_EDGE('',*,*,#203,.T.);
#284=ORIENTED_EDGE('',*,*,#221,.F.);
#285=ORIENTED_EDGE('',*,*,#210,.T.);
#286=ORIENTED_EDGE('',*,*,#207,.F.);
#287=ORIENTED_EDGE('',*,*,#204,.T.);
#288=ORIENTED_EDGE('',*,*,#223,.F.);
#289=ORIENTED_EDGE('',*,*,#224,.F.);
#290=ORIENTED_EDGE('',*,*,#219,.T.);
#291=ORIENTED_EDGE('',*,*,#200,.T.);
#292=ORIENTED_EDGE('',*,*,#196,.F.);
#293=ORIENTED_EDGE('',*,*,#215,.T.);
#294=ORIENTED_EDGE('',*,*,#191,.F.);
#295=ORIENTED_EDGE('',*,*,#195,.T.);
#296=ORIENTED_EDGE('',*,*,#214,.F.);
#297=ORIENTED_EDGE('',*,*,#225,.T.);
#298=ORIENTED_EDGE('',*,*,#226,.T.);
#299=ORIENTED_EDGE('',*,*,#227,.F.);
#300=ORIENTED_EDGE('',*,*,#228,.F.);
#301=ORIENTED_EDGE('',*,*,#229,.T.);
#302=ORIENTED_EDGE('',*,*,#228,.T.);
#303=ORIENTED_EDGE('',*,*,#230,.F.);
#304=ORIENTED_EDGE('',*,*,#231,.F.);
#305=ORIENTED_EDGE('',*,*,#232,.T.);
#306=ORIENTED_EDGE('',*,*,#231,.T.);
#307=ORIENTED_EDGE('',*,*,#233,.F.);
#308=ORIENTED_EDGE('',*,*,#234,.F.);
#309=ORIENTED_EDGE('',*,*,#235,.T.);
#310=ORIENTED_EDGE('',*,*,#234,.T.);
#311=ORIENTED_EDGE('',*,*,#236,.F.);
#312=ORIENTED_EDGE('',*,*,#226,.F.);
#313=ORIENTED_EDGE('',*,*,#216,.T.);
#314=ORIENTED_EDGE('',*,*,#198,.F.);
#315=ORIENTED_EDGE('',*,*,#206,.T.);
#316=ORIENTED_EDGE('',*,*,#209,.F.);
#317=ORIENTED_EDGE('',*,*,#212,.T.);
#318=ORIENTED_EDGE('',*,*,#213,.F.);
#319=ORIENTED_EDGE('',*,*,#193,.T.);
#320=ORIENTED_EDGE('',*,*,#189,.F.);
#321=ORIENTED_EDGE('',*,*,#236,.T.);
#322=ORIENTED_EDGE('',*,*,#233,.T.);
#323=ORIENTED_EDGE('',*,*,#230,.T.);
#324=ORIENTED_EDGE('',*,*,#227,.T.);
#325=ORIENTED_EDGE('',*,*,#217,.T.);
#326=ORIENTED_EDGE('',*,*,#224,.T.);
#327=ORIENTED_EDGE('',*,*,#222,.T.);
#328=ORIENTED_EDGE('',*,*,#220,.T.);
#329=ORIENTED_EDGE('',*,*,#235,.F.);
#330=ORIENTED_EDGE('',*,*,#225,.F.);
#331=ORIENTED_EDGE('',*,*,#229,.F.);
#332=ORIENTED_EDGE('',*,*,#232,.F.);
#333=CYLINDRICAL_SURFACE('',#357,0.015625);
#334=CYLINDRICAL_SURFACE('',#361,0.015625);
#335=CYLINDRICAL_SURFACE('',#365,0.015625);
#336=CYLINDRICAL_SURFACE('',#369,0.015625);
#337=ADVANCED_FACE('',(#31),#333,.F.);
#338=ADVANCED_FACE('',(#32),#17,.F.);
#339=ADVANCED_FACE('',(#33),#334,.F.);
#340=ADVANCED_FACE('',(#34),#18,.F.);
#341=ADVANCED_FACE('',(#35),#335,.F.);
#342=ADVANCED_FACE('',(#36),#19,.F.);
#343=ADVANCED_FACE('',(#37),#336,.F.);
#344=ADVANCED_FACE('',(#38),#20,.F.);
#345=ADVANCED_FACE('',(#39),#21,.F.);
#346=ADVANCED_FACE('',(#40),#22,.F.);
#347=ADVANCED_FACE('',(#41),#23,.F.);
#348=ADVANCED_FACE('',(#42),#24,.F.);
#349=ADVANCED_FACE('',(#43),#25,.T.);
#350=ADVANCED_FACE('',(#44),#26,.T.);
#351=ADVANCED_FACE('',(#45),#27,.T.);
#352=ADVANCED_FACE('',(#46,#15),#28,.T.);
#353=ADVANCED_FACE('',(#47,#16),#29,.T.);
#354=ADVANCED_FACE('',(#48),#30,.F.);
#355=CLOSED_SHELL('',(#337,#338,#339,#340,#341,#342,#343,#344,#345,#346,
#347,#348,#349,#350,#351,#352,#353,#354));
#356=AXIS2_PLACEMENT_3D('placement',#477,#383,#384);
#357=AXIS2_PLACEMENT_3D('',#478,#385,#386);
#358=AXIS2_PLACEMENT_3D('',#481,#387,#388);
#359=AXIS2_PLACEMENT_3D('',#485,#390,#391);
#360=AXIS2_PLACEMENT_3D('',#487,#393,#394);
#361=AXIS2_PLACEMENT_3D('',#493,#398,#399);
#362=AXIS2_PLACEMENT_3D('',#496,#400,#401);
#363=AXIS2_PLACEMENT_3D('',#500,#403,#404);
#364=AXIS2_PLACEMENT_3D('',#502,#406,#407);
#365=AXIS2_PLACEMENT_3D('',#516,#415,#416);
#366=AXIS2_PLACEMENT_3D('',#518,#417,#418);
#367=AXIS2_PLACEMENT_3D('',#521,#420,#421);
#368=AXIS2_PLACEMENT_3D('',#522,#422,#423);
#369=AXIS2_PLACEMENT_3D('',#528,#427,#428);
#370=AXIS2_PLACEMENT_3D('',#529,#429,#430);
#371=AXIS2_PLACEMENT_3D('',#530,#431,#432);
#372=AXIS2_PLACEMENT_3D('',#531,#433,#434);
#373=AXIS2_PLACEMENT_3D('',#534,#437,#438);
#374=AXIS2_PLACEMENT_3D('',#540,#442,#443);
#375=AXIS2_PLACEMENT_3D('',#544,#446,#447);
#376=AXIS2_PLACEMENT_3D('',#548,#450,#451);
#377=AXIS2_PLACEMENT_3D('',#550,#453,#454);
#378=AXIS2_PLACEMENT_3D('',#559,#459,#460);
#379=AXIS2_PLACEMENT_3D('',#565,#464,#465);
#380=AXIS2_PLACEMENT_3D('',#571,#469,#470);
#381=AXIS2_PLACEMENT_3D('',#574,#473,#474);
#382=AXIS2_PLACEMENT_3D('',#575,#475,#476);
#383=DIRECTION('axis',(0.,0.,1.));
#384=DIRECTION('refdir',(1.,0.,0.));
#385=DIRECTION('center_axis',(0.,1.,0.));
#386=DIRECTION('ref_axis',(0.707106781186543,0.,0.707106781186552));
#387=DIRECTION('center_axis',(0.,-1.,0.));
#388=DIRECTION('ref_axis',(0.707106781186543,0.,0.707106781186552));
#389=DIRECTION('',(0.,1.,0.));
#390=DIRECTION('center_axis',(1.69540142152255E-16,1.,0.));
#391=DIRECTION('ref_axis',(0.707106781186543,0.,0.707106781186552));
#392=DIRECTION('',(0.,-1.,0.));
#393=DIRECTION('center_axis',(-8.22768336915355E-17,0.,1.));
#394=DIRECTION('ref_axis',(1.,0.,0.));
#395=DIRECTION('',(1.,0.,8.22768336915355E-17));
#396=DIRECTION('',(0.,-1.,0.));
#397=DIRECTION('',(-1.,1.69540142152255E-16,-8.22768336915355E-17));
#398=DIRECTION('center_axis',(0.,1.,0.));
#399=DIRECTION('ref_axis',(0.707106781186543,0.,-0.707106781186552));
#400=DIRECTION('center_axis',(1.69540142152255E-16,1.,0.));
#401=DIRECTION('ref_axis',(0.707106781186543,0.,-0.707106781186552));
#402=DIRECTION('',(0.,-1.,0.));
#403=DIRECTION('center_axis',(0.,-1.,0.));
#404=DIRECTION('ref_axis',(0.707106781186543,0.,-0.707106781186552));
#405=DIRECTION('',(0.,1.,0.));
#406=DIRECTION('center_axis',(0.,0.,-1.));
#407=DIRECTION('ref_axis',(-1.,0.,0.));
#408=DIRECTION('',(-1.,1.69540142152255E-16,0.));
#409=DIRECTION('',(0.,-1.,0.));
#410=DIRECTION('',(1.,3.3908028430451E-16,0.));
#411=DIRECTION('',(-3.07033062312315E-16,1.,0.));
#412=DIRECTION('',(-1.,1.69540142152255E-16,0.));
#413=DIRECTION('',(0.,1.,0.));
#414=DIRECTION('',(-1.,0.,0.));
#415=DIRECTION('center_axis',(0.,1.,0.));
#416=DIRECTION('ref_axis',(-0.707106781186542,0.,-0.707106781186553));
#417=DIRECTION('center_axis',(1.69540142152255E-16,1.,0.));
#418=DIRECTION('ref_axis',(-0.707106781186542,0.,-0.707106781186553));
#419=DIRECTION('',(0.,-1.,0.));
#420=DIRECTION('center_axis',(0.,-1.,0.));
#421=DIRECTION('ref_axis',(-0.707106781186542,0.,-0.707106781186553));
#422=DIRECTION('center_axis',(-1.,0.,0.));
#423=DIRECTION('ref_axis',(0.,0.,1.));
#424=DIRECTION('',(0.,0.,-1.));
#425=DIRECTION('',(0.,1.,0.));
#426=DIRECTION('',(0.,0.,1.));
#427=DIRECTION('center_axis',(0.,1.,0.));
#428=DIRECTION('ref_axis',(-0.707106781186551,0.,0.707106781186544));
#429=DIRECTION('center_axis',(0.,-1.,0.));
#430=DIRECTION('ref_axis',(-0.707106781186551,0.,0.707106781186544));
#431=DIRECTION('center_axis',(1.69540142152255E-16,1.,0.));
#432=DIRECTION('ref_axis',(-0.707106781186551,0.,0.707106781186544));
#433=DIRECTION('center_axis',(1.,0.,1.81650152305987E-15));
#434=DIRECTION('ref_axis',(2.25597318603832E-15,0.,-1.));
#435=DIRECTION('',(-1.81650152305987E-15,3.07969926439359E-31,1.));
#436=DIRECTION('',(1.81650152305987E-15,0.,-1.));
#437=DIRECTION('center_axis',(1.,0.,0.));
#438=DIRECTION('ref_axis',(0.,-1.,0.));
#439=DIRECTION('',(0.,-1.,0.));
#440=DIRECTION('',(0.,0.,-1.));
#441=DIRECTION('',(0.,0.,-1.));
#442=DIRECTION('center_axis',(-3.3908028430451E-16,1.,0.));
#443=DIRECTION('ref_axis',(1.,0.,0.));
#444=DIRECTION('',(1.,3.3908028430451E-16,0.));
#445=DIRECTION('',(0.,0.,-1.));
#446=DIRECTION('center_axis',(-1.,-3.07033062312315E-16,0.));
#447=DIRECTION('ref_axis',(-2.8199664825479E-16,1.,0.));
#448=DIRECTION('',(-3.07033062312315E-16,1.,0.));
#449=DIRECTION('',(0.,0.,-1.));
#450=DIRECTION('center_axis',(-1.69540142152255E-16,-1.,0.));
#451=DIRECTION('ref_axis',(-1.,1.40998324127395E-16,0.));
#452=DIRECTION('',(-1.,1.69540142152255E-16,0.));
#453=DIRECTION('center_axis',(-1.,-3.06161699786838E-16,0.));
#454=DIRECTION('ref_axis',(3.06161699786838E-16,-1.,0.));
#455=DIRECTION('',(3.06161699786838E-16,-1.,0.));
#456=DIRECTION('',(0.,0.,1.));
#457=DIRECTION('',(3.06161699786838E-16,-1.,0.));
#458=DIRECTION('',(0.,0.,1.));
#459=DIRECTION('center_axis',(-1.51211478135795E-16,1.,0.));
#460=DIRECTION('ref_axis',(-1.,0.,0.));
#461=DIRECTION('',(-1.,-1.51211478135795E-16,0.));
#462=DIRECTION('',(-1.,-1.51211478135795E-16,0.));
#463=DIRECTION('',(0.,0.,1.));
#464=DIRECTION('center_axis',(1.,1.2432943757832E-16,0.));
#465=DIRECTION('ref_axis',(0.,1.,0.));
#466=DIRECTION('',(-1.2432943757832E-16,1.,0.));
#467=DIRECTION('',(-1.2432943757832E-16,1.,0.));
#468=DIRECTION('',(0.,0.,1.));
#469=DIRECTION('center_axis',(0.,-1.,0.));
#470=DIRECTION('ref_axis',(1.,0.,0.));
#471=DIRECTION('',(1.,0.,0.));
#472=DIRECTION('',(1.,0.,0.));
#473=DIRECTION('center_axis',(0.,0.,1.));
#474=DIRECTION('ref_axis',(1.,0.,0.));
#475=DIRECTION('center_axis',(0.,0.,1.));
#476=DIRECTION('ref_axis',(1.,0.,0.));
#477=CARTESIAN_POINT('',(0.,0.,0.));
#478=CARTESIAN_POINT('Origin',(3.359375,0.,0.619375));
#479=CARTESIAN_POINT('',(3.375,0.,0.619375));
#480=CARTESIAN_POINT('',(3.359375,0.,0.635));
#481=CARTESIAN_POINT('Origin',(3.359375,0.,0.619375));
#482=CARTESIAN_POINT('',(3.359375,0.250000000000001,0.635));
#483=CARTESIAN_POINT('',(3.359375,0.,0.635));
#484=CARTESIAN_POINT('',(3.375,0.250000000000001,0.619375));
#485=CARTESIAN_POINT('Origin',(3.359375,0.250000000000001,0.619375));
#486=CARTESIAN_POINT('',(3.375,0.,0.619375));
#487=CARTESIAN_POINT('Origin',(1.25,0.,0.635));
#488=CARTESIAN_POINT('',(1.265625,0.,0.635));
#489=CARTESIAN_POINT('',(0.624999999999999,0.,0.635));
#490=CARTESIAN_POINT('',(1.265625,0.250000000000002,0.635));
#491=CARTESIAN_POINT('',(1.265625,0.,0.635));
#492=CARTESIAN_POINT('',(2.8125,0.250000000000002,0.635));
#493=CARTESIAN_POINT('Origin',(3.359375,1.40625,0.265625));
#494=CARTESIAN_POINT('',(3.375,0.250000000000001,0.265625));
#495=CARTESIAN_POINT('',(3.359375,0.250000000000001,0.25));
#496=CARTESIAN_POINT('Origin',(3.359375,0.250000000000001,0.265625));
#497=CARTESIAN_POINT('',(3.359375,0.,0.25));
#498=CARTESIAN_POINT('',(3.359375,1.40625,0.25));
#499=CARTESIAN_POINT('',(3.375,0.,0.265625));
#500=CARTESIAN_POINT('Origin',(3.359375,0.,0.265625));
#501=CARTESIAN_POINT('',(3.375,1.40625,0.265625));
#502=CARTESIAN_POINT('Origin',(2.3125,2.8125,0.25));
#503=CARTESIAN_POINT('',(4.375,0.250000000000001,0.25));
#504=CARTESIAN_POINT('',(0.25,0.250000000000002,0.25));
#505=CARTESIAN_POINT('',(4.375,5.375,0.25));
#506=CARTESIAN_POINT('',(4.375,0.250000000000001,0.25));
#507=CARTESIAN_POINT('',(0.249999999999998,5.375,0.25));
#508=CARTESIAN_POINT('',(4.375,5.375,0.25));
#509=CARTESIAN_POINT('',(0.25,0.250000000000002,0.25));
#510=CARTESIAN_POINT('',(0.249999999999998,5.375,0.25));
#511=CARTESIAN_POINT('',(1.265625,0.250000000000002,0.25));
#512=CARTESIAN_POINT('',(0.25,0.250000000000002,0.25));
#513=CARTESIAN_POINT('',(1.265625,0.,0.25));
#514=CARTESIAN_POINT('',(1.265625,1.40625,0.25));
#515=CARTESIAN_POINT('',(1.6875,0.,0.25));
#516=CARTESIAN_POINT('Origin',(1.265625,1.40625,0.265625));
#517=CARTESIAN_POINT('',(1.25,0.250000000000002,0.265625));
#518=CARTESIAN_POINT('Origin',(1.265625,0.250000000000001,0.265625));
#519=CARTESIAN_POINT('',(1.25,0.,0.265625));
#520=CARTESIAN_POINT('',(1.25,1.40625,0.265625));
#521=CARTESIAN_POINT('Origin',(1.265625,0.,0.265625));
#522=CARTESIAN_POINT('Origin',(1.25,0.,0.25));
#523=CARTESIAN_POINT('',(1.25,0.250000000000002,0.619375));
#524=CARTESIAN_POINT('',(1.25,0.250000000000002,0.5625));
#525=CARTESIAN_POINT('',(1.25,0.,0.619375));
#526=CARTESIAN_POINT('',(1.25,0.,0.619375));
#527=CARTESIAN_POINT('',(1.25,0.,0.125));
#528=CARTESIAN_POINT('Origin',(1.265625,0.,0.619375));
#529=CARTESIAN_POINT('Origin',(1.265625,0.,0.619375));
#530=CARTESIAN_POINT('Origin',(1.265625,0.250000000000001,0.619375));
#531=CARTESIAN_POINT('Origin',(3.375,0.,0.635));
#532=CARTESIAN_POINT('',(3.375,0.250000000000001,0.754999999999999));
#533=CARTESIAN_POINT('',(3.375,0.,0.317500000000003));
#534=CARTESIAN_POINT('Origin',(4.375,5.375,0.875));
#535=CARTESIAN_POINT('',(4.375,5.375,0.875));
#536=CARTESIAN_POINT('',(4.375,0.250000000000001,0.875));
#537=CARTESIAN_POINT('',(4.375,4.09375,0.875));
#538=CARTESIAN_POINT('',(4.375,5.375,0.875));
#539=CARTESIAN_POINT('',(4.375,0.250000000000001,0.875));
#540=CARTESIAN_POINT('Origin',(0.249999999999999,5.375,0.875));
#541=CARTESIAN_POINT('',(0.249999999999998,5.375,0.875));
#542=CARTESIAN_POINT('',(1.28125,5.375,0.875));
#543=CARTESIAN_POINT('',(0.249999999999998,5.375,0.875));
#544=CARTESIAN_POINT('Origin',(0.25,0.250000000000002,0.875));
#545=CARTESIAN_POINT('',(0.25,0.250000000000002,0.875));
#546=CARTESIAN_POINT('',(0.25,1.53125,0.875));
#547=CARTESIAN_POINT('',(0.25,0.250000000000002,0.875));
#548=CARTESIAN_POINT('Origin',(4.375,0.250000000000001,0.875));
#549=CARTESIAN_POINT('',(3.34375,0.250000000000001,0.875));
#550=CARTESIAN_POINT('Origin',(-1.72215956130097E-15,5.625,0.));
#551=CARTESIAN_POINT('',(-1.72215956130097E-15,5.625,0.));
#552=CARTESIAN_POINT('',(0.,0.,0.));
#553=CARTESIAN_POINT('',(-1.72215956130097E-15,5.625,0.));
#554=CARTESIAN_POINT('',(0.,0.,0.875));
#555=CARTESIAN_POINT('',(0.,0.,0.));
#556=CARTESIAN_POINT('',(-1.72215956130097E-15,5.625,0.875));
#557=CARTESIAN_POINT('',(-1.72215956130097E-15,5.625,0.875));
#558=CARTESIAN_POINT('',(-1.72215956130097E-15,5.625,0.));
#559=CARTESIAN_POINT('Origin',(4.625,5.625,0.));
#560=CARTESIAN_POINT('',(4.625,5.625,0.));
#561=CARTESIAN_POINT('',(4.625,5.625,0.));
#562=CARTESIAN_POINT('',(4.625,5.625,0.875));
#563=CARTESIAN_POINT('',(4.625,5.625,0.875));
#564=CARTESIAN_POINT('',(4.625,5.625,0.));
#565=CARTESIAN_POINT('Origin',(4.625,0.,0.));
#566=CARTESIAN_POINT('',(4.625,0.,0.));
#567=CARTESIAN_POINT('',(4.625,0.,0.));
#568=CARTESIAN_POINT('',(4.625,0.,0.875));
#569=CARTESIAN_POINT('',(4.625,0.,0.875));
#570=CARTESIAN_POINT('',(4.625,0.,0.));
#571=CARTESIAN_POINT('Origin',(0.,0.,0.));
#572=CARTESIAN_POINT('',(0.,0.,0.));
#573=CARTESIAN_POINT('',(0.,0.,0.875));
#574=CARTESIAN_POINT('Origin',(2.3125,2.8125,0.875));
#575=CARTESIAN_POINT('Origin',(2.3125,2.8125,0.));
#576=UNCERTAINTY_MEASURE_WITH_UNIT(LENGTH_MEASURE(0.000393700787401575),
#580,'DISTANCE_ACCURACY_VALUE',
'Maximum model space distance between geometric entities at asserted c
onnectivities');
#577=UNCERTAINTY_MEASURE_WITH_UNIT(LENGTH_MEASURE(1.E-6),#581,
'DISTANCE_ACCURACY_VALUE',
'Maximum model space distance between geometric entities at asserted c
onnectivities');
#578=(
GEOMETRIC_REPRESENTATION_CONTEXT(3)
GLOBAL_UNCERTAINTY_ASSIGNED_CONTEXT((#576))
GLOBAL_UNIT_ASSIGNED_CONTEXT((#580,#586,#583))
REPRESENTATION_CONTEXT('','3D')
);
#579=(
GEOMETRIC_REPRESENTATION_CONTEXT(3)
GLOBAL_UNCERTAINTY_ASSIGNED_CONTEXT((#577))
GLOBAL_UNIT_ASSIGNED_CONTEXT((#581,#586,#583))
REPRESENTATION_CONTEXT('','3D')
);
#580=(
CONVERSION_BASED_UNIT('__CONSTANT UNIT inch',#582)
LENGTH_UNIT()
NAMED_UNIT(#585)
);
#581=(
LENGTH_UNIT()
NAMED_UNIT(*)
SI_UNIT(.MILLI.,.METRE.)
);
#582=LENGTH_MEASURE_WITH_UNIT(LENGTH_MEASURE(25.4),#581);
#583=(
NAMED_UNIT(*)
SI_UNIT($,.STERADIAN.)
SOLID_ANGLE_UNIT()
);
#584=DIMENSIONAL_EXPONENTS(0.,0.,0.,0.,0.,0.,0.);
#585=DIMENSIONAL_EXPONENTS(1.,0.,0.,0.,0.,0.,0.);
#586=(
CONVERSION_BASED_UNIT('degree',#588)
NAMED_UNIT(#584)
PLANE_ANGLE_UNIT()
);
#587=(
NAMED_UNIT(*)
PLANE_ANGLE_UNIT()
SI_UNIT($,.RADIAN.)
);
#588=PLANE_ANGLE_MEASURE_WITH_UNIT(PLANE_ANGLE_MEASURE(0.01745329252),#587);
#589=SHAPE_DEFINITION_REPRESENTATION(#590,#591);
#590=PRODUCT_DEFINITION_SHAPE('',$,#593);
#591=SHAPE_REPRESENTATION('',(#356),#578);
#592=PRODUCT_DEFINITION_CONTEXT('part definition',#597,'design');
#593=PRODUCT_DEFINITION('Base','Base',#594,#592);
#594=PRODUCT_DEFINITION_FORMATION('',$,#599);
#595=PRODUCT_RELATED_PRODUCT_CATEGORY('Base','Base',(#599));
#596=APPLICATION_PROTOCOL_DEFINITION('international standard',
'automotive_design',2009,#597);
#597=APPLICATION_CONTEXT(
'Core Data for Automotive Mechanical Design Process');
#598=PRODUCT_CONTEXT('part definition',#597,'mechanical');
#599=PRODUCT('Base','Base',$,(#598));
#600=PRESENTATION_STYLE_ASSIGNMENT((#601));
#601=SURFACE_STYLE_USAGE(.BOTH.,#602);
#602=SURFACE_SIDE_STYLE('',(#603));
#603=SURFACE_STYLE_FILL_AREA(#604);
#604=FILL_AREA_STYLE('',(#605));
#605=FILL_AREA_STYLE_COLOUR('',#606);
#606=COLOUR_RGB('',0.890196078431373,0.666666666666667,0.501960784313725);
ENDSEC;
END-ISO-10303-21;
