  0
SECTION
  2
BLOCKS
  0
ENDSEC
  0
SECTION
  2
ENTITIES
  0
LINE
  8
0
 10
-58.000000
 11
-57.859000
 20
0.000000
 21
4.046000
  0
LINE
  8
0
 10
-57.859000
 11
-57.436000
 20
4.046000
 21
8.072000
  0
LINE
  8
0
 10
-57.436000
 11
-56.733000
 20
8.072000
 21
12.059000
  0
LINE
  8
0
 10
-56.733000
 11
-55.753000
 20
12.059000
 21
15.987000
  0
LINE
  8
0
 10
-55.753000
 11
-54.502000
 20
15.987000
 21
19.837000
  0
LINE
  8
0
 10
-54.502000
 11
-52.986000
 20
19.837000
 21
23.591000
  0
LINE
  8
0
 10
-52.986000
 11
-51.211000
 20
23.591000
 21
27.229000
  0
LINE
  8
0
 10
-51.211000
 11
-49.187000
 20
27.229000
 21
30.735000
  0
LINE
  8
0
 10
-49.187000
 11
-46.923000
 20
30.735000
 21
34.092000
  0
LINE
  8
0
 10
-46.923000
 11
-44.431000
 20
34.092000
 21
37.282000
  0
LINE
  8
0
 10
-44.431000
 11
-41.722000
 20
37.282000
 21
40.290000
  0
LINE
  8
0
 10
-41.722000
 11
-38.810000
 20
40.290000
 21
43.102000
  0
LINE
  8
0
 10
-38.810000
 11
-35.708000
 20
43.102000
 21
45.705000
  0
LINE
  8
0
 10
-35.708000
 11
-32.433000
 20
45.705000
 21
48.084000
  0
LINE
  8
0
 10
-32.433000
 11
-29.000000
 20
48.084000
 21
50.229000
  0
LINE
  8
0
 10
-29.000000
 11
-25.426000
 20
50.229000
 21
52.130000
  0
LINE
  8
0
 10
-25.426000
 11
-21.727000
 20
52.130000
 21
53.777000
  0
LINE
  8
0
 10
-21.727000
 11
-17.923000
 20
53.777000
 21
55.161000
  0
LINE
  8
0
 10
-17.923000
 11
-14.031000
 20
55.161000
 21
56.277000
  0
LINE
  8
0
 10
-14.031000
 11
-10.072000
 20
56.277000
 21
57.119000
  0
LINE
  8
0
 10
-10.072000
 11
-6.063000
 20
57.119000
 21
57.682000
  0
LINE
  8
0
 10
-6.063000
 11
-2.024000
 20
57.682000
 21
57.965000
  0
LINE
  8
0
 10
-2.024000
 11
2.024000
 20
57.965000
 21
57.965000
  0
LINE
  8
0
 10
2.024000
 11
6.063000
 20
57.965000
 21
57.682000
  0
LINE
  8
0
 10
6.063000
 11
10.072000
 20
57.682000
 21
57.119000
  0
LINE
  8
0
 10
10.072000
 11
14.031000
 20
57.119000
 21
56.277000
  0
LINE
  8
0
 10
14.031000
 11
17.923000
 20
56.277000
 21
55.161000
  0
LINE
  8
0
 10
17.923000
 11
21.727000
 20
55.161000
 21
53.777000
  0
LINE
  8
0
 10
21.727000
 11
25.426000
 20
53.777000
 21
52.130000
  0
LINE
  8
0
 10
25.426000
 11
29.000000
 20
52.130000
 21
50.229000
  0
LINE
  8
0
 10
29.000000
 11
32.433000
 20
50.229000
 21
48.084000
  0
LINE
  8
0
 10
32.433000
 11
35.708000
 20
48.084000
 21
45.705000
  0
LINE
  8
0
 10
35.708000
 11
38.810000
 20
45.705000
 21
43.102000
  0
LINE
  8
0
 10
38.810000
 11
41.722000
 20
43.102000
 21
40.290000
  0
LINE
  8
0
 10
41.722000
 11
44.431000
 20
40.290000
 21
37.282000
  0
LINE
  8
0
 10
44.431000
 11
46.923000
 20
37.282000
 21
34.092000
  0
LINE
  8
0
 10
46.923000
 11
49.187000
 20
34.092000
 21
30.735000
  0
LINE
  8
0
 10
49.187000
 11
51.211000
 20
30.735000
 21
27.229000
  0
LINE
  8
0
 10
51.211000
 11
52.986000
 20
27.229000
 21
23.591000
  0
LINE
  8
0
 10
52.986000
 11
54.502000
 20
23.591000
 21
19.837000
  0
LINE
  8
0
 10
54.502000
 11
55.753000
 20
19.837000
 21
15.987000
  0
LINE
  8
0
 10
55.753000
 11
56.733000
 20
15.987000
 21
12.059000
  0
LINE
  8
0
 10
56.733000
 11
57.436000
 20
12.059000
 21
8.072000
  0
LINE
  8
0
 10
57.436000
 11
57.859000
 20
8.072000
 21
4.046000
  0
LINE
  8
0
 10
57.859000
 11
58.000000
 20
4.046000
 21
0.000000
  0
LINE
  8
0
 10
58.000000
 11
57.859000
 20
0.000000
 21
-4.046000
  0
LINE
  8
0
 10
57.859000
 11
57.436000
 20
-4.046000
 21
-8.072000
  0
LINE
  8
0
 10
57.436000
 11
56.733000
 20
-8.072000
 21
-12.059000
  0
LINE
  8
0
 10
56.733000
 11
55.753000
 20
-12.059000
 21
-15.987000
  0
LINE
  8
0
 10
55.753000
 11
54.502000
 20
-15.987000
 21
-19.837000
  0
LINE
  8
0
 10
54.502000
 11
52.986000
 20
-19.837000
 21
-23.591000
  0
LINE
  8
0
 10
52.986000
 11
51.211000
 20
-23.591000
 21
-27.229000
  0
LINE
  8
0
 10
51.211000
 11
49.187000
 20
-27.229000
 21
-30.735000
  0
LINE
  8
0
 10
49.187000
 11
46.923000
 20
-30.735000
 21
-34.092000
  0
LINE
  8
0
 10
46.923000
 11
44.431000
 20
-34.092000
 21
-37.282000
  0
LINE
  8
0
 10
44.431000
 11
41.722000
 20
-37.282000
 21
-40.290000
  0
LINE
  8
0
 10
41.722000
 11
38.810000
 20
-40.290000
 21
-43.102000
  0
LINE
  8
0
 10
38.810000
 11
35.708000
 20
-43.102000
 21
-45.705000
  0
LINE
  8
0
 10
35.708000
 11
32.433000
 20
-45.705000
 21
-48.084000
  0
LINE
  8
0
 10
32.433000
 11
29.000000
 20
-48.084000
 21
-50.229000
  0
LINE
  8
0
 10
29.000000
 11
25.426000
 20
-50.229000
 21
-52.130000
  0
LINE
  8
0
 10
25.426000
 11
21.727000
 20
-52.130000
 21
-53.777000
  0
LINE
  8
0
 10
21.727000
 11
17.923000
 20
-53.777000
 21
-55.161000
  0
LINE
  8
0
 10
17.923000
 11
14.031000
 20
-55.161000
 21
-56.277000
  0
LINE
  8
0
 10
14.031000
 11
10.072000
 20
-56.277000
 21
-57.119000
  0
LINE
  8
0
 10
10.072000
 11
6.063000
 20
-57.119000
 21
-57.682000
  0
LINE
  8
0
 10
6.063000
 11
2.024000
 20
-57.682000
 21
-57.965000
  0
LINE
  8
0
 10
2.024000
 11
-2.024000
 20
-57.965000
 21
-57.965000
  0
LINE
  8
0
 10
-2.024000
 11
-6.063000
 20
-57.965000
 21
-57.682000
  0
LINE
  8
0
 10
-6.063000
 11
-10.072000
 20
-57.682000
 21
-57.119000
  0
LINE
  8
0
 10
-10.072000
 11
-14.031000
 20
-57.119000
 21
-56.277000
  0
LINE
  8
0
 10
-14.031000
 11
-17.923000
 20
-56.277000
 21
-55.161000
  0
LINE
  8
0
 10
-17.923000
 11
-21.727000
 20
-55.161000
 21
-53.777000
  0
LINE
  8
0
 10
-21.727000
 11
-25.426000
 20
-53.777000
 21
-52.130000
  0
LINE
  8
0
 10
-25.426000
 11
-29.000000
 20
-52.130000
 21
-50.229000
  0
LINE
  8
0
 10
-29.000000
 11
-32.433000
 20
-50.229000
 21
-48.084000
  0
LINE
  8
0
 10
-32.433000
 11
-35.708000
 20
-48.084000
 21
-45.705000
  0
LINE
  8
0
 10
-35.708000
 11
-38.810000
 20
-45.705000
 21
-43.102000
  0
LINE
  8
0
 10
-38.810000
 11
-41.722000
 20
-43.102000
 21
-40.290000
  0
LINE
  8
0
 10
-41.722000
 11
-44.431000
 20
-40.290000
 21
-37.282000
  0
LINE
  8
0
 10
-44.431000
 11
-46.923000
 20
-37.282000
 21
-34.092000
  0
LINE
  8
0
 10
-46.923000
 11
-49.187000
 20
-34.092000
 21
-30.735000
  0
LINE
  8
0
 10
-49.187000
 11
-51.211000
 20
-30.735000
 21
-27.229000
  0
LINE
  8
0
 10
-51.211000
 11
-52.986000
 20
-27.229000
 21
-23.591000
  0
LINE
  8
0
 10
-52.986000
 11
-54.502000
 20
-23.591000
 21
-19.837000
  0
LINE
  8
0
 10
-54.502000
 11
-55.753000
 20
-19.837000
 21
-15.987000
  0
LINE
  8
0
 10
-55.753000
 11
-56.733000
 20
-15.987000
 21
-12.059000
  0
LINE
  8
0
 10
-56.733000
 11
-57.436000
 20
-12.059000
 21
-8.072000
  0
LINE
  8
0
 10
-57.436000
 11
-57.859000
 20
-8.072000
 21
-4.046000
  0
LINE
  8
0
 10
-57.859000
 11
-58.000000
 20
-4.046000
 21
0.000000
  0
LINE
  8
0
 10
-47.491000
 11
-47.460000
 20
-20.000000
 21
-19.103000
  0
LINE
  8
0
 10
-47.460000
 11
-47.366000
 20
-19.103000
 21
-18.212000
  0
LINE
  8
0
 10
-47.366000
 11
-47.210000
 20
-18.212000
 21
-17.328000
  0
LINE
  8
0
 10
-47.210000
 11
-46.993000
 20
-17.328000
 21
-16.457000
  0
LINE
  8
0
 10
-46.993000
 11
-46.716000
 20
-16.457000
 21
-15.605000
  0
LINE
  8
0
 10
-46.716000
 11
-46.380000
 20
-15.605000
 21
-14.773000
  0
LINE
  8
0
 10
-46.380000
 11
-45.986000
 20
-14.773000
 21
-13.967000
  0
LINE
  8
0
 10
-45.986000
 11
-45.539000
 20
-13.967000
 21
-13.191000
  0
LINE
  8
0
 10
-45.539000
 11
-45.037000
 20
-13.191000
 21
-12.447000
  0
LINE
  8
0
 10
-45.037000
 11
-44.485000
 20
-12.447000
 21
-11.740000
  0
LINE
  8
0
 10
-44.485000
 11
-43.884000
 20
-11.740000
 21
-11.074000
  0
LINE
  8
0
 10
-43.884000
 11
-43.240000
 20
-11.074000
 21
-10.451000
  0
LINE
  8
0
 10
-43.240000
 11
-42.552000
 20
-10.451000
 21
-9.874000
  0
LINE
  8
0
 10
-42.552000
 11
-41.826000
 20
-9.874000
 21
-9.346000
  0
LINE
  8
0
 10
-41.826000
 11
-41.066000
 20
-9.346000
 21
-8.872000
  0
LINE
  8
0
 10
-41.066000
 11
-40.275000
 20
-8.872000
 21
-8.450000
  0
LINE
  8
0
 10
-40.275000
 11
-39.455000
 20
-8.450000
 21
-8.086000
  0
LINE
  8
0
 10
-39.455000
 11
-38.611000
 20
-8.086000
 21
-7.779000
  0
LINE
  8
0
 10
-38.611000
 11
-37.750000
 20
-7.779000
 21
-7.532000
  0
LINE
  8
0
 10
-37.750000
 11
-36.872000
 20
-7.532000
 21
-7.345000
  0
LINE
  8
0
 10
-36.872000
 11
-35.984000
 20
-7.345000
 21
-7.220000
  0
LINE
  8
0
 10
-35.984000
 11
-35.089000
 20
-7.220000
 21
-7.158000
  0
LINE
  8
0
 10
-35.089000
 11
-34.193000
 20
-7.158000
 21
-7.158000
  0
LINE
  8
0
 10
-34.193000
 11
-33.298000
 20
-7.158000
 21
-7.220000
  0
LINE
  8
0
 10
-33.298000
 11
-32.410000
 20
-7.220000
 21
-7.345000
  0
LINE
  8
0
 10
-32.410000
 11
-31.533000
 20
-7.345000
 21
-7.531000
  0
LINE
  8
0
 10
-31.533000
 11
-30.670000
 20
-7.531000
 21
-7.779000
  0
LINE
  8
0
 10
-30.670000
 11
-29.827000
 20
-7.779000
 21
-8.086000
  0
LINE
  8
0
 10
-29.827000
 11
-29.008000
 20
-8.086000
 21
-8.450000
  0
LINE
  8
0
 10
-29.008000
 11
-28.216000
 20
-8.450000
 21
-8.872000
  0
LINE
  8
0
 10
-28.216000
 11
-27.455000
 20
-8.872000
 21
-9.347000
  0
LINE
  8
0
 10
-27.455000
 11
-26.730000
 20
-9.347000
 21
-9.874000
  0
LINE
  8
0
 10
-26.730000
 11
-26.043000
 20
-9.874000
 21
-10.451000
  0
LINE
  8
0
 10
-26.043000
 11
-25.398000
 20
-10.451000
 21
-11.074000
  0
LINE
  8
0
 10
-25.398000
 11
-24.797000
 20
-11.074000
 21
-11.740000
  0
LINE
  8
0
 10
-24.797000
 11
-24.245000
 20
-11.740000
 21
-12.447000
  0
LINE
  8
0
 10
-24.245000
 11
-23.744000
 20
-12.447000
 21
-13.191000
  0
LINE
  8
0
 10
-23.744000
 11
-23.296000
 20
-13.191000
 21
-13.967000
  0
LINE
  8
0
 10
-23.296000
 11
-22.902000
 20
-13.967000
 21
-14.773000
  0
LINE
  8
0
 10
-22.902000
 11
-22.566000
 20
-14.773000
 21
-15.605000
  0
LINE
  8
0
 10
-22.566000
 11
-22.289000
 20
-15.605000
 21
-16.458000
  0
LINE
  8
0
 10
-22.289000
 11
-22.072000
 20
-16.458000
 21
-17.328000
  0
LINE
  8
0
 10
-22.072000
 11
-21.916000
 20
-17.328000
 21
-18.212000
  0
LINE
  8
0
 10
-21.916000
 11
-21.822000
 20
-18.212000
 21
-19.103000
  0
LINE
  8
0
 10
-21.822000
 11
-21.791000
 20
-19.103000
 21
-20.000000
  0
LINE
  8
0
 10
-21.791000
 11
-21.822000
 20
-20.000000
 21
-20.897000
  0
LINE
  8
0
 10
-21.822000
 11
-21.916000
 20
-20.897000
 21
-21.788000
  0
LINE
  8
0
 10
-21.916000
 11
-22.072000
 20
-21.788000
 21
-22.672000
  0
LINE
  8
0
 10
-22.072000
 11
-22.289000
 20
-22.672000
 21
-23.543000
  0
LINE
  8
0
 10
-22.289000
 11
-22.566000
 20
-23.543000
 21
-24.395000
  0
LINE
  8
0
 10
-22.566000
 11
-22.902000
 20
-24.395000
 21
-25.227000
  0
LINE
  8
0
 10
-22.902000
 11
-23.296000
 20
-25.227000
 21
-26.033000
  0
LINE
  8
0
 10
-23.296000
 11
-23.743000
 20
-26.033000
 21
-26.809000
  0
LINE
  8
0
 10
-23.743000
 11
-24.245000
 20
-26.809000
 21
-27.553000
  0
LINE
  8
0
 10
-24.245000
 11
-24.797000
 20
-27.553000
 21
-28.260000
  0
LINE
  8
0
 10
-24.797000
 11
-25.398000
 20
-28.260000
 21
-28.926000
  0
LINE
  8
0
 10
-25.398000
 11
-26.042000
 20
-28.926000
 21
-29.549000
  0
LINE
  8
0
 10
-26.042000
 11
-26.730000
 20
-29.549000
 21
-30.126000
  0
LINE
  8
0
 10
-26.730000
 11
-27.456000
 20
-30.126000
 21
-30.654000
  0
LINE
  8
0
 10
-27.456000
 11
-28.216000
 20
-30.654000
 21
-31.128000
  0
LINE
  8
0
 10
-28.216000
 11
-29.007000
 20
-31.128000
 21
-31.550000
  0
LINE
  8
0
 10
-29.007000
 11
-29.827000
 20
-31.550000
 21
-31.914000
  0
LINE
  8
0
 10
-29.827000
 11
-30.671000
 20
-31.914000
 21
-32.221000
  0
LINE
  8
0
 10
-30.671000
 11
-31.532000
 20
-32.221000
 21
-32.468000
  0
LINE
  8
0
 10
-31.532000
 11
-32.410000
 20
-32.468000
 21
-32.655000
  0
LINE
  8
0
 10
-32.410000
 11
-33.298000
 20
-32.655000
 21
-32.780000
  0
LINE
  8
0
 10
-33.298000
 11
-34.193000
 20
-32.780000
 21
-32.842000
  0
LINE
  8
0
 10
-34.193000
 11
-35.089000
 20
-32.842000
 21
-32.842000
  0
LINE
  8
0
 10
-35.089000
 11
-35.984000
 20
-32.842000
 21
-32.780000
  0
LINE
  8
0
 10
-35.984000
 11
-36.872000
 20
-32.780000
 21
-32.655000
  0
LINE
  8
0
 10
-36.872000
 11
-37.749000
 20
-32.655000
 21
-32.469000
  0
LINE
  8
0
 10
-37.749000
 11
-38.612000
 20
-32.469000
 21
-32.221000
  0
LINE
  8
0
 10
-38.612000
 11
-39.455000
 20
-32.221000
 21
-31.914000
  0
LINE
  8
0
 10
-39.455000
 11
-40.274000
 20
-31.914000
 21
-31.550000
  0
LINE
  8
0
 10
-40.274000
 11
-41.066000
 20
-31.550000
 21
-31.128000
  0
LINE
  8
0
 10
-41.066000
 11
-41.827000
 20
-31.128000
 21
-30.653000
  0
LINE
  8
0
 10
-41.827000
 11
-42.552000
 20
-30.653000
 21
-30.126000
  0
LINE
  8
0
 10
-42.552000
 11
-43.239000
 20
-30.126000
 21
-29.549000
  0
LINE
  8
0
 10
-43.239000
 11
-43.884000
 20
-29.549000
 21
-28.926000
  0
LINE
  8
0
 10
-43.884000
 11
-44.485000
 20
-28.926000
 21
-28.260000
  0
LINE
  8
0
 10
-44.485000
 11
-45.037000
 20
-28.260000
 21
-27.553000
  0
LINE
  8
0
 10
-45.037000
 11
-45.539000
 20
-27.553000
 21
-26.809000
  0
LINE
  8
0
 10
-45.539000
 11
-45.987000
 20
-26.809000
 21
-26.033000
  0
LINE
  8
0
 10
-45.987000
 11
-46.380000
 20
-26.033000
 21
-25.227000
  0
LINE
  8
0
 10
-46.380000
 11
-46.716000
 20
-25.227000
 21
-24.395000
  0
LINE
  8
0
 10
-46.716000
 11
-46.993000
 20
-24.395000
 21
-23.542000
  0
LINE
  8
0
 10
-46.993000
 11
-47.210000
 20
-23.542000
 21
-22.672000
  0
LINE
  8
0
 10
-47.210000
 11
-47.366000
 20
-22.672000
 21
-21.788000
  0
LINE
  8
0
 10
-47.366000
 11
-47.460000
 20
-21.788000
 21
-20.897000
  0
LINE
  8
0
 10
-47.460000
 11
-47.491000
 20
-20.897000
 21
-20.000000
  0
LINE
  8
0
 10
-47.491000
 11
-47.460000
 20
20.000000
 21
20.897000
  0
LINE
  8
0
 10
-47.460000
 11
-47.366000
 20
20.897000
 21
21.788000
  0
LINE
  8
0
 10
-47.366000
 11
-47.210000
 20
21.788000
 21
22.672000
  0
LINE
  8
0
 10
-47.210000
 11
-46.993000
 20
22.672000
 21
23.542000
  0
LINE
  8
0
 10
-46.993000
 11
-46.716000
 20
23.542000
 21
24.395000
  0
LINE
  8
0
 10
-46.716000
 11
-46.380000
 20
24.395000
 21
25.227000
  0
LINE
  8
0
 10
-46.380000
 11
-45.987000
 20
25.227000
 21
26.033000
  0
LINE
  8
0
 10
-45.987000
 11
-45.539000
 20
26.033000
 21
26.809000
  0
LINE
  8
0
 10
-45.539000
 11
-45.037000
 20
26.809000
 21
27.553000
  0
LINE
  8
0
 10
-45.037000
 11
-44.485000
 20
27.553000
 21
28.260000
  0
LINE
  8
0
 10
-44.485000
 11
-43.884000
 20
28.260000
 21
28.926000
  0
LINE
  8
0
 10
-43.884000
 11
-43.239000
 20
28.926000
 21
29.549000
  0
LINE
  8
0
 10
-43.239000
 11
-42.552000
 20
29.549000
 21
30.126000
  0
LINE
  8
0
 10
-42.552000
 11
-41.827000
 20
30.126000
 21
30.653000
  0
LINE
  8
0
 10
-41.827000
 11
-41.066000
 20
30.653000
 21
31.128000
  0
LINE
  8
0
 10
-41.066000
 11
-40.274000
 20
31.128000
 21
31.550000
  0
LINE
  8
0
 10
-40.274000
 11
-39.455000
 20
31.550000
 21
31.914000
  0
LINE
  8
0
 10
-39.455000
 11
-38.612000
 20
31.914000
 21
32.221000
  0
LINE
  8
0
 10
-38.612000
 11
-37.749000
 20
32.221000
 21
32.469000
  0
LINE
  8
0
 10
-37.749000
 11
-36.872000
 20
32.469000
 21
32.655000
  0
LINE
  8
0
 10
-36.872000
 11
-35.984000
 20
32.655000
 21
32.780000
  0
LINE
  8
0
 10
-35.984000
 11
-35.089000
 20
32.780000
 21
32.842000
  0
LINE
  8
0
 10
-35.089000
 11
-34.193000
 20
32.842000
 21
32.842000
  0
LINE
  8
0
 10
-34.193000
 11
-33.298000
 20
32.842000
 21
32.780000
  0
LINE
  8
0
 10
-33.298000
 11
-32.410000
 20
32.780000
 21
32.655000
  0
LINE
  8
0
 10
-32.410000
 11
-31.532000
 20
32.655000
 21
32.468000
  0
LINE
  8
0
 10
-31.532000
 11
-30.671000
 20
32.468000
 21
32.221000
  0
LINE
  8
0
 10
-30.671000
 11
-29.827000
 20
32.221000
 21
31.914000
  0
LINE
  8
0
 10
-29.827000
 11
-29.007000
 20
31.914000
 21
31.550000
  0
LINE
  8
0
 10
-29.007000
 11
-28.216000
 20
31.550000
 21
31.128000
  0
LINE
  8
0
 10
-28.216000
 11
-27.456000
 20
31.128000
 21
30.654000
  0
LINE
  8
0
 10
-27.456000
 11
-26.730000
 20
30.654000
 21
30.126000
  0
LINE
  8
0
 10
-26.730000
 11
-26.042000
 20
30.126000
 21
29.549000
  0
LINE
  8
0
 10
-26.042000
 11
-25.398000
 20
29.549000
 21
28.926000
  0
LINE
  8
0
 10
-25.398000
 11
-24.797000
 20
28.926000
 21
28.260000
  0
LINE
  8
0
 10
-24.797000
 11
-24.245000
 20
28.260000
 21
27.553000
  0
LINE
  8
0
 10
-24.245000
 11
-23.743000
 20
27.553000
 21
26.809000
  0
LINE
  8
0
 10
-23.743000
 11
-23.296000
 20
26.809000
 21
26.033000
  0
LINE
  8
0
 10
-23.296000
 11
-22.902000
 20
26.033000
 21
25.227000
  0
LINE
  8
0
 10
-22.902000
 11
-22.566000
 20
25.227000
 21
24.395000
  0
LINE
  8
0
 10
-22.566000
 11
-22.289000
 20
24.395000
 21
23.543000
  0
LINE
  8
0
 10
-22.289000
 11
-22.072000
 20
23.543000
 21
22.672000
  0
LINE
  8
0
 10
-22.072000
 11
-21.916000
 20
22.672000
 21
21.788000
  0
LINE
  8
0
 10
-21.916000
 11
-21.822000
 20
21.788000
 21
20.897000
  0
LINE
  8
0
 10
-21.822000
 11
-21.791000
 20
20.897000
 21
20.000000
  0
LINE
  8
0
 10
-21.791000
 11
-21.822000
 20
20.000000
 21
19.103000
  0
LINE
  8
0
 10
-21.822000
 11
-21.916000
 20
19.103000
 21
18.212000
  0
LINE
  8
0
 10
-21.916000
 11
-22.072000
 20
18.212000
 21
17.328000
  0
LINE
  8
0
 10
-22.072000
 11
-22.289000
 20
17.328000
 21
16.458000
  0
LINE
  8
0
 10
-22.289000
 11
-22.566000
 20
16.458000
 21
15.605000
  0
LINE
  8
0
 10
-22.566000
 11
-22.902000
 20
15.605000
 21
14.773000
  0
LINE
  8
0
 10
-22.902000
 11
-23.296000
 20
14.773000
 21
13.967000
  0
LINE
  8
0
 10
-23.296000
 11
-23.744000
 20
13.967000
 21
13.191000
  0
LINE
  8
0
 10
-23.744000
 11
-24.245000
 20
13.191000
 21
12.447000
  0
LINE
  8
0
 10
-24.245000
 11
-24.797000
 20
12.447000
 21
11.740000
  0
LINE
  8
0
 10
-24.797000
 11
-25.398000
 20
11.740000
 21
11.074000
  0
LINE
  8
0
 10
-25.398000
 11
-26.043000
 20
11.074000
 21
10.451000
  0
LINE
  8
0
 10
-26.043000
 11
-26.730000
 20
10.451000
 21
9.874000
  0
LINE
  8
0
 10
-26.730000
 11
-27.455000
 20
9.874000
 21
9.347000
  0
LINE
  8
0
 10
-27.455000
 11
-28.216000
 20
9.347000
 21
8.872000
  0
LINE
  8
0
 10
-28.216000
 11
-29.008000
 20
8.872000
 21
8.450000
  0
LINE
  8
0
 10
-29.008000
 11
-29.827000
 20
8.450000
 21
8.086000
  0
LINE
  8
0
 10
-29.827000
 11
-30.670000
 20
8.086000
 21
7.779000
  0
LINE
  8
0
 10
-30.670000
 11
-31.533000
 20
7.779000
 21
7.531000
  0
LINE
  8
0
 10
-31.533000
 11
-32.410000
 20
7.531000
 21
7.345000
  0
LINE
  8
0
 10
-32.410000
 11
-33.298000
 20
7.345000
 21
7.220000
  0
LINE
  8
0
 10
-33.298000
 11
-34.193000
 20
7.220000
 21
7.158000
  0
LINE
  8
0
 10
-34.193000
 11
-35.089000
 20
7.158000
 21
7.158000
  0
LINE
  8
0
 10
-35.089000
 11
-35.984000
 20
7.158000
 21
7.220000
  0
LINE
  8
0
 10
-35.984000
 11
-36.872000
 20
7.220000
 21
7.345000
  0
LINE
  8
0
 10
-36.872000
 11
-37.750000
 20
7.345000
 21
7.532000
  0
LINE
  8
0
 10
-37.750000
 11
-38.611000
 20
7.532000
 21
7.779000
  0
LINE
  8
0
 10
-38.611000
 11
-39.455000
 20
7.779000
 21
8.086000
  0
LINE
  8
0
 10
-39.455000
 11
-40.275000
 20
8.086000
 21
8.450000
  0
LINE
  8
0
 10
-40.275000
 11
-41.066000
 20
8.450000
 21
8.872000
  0
LINE
  8
0
 10
-41.066000
 11
-41.826000
 20
8.872000
 21
9.346000
  0
LINE
  8
0
 10
-41.826000
 11
-42.552000
 20
9.346000
 21
9.874000
  0
LINE
  8
0
 10
-42.552000
 11
-43.240000
 20
9.874000
 21
10.451000
  0
LINE
  8
0
 10
-43.240000
 11
-43.884000
 20
10.451000
 21
11.074000
  0
LINE
  8
0
 10
-43.884000
 11
-44.485000
 20
11.074000
 21
11.740000
  0
LINE
  8
0
 10
-44.485000
 11
-45.037000
 20
11.740000
 21
12.447000
  0
LINE
  8
0
 10
-45.037000
 11
-45.539000
 20
12.447000
 21
13.191000
  0
LINE
  8
0
 10
-45.539000
 11
-45.986000
 20
13.191000
 21
13.967000
  0
LINE
  8
0
 10
-45.986000
 11
-46.380000
 20
13.967000
 21
14.773000
  0
LINE
  8
0
 10
-46.380000
 11
-46.716000
 20
14.773000
 21
15.605000
  0
LINE
  8
0
 10
-46.716000
 11
-46.993000
 20
15.605000
 21
16.457000
  0
LINE
  8
0
 10
-46.993000
 11
-47.210000
 20
16.457000
 21
17.328000
  0
LINE
  8
0
 10
-47.210000
 11
-47.366000
 20
17.328000
 21
18.212000
  0
LINE
  8
0
 10
-47.366000
 11
-47.460000
 20
18.212000
 21
19.103000
  0
LINE
  8
0
 10
-47.460000
 11
-47.491000
 20
19.103000
 21
20.000000
  0
LINE
  8
0
 10
-12.850000
 11
-12.819000
 20
-40.000000
 21
-39.104000
  0
LINE
  8
0
 10
-12.819000
 11
-12.725000
 20
-39.104000
 21
-38.212000
  0
LINE
  8
0
 10
-12.725000
 11
-12.569000
 20
-38.212000
 21
-37.328000
  0
LINE
  8
0
 10
-12.569000
 11
-12.352000
 20
-37.328000
 21
-36.458000
  0
LINE
  8
0
 10
-12.352000
 11
-12.075000
 20
-36.458000
 21
-35.605000
  0
LINE
  8
0
 10
-12.075000
 11
-11.739000
 20
-35.605000
 21
-34.773000
  0
LINE
  8
0
 10
-11.739000
 11
-11.346000
 20
-34.773000
 21
-33.967000
  0
LINE
  8
0
 10
-11.346000
 11
-10.897000
 20
-33.967000
 21
-33.191000
  0
LINE
  8
0
 10
-10.897000
 11
-10.396000
 20
-33.191000
 21
-32.447000
  0
LINE
  8
0
 10
-10.396000
 11
-9.844000
 20
-32.447000
 21
-31.740000
  0
LINE
  8
0
 10
-9.844000
 11
-9.244000
 20
-31.740000
 21
-31.074000
  0
LINE
  8
0
 10
-9.244000
 11
-8.598000
 20
-31.074000
 21
-30.451000
  0
LINE
  8
0
 10
-8.598000
 11
-7.911000
 20
-30.451000
 21
-29.874000
  0
LINE
  8
0
 10
-7.911000
 11
-7.186000
 20
-29.874000
 21
-29.347000
  0
LINE
  8
0
 10
-7.186000
 11
-6.425000
 20
-29.347000
 21
-28.872000
  0
LINE
  8
0
 10
-6.425000
 11
-5.633000
 20
-28.872000
 21
-28.450000
  0
LINE
  8
0
 10
-5.633000
 11
-4.814000
 20
-28.450000
 21
-28.086000
  0
LINE
  8
0
 10
-4.814000
 11
-3.971000
 20
-28.086000
 21
-27.779000
  0
LINE
  8
0
 10
-3.971000
 11
-3.109000
 20
-27.779000
 21
-27.532000
  0
LINE
  8
0
 10
-3.109000
 11
-2.231000
 20
-27.532000
 21
-27.345000
  0
LINE
  8
0
 10
-2.231000
 11
-1.343000
 20
-27.345000
 21
-27.220000
  0
LINE
  8
0
 10
-1.343000
 11
-0.448000
 20
-27.220000
 21
-27.158000
  0
LINE
  8
0
 10
-0.448000
 11
0.448000
 20
-27.158000
 21
-27.158000
  0
LINE
  8
0
 10
0.448000
 11
1.343000
 20
-27.158000
 21
-27.220000
  0
LINE
  8
0
 10
1.343000
 11
2.231000
 20
-27.220000
 21
-27.345000
  0
LINE
  8
0
 10
2.231000
 11
3.109000
 20
-27.345000
 21
-27.532000
  0
LINE
  8
0
 10
3.109000
 11
3.971000
 20
-27.532000
 21
-27.779000
  0
LINE
  8
0
 10
3.971000
 11
4.814000
 20
-27.779000
 21
-28.086000
  0
LINE
  8
0
 10
4.814000
 11
5.633000
 20
-28.086000
 21
-28.450000
  0
LINE
  8
0
 10
5.633000
 11
6.425000
 20
-28.450000
 21
-28.872000
  0
LINE
  8
0
 10
6.425000
 11
7.186000
 20
-28.872000
 21
-29.347000
  0
LINE
  8
0
 10
7.186000
 11
7.911000
 20
-29.347000
 21
-29.874000
  0
LINE
  8
0
 10
7.911000
 11
8.598000
 20
-29.874000
 21
-30.451000
  0
LINE
  8
0
 10
8.598000
 11
9.244000
 20
-30.451000
 21
-31.074000
  0
LINE
  8
0
 10
9.244000
 11
9.844000
 20
-31.074000
 21
-31.740000
  0
LINE
  8
0
 10
9.844000
 11
10.396000
 20
-31.740000
 21
-32.447000
  0
LINE
  8
0
 10
10.396000
 11
10.897000
 20
-32.447000
 21
-33.191000
  0
LINE
  8
0
 10
10.897000
 11
11.346000
 20
-33.191000
 21
-33.967000
  0
LINE
  8
0
 10
11.346000
 11
11.739000
 20
-33.967000
 21
-34.773000
  0
LINE
  8
0
 10
11.739000
 11
12.075000
 20
-34.773000
 21
-35.605000
  0
LINE
  8
0
 10
12.075000
 11
12.352000
 20
-35.605000
 21
-36.458000
  0
LINE
  8
0
 10
12.352000
 11
12.569000
 20
-36.458000
 21
-37.328000
  0
LINE
  8
0
 10
12.569000
 11
12.725000
 20
-37.328000
 21
-38.212000
  0
LINE
  8
0
 10
12.725000
 11
12.819000
 20
-38.212000
 21
-39.104000
  0
LINE
  8
0
 10
12.819000
 11
12.850000
 20
-39.104000
 21
-40.000000
  0
LINE
  8
0
 10
12.850000
 11
12.819000
 20
-40.000000
 21
-40.896000
  0
LINE
  8
0
 10
12.819000
 11
12.725000
 20
-40.896000
 21
-41.788000
  0
LINE
  8
0
 10
12.725000
 11
12.569000
 20
-41.788000
 21
-42.672000
  0
LINE
  8
0
 10
12.569000
 11
12.352000
 20
-42.672000
 21
-43.542000
  0
LINE
  8
0
 10
12.352000
 11
12.075000
 20
-43.542000
 21
-44.395000
  0
LINE
  8
0
 10
12.075000
 11
11.739000
 20
-44.395000
 21
-45.227000
  0
LINE
  8
0
 10
11.739000
 11
11.346000
 20
-45.227000
 21
-46.033000
  0
LINE
  8
0
 10
11.346000
 11
10.897000
 20
-46.033000
 21
-46.809000
  0
LINE
  8
0
 10
10.897000
 11
10.396000
 20
-46.809000
 21
-47.553000
  0
LINE
  8
0
 10
10.396000
 11
9.844000
 20
-47.553000
 21
-48.260000
  0
LINE
  8
0
 10
9.844000
 11
9.244000
 20
-48.260000
 21
-48.926000
  0
LINE
  8
0
 10
9.244000
 11
8.598000
 20
-48.926000
 21
-49.549000
  0
LINE
  8
0
 10
8.598000
 11
7.911000
 20
-49.549000
 21
-50.126000
  0
LINE
  8
0
 10
7.911000
 11
7.186000
 20
-50.126000
 21
-50.653000
  0
LINE
  8
0
 10
7.186000
 11
6.425000
 20
-50.653000
 21
-51.128000
  0
LINE
  8
0
 10
6.425000
 11
5.633000
 20
-51.128000
 21
-51.550000
  0
LINE
  8
0
 10
5.633000
 11
4.814000
 20
-51.550000
 21
-51.914000
  0
LINE
  8
0
 10
4.814000
 11
3.971000
 20
-51.914000
 21
-52.221000
  0
LINE
  8
0
 10
3.971000
 11
3.109000
 20
-52.221000
 21
-52.468000
  0
LINE
  8
0
 10
3.109000
 11
2.231000
 20
-52.468000
 21
-52.655000
  0
LINE
  8
0
 10
2.231000
 11
1.343000
 20
-52.655000
 21
-52.780000
  0
LINE
  8
0
 10
1.343000
 11
0.448000
 20
-52.780000
 21
-52.842000
  0
LINE
  8
0
 10
0.448000
 11
-0.448000
 20
-52.842000
 21
-52.842000
  0
LINE
  8
0
 10
-0.448000
 11
-1.343000
 20
-52.842000
 21
-52.780000
  0
LINE
  8
0
 10
-1.343000
 11
-2.231000
 20
-52.780000
 21
-52.655000
  0
LINE
  8
0
 10
-2.231000
 11
-3.109000
 20
-52.655000
 21
-52.468000
  0
LINE
  8
0
 10
-3.109000
 11
-3.971000
 20
-52.468000
 21
-52.221000
  0
LINE
  8
0
 10
-3.971000
 11
-4.814000
 20
-52.221000
 21
-51.914000
  0
LINE
  8
0
 10
-4.814000
 11
-5.633000
 20
-51.914000
 21
-51.550000
  0
LINE
  8
0
 10
-5.633000
 11
-6.425000
 20
-51.550000
 21
-51.128000
  0
LINE
  8
0
 10
-6.425000
 11
-7.186000
 20
-51.128000
 21
-50.653000
  0
LINE
  8
0
 10
-7.186000
 11
-7.911000
 20
-50.653000
 21
-50.126000
  0
LINE
  8
0
 10
-7.911000
 11
-8.598000
 20
-50.126000
 21
-49.549000
  0
LINE
  8
0
 10
-8.598000
 11
-9.244000
 20
-49.549000
 21
-48.926000
  0
LINE
  8
0
 10
-9.244000
 11
-9.844000
 20
-48.926000
 21
-48.260000
  0
LINE
  8
0
 10
-9.844000
 11
-10.396000
 20
-48.260000
 21
-47.553000
  0
LINE
  8
0
 10
-10.396000
 11
-10.897000
 20
-47.553000
 21
-46.809000
  0
LINE
  8
0
 10
-10.897000
 11
-11.346000
 20
-46.809000
 21
-46.033000
  0
LINE
  8
0
 10
-11.346000
 11
-11.739000
 20
-46.033000
 21
-45.227000
  0
LINE
  8
0
 10
-11.739000
 11
-12.075000
 20
-45.227000
 21
-44.395000
  0
LINE
  8
0
 10
-12.075000
 11
-12.352000
 20
-44.395000
 21
-43.542000
  0
LINE
  8
0
 10
-12.352000
 11
-12.569000
 20
-43.542000
 21
-42.672000
  0
LINE
  8
0
 10
-12.569000
 11
-12.725000
 20
-42.672000
 21
-41.788000
  0
LINE
  8
0
 10
-12.725000
 11
-12.819000
 20
-41.788000
 21
-40.896000
  0
LINE
  8
0
 10
-12.819000
 11
-12.850000
 20
-40.896000
 21
-40.000000
  0
LINE
  8
0
 10
-12.850000
 11
-12.819000
 20
40.000000
 21
40.896000
  0
LINE
  8
0
 10
-12.819000
 11
-12.725000
 20
40.896000
 21
41.788000
  0
LINE
  8
0
 10
-12.725000
 11
-12.569000
 20
41.788000
 21
42.672000
  0
LINE
  8
0
 10
-12.569000
 11
-12.352000
 20
42.672000
 21
43.542000
  0
LINE
  8
0
 10
-12.352000
 11
-12.075000
 20
43.542000
 21
44.395000
  0
LINE
  8
0
 10
-12.075000
 11
-11.739000
 20
44.395000
 21
45.227000
  0
LINE
  8
0
 10
-11.739000
 11
-11.346000
 20
45.227000
 21
46.033000
  0
LINE
  8
0
 10
-11.346000
 11
-10.897000
 20
46.033000
 21
46.809000
  0
LINE
  8
0
 10
-10.897000
 11
-10.396000
 20
46.809000
 21
47.553000
  0
LINE
  8
0
 10
-10.396000
 11
-9.844000
 20
47.553000
 21
48.260000
  0
LINE
  8
0
 10
-9.844000
 11
-9.244000
 20
48.260000
 21
48.926000
  0
LINE
  8
0
 10
-9.244000
 11
-8.598000
 20
48.926000
 21
49.549000
  0
LINE
  8
0
 10
-8.598000
 11
-7.911000
 20
49.549000
 21
50.126000
  0
LINE
  8
0
 10
-7.911000
 11
-7.186000
 20
50.126000
 21
50.653000
  0
LINE
  8
0
 10
-7.186000
 11
-6.425000
 20
50.653000
 21
51.128000
  0
LINE
  8
0
 10
-6.425000
 11
-5.633000
 20
51.128000
 21
51.550000
  0
LINE
  8
0
 10
-5.633000
 11
-4.814000
 20
51.550000
 21
51.914000
  0
LINE
  8
0
 10
-4.814000
 11
-3.971000
 20
51.914000
 21
52.221000
  0
LINE
  8
0
 10
-3.971000
 11
-3.109000
 20
52.221000
 21
52.468000
  0
LINE
  8
0
 10
-3.109000
 11
-2.231000
 20
52.468000
 21
52.655000
  0
LINE
  8
0
 10
-2.231000
 11
-1.343000
 20
52.655000
 21
52.780000
  0
LINE
  8
0
 10
-1.343000
 11
-0.448000
 20
52.780000
 21
52.842000
  0
LINE
  8
0
 10
-0.448000
 11
0.448000
 20
52.842000
 21
52.842000
  0
LINE
  8
0
 10
0.448000
 11
1.343000
 20
52.842000
 21
52.780000
  0
LINE
  8
0
 10
1.343000
 11
2.231000
 20
52.780000
 21
52.655000
  0
LINE
  8
0
 10
2.231000
 11
3.109000
 20
52.655000
 21
52.468000
  0
LINE
  8
0
 10
3.109000
 11
3.971000
 20
52.468000
 21
52.221000
  0
LINE
  8
0
 10
3.971000
 11
4.814000
 20
52.221000
 21
51.914000
  0
LINE
  8
0
 10
4.814000
 11
5.633000
 20
51.914000
 21
51.550000
  0
LINE
  8
0
 10
5.633000
 11
6.425000
 20
51.550000
 21
51.128000
  0
LINE
  8
0
 10
6.425000
 11
7.186000
 20
51.128000
 21
50.653000
  0
LINE
  8
0
 10
7.186000
 11
7.911000
 20
50.653000
 21
50.126000
  0
LINE
  8
0
 10
7.911000
 11
8.598000
 20
50.126000
 21
49.549000
  0
LINE
  8
0
 10
8.598000
 11
9.244000
 20
49.549000
 21
48.926000
  0
LINE
  8
0
 10
9.244000
 11
9.844000
 20
48.926000
 21
48.260000
  0
LINE
  8
0
 10
9.844000
 11
10.396000
 20
48.260000
 21
47.553000
  0
LINE
  8
0
 10
10.396000
 11
10.897000
 20
47.553000
 21
46.809000
  0
LINE
  8
0
 10
10.897000
 11
11.346000
 20
46.809000
 21
46.033000
  0
LINE
  8
0
 10
11.346000
 11
11.739000
 20
46.033000
 21
45.227000
  0
LINE
  8
0
 10
11.739000
 11
12.075000
 20
45.227000
 21
44.395000
  0
LINE
  8
0
 10
12.075000
 11
12.352000
 20
44.395000
 21
43.542000
  0
LINE
  8
0
 10
12.352000
 11
12.569000
 20
43.542000
 21
42.672000
  0
LINE
  8
0
 10
12.569000
 11
12.725000
 20
42.672000
 21
41.788000
  0
LINE
  8
0
 10
12.725000
 11
12.819000
 20
41.788000
 21
40.896000
  0
LINE
  8
0
 10
12.819000
 11
12.850000
 20
40.896000
 21
40.000000
  0
LINE
  8
0
 10
12.850000
 11
12.819000
 20
40.000000
 21
39.104000
  0
LINE
  8
0
 10
12.819000
 11
12.725000
 20
39.104000
 21
38.212000
  0
LINE
  8
0
 10
12.725000
 11
12.569000
 20
38.212000
 21
37.328000
  0
LINE
  8
0
 10
12.569000
 11
12.352000
 20
37.328000
 21
36.458000
  0
LINE
  8
0
 10
12.352000
 11
12.075000
 20
36.458000
 21
35.605000
  0
LINE
  8
0
 10
12.075000
 11
11.739000
 20
35.605000
 21
34.773000
  0
LINE
  8
0
 10
11.739000
 11
11.346000
 20
34.773000
 21
33.967000
  0
LINE
  8
0
 10
11.346000
 11
10.897000
 20
33.967000
 21
33.191000
  0
LINE
  8
0
 10
10.897000
 11
10.396000
 20
33.191000
 21
32.447000
  0
LINE
  8
0
 10
10.396000
 11
9.844000
 20
32.447000
 21
31.740000
  0
LINE
  8
0
 10
9.844000
 11
9.244000
 20
31.740000
 21
31.074000
  0
LINE
  8
0
 10
9.244000
 11
8.598000
 20
31.074000
 21
30.451000
  0
LINE
  8
0
 10
8.598000
 11
7.911000
 20
30.451000
 21
29.874000
  0
LINE
  8
0
 10
7.911000
 11
7.186000
 20
29.874000
 21
29.347000
  0
LINE
  8
0
 10
7.186000
 11
6.425000
 20
29.347000
 21
28.872000
  0
LINE
  8
0
 10
6.425000
 11
5.633000
 20
28.872000
 21
28.450000
  0
LINE
  8
0
 10
5.633000
 11
4.814000
 20
28.450000
 21
28.086000
  0
LINE
  8
0
 10
4.814000
 11
3.971000
 20
28.086000
 21
27.779000
  0
LINE
  8
0
 10
3.971000
 11
3.109000
 20
27.779000
 21
27.532000
  0
LINE
  8
0
 10
3.109000
 11
2.231000
 20
27.532000
 21
27.345000
  0
LINE
  8
0
 10
2.231000
 11
1.343000
 20
27.345000
 21
27.220000
  0
LINE
  8
0
 10
1.343000
 11
0.448000
 20
27.220000
 21
27.158000
  0
LINE
  8
0
 10
0.448000
 11
-0.448000
 20
27.158000
 21
27.158000
  0
LINE
  8
0
 10
-0.448000
 11
-1.343000
 20
27.158000
 21
27.220000
  0
LINE
  8
0
 10
-1.343000
 11
-2.231000
 20
27.220000
 21
27.345000
  0
LINE
  8
0
 10
-2.231000
 11
-3.109000
 20
27.345000
 21
27.532000
  0
LINE
  8
0
 10
-3.109000
 11
-3.971000
 20
27.532000
 21
27.779000
  0
LINE
  8
0
 10
-3.971000
 11
-4.814000
 20
27.779000
 21
28.086000
  0
LINE
  8
0
 10
-4.814000
 11
-5.633000
 20
28.086000
 21
28.450000
  0
LINE
  8
0
 10
-5.633000
 11
-6.425000
 20
28.450000
 21
28.872000
  0
LINE
  8
0
 10
-6.425000
 11
-7.186000
 20
28.872000
 21
29.347000
  0
LINE
  8
0
 10
-7.186000
 11
-7.911000
 20
29.347000
 21
29.874000
  0
LINE
  8
0
 10
-7.911000
 11
-8.598000
 20
29.874000
 21
30.451000
  0
LINE
  8
0
 10
-8.598000
 11
-9.244000
 20
30.451000
 21
31.074000
  0
LINE
  8
0
 10
-9.244000
 11
-9.844000
 20
31.074000
 21
31.740000
  0
LINE
  8
0
 10
-9.844000
 11
-10.396000
 20
31.740000
 21
32.447000
  0
LINE
  8
0
 10
-10.396000
 11
-10.897000
 20
32.447000
 21
33.191000
  0
LINE
  8
0
 10
-10.897000
 11
-11.346000
 20
33.191000
 21
33.967000
  0
LINE
  8
0
 10
-11.346000
 11
-11.739000
 20
33.967000
 21
34.773000
  0
LINE
  8
0
 10
-11.739000
 11
-12.075000
 20
34.773000
 21
35.605000
  0
LINE
  8
0
 10
-12.075000
 11
-12.352000
 20
35.605000
 21
36.458000
  0
LINE
  8
0
 10
-12.352000
 11
-12.569000
 20
36.458000
 21
37.328000
  0
LINE
  8
0
 10
-12.569000
 11
-12.725000
 20
37.328000
 21
38.212000
  0
LINE
  8
0
 10
-12.725000
 11
-12.819000
 20
38.212000
 21
39.104000
  0
LINE
  8
0
 10
-12.819000
 11
-12.850000
 20
39.104000
 21
40.000000
  0
LINE
  8
0
 10
21.791000
 11
21.822000
 20
-20.000000
 21
-19.103000
  0
LINE
  8
0
 10
21.822000
 11
21.916000
 20
-19.103000
 21
-18.212000
  0
LINE
  8
0
 10
21.916000
 11
22.072000
 20
-18.212000
 21
-17.328000
  0
LINE
  8
0
 10
22.072000
 11
22.289000
 20
-17.328000
 21
-16.458000
  0
LINE
  8
0
 10
22.289000
 11
22.566000
 20
-16.458000
 21
-15.605000
  0
LINE
  8
0
 10
22.566000
 11
22.902000
 20
-15.605000
 21
-14.773000
  0
LINE
  8
0
 10
22.902000
 11
23.296000
 20
-14.773000
 21
-13.967000
  0
LINE
  8
0
 10
23.296000
 11
23.744000
 20
-13.967000
 21
-13.191000
  0
LINE
  8
0
 10
23.744000
 11
24.245000
 20
-13.191000
 21
-12.447000
  0
LINE
  8
0
 10
24.245000
 11
24.797000
 20
-12.447000
 21
-11.740000
  0
LINE
  8
0
 10
24.797000
 11
25.398000
 20
-11.740000
 21
-11.074000
  0
LINE
  8
0
 10
25.398000
 11
26.043000
 20
-11.074000
 21
-10.451000
  0
LINE
  8
0
 10
26.043000
 11
26.730000
 20
-10.451000
 21
-9.874000
  0
LINE
  8
0
 10
26.730000
 11
27.455000
 20
-9.874000
 21
-9.347000
  0
LINE
  8
0
 10
27.455000
 11
28.216000
 20
-9.347000
 21
-8.872000
  0
LINE
  8
0
 10
28.216000
 11
29.008000
 20
-8.872000
 21
-8.450000
  0
LINE
  8
0
 10
29.008000
 11
29.827000
 20
-8.450000
 21
-8.086000
  0
LINE
  8
0
 10
29.827000
 11
30.670000
 20
-8.086000
 21
-7.779000
  0
LINE
  8
0
 10
30.670000
 11
31.533000
 20
-7.779000
 21
-7.531000
  0
LINE
  8
0
 10
31.533000
 11
32.410000
 20
-7.531000
 21
-7.345000
  0
LINE
  8
0
 10
32.410000
 11
33.298000
 20
-7.345000
 21
-7.220000
  0
LINE
  8
0
 10
33.298000
 11
34.193000
 20
-7.220000
 21
-7.158000
  0
LINE
  8
0
 10
34.193000
 11
35.089000
 20
-7.158000
 21
-7.158000
  0
LINE
  8
0
 10
35.089000
 11
35.984000
 20
-7.158000
 21
-7.220000
  0
LINE
  8
0
 10
35.984000
 11
36.872000
 20
-7.220000
 21
-7.345000
  0
LINE
  8
0
 10
36.872000
 11
37.750000
 20
-7.345000
 21
-7.532000
  0
LINE
  8
0
 10
37.750000
 11
38.611000
 20
-7.532000
 21
-7.779000
  0
LINE
  8
0
 10
38.611000
 11
39.455000
 20
-7.779000
 21
-8.086000
  0
LINE
  8
0
 10
39.455000
 11
40.275000
 20
-8.086000
 21
-8.450000
  0
LINE
  8
0
 10
40.275000
 11
41.066000
 20
-8.450000
 21
-8.872000
  0
LINE
  8
0
 10
41.066000
 11
41.826000
 20
-8.872000
 21
-9.346000
  0
LINE
  8
0
 10
41.826000
 11
42.552000
 20
-9.346000
 21
-9.874000
  0
LINE
  8
0
 10
42.552000
 11
43.240000
 20
-9.874000
 21
-10.451000
  0
LINE
  8
0
 10
43.240000
 11
43.884000
 20
-10.451000
 21
-11.074000
  0
LINE
  8
0
 10
43.884000
 11
44.485000
 20
-11.074000
 21
-11.740000
  0
LINE
  8
0
 10
44.485000
 11
45.037000
 20
-11.740000
 21
-12.447000
  0
LINE
  8
0
 10
45.037000
 11
45.539000
 20
-12.447000
 21
-13.191000
  0
LINE
  8
0
 10
45.539000
 11
45.986000
 20
-13.191000
 21
-13.967000
  0
LINE
  8
0
 10
45.986000
 11
46.380000
 20
-13.967000
 21
-14.773000
  0
LINE
  8
0
 10
46.380000
 11
46.716000
 20
-14.773000
 21
-15.605000
  0
LINE
  8
0
 10
46.716000
 11
46.993000
 20
-15.605000
 21
-16.457000
  0
LINE
  8
0
 10
46.993000
 11
47.210000
 20
-16.457000
 21
-17.328000
  0
LINE
  8
0
 10
47.210000
 11
47.366000
 20
-17.328000
 21
-18.212000
  0
LINE
  8
0
 10
47.366000
 11
47.460000
 20
-18.212000
 21
-19.103000
  0
LINE
  8
0
 10
47.460000
 11
47.491000
 20
-19.103000
 21
-20.000000
  0
LINE
  8
0
 10
47.491000
 11
47.460000
 20
-20.000000
 21
-20.897000
  0
LINE
  8
0
 10
47.460000
 11
47.366000
 20
-20.897000
 21
-21.788000
  0
LINE
  8
0
 10
47.366000
 11
47.210000
 20
-21.788000
 21
-22.672000
  0
LINE
  8
0
 10
47.210000
 11
46.993000
 20
-22.672000
 21
-23.542000
  0
LINE
  8
0
 10
46.993000
 11
46.716000
 20
-23.542000
 21
-24.395000
  0
LINE
  8
0
 10
46.716000
 11
46.380000
 20
-24.395000
 21
-25.227000
  0
LINE
  8
0
 10
46.380000
 11
45.987000
 20
-25.227000
 21
-26.033000
  0
LINE
  8
0
 10
45.987000
 11
45.539000
 20
-26.033000
 21
-26.809000
  0
LINE
  8
0
 10
45.539000
 11
45.037000
 20
-26.809000
 21
-27.553000
  0
LINE
  8
0
 10
45.037000
 11
44.485000
 20
-27.553000
 21
-28.260000
  0
LINE
  8
0
 10
44.485000
 11
43.884000
 20
-28.260000
 21
-28.926000
  0
LINE
  8
0
 10
43.884000
 11
43.239000
 20
-28.926000
 21
-29.549000
  0
LINE
  8
0
 10
43.239000
 11
42.552000
 20
-29.549000
 21
-30.126000
  0
LINE
  8
0
 10
42.552000
 11
41.827000
 20
-30.126000
 21
-30.653000
  0
LINE
  8
0
 10
41.827000
 11
41.066000
 20
-30.653000
 21
-31.128000
  0
LINE
  8
0
 10
41.066000
 11
40.274000
 20
-31.128000
 21
-31.550000
  0
LINE
  8
0
 10
40.274000
 11
39.455000
 20
-31.550000
 21
-31.914000
  0
LINE
  8
0
 10
39.455000
 11
38.612000
 20
-31.914000
 21
-32.221000
  0
LINE
  8
0
 10
38.612000
 11
37.749000
 20
-32.221000
 21
-32.469000
  0
LINE
  8
0
 10
37.749000
 11
36.872000
 20
-32.469000
 21
-32.655000
  0
LINE
  8
0
 10
36.872000
 11
35.984000
 20
-32.655000
 21
-32.780000
  0
LINE
  8
0
 10
35.984000
 11
35.089000
 20
-32.780000
 21
-32.842000
  0
LINE
  8
0
 10
35.089000
 11
34.193000
 20
-32.842000
 21
-32.842000
  0
LINE
  8
0
 10
34.193000
 11
33.298000
 20
-32.842000
 21
-32.780000
  0
LINE
  8
0
 10
33.298000
 11
32.410000
 20
-32.780000
 21
-32.655000
  0
LINE
  8
0
 10
32.410000
 11
31.532000
 20
-32.655000
 21
-32.468000
  0
LINE
  8
0
 10
31.532000
 11
30.671000
 20
-32.468000
 21
-32.221000
  0
LINE
  8
0
 10
30.671000
 11
29.827000
 20
-32.221000
 21
-31.914000
  0
LINE
  8
0
 10
29.827000
 11
29.007000
 20
-31.914000
 21
-31.550000
  0
LINE
  8
0
 10
29.007000
 11
28.216000
 20
-31.550000
 21
-31.128000
  0
LINE
  8
0
 10
28.216000
 11
27.456000
 20
-31.128000
 21
-30.654000
  0
LINE
  8
0
 10
27.456000
 11
26.730000
 20
-30.654000
 21
-30.126000
  0
LINE
  8
0
 10
26.730000
 11
26.042000
 20
-30.126000
 21
-29.549000
  0
LINE
  8
0
 10
26.042000
 11
25.398000
 20
-29.549000
 21
-28.926000
  0
LINE
  8
0
 10
25.398000
 11
24.797000
 20
-28.926000
 21
-28.260000
  0
LINE
  8
0
 10
24.797000
 11
24.245000
 20
-28.260000
 21
-27.553000
  0
LINE
  8
0
 10
24.245000
 11
23.743000
 20
-27.553000
 21
-26.809000
  0
LINE
  8
0
 10
23.743000
 11
23.296000
 20
-26.809000
 21
-26.033000
  0
LINE
  8
0
 10
23.296000
 11
22.902000
 20
-26.033000
 21
-25.227000
  0
LINE
  8
0
 10
22.902000
 11
22.566000
 20
-25.227000
 21
-24.395000
  0
LINE
  8
0
 10
22.566000
 11
22.289000
 20
-24.395000
 21
-23.543000
  0
LINE
  8
0
 10
22.289000
 11
22.072000
 20
-23.543000
 21
-22.672000
  0
LINE
  8
0
 10
22.072000
 11
21.916000
 20
-22.672000
 21
-21.788000
  0
LINE
  8
0
 10
21.916000
 11
21.822000
 20
-21.788000
 21
-20.897000
  0
LINE
  8
0
 10
21.822000
 11
21.791000
 20
-20.897000
 21
-20.000000
  0
LINE
  8
0
 10
21.791000
 11
21.822000
 20
20.000000
 21
20.897000
  0
LINE
  8
0
 10
21.822000
 11
21.916000
 20
20.897000
 21
21.788000
  0
LINE
  8
0
 10
21.916000
 11
22.072000
 20
21.788000
 21
22.672000
  0
LINE
  8
0
 10
22.072000
 11
22.289000
 20
22.672000
 21
23.543000
  0
LINE
  8
0
 10
22.289000
 11
22.566000
 20
23.543000
 21
24.395000
  0
LINE
  8
0
 10
22.566000
 11
22.902000
 20
24.395000
 21
25.227000
  0
LINE
  8
0
 10
22.902000
 11
23.296000
 20
25.227000
 21
26.033000
  0
LINE
  8
0
 10
23.296000
 11
23.743000
 20
26.033000
 21
26.809000
  0
LINE
  8
0
 10
23.743000
 11
24.245000
 20
26.809000
 21
27.553000
  0
LINE
  8
0
 10
24.245000
 11
24.797000
 20
27.553000
 21
28.260000
  0
LINE
  8
0
 10
24.797000
 11
25.398000
 20
28.260000
 21
28.926000
  0
LINE
  8
0
 10
25.398000
 11
26.042000
 20
28.926000
 21
29.549000
  0
LINE
  8
0
 10
26.042000
 11
26.730000
 20
29.549000
 21
30.126000
  0
LINE
  8
0
 10
26.730000
 11
27.456000
 20
30.126000
 21
30.654000
  0
LINE
  8
0
 10
27.456000
 11
28.216000
 20
30.654000
 21
31.128000
  0
LINE
  8
0
 10
28.216000
 11
29.007000
 20
31.128000
 21
31.550000
  0
LINE
  8
0
 10
29.007000
 11
29.827000
 20
31.550000
 21
31.914000
  0
LINE
  8
0
 10
29.827000
 11
30.671000
 20
31.914000
 21
32.221000
  0
LINE
  8
0
 10
30.671000
 11
31.532000
 20
32.221000
 21
32.468000
  0
LINE
  8
0
 10
31.532000
 11
32.410000
 20
32.468000
 21
32.655000
  0
LINE
  8
0
 10
32.410000
 11
33.298000
 20
32.655000
 21
32.780000
  0
LINE
  8
0
 10
33.298000
 11
34.193000
 20
32.780000
 21
32.842000
  0
LINE
  8
0
 10
34.193000
 11
35.089000
 20
32.842000
 21
32.842000
  0
LINE
  8
0
 10
35.089000
 11
35.984000
 20
32.842000
 21
32.780000
  0
LINE
  8
0
 10
35.984000
 11
36.872000
 20
32.780000
 21
32.655000
  0
LINE
  8
0
 10
36.872000
 11
37.749000
 20
32.655000
 21
32.469000
  0
LINE
  8
0
 10
37.749000
 11
38.612000
 20
32.469000
 21
32.221000
  0
LINE
  8
0
 10
38.612000
 11
39.455000
 20
32.221000
 21
31.914000
  0
LINE
  8
0
 10
39.455000
 11
40.274000
 20
31.914000
 21
31.550000
  0
LINE
  8
0
 10
40.274000
 11
41.066000
 20
31.550000
 21
31.128000
  0
LINE
  8
0
 10
41.066000
 11
41.827000
 20
31.128000
 21
30.653000
  0
LINE
  8
0
 10
41.827000
 11
42.552000
 20
30.653000
 21
30.126000
  0
LINE
  8
0
 10
42.552000
 11
43.239000
 20
30.126000
 21
29.549000
  0
LINE
  8
0
 10
43.239000
 11
43.884000
 20
29.549000
 21
28.926000
  0
LINE
  8
0
 10
43.884000
 11
44.485000
 20
28.926000
 21
28.260000
  0
LINE
  8
0
 10
44.485000
 11
45.037000
 20
28.260000
 21
27.553000
  0
LINE
  8
0
 10
45.037000
 11
45.539000
 20
27.553000
 21
26.809000
  0
LINE
  8
0
 10
45.539000
 11
45.987000
 20
26.809000
 21
26.033000
  0
LINE
  8
0
 10
45.987000
 11
46.380000
 20
26.033000
 21
25.227000
  0
LINE
  8
0
 10
46.380000
 11
46.716000
 20
25.227000
 21
24.395000
  0
LINE
  8
0
 10
46.716000
 11
46.993000
 20
24.395000
 21
23.542000
  0
LINE
  8
0
 10
46.993000
 11
47.210000
 20
23.542000
 21
22.672000
  0
LINE
  8
0
 10
47.210000
 11
47.366000
 20
22.672000
 21
21.788000
  0
LINE
  8
0
 10
47.366000
 11
47.460000
 20
21.788000
 21
20.897000
  0
LINE
  8
0
 10
47.460000
 11
47.491000
 20
20.897000
 21
20.000000
  0
LINE
  8
0
 10
47.491000
 11
47.460000
 20
20.000000
 21
19.103000
  0
LINE
  8
0
 10
47.460000
 11
47.366000
 20
19.103000
 21
18.212000
  0
LINE
  8
0
 10
47.366000
 11
47.210000
 20
18.212000
 21
17.328000
  0
LINE
  8
0
 10
47.210000
 11
46.993000
 20
17.328000
 21
16.457000
  0
LINE
  8
0
 10
46.993000
 11
46.716000
 20
16.457000
 21
15.605000
  0
LINE
  8
0
 10
46.716000
 11
46.380000
 20
15.605000
 21
14.773000
  0
LINE
  8
0
 10
46.380000
 11
45.986000
 20
14.773000
 21
13.967000
  0
LINE
  8
0
 10
45.986000
 11
45.539000
 20
13.967000
 21
13.191000
  0
LINE
  8
0
 10
45.539000
 11
45.037000
 20
13.191000
 21
12.447000
  0
LINE
  8
0
 10
45.037000
 11
44.485000
 20
12.447000
 21
11.740000
  0
LINE
  8
0
 10
44.485000
 11
43.884000
 20
11.740000
 21
11.074000
  0
LINE
  8
0
 10
43.884000
 11
43.240000
 20
11.074000
 21
10.451000
  0
LINE
  8
0
 10
43.240000
 11
42.552000
 20
10.451000
 21
9.874000
  0
LINE
  8
0
 10
42.552000
 11
41.826000
 20
9.874000
 21
9.346000
  0
LINE
  8
0
 10
41.826000
 11
41.066000
 20
9.346000
 21
8.872000
  0
LINE
  8
0
 10
41.066000
 11
40.275000
 20
8.872000
 21
8.450000
  0
LINE
  8
0
 10
40.275000
 11
39.455000
 20
8.450000
 21
8.086000
  0
LINE
  8
0
 10
39.455000
 11
38.611000
 20
8.086000
 21
7.779000
  0
LINE
  8
0
 10
38.611000
 11
37.750000
 20
7.779000
 21
7.532000
  0
LINE
  8
0
 10
37.750000
 11
36.872000
 20
7.532000
 21
7.345000
  0
LINE
  8
0
 10
36.872000
 11
35.984000
 20
7.345000
 21
7.220000
  0
LINE
  8
0
 10
35.984000
 11
35.089000
 20
7.220000
 21
7.158000
  0
LINE
  8
0
 10
35.089000
 11
34.193000
 20
7.158000
 21
7.158000
  0
LINE
  8
0
 10
34.193000
 11
33.298000
 20
7.158000
 21
7.220000
  0
LINE
  8
0
 10
33.298000
 11
32.410000
 20
7.220000
 21
7.345000
  0
LINE
  8
0
 10
32.410000
 11
31.533000
 20
7.345000
 21
7.531000
  0
LINE
  8
0
 10
31.533000
 11
30.670000
 20
7.531000
 21
7.779000
  0
LINE
  8
0
 10
30.670000
 11
29.827000
 20
7.779000
 21
8.086000
  0
LINE
  8
0
 10
29.827000
 11
29.008000
 20
8.086000
 21
8.450000
  0
LINE
  8
0
 10
29.008000
 11
28.216000
 20
8.450000
 21
8.872000
  0
LINE
  8
0
 10
28.216000
 11
27.455000
 20
8.872000
 21
9.347000
  0
LINE
  8
0
 10
27.455000
 11
26.730000
 20
9.347000
 21
9.874000
  0
LINE
  8
0
 10
26.730000
 11
26.043000
 20
9.874000
 21
10.451000
  0
LINE
  8
0
 10
26.043000
 11
25.398000
 20
10.451000
 21
11.074000
  0
LINE
  8
0
 10
25.398000
 11
24.797000
 20
11.074000
 21
11.740000
  0
LINE
  8
0
 10
24.797000
 11
24.245000
 20
11.740000
 21
12.447000
  0
LINE
  8
0
 10
24.245000
 11
23.744000
 20
12.447000
 21
13.191000
  0
LINE
  8
0
 10
23.744000
 11
23.296000
 20
13.191000
 21
13.967000
  0
LINE
  8
0
 10
23.296000
 11
22.902000
 20
13.967000
 21
14.773000
  0
LINE
  8
0
 10
22.902000
 11
22.566000
 20
14.773000
 21
15.605000
  0
LINE
  8
0
 10
22.566000
 11
22.289000
 20
15.605000
 21
16.458000
  0
LINE
  8
0
 10
22.289000
 11
22.072000
 20
16.458000
 21
17.328000
  0
LINE
  8
0
 10
22.072000
 11
21.916000
 20
17.328000
 21
18.212000
  0
LINE
  8
0
 10
21.916000
 11
21.822000
 20
18.212000
 21
19.103000
  0
LINE
  8
0
 10
21.822000
 11
21.791000
 20
19.103000
 21
20.000000
  0
ENDSEC
  0
SECTION
  2
OBJECTS
  0
DICTIONARY
  0
ENDSEC
  0
EOF
