0
SECTION
2
HEADER
9
$INSUNITS
70
4
9
$ACADVER
1
AC1014
9
$HANDSEED
5
FFFF
0
ENDSEC
0
SECTION
2
TABLES
0
TABLE
2
VPORT
5
8
100
AcDbSymbolTable
0
ENDTAB
0
TABLE
2
LTYPE
5
5
100
AcDbSymbolTable
0
LTYPE
5
14
100
AcDbSymbolTableRecord
100
AcDbLinetypeTableRecord
2
BYBLOCK
70
0
0
LTYPE
5
15
100
AcDbSymbolTableRecord
100
AcDbLinetypeTableRecord
2
BYLAYER
70
0
0
ENDTAB
0
TABLE
2
LAYER
5
2
100
AcDbSymbolTable
70
2
0
LAYER
5
50
100
AcDbSymbolTableRecord
100
AcDbLayerTableRecord
2
0
70
0
6
CONTINUOUS
0
ENDTAB
0
TABLE
2
STYLE
5
3
100
AcDbSymbolTable
70
1
0
STYLE
5
11
100
AcDbSymbolTableRecord
100
AcDbTextStyleTableRecord
2
STANDARD
70
0
0
ENDTAB
0
TABLE
2
VIEW
5
6
100
AcDbSymbolTable
70
0
0
ENDTAB
0
TABLE
2
UCS
5
7
100
AcDbSymbolTable
70
0
0
ENDTAB
0
TABLE
2
APPID
5
9
100
AcDbSymbolTable
70
2
0
APPID
5
12
100
AcDbSymbolTableRecord
100
AcDbRegAppTableRecord
2
ACAD
70
0
0
ENDTAB
0
TABLE
2
DIMSTYLE
5
A
100
AcDbSymbolTable
70
1
0
ENDTAB
0
TABLE
2
BLOCK_RECORD
5
1
100
AcDbSymbolTable
70
1
0
BLOCK_RECORD
5
1F
100
AcDbSymbolTableRecord
100
AcDbBlockTableRecord
2
*MODEL_SPACE
0
BLOCK_RECORD
5
1B
100
AcDbSymbolTableRecord
100
AcDbBlockTableRecord
2
*PAPER_SPACE
0
ENDTAB
0
ENDSEC
0
SECTION
2
BLOCKS
0
BLOCK
5
20
100
AcDbEntity
100
AcDbBlockBegin
2
*MODEL_SPACE
0
ENDBLK
5
21
100
AcDbEntity
100
AcDbBlockEnd
0
BLOCK
5
1C
100
AcDbEntity
100
AcDbBlockBegin
2
*PAPER_SPACE
0
ENDBLK
5
1D
100
AcDbEntity
100
AcDbBlockEnd
0
ENDSEC
0
SECTION
2
ENTITIES
0
LWPOLYLINE
5
100
100
AcDbEntity
8
0
100
AcDbPolyline
90
26
70
1
43
0.0
10
-236.74308357602371
20
507.03182530137337
10
-237.1426852340733
20
506.06710155896116
10
-237.27898191801413
20
505.03182546137327
10
-237.14268523407353
20
503.99654936378488
10
-236.74308357602246
20
503.0318256213734
10
-236.10740913648488
20
502.20339856289979
10
-235.27898207801346
20
501.56772412336295
10
-234.31425833560127
20
501.16812246531339
10
-233.27898223801378
20
501.0318257813733
10
-225.28301316079265
20
501.03182578137262
10
-224.247737063204
20
501.16812246531299
10
-223.28301332079155
20
501.5677241233638
10
-222.45458626232019
20
502.20339856290087
10
-221.81891182278332
20
503.03182562137357
10
-221.41931016473205
20
503.99654936378488
10
-221.28301348079219
20
505.03182546137293
10
-221.41931016473205
20
506.06710155896201
10
-221.81891182278298
20
507.03182530137298
10
-222.4545862623217
20
507.86025235984511
10
-223.28301332079263
20
508.49592679938269
10
-224.24773706320491
20
508.89552845743316
10
-225.21615221163881
20
509.03182514137342
10
-233.2789822380127
20
509.03182514137313
10
-234.31425833560183
20
508.89552845743367
10
-235.27898207801528
20
508.49592679938354
10
-236.10740913648488
20
507.86025235984533
0
LWPOLYLINE
5
101
100
AcDbEntity
8
0
100
AcDbPolyline
90
81
70
1
43
0.0
10
-253.21587944322502
20
478.28188533667259
10
-253.21587944322573
20
513.03182482137322
10
-102.4158915072254
20
513.03182482137356
10
-100.41589166722559
20
515.03182466137321
10
-80.415893267224462
20
515.03182466137321
10
-75.415893667224694
20
510.03182506137426
10
-75.415893667224339
20
494.43182630937258
10
-80.415893267224604
20
489.43182670937261
10
-150.41588766722438
20
489.43182670937313
10
-151.55469137457141
20
489.28190035703864
10
-152.61588749122552
20
488.842338533185
10
-153.52715725554441
20
488.14309664969238
10
-154.22639913903609
20
487.23182688537321
10
-154.66596096289069
20
486.17063076871887
10
-154.81588731522518
20
485.0318270613738
10
-154.66596096289092
20
483.89302335402527
10
-154.22639913903592
20
482.83182723737383
10
-153.52715725554441
20
481.9205574730529
10
-152.61588749122481
20
481.22131558956261
10
-151.55469137457118
20
480.78175376570692
10
-150.41588766722558
20
480.63182741337329
10
-80.415893267224803
20
480.63182741337357
10
-75.415893667225021
20
475.63182781337281
10
-75.415893667224083
20
468.0318284213734
10
-227.8158814752253
20
145.03185426137128
10
-253.21587944322431
20
145.03185426137117
10
-253.21587944322573
20
154.38908217587647
10
-259.31587895522472
20
154.38908217587561
10
-259.31587895522512
20
163.18908147187636
10
-253.21587944322465
20
163.1890814718758
10
-253.21587944322465
20
172.74688244185478
10
-241.21588040322479
20
172.74688244185506
10
-241.2158804032251
20
170.94688258585484
10
-236.11588081122605
20
170.94688258585512
10
-236.11588081122548
20
172.74688244185478
10
-232.11588113122556
20
172.74688244185461
10
-232.115881131225
20
177.14688208985473
10
-236.11588081122451
20
177.14688208985484
10
-236.11588081122548
20
178.94688194585507
10
-241.2158804032251
20
178.9468819458549
10
-241.2158804032251
20
177.1468820898553
10
-253.21587944322502
20
177.14688208985484
10
-253.21587944322573
20
186.68907959187632
10
-259.31587895522472
20
186.68907959187609
10
-259.31587895522512
20
195.48907888787653
10
-253.21587944322465
20
195.48907888787627
10
-253.21587944322465
20
309.48184110537181
10
-259.31587895522472
20
309.48184110537221
10
-259.31587895522398
20
318.28184040137108
10
-253.21587944322431
20
318.28184040137194
10
-253.21587944322431
20
327.83183963737173
10
-241.21588040322479
20
327.83183963737116
10
-241.21588040322541
20
326.03183978137247
10
-236.11588081122451
20
326.03183978137162
10
-236.11588081122491
20
327.83183963737213
10
-232.11588113122556
20
327.83183963737213
10
-232.11588113122562
20
332.23183928537208
10
-236.11588081122645
20
332.23183928537225
10
-236.11588081122548
20
334.03183914137259
10
-241.21588040322493
20
334.0318391413723
10
-241.21588040322561
20
332.23183928537225
10
-253.21587944322391
20
332.23183928537117
10
-253.21587944322573
20
341.78183852137232
10
-259.3158789552262
20
341.78183852137238
10
-259.31587895522654
20
350.58183781737353
10
-253.21587944322539
20
350.58183781737307
10
-253.21587944322511
20
441.06020887221928
10
-241.21588040321998
20
441.06020887221962
10
-241.21588040321993
20
439.26020901622024
10
-236.11588081121994
20
439.26020901621985
10
-236.11588081122079
20
441.06020887221945
10
-232.11588113123645
20
441.06020887221996
10
-232.1158811312207
20
445.4602085202194
10
-236.11588081122036
20
445.46020852022082
10
-236.11588081122079
20
447.26020837622036
10
-241.21588040322132
20
447.26020837622031
10
-241.21588040322047
20
445.46020852022082
10
-253.21587944322016
20
445.46020852021991
10
-253.21587944322502
20
469.48188604067212
10
-259.31587895522586
20
469.48188604067252
10
-259.31587895522546
20
478.28188533667333
0
LWPOLYLINE
5
102
100
AcDbEntity
8
0
100
AcDbPolyline
90
27
70
1
43
0.0
10
-110.68664536444351
20
292.79110191761737
10
-111.15252838171608
20
292.72983508698366
10
-111.58667979752792
20
292.55007647531977
10
-111.95951291036066
20
292.26407633494546
10
-112.24561975971082
20
291.89132510278961
10
-112.42550263660877
20
291.45722515932312
10
-112.48690282026485
20
290.99135969830917
10
-112.42563598963109
20
290.52547668103682
10
-112.24587737796732
20
290.0913252652249
10
-111.95987723759281
20
289.71849215239206
10
-111.69711150950219
20
289.53373578664389
10
-111.58712600543709
20
289.432385303042
10
-111.15302606197064
20
289.25250242614396
10
-110.6871606009566
20
289.191102242488
10
-110.2212775836842
20
289.25236907312171
10
-109.78712616787243
20
289.4321276847856
10
-109.41429305503948
20
289.71812782515985
10
-109.12818620568942
20
290.09087905731565
10
-108.94830332879131
20
290.52497900078214
10
-108.88690314513541
20
290.99084446179609
10
-108.94816997576902
20
291.45672747906849
10
-109.127928587433
20
291.89087889488036
10
-109.41392872780727
20
292.2637120077132
10
-109.52391423187258
20
292.36506249131509
10
-109.57185282958889
20
292.38492734732682
10
-109.78667995996319
20
292.54981885706331
10
-110.22077990342964
20
292.72970173396129
0
LWPOLYLINE
5
103
100
AcDbEntity
8
0
100
AcDbPolyline
90
27
70
1
43
0.0
10
-112.45395608700764
20
216.04682592848445
10
-112.39268925637401
20
215.58094291121199
10
-112.2129306447102
20
215.14679149540015
10
-111.92693050433569
20
214.7739583825674
10
-111.74207449534364
20
214.65842230712445
10
-111.55417927218004
20
214.48785153321728
10
-111.12007932871343
20
214.30796865631919
10
-110.6542138676995
20
214.2465684726632
10
-110.18833085042708
20
214.30783530329691
10
-109.75417943461535
20
214.48759391496083
10
-109.3813463217824
20
214.77359405533508
10
-109.09523947243231
20
215.14634528749099
10
-108.91535659553425
20
215.58044523095759
10
-108.8539564118783
20
216.0463106919714
10
-108.9152232425119
20
216.5121937092438
10
-109.09498185417588
20
216.94634512505573
10
-109.38098199455015
20
217.31917823788848
10
-109.5688772177138
20
217.48974901179568
10
-109.6434892539648
20
217.52066684059074
10
-109.75373322670609
20
217.6052850872386
10
-110.18783317017252
20
217.78516796413666
10
-110.65369863118644
20
217.8465681477926
10
-111.119581648459
20
217.78530131715908
10
-111.55373306427086
20
217.60554270549511
10
-111.92656617710354
20
217.31954256512068
10
-112.21267302645371
20
216.94679133296489
10
-112.39255590335169
20
216.51269138949843
0
LWPOLYLINE
5
104
100
AcDbEntity
8
0
100
AcDbPolyline
90
26
70
1
43
0.0
10
-48.561507004255802
20
158.9681742186267
10
-49.596783101843904
20
158.83187753468667
10
-50.561506844255923
20
158.43227587663631
10
-51.389933902727883
20
157.7966014370987
10
-52.025608342265528
20
156.96817437862674
10
-52.425210000315872
20
156.00345063621469
10
-52.561506684255868
20
154.9681745386267
10
-52.425210000315872
20
153.93289844103867
10
-52.025608342265528
20
152.96817469862668
10
-51.389933902727883
20
152.1397476401547
10
-50.561506844255923
20
151.50407320061709
10
-49.596783101843904
20
151.10447154256667
10
-48.62836795340904
20
150.96817485862664
10
-40.565537927034505
20
150.96817485862664
10
-39.530261829446651
20
151.10447154256667
10
-38.565538087034383
20
151.50407320061709
10
-37.737111028562147
20
152.1397476401547
10
-37.101436589024601
20
152.96817469862674
10
-36.701834930974286
20
153.93289844103873
10
-36.565538247034155
20
154.96817453862664
10
-36.701834930974286
20
156.00345063621469
10
-37.101436589024601
20
156.96817437862674
10
-37.737111028562147
20
157.79660143709884
10
-38.565538087034383
20
158.43227587663631
10
-39.530261829446651
20
158.83187753468667
10
-40.56553792703447
20
158.9681742186267
0
LWPOLYLINE
5
105
100
AcDbEntity
8
0
100
AcDbPolyline
90
27
70
1
43
0.0
10
-64.162321614746176
20
297.7579015329344
10
-64.22372179840238
20
297.29203607192034
10
-64.162454967768596
20
296.8261530546481
10
-63.982696356104718
20
296.39200163883623
10
-63.69669621573042
20
296.01916852600328
10
-63.474715165758724
20
295.87479105389201
10
-63.323944983574627
20
295.73306167665328
10
-62.889845040108163
20
295.55317879975524
10
-62.423979579094002
20
295.49177861609923
10
-61.958096561821669
20
295.55304544673288
10
-61.523945146009922
20
295.73280405839682
10
-61.151112033177135
20
296.01880419877119
10
-60.86500518382703
20
296.39155543092693
10
-60.685122306928932
20
296.82565537439348
10
-60.623722123273012
20
297.29152083540737
10
-60.684988953906611
20
297.75740385267977
10
-60.864747565570418
20
298.19155526849164
10
-61.150747705944823
20
298.56438838132448
10
-61.301517888128998
20
298.70611775856321
10
-61.375150495419071
20
298.73662973036181
10
-61.523498938100694
20
298.85049523067454
10
-61.957598881567193
20
299.03037810757263
10
-62.42346434258117
20
299.09177829122854
10
-62.889347359853502
20
299.03051146059499
10
-63.323498775665321
20
298.85075284893105
10
-63.696331888497973
20
298.56475270855674
10
-63.982438737848213
20
298.19200147640089
0
LWPOLYLINE
5
106
100
AcDbEntity
8
0
100
AcDbPolyline
90
24
70
1
43
0.0
10
-136.76933516970891
20
207.76834306850731
10
-136.58957655804514
20
207.33419165269538
10
-136.30357641767088
20
206.96135853986263
10
-135.93082518551486
20
206.67525169051257
10
-135.49672524204829
20
206.49536881361442
10
-135.03085978103442
20
206.43396862995846
10
-134.56497676376202
20
206.49523546059211
10
-134.13082534795024
20
206.67499407225603
10
-133.75799223511748
20
206.96099421263042
10
-133.47188538576734
20
207.3337454447863
10
-133.29200250886916
20
207.76784538825268
10
-133.23060232521314
20
208.23371084926657
10
-133.29186915584702
20
208.69959386653903
10
-133.4716277675108
20
209.13374528235096
10
-133.75762790788511
20
209.50657839518371
10
-134.13037914004104
20
209.7926852445338
10
-134.56447908350728
20
209.97256812143192
10
-135.03034454452148
20
210.03396830508791
10
-135.49622756179386
20
209.9727014744542
10
-135.93037897760559
20
209.79294286279031
10
-136.30321209043845
20
209.50694272241603
10
-136.58931893978857
20
209.13419149026012
10
-136.76920181668663
20
208.70009154679363
10
-136.83060200034248
20
208.23422608577971
0
LWPOLYLINE
5
107
100
AcDbEntity
8
0
100
AcDbPolyline
90
24
70
1
43
0.0
10
-133.3162000809067
20
303.63510973608805
10
-133.25479989725056
20
304.10097519710206
10
-133.31606672788442
20
304.56685821437452
10
-133.49582533954822
20
305.00100963018639
10
-133.78182547992259
20
305.37384274301917
10
-134.15457671207838
20
305.65994959236923
10
-134.58867665554479
20
305.83983246926721
10
-135.05454211655902
20
305.90123265292334
10
-135.52042513383134
20
305.83996582228963
10
-135.95457654964306
20
305.66020721062569
10
-136.32740966247587
20
305.37420707025149
10
-136.61351651182599
20
305.00145583809564
10
-136.79339938872417
20
304.56735589462903
10
-136.85479957238002
20
304.1014904336152
10
-136.79353274174645
20
303.63560741634274
10
-136.61377413008253
20
303.20145600053087
10
-136.32777398970816
20
302.82862288769809
10
-135.95502275755229
20
302.54251603834803
10
-135.52092281408588
20
302.36263316144993
10
-135.05505735307182
20
302.30123297779392
10
-134.58917433579953
20
302.36249980842763
10
-134.15502291998769
20
302.54225842009146
10
-133.78218980715496
20
302.82825856046571
10
-133.49608295780482
20
303.20100979262168
0
LWPOLYLINE
5
108
100
AcDbEntity
8
0
100
AcDbPolyline
90
24
70
1
43
0.0
10
-63.006244228287194
20
302.07393346285136
10
-62.826361351389224
20
302.50803340631808
10
-62.76496116773302
20
302.97389886733191
10
-62.826227998366804
20
303.43978188460432
10
-63.005986610030682
20
303.87393330041618
10
-63.29198675040498
20
304.24676641324908
10
-63.664737982560879
20
304.53287326259908
10
-64.098837926027272
20
304.71275613949717
10
-64.564703387041334
20
304.77415632315319
10
-65.030586404313709
20
304.71288949251948
10
-65.464737820125478
20
304.53313088085565
10
-65.837570932958272
20
304.24713074048128
10
-66.123677782308363
20
303.87437950832543
10
-66.303560659206482
20
303.44027956485888
10
-66.364960842862388
20
302.97441410384494
10
-66.303694012228789
20
302.50853108657248
10
-66.123935400565017
20
302.07437967076061
10
-65.837935260190577
20
301.70154655792794
10
-65.465184028034713
20
301.41543970857782
10
-65.031084084568221
20
301.23555683167979
10
-64.565218623554301
20
301.17415664802365
10
-64.099335606281926
20
301.23542347865748
10
-63.665184190470114
20
301.41518209032131
10
-63.292351077637399
20
301.70118223069562
0
LWPOLYLINE
5
109
100
AcDbEntity
8
0
100
AcDbPolyline
90
24
70
1
43
0.0
10
-38.764919260934398
20
206.91741940851369
10
-38.478812411584329
20
207.29017064066963
10
-38.298929534686152
20
207.72427058413612
10
-38.237529351030332
20
208.19013604514998
10
-38.298796181663867
20
208.65601906242244
10
-38.478554793327831
20
209.09017047823428
10
-38.764554933702094
20
209.46300359106712
10
-39.137306165857993
20
209.74911044041718
10
-39.571406109324457
20
209.92899331731536
10
-40.037271570338362
20
209.99039350097121
10
-40.503154587610801
20
209.92912667033764
10
-40.937306003422655
20
209.74936805867372
10
-41.310139116255336
20
209.46336791829941
10
-41.596245965605547
20
209.09061668614356
10
-41.776128842503645
20
208.65651674267696
10
-41.837529026159714
20
208.19065128166312
10
-41.77626219552586
20
207.72476826439075
10
-41.596503583862017
20
207.29061684857882
10
-41.310503443487676
20
206.91778373574604
10
-40.93775221133189
20
206.63167688639589
10
-40.503652267865391
20
206.45179400949783
10
-40.037786806851294
20
206.39039382584176
10
-39.571903789578968
20
206.4516606564755
10
-39.137752373767221
20
206.63141926813938
0
LWPOLYLINE
5
110
100
AcDbEntity
8
0
100
AcDbPolyline
90
24
70
1
43
0.0
10
-110.13776468724659
20
303.34806105607493
10
-110.19916487090259
20
302.88219559506092
10
-110.13789804026888
20
302.41631257778863
10
-109.95813942860514
20
301.98216116197676
10
-109.67213928823085
20
301.60932804914398
10
-109.29938805607492
20
301.32322119979381
10
-108.86528811260834
20
301.14333832289572
10
-108.39942265159443
20
301.08193813923975
10
-107.93353963432205
20
301.14320496987352
10
-107.49938821851019
20
301.32296358153724
10
-107.12655510567744
20
301.60896372191178
10
-106.84044825632738
20
301.98171495406763
10
-106.66056537942936
20
302.41581489753401
10
-106.59916519577321
20
302.88168035854795
10
-106.66043202640701
20
303.34756337582041
10
-106.84019063807082
20
303.78171479163223
10
-107.12619077844508
20
304.15454790446506
10
-107.49894201060104
20
304.44065475381507
10
-107.93304195406745
20
304.62053763071322
10
-108.39890741508144
20
304.68193781436918
10
-108.86479043235386
20
304.62067098373552
10
-109.29894184816568
20
304.44091237207164
10
-109.67177496099843
20
304.15491223169727
10
-109.95788181034857
20
303.78216099954153
0
LWPOLYLINE
5
111
100
AcDbEntity
8
0
100
AcDbPolyline
90
24
70
1
43
0.0
10
-107.99870504326231
20
210.69608631271197
10
-108.46457050427638
20
210.75748649636796
10
-108.93045352154878
20
210.69621966573425
10
-109.36460493736065
20
210.51646105407033
10
-109.73743805019332
20
210.23046091369599
10
-110.02354489954357
20
209.85770968154014
10
-110.20342777644147
20
209.42360973807368
10
-110.26482796009751
20
208.95774427705973
10
-110.20356112946381
20
208.49186125978733
10
-110.02380251780002
20
208.05770984397549
10
-109.73780237742574
20
207.68487673114277
10
-109.3650511452698
20
207.39876988179265
10
-108.93095120180317
20
207.2188870048945
10
-108.46508574078932
20
207.15748682123848
10
-107.99920272351692
20
207.21875365187216
10
-107.56505130770508
20
207.39851226353602
10
-107.19221819487244
20
207.68451240391045
10
-106.90611134552221
20
208.05726363606621
10
-106.72622846862423
20
208.4913635795327
10
-106.66482828496812
20
208.95722904054679
10
-106.72609511560189
20
209.42311205781914
10
-106.90585372726574
20
209.85726347363087
10
-107.19185386764002
20
210.23009658646373
10
-107.56460509979591
20
210.51620343581376
0
LWPOLYLINE
5
112
100
AcDbEntity
8
0
100
AcDbPolyline
90
24
70
1
43
0.0
10
-65.433150156418691
20
207.39876988179265
10
-64.999050212952199
20
207.2188870048945
10
-64.53318475193818
20
207.15748682123854
10
-64.067301734665918
20
207.21875365187216
10
-63.633150318854106
20
207.39851226353602
10
-63.260317206021277
20
207.68451240391045
10
-62.974210356671172
20
208.05726363606621
10
-62.794327479773067
20
208.4913635795327
10
-62.732927296116969
20
208.95722904054679
10
-62.794194126750796
20
209.42311205781914
10
-62.973952738414745
20
209.85726347363087
10
-63.259952878788901
20
210.23009658646373
10
-63.632704110944793
20
210.51620343581376
10
-64.066804054411222
20
210.69608631271197
10
-64.532669515425468
20
210.75748649636796
10
-64.998552532697644
20
210.69621966573425
10
-65.43270394850947
20
210.51646105407033
10
-65.805537061342221
20
210.23046091369599
10
-66.091643910692454
20
209.85770968154014
10
-66.27152678759046
20
209.42360973807368
10
-66.332926971246422
20
208.95774427705973
10
-66.271660140612653
20
208.49186125978733
10
-66.091901528948853
20
208.0577098439754
10
-65.805901388574597
20
207.68487673114277
0
LWPOLYLINE
5
113
100
AcDbEntity
8
0
100
AcDbPolyline
90
27
70
1
43
0.0
10
-61.493968219327186
20
214.41609730575297
10
-61.121135106494293
20
214.70209744612731
10
-60.835028257144053
20
215.0748486782831
10
-60.655145380246083
20
215.50894862174965
10
-60.593745196590092
20
215.97481408276363
10
-60.655012027223819
20
216.44069710003603
10
-60.834770638887825
20
216.87484851584773
10
-61.120770779262031
20
217.24768162868062
10
-61.49352201141803
20
217.53378847803071
10
-61.673245640869503
20
217.6238217166366
10
-61.728306024563366
20
217.63107857071537
10
-61.927621954884273
20
217.71367135492881
10
-62.393487415898335
20
217.77507153858483
10
-62.859370433170881
20
217.71380470795108
10
-63.293521848982692
20
217.53404609628723
10
-63.666354961815408
20
217.24804595591291
10
-63.952461811165513
20
216.87529472375712
10
-64.132344688063625
20
216.44119478029057
10
-64.193744871719502
20
215.9753293192766
10
-64.13247804108579
20
215.50944630200419
10
-63.952719429422132
20
215.07529488619241
10
-63.666719289047577
20
214.70246177335952
10
-63.293968056891927
20
214.41635492400948
10
-63.039591742876979
20
214.32650528571719
10
-62.859868113425293
20
214.23647204711136
10
-62.394002652411409
20
214.17507186345543
10
-61.928119635139041
20
214.23633869408914
0
LWPOLYLINE
5
114
100
AcDbEntity
8
0
100
AcDbPolyline
90
24
70
1
43
0.0
10
-41.861521359170133
20
304.1471383328045
10
-41.800254528536335
20
303.6812553155321
10
-41.620495916872677
20
303.24710389972029
10
-41.334495776498272
20
302.87427078688745
10
-40.961744544342338
20
302.58816393753733
10
-40.527644600875796
20
302.4082810606393
10
-40.061779139861848
20
302.34688087698328
10
-39.595896122589451
20
302.40814770761693
10
-39.161744706777696
20
302.58790631928082
10
-38.788911593944981
20
302.87390645965519
10
-38.502804744594883
20
303.24665769181104
10
-38.32292186769677
20
303.68075763527747
10
-38.261521684040716
20
304.14662309629148
10
-38.3227885146745
20
304.61250611356388
10
-38.502547126338307
20
305.04665752937569
10
-38.788547266712641
20
305.41949064220853
10
-39.161298498868469
20
305.70559749155859
10
-39.595398442334826
20
305.88548036845668
10
-40.061263903349023
20
305.94688055211265
10
-40.527146920621362
20
305.88561372147893
10
-40.961298336433174
20
305.70585510981516
10
-41.334131449265811
20
305.41985496944079
10
-41.62023829861603
20
305.04710373728494
10
-41.800121175514128
20
304.61300379381845
0
LWPOLYLINE
5
115
100
AcDbEntity
8
0
100
AcDbPolyline
90
81
70
1
43
0.0
10
-20.628640721822823
20
181.7181146633271
10
-20.628640721822826
20
146.96817517862658
10
-171.42862865782345
20
146.96817517862658
10
-173.4286284978235
20
144.96817533862657
10
-193.42862689782362
20
144.96817533862657
10
-198.42862649782361
20
149.9681749386267
10
-198.42862649782361
20
165.56817369062685
10
-193.42862689782348
20
170.56817329062682
10
-123.42863249782323
20
170.56817329062682
10
-122.28982879047628
20
170.71809964296082
10
-121.22863267382307
20
171.15766146681619
10
-120.3173629095039
20
171.85690335030759
10
-119.61812102601257
20
172.76817311462682
10
-119.17855920215707
20
173.82936923128014
10
-119.02863284982314
20
174.96817293862691
10
-119.17855920215707
20
176.10697664597359
10
-119.61812102601257
20
177.16817276262688
10
-120.3173629095039
20
178.07944252694611
10
-121.22863267382307
20
178.77868441043742
10
-122.28982879047628
20
179.21824623429288
10
-123.42863249782323
20
179.36817258662697
10
-193.42862689782348
20
179.36817258662697
10
-198.42862649782361
20
184.36817218662691
10
-198.42862649782361
20
191.96817157862682
10
-46.028638689822792
20
514.96814573862912
10
-20.628640721822823
20
514.96814573862912
10
-20.628640721822823
20
505.61091782412404
10
-14.528641209822801
20
505.61091782412416
10
-14.528641209822801
20
496.81091852812415
10
-20.628640721822823
20
496.81091852812415
10
-20.628640721822823
20
487.25311755814522
10
-32.628639761822917
20
487.25311755814522
10
-32.628639761822917
20
489.05311741414528
10
-37.728639353822643
20
489.05311741414528
10
-37.728639353822643
20
487.25311755814522
10
-41.728639033822397
20
487.25311755814522
10
-41.728639033822361
20
482.85311791014522
10
-37.728639353822643
20
482.85311791014522
10
-37.728639353822643
20
481.05311805414522
10
-32.628639761822917
20
481.05311805414522
10
-32.628639761822917
20
482.85311791014522
10
-20.628640721822823
20
482.85311791014522
10
-20.628640721822823
20
473.31092040812399
10
-14.528641209822801
20
473.31092040812399
10
-14.528641209822801
20
464.51092111212404
10
-20.628640721822823
20
464.51092111212404
10
-20.628640721822823
20
350.51815889462802
10
-14.528641209822801
20
350.51815889462802
10
-14.528641209822801
20
341.71815959862789
10
-20.628640721822823
20
341.71815959862789
10
-20.628640721822823
20
332.16816036262793
10
-32.628639761822917
20
332.16816036262793
10
-32.628639761822917
20
333.96816021862782
10
-37.728639353822643
20
333.96816021862782
10
-37.728639353822643
20
332.16816036262793
10
-41.728639033822397
20
332.16816036262793
10
-41.728639033822361
20
327.76816071462781
10
-37.728639353822615
20
327.76816071462781
10
-37.728639353822643
20
325.96816085862781
10
-32.628639761822917
20
325.96816085862781
10
-32.628639761822917
20
327.76816071462781
10
-20.628640721822823
20
327.76816071462781
10
-20.628640721822823
20
318.21816147862774
10
-14.528641209822801
20
318.21816147862774
10
-14.528641209822801
20
309.41816218262778
10
-20.628640721822823
20
309.41816218262778
10
-20.628640721822823
20
217.12447701593982
10
-32.628639761841228
20
217.12447701593999
10
-32.628639761841214
20
218.92451276360242
10
-37.728639353841189
20
218.92451276360305
10
-37.728639353840421
20
217.12447701594041
10
-41.728639033824763
20
217.12447701594004
10
-41.728639033840729
20
212.72438963276426
10
-37.728639353841032
20
212.72438963276267
10
-37.72863935384072
20
210.92435388510006
10
-32.628639761840205
20
210.92435388509986
10
-32.628639761840979
20
212.72438963276247
10
-20.628640721841268
20
212.72438963276278
10
-20.628640721822823
20
190.5181139593272
10
-14.528641209822801
20
190.5181139593272
10
-14.528641209822801
20
181.7181146633271
0
CIRCLE
5
116
100
AcDbEntity
8
0
100
AcDbCircle
10
-111.1205438841845
20
130.35274377100419
30
0
40
1.9999999999999996
0
CIRCLE
5
117
100
AcDbEntity
8
0
100
AcDbCircle
10
-70.1407508804527
20
130.35274377100509
30
0
40
1.9999999999999996
0
LWPOLYLINE
5
118
100
AcDbEntity
8
0
100
AcDbPolyline
90
7
70
1
43
0.0
10
-116.09510733126683
20
126.6195534222404
10
-116.09510733126713
20
140.35300138926038
10
-65.138933078859864
20
140.35300138926149
10
-65.138933078859566
20
126.85300138926152
10
-64.948164431430996
20
120.35300138926155
10
-116.09917802485022
20
120.35300138926044
10
-116.09917802485036
20
126.6195534222404
0
CIRCLE
5
119
100
AcDbEntity
8
0
100
AcDbCircle
10
-154.76414778250916
20
129.71215522142214
30
0
40
2
0
CIRCLE
5
120
100
AcDbEntity
8
0
100
AcDbCircle
10
-195.74394078624098
20
129.71215522142259
30
0
40
2
0
LWPOLYLINE
5
121
100
AcDbEntity
8
0
100
AcDbPolyline
90
4
70
1
43
0.0
10
-149.78958433542672
20
133.44534557018551
10
-149.78958433542681
20
126.44534557018548
10
-147.28551364184327
20
126.44534557018545
10
-147.28551364184318
20
133.44534557018548
0
LWPOLYLINE
5
122
100
AcDbEntity
8
0
100
AcDbPolyline
90
4
70
1
43
0.0
10
-200.74575858783402
20
133.21189760316614
10
-203.74575858783402
20
133.21189760316616
10
-203.74575858783408
20
126.21189760316622
10
-200.74575858783408
20
126.21189760316618
0
LWPOLYLINE
5
123
100
AcDbEntity
8
0
100
AcDbPolyline
90
4
70
1
43
0.0
10
-205.54394062380561
20
139.71189760316622
10
-145.54394062380558
20
139.71189760316543
10
-145.54394062380584
20
119.7118976031654
10
-205.5439406238059
20
119.71189760316619
0
LWPOLYLINE
5
124
100
AcDbEntity
8
0
100
AcDbPolyline
90
24
70
1
43
0.0
10
-140.62542671075232
20
10.145381043635236
10
-140.15956124973829
20
10.206781227291227
10
-139.72546130627182
20
10.386664104189299
10
-139.35271007411598
20
10.672770953539384
10
-139.06670993374161
20
11.045604066372206
10
-138.88695132207778
20
11.479755482184043
10
-138.82568449144406
20
11.945638499456447
10
-138.88708467509997
20
12.411503960470412
10
-139.06696755199815
20
12.845603903936894
10
-139.35307440134829
20
13.218355136092754
10
-139.72590751418096
20
13.50435527646707
10
-140.16005892999291
20
13.684113888130954
10
-140.62594194726532
20
13.745380718764626
10
-141.09180740827929
20
13.683980535108635
10
-141.52590735174573
20
13.504097658210569
10
-141.89865858390152
20
13.217990808860465
10
-142.18465872427589
20
12.845157696027659
10
-142.36441733593978
20
12.411006280215823
10
-142.42568416657346
20
11.945123262943415
10
-142.36428398291747
20
11.479257801929453
10
-142.18440110601938
20
11.045157858462971
10
-141.89829425666932
20
10.672406626307108
10
-141.52546114383648
20
10.386406485932792
10
-141.09130972802467
20
10.206647874268914
0
LWPOLYLINE
5
125
100
AcDbEntity
8
0
100
AcDbPolyline
90
52
70
1
43
0.0
10
-230.12679477410018
20
54.946009366802848
10
-229.83610654338241
20
54.510963685571589
10
-229.49112033456262
20
54.11758230833081
10
-229.09773895732184
20
53.772596099510992
10
-228.66269327609049
20
53.481907868793215
10
-228.19342704309219
20
53.250491372399111
10
-227.69796953367853
20
53.082306210742829
10
-227.18479816320234
20
52.980230078569974
10
-226.66269343609054
20
52.946009526802833
10
-224.66269359609049
20
52.946009526802833
10
-224.14058886897877
20
52.980230078569974
10
-223.62741749850247
20
53.082306210742829
10
-223.13195998908884
20
53.250491372399111
10
-222.66269375609056
20
53.481907868793215
10
-222.22764807485936
20
53.772596099510992
10
-221.83426669761857
20
54.11758230833081
10
-221.48928048879867
20
54.510963685571589
10
-221.19859225808099
20
54.946009366802848
10
-220.96717576168675
20
55.415275599801213
10
-220.79899060003046
20
55.910733109214831
10
-220.69691446785768
20
56.423904479691053
10
-220.66269391609055
20
56.946009206802856
10
-220.66269391609055
20
79.946007366802974
10
-220.69691446785768
20
80.468112093914783
10
-220.79899060003046
20
80.981283464390998
10
-220.96717576168675
20
81.476740973804652
10
-221.19859225808099
20
81.946007206802989
10
-221.48928048879867
20
82.381052888034247
10
-221.83426669761857
20
82.774434265275033
10
-222.22764807485936
20
83.119420474094866
10
-222.66269375609056
20
83.410108704812615
10
-223.13195998908884
20
83.641525201206704
10
-223.62741749850244
20
83.809710362863029
10
-224.14058886897874
20
83.911786495035869
10
-224.66269359609046
20
83.94600704680299
10
-226.66269343609054
20
83.94600704680299
10
-227.18479816320234
20
83.911786495035898
10
-227.69796953367853
20
83.809710362863029
10
-228.19342704309219
20
83.641525201206704
10
-228.66269327609049
20
83.410108704812615
10
-229.09773895732184
20
83.119420474094881
10
-229.49112033456262
20
82.774434265275048
10
-229.83610654338241
20
82.381052888034247
10
-230.12679477410018
20
81.946007206802989
10
-230.35821127049431
20
81.476740973804624
10
-230.52639643215056
20
80.981283464390984
10
-230.62847256432343
20
80.468112093914783
10
-230.66269311609051
20
79.946007366802988
10
-230.66269311609051
20
56.946009206802863
10
-230.62847256432343
20
56.423904479691053
10
-230.52639643215056
20
55.910733109214831
10
-230.35821127049431
20
55.415275599801213
0
CIRCLE
5
126
100
AcDbEntity
8
0
100
AcDbCircle
10
-213.6209743871714
20
59.470816092693383
30
0
40
1.9999999999999918
0
CIRCLE
5
127
100
AcDbEntity
8
0
100
AcDbCircle
10
-67.620974387171188
20
41.470816092695642
30
0
40
2.0000000000000009
0
CIRCLE
5
128
100
AcDbEntity
8
0
100
AcDbCircle
10
-237.62097438717134
20
59.470816092693028
30
0
40
1.9999999999999918
0
CIRCLE
5
129
100
AcDbEntity
8
0
100
AcDbCircle
10
-213.62097438717171
20
77.470816092693354
30
0
40
1.9999999999999918
0
LWPOLYLINE
5
130
100
AcDbEntity
8
0
100
AcDbPolyline
90
24
70
1
43
0.0
10
-141.09180740827929
20
54.663773538840445
10
-141.5259073517457
20
54.483890661942347
10
-141.89865858390152
20
54.197783812592306
10
-142.18465872427589
20
53.824950699759491
10
-142.36441733593978
20
53.390799283947665
10
-142.42568416657346
20
52.924916266675211
10
-142.36428398291747
20
52.459050805661263
10
-142.18440110601938
20
52.0249508621948
10
-141.89829425666932
20
51.652199630038915
10
-141.52546114383648
20
51.366199489664616
10
-141.09130972802473
20
51.186440878000703
10
-140.62542671075232
20
51.125174047367054
10
-140.15956124973829
20
51.186574231023052
10
-139.7254613062718
20
51.366457107921121
10
-139.35271007411598
20
51.652563957271191
10
-139.06670993374161
20
52.025397070104013
10
-138.88695132207778
20
52.459548485915832
10
-138.82568449144406
20
52.925431503188292
10
-138.88708467509997
20
53.391296964202219
10
-139.06696755199815
20
53.825396907668718
10
-139.35307440134829
20
54.198148139824582
10
-139.72590751418096
20
54.484148280198909
10
-140.16005892999291
20
54.663906891862801
10
-140.62594194726532
20
54.725173722496436
0
LWPOLYLINE
5
131
100
AcDbEntity
8
0
100
AcDbPolyline
90
52
70
1
43
0.0
10
-228.19342704309219
20
-16.756539923082535
10
-227.69796953367853
20
-16.924725084738853
10
-227.18479816320234
20
-17.026801216911728
10
-226.66269343609054
20
-17.061021768678842
10
-224.66269359609049
20
-17.061021768678842
10
-224.14058886897877
20
-17.026801216911732
10
-223.62741749850247
20
-16.924725084738853
10
-223.13195998908884
20
-16.756539923082535
10
-222.66269375609056
20
-16.525123426688474
10
-222.22764807485936
20
-16.234435195970725
10
-221.83426669761857
20
-15.889448987150882
10
-221.48928048879867
20
-15.496067609910069
10
-221.19859225808099
20
-15.061021928678835
10
-220.96717576168675
20
-14.591755695680504
10
-220.79899060003046
20
-14.096298186266843
10
-220.69691446785768
20
-13.583126815790665
10
-220.66269391609055
20
-13.061022088678826
10
-220.66269391609055
20
9.9389760713213136
10
-220.69691446785768
20
10.461080798433141
10
-220.79899060003046
20
10.974252168909311
10
-220.96717576168675
20
11.469709678322989
10
-221.19859225808099
20
11.938975911321329
10
-221.48928048879867
20
12.374021592552552
10
-221.8342666976186
20
12.767402969793354
10
-222.22764807485936
20
13.112389178613203
10
-222.66269375609056
20
13.403077409330969
10
-223.13195998908884
20
13.63449390572503
10
-223.62741749850244
20
13.802679067381327
10
-224.14058886897874
20
13.904755199554206
10
-224.66269359609046
20
13.938975751321344
10
-226.66269343609054
20
13.938975751321344
10
-227.18479816320234
20
13.904755199554206
10
-227.69796953367853
20
13.802679067381327
10
-228.19342704309219
20
13.63449390572503
10
-228.66269327609049
20
13.403077409330969
10
-229.09773895732184
20
13.112389178613199
10
-229.49112033456271
20
12.767402969793354
10
-229.83610654338241
20
12.374021592552548
10
-230.12679477410018
20
11.938975911321329
10
-230.35821127049431
20
11.469709678322985
10
-230.52639643215056
20
10.97425216890931
10
-230.62847256432343
20
10.461080798433143
10
-230.66269311609051
20
9.9389760713213153
10
-230.66269311609051
20
-13.061022088678829
10
-230.62847256432343
20
-13.583126815790665
10
-230.52639643215056
20
-14.096298186266834
10
-230.35821127049431
20
-14.591755695680501
10
-230.12679477410018
20
-15.061021928678834
10
-229.83610654338241
20
-15.496067609910069
10
-229.49112033456262
20
-15.889448987150882
10
-229.09773895732184
20
-16.234435195970725
10
-228.66269327609049
20
-16.525123426688474
0
CIRCLE
5
132
100
AcDbEntity
8
0
100
AcDbCircle
10
-43.620974387170925
20
23.470816092696083
30
0
40
1.9999999999999918
0
CIRCLE
5
133
100
AcDbEntity
8
0
100
AcDbCircle
10
-213.6209743871708
20
7.4708160926934912
30
0
40
1.9999999999999918
0
LWPOLYLINE
5
134
100
AcDbEntity
8
0
100
AcDbPolyline
90
24
70
1
43
0.0
10
-37.425118521859353
20
136.17655602554987
10
-37.052326345546767
20
135.89050252775817
10
-36.618200661461245
20
135.71068178163583
10
-36.152326417546561
20
135.64934827386313
10
-35.68645217363202
20
135.71068178163648
10
-35.252326489546746
20
135.89050252775939
10
-34.879534313234515
20
136.17655602555158
10
-34.593480815442852
20
136.54934820186418
10
-34.413660069320471
20
136.98347388594979
10
-34.352326561547819
20
137.4493481298644
10
-34.413660069321111
20
137.91522237377887
10
-34.593480815444096
20
138.3493480578642
10
-34.879534313236292
20
138.72214023417652
10
-35.252326489548878
20
139.00819373196813
10
-35.6864521736344
20
139.18801447809051
10
-36.152326417549084
20
139.24934798586318
10
-36.618200661463625
20
139.18801447808991
10
-37.052326345548899
20
139.00819373196691
10
-37.425118521861094
20
138.72214023417467
10
-37.711172019652793
20
138.3493480578621
10
-37.890992765775138
20
137.9152223737766
10
-37.952326273547826
20
137.4493481298619
10
-37.890992765774534
20
136.98347388594738
10
-37.711172019651549
20
136.5493482018621
0
LWPOLYLINE
5
135
100
AcDbEntity
8
0
100
AcDbPolyline
90
24
70
1
43
0.0
10
-243.42930688459674
20
-71.104232887244919
10
-243.60426172292443
20
-70.668123480255701
10
-243.88612853997657
20
-70.292155785149248
10
-244.25569857797794
20
-70.001951379031183
10
-244.68778624958216
20
-69.817287212592788
10
-245.15294549402799
20
-69.750747843604998
10
-245.61947647751848
20
-69.806867820102809
10
-246.05558588450774
20
-69.981822658430559
10
-246.43155357961427
20
-70.263689475482664
10
-246.72175798573232
20
-70.63325951348412
10
-246.90642215217076
20
-71.065347185088328
10
-246.9729615211584
20
-71.530506429534185
10
-246.9168415446606
20
-71.997037413024714
10
-246.74188670633293
20
-72.433146820013889
10
-246.46001988928077
20
-72.809114515120285
10
-246.09044985127946
20
-73.099318921238435
10
-245.65836217967527
20
-73.283983087676802
10
-245.19320293522935
20
-73.350522456664621
10
-244.72667195173872
20
-73.294402480166781
10
-244.29056254474955
20
-73.119447641839059
10
-243.91459484964312
20
-72.837580824786926
10
-243.62439044352496
20
-72.468010786785513
10
-243.43972627708661
20
-72.035923115181276
10
-243.37318690809877
20
-71.570763870735419
0
CIRCLE
5
136
100
AcDbEntity
8
0
100
AcDbCircle
10
-237.62097438717163
20
77.470816092692985
30
0
40
1.9999999999999918
0
CIRCLE
5
137
100
AcDbEntity
8
0
100
AcDbCircle
10
-237.62097438717075
20
7.4708160926931209
30
0
40
1.9999999999999918
0
LWPOLYLINE
5
138
100
AcDbEntity
8
0
100
AcDbPolyline
90
4
70
1
43
0.0
10
-112.59234901734635
20
-2.0610229686787167
10
-168.66269807609015
20
-2.0610229686787607
10
-208.66269487609031
20
-42.061019768679003
10
-72.592352217346132
20
-42.06101976867896
0
LWPOLYLINE
5
139
100
AcDbEntity
8
0
100
AcDbPolyline
90
25
70
1
43
0.0
10
-245.63894845854318
20
135.71068178163938
10
-245.17307421462874
20
135.64934827386642
10
-244.70719997071402
20
135.71068178163938
10
-244.27307428662871
20
135.8905025277621
10
-243.90028211031623
20
136.17655602555399
10
-243.61422861252433
20
136.54934820186637
10
-243.43440786640159
20
136.98347388595178
10
-243.37307435862868
20
137.44934812986639
10
-243.43440786640159
20
137.91522237378101
10
-243.61422861252433
20
138.34934805786648
10
-243.90028211031634
20
138.72214023417888
10
-244.27307428662871
20
139.00819373197072
10
-244.70719997071413
20
139.18801447809341
10
-245.17307421462874
20
139.24934798586639
10
-245.5923383773472
20
139.18896573132213
10
-245.63894845854333
20
139.18801447809341
10
-246.07307414262874
20
139.00819373197072
10
-246.44586631894114
20
138.7221402341788
10
-246.73191981673295
20
138.34934805786648
10
-246.91174056285564
20
137.91522237378101
10
-246.97307407062874
20
137.44934812986639
10
-246.91174056285564
20
136.98347388595178
10
-246.73191981673295
20
136.54934820186637
10
-246.44586631894103
20
136.17655602555399
10
-246.07307414262863
20
135.8905025277621
0
LWPOLYLINE
5
140
100
AcDbEntity
8
0
100
AcDbPolyline
90
8
70
1
43
0.0
10
-220.66269391609055
20
27.938974631321429
10
-200.66269551609037
20
7.9389762313213001
10
-180.66269711609021
20
7.9389762313213037
10
-160.66269871609001
20
27.938974631321408
10
-160.66269871609001
20
37.938973831321505
10
-180.66269711609021
20
57.938972231321586
10
-200.66269551609037
20
57.938972231321586
10
-220.66269391609055
20
37.938973831321505
0
CIRCLE
5
141
100
AcDbEntity
8
0
100
AcDbCircle
10
-213.62097438717043
20
-10.52918390730648
30
0
40
1.9999999999999918
0
LWPOLYLINE
5
142
100
AcDbEntity
8
0
100
AcDbPolyline
90
52
70
1
43
0.0
10
-59.49113393456151
20
17.97342469674205
10
-59.09775255732071
20
17.628438487922164
10
-58.662706876089487
20
17.337750257204412
10
-58.193440643091165
20
17.106333760810351
10
-57.697983133677539
20
16.93814859915404
10
-57.184811763201282
20
16.836072466981175
10
-56.662707036089479
20
16.801851915214023
10
-54.662707196089464
20
16.801851915214023
10
-54.140602468977654
20
16.836072466981175
10
-53.627431098501539
20
16.938148599154037
10
-53.131973589087842
20
17.106333760810351
10
-52.662707356089449
20
17.337750257204412
10
-52.22766167485824
20
17.628438487922164
10
-51.834280297617426
20
17.97342469674205
10
-51.489294088797593
20
18.366806073982829
10
-51.198605858079844
20
18.801851755214074
10
-50.967189361685783
20
19.271117988212374
10
-50.799004200029465
20
19.766575497626036
10
-50.696928067856604
20
20.279746868102222
10
-50.662707516089434
20
20.801851595214082
10
-50.662707516089434
20
43.801849755214192
10
-50.696928067856604
20
44.323954482326002
10
-50.799004200029465
20
44.837125852802174
10
-50.967189361685783
20
45.332583362215829
10
-51.198605858079844
20
45.801849595214193
10
-51.489294088797593
20
46.236895276445431
10
-51.834280297617426
20
46.630276653686224
10
-52.22766167485824
20
46.975262862506042
10
-52.662707356089449
20
47.265951093223805
10
-53.131973589087842
20
47.497367589617909
10
-53.627431098501539
20
47.665552751274227
10
-54.140602468977654
20
47.767628883447088
10
-54.662707196089457
20
47.801849435214223
10
-56.662707036089472
20
47.80184943521418
10
-57.184811763201282
20
47.767628883447088
10
-57.697983133677539
20
47.665552751274227
10
-58.193440643091165
20
47.497367589617909
10
-58.662706876089487
20
47.265951093223805
10
-59.09775255732071
20
46.975262862506042
10
-59.49113393456151
20
46.630276653686224
10
-59.836120143381343
20
46.236895276445431
10
-60.126808374099092
20
45.801849595214193
10
-60.35822487049326
20
45.332583362215829
10
-60.526410032149585
20
44.837125852802174
10
-60.628486164322439
20
44.323954482326002
10
-60.662706716089509
20
43.801849755214192
10
-60.662706716089509
20
20.801851595214089
10
-60.628486164322439
20
20.279746868102222
10
-60.526410032149585
20
19.766575497626039
10
-60.35822487049326
20
19.271117988212378
10
-60.126808374099092
20
18.801851755214074
10
-59.836120143381343
20
18.366806073982829
0
LWPOLYLINE
5
143
100
AcDbEntity
8
0
100
AcDbPolyline
90
24
70
1
43
0.0
10
-36.618200661459468
20
-69.832733318991785
10
-37.052326345545097
20
-70.012554065113932
10
-37.425118521857861
20
-70.298607562905374
10
-37.711172019650235
20
-70.671399739217435
10
-37.890992765773468
20
-71.105525423302623
10
-37.952326273547008
20
-71.571399667217179
10
-37.890992765774605
20
-72.03727391113182
10
-37.711172019652473
20
-72.471399595217491
10
-37.425118521861023
20
-72.844191771530234
10
-37.052326345548934
20
-73.130245269322629
10
-36.618200661463767
20
-73.310066015445813
10
-36.152326417549226
20
-73.371399523219395
10
-35.686452173634578
20
-73.310066015446949
10
-35.252326489548913
20
-73.130245269324831
10
-34.87953431323615
20
-72.844191771533346
10
-34.593480815443776
20
-72.471399595221314
10
-34.413660069320542
20
-72.037273911136126
10
-34.352326561547002
20
-71.571399667221584
10
-34.413660069319405
20
-71.105525423306929
10
-34.593480815441538
20
-70.671399739221272
10
-34.879534313232988
20
-70.298607562908543
10
-35.252326489545077
20
-70.012554065116134
10
-35.686452173630279
20
-69.832733318992936
10
-36.152326417544785
20
-69.771399811219339
0
LWPOLYLINE
5
144
100
AcDbEntity
8
0
100
AcDbPolyline
90
4
70
1
43
0.0
10
-112.6627025560899
20
67.93897143132169
10
-72.662705756089593
20
107.93896823132188
10
-208.66269487609031
20
107.93896823132189
10
-168.66269807609015
20
67.93897143132169
0
LWPOLYLINE
5
145
100
AcDbEntity
8
0
100
AcDbPolyline
90
8
70
1
43
0.0
10
-120.6627019160899
20
27.938974631321429
10
-100.66270351608981
20
7.9389762313213001
10
-90.662704316089687
20
7.9389762313213001
10
-70.662705916089607
20
27.938974631321404
10
-70.662705916089593
20
37.938973831321505
10
-90.662704316089673
20
57.938972231321593
10
-100.66270351608981
20
57.938972231321586
10
-120.6627019160899
20
37.938973831321505
0
CIRCLE
5
146
100
AcDbEntity
8
0
100
AcDbCircle
10
-237.62097438717046
20
-10.529183907306845
30
0
40
1.9999999999999918
0
CIRCLE
5
147
100
AcDbEntity
8
0
100
AcDbCircle
10
-43.620974387171174
20
41.470816092696019
30
0
40
1.9999999999999918
0
CIRCLE
5
148
100
AcDbEntity
8
0
100
AcDbCircle
10
-67.620974387170932
20
23.470816092695699
30
0
40
2.0000000000000009
0
LWPOLYLINE
5
149
100
AcDbEntity
8
0
100
AcDbPolyline
90
36
70
1
43
0.0
10
-250.66269151609066
20
135.93896599132199
10
-250.66269151609075
20
139.93896567132214
10
-247.66269175609068
20
142.93896543132212
10
-243.66269207609068
20
142.93896543132209
10
-218.6626940760905
20
117.938967431322
10
-62.662706556089482
20
117.93896743132201
10
-37.662708556089342
20
142.93896543132212
10
-33.662708876089347
20
142.93896543132212
10
-30.66270911608936
20
139.93896567132214
10
-30.662709116089367
20
135.93896599132199
10
-70.662705916089607
20
95.938969191321831
10
-70.662705916089607
20
75.938970791321722
10
-40.662708316089429
20
45.938973191321537
10
-40.662708316089436
20
19.938975271321382
10
-70.662705916089607
20
-10.061022328678828
10
-70.662705916089607
20
-30.061020728678905
10
-30.66270911608936
20
-70.061017528679159
10
-30.66270911608936
20
-74.061017208679175
10
-33.662708876089347
20
-77.061016968679169
10
-37.662708556089342
20
-77.061016968679198
10
-62.662706556089503
20
-52.061018968679079
10
-218.6626940760905
20
-52.061018968679065
10
-243.66269207609065
20
-77.061016968679169
10
-247.66269175609065
20
-77.061016968679183
10
-250.66269151609066
20
-74.061017208679175
10
-250.66269151609066
20
-70.061017528679159
10
-230.66269311609051
20
-50.06101912867905
10
-230.66269311609051
20
-30.061020728678916
10
-240.6626923160907
20
-20.061021528678864
10
-240.6626923160907
20
17.938975431321374
10
-230.66269311609051
20
27.938974631321408
10
-230.66269311609051
20
37.938973831321498
10
-240.6626923160907
20
47.938973031321538
10
-240.6626923160907
20
85.938969991321713
10
-230.66269311609051
20
95.93896919132186
10
-230.66269311609051
20
115.93896759132193
0
CIRCLE
5
150
100
AcDbEntity
8
0
100
AcDbCircle
10
-120.07653095934045
20
90.340398730850978
30
0
40
1.9999999999999982
0
CIRCLE
5
151
100
AcDbEntity
8
0
100
AcDbCircle
10
-161.0563239630722
20
90.340398730851007
30
0
40
1.9999999999999982
0
LWPOLYLINE
5
152
100
AcDbEntity
8
0
100
AcDbPolyline
90
7
70
1
43
0.0
10
-115.10196751225803
20
94.073589079614592
10
-115.10196751225806
20
80.340141112594637
10
-166.05814176466527
20
80.34014111259475
10
-166.05814176466524
20
93.840141112594694
10
-166.24891041209366
20
100.34014111259467
10
-115.09789681867447
20
100.34014111259455
10
-115.09789681867451
20
94.073589079614607
0
CIRCLE
5
153
100
AcDbEntity
8
0
100
AcDbCircle
10
-35.604709941839729
20
-40.175435211493607
30
0
40
1.9999999999999991
0
CIRCLE
5
154
100
AcDbEntity
8
0
100
AcDbCircle
10
-35.604709941839786
20
0.80435779223818393
30
0
40
1.9999999999999991
0
LWPOLYLINE
5
155
100
AcDbEntity
8
0
100
AcDbPolyline
90
7
70
1
43
0.0
10
-31.871519593076066
20
-45.149998658576003
10
-45.604967560096043
20
-45.149998658576003
10
-45.604967560096057
20
5.8061755938312309
10
-32.104967560096085
20
5.8061755938312309
10
-25.60496756009611
20
5.9969442412596674
10
-25.604967560096121
20
-45.154069352159553
10
-31.871519593076076
20
-45.154069352159539
0
CIRCLE
5
156
100
AcDbEntity
8
0
100
AcDbCircle
10
-35.504709941840389
20
68.974564788506356
30
0
40
2
0
CIRCLE
5
157
100
AcDbEntity
8
0
100
AcDbCircle
10
-35.50470994184046
20
109.95435779223804
30
0
40
2
0
LWPOLYLINE
5
158
100
AcDbEntity
8
0
100
AcDbPolyline
90
7
70
1
43
0.0
10
-31.771519593076718
20
64.000001341423967
10
-45.504967560096787
20
64.000001341423967
10
-45.504967560096787
20
114.95617559383109
10
-32.004967560096773
20
114.95617559383109
10
-25.504967560096752
20
115.14694424125952
10
-25.504967560096752
20
63.995930647840424
10
-31.771519593076718
20
63.995930647840432
0
CIRCLE
5
159
100
AcDbEntity
8
0
100
AcDbCircle
10
-120.07653095934043
20
-19.659601269148954
30
0
40
2.0000000000000009
0
CIRCLE
5
160
100
AcDbEntity
8
0
100
AcDbCircle
10
-161.05632396307229
20
-19.659601269149007
30
0
40
2.0000000000000009
0
LWPOLYLINE
5
161
100
AcDbEntity
8
0
100
AcDbPolyline
90
7
70
1
43
0.0
10
-115.10196751225803
20
-15.926410920385297
10
-115.10196751225803
20
-29.659858887405299
10
-166.05814176466532
20
-29.659858887405303
10
-166.05814176466532
20
-16.159858887405324
10
-166.24891041209378
20
-9.6598588874053384
10
-115.09789681867449
20
-9.6598588874053313
10
-115.09789681867447
20
-15.926410920385301
0
CIRCLE
5
162
100
AcDbEntity
8
0
100
AcDbCircle
10
-216.12054388418449
20
-69.647256228994493
30
0
40
1.9999999999999962
0
CIRCLE
5
163
100
AcDbEntity
8
0
100
AcDbCircle
10
-175.14075088045277
20
-69.64725622899411
30
0
40
1.9999999999999962
0
LWPOLYLINE
5
164
100
AcDbEntity
8
0
100
AcDbPolyline
90
7
70
1
43
0.0
10
-221.09510733126686
20
-73.380446577758207
10
-221.09510733126697
20
-59.646998610738237
10
-170.13893307885982
20
-59.646998610737818
10
-170.13893307885974
20
-73.146998610737768
10
-169.94816443143122
20
-79.646998610737739
10
-221.0991780248504
20
-79.646998610738152
10
-221.0991780248504
20
-73.380446577758192
0
CIRCLE
5
165
100
AcDbEntity
8
0
100
AcDbCircle
10
-161.12054388418443
20
-69.647256228995019
30
0
40
2.0000000000000009
0
CIRCLE
5
166
100
AcDbEntity
8
0
100
AcDbCircle
10
-120.14075088045259
20
-69.647256228994721
30
0
40
2.0000000000000009
0
LWPOLYLINE
5
167
100
AcDbEntity
8
0
100
AcDbPolyline
90
7
70
1
43
0.0
10
-166.0951073312668
20
-73.380446577758718
10
-166.09510733126686
20
-59.646998610738748
10
-115.13893307885959
20
-59.646998610738422
10
-115.13893307885949
20
-73.146998610738379
10
-114.94816443143105
20
-79.646998610738365
10
-166.09917802485029
20
-79.646998610738663
10
-166.09917802485032
20
-73.380446577758704
0
CIRCLE
5
168
100
AcDbEntity
8
0
100
AcDbCircle
10
-106.12054388418423
20
-69.647256228993882
30
0
40
1.9999999999999993
0
CIRCLE
5
169
100
AcDbEntity
8
0
100
AcDbCircle
10
-65.14075088045243
20
-69.647256228994436
30
0
40
1.9999999999999993
0
LWPOLYLINE
5
170
100
AcDbEntity
8
0
100
AcDbPolyline
90
7
70
1
43
0.0
10
-111.09510733126668
20
-73.380446577757453
10
-111.09510733126648
20
-59.646998610737469
10
-60.138933078859239
20
-59.646998610738237
10
-60.138933078859431
20
-73.146998610738194
10
-59.94816443143111
20
-79.646998610738166
10
-111.0991780248503
20
-79.646998610737413
10
-111.09917802485022
20
-73.380446577757453
0
ENDSEC
0
SECTION
2
OBJECTS
0
DICTIONARY
5
C
100
AcDbDictionary
3
ACAD_GROUP
350
D
3
ACAD_MLINESTYLE
350
17
0
DICTIONARY
5
D
100
AcDbDictionary
0
DICTIONARY
5
1A
330
C
100
AcDbDictionary
0
DICTIONARY
5
17
100
AcDbDictionary
0
ENDSEC
0
EOF
