  0
SECTION
  2
HEADER
  9
$ACADVER
  1
AC1015
  9
$ACADMAINTVER
 70
     6
  9
$DWGCODEPAGE
  3
ANSI_1252
  9
$INSBASE
 10
0.0
 20
0.0
 30
0.0
  9
$EXTMIN
 10
-76.0
 20
-75.9896817621
 30
0.0
  9
$EXTMAX
 10
76.0
 20
75.9896817621
 30
0.0
  9
$LIMMIN
 10
0.0
 20
0.0
  9
$LIMMAX
 10
420.0
 20
297.0
  9
$ORTHOMODE
 70
     0
  9
$REGENMODE
 70
     1
  9
$FILLMODE
 70
     1
  9
$QTEXTMODE
 70
     0
  9
$MIRRTEXT
 70
     1
  9
$LTSCALE
 40
1.0
  9
$ATTMODE
 70
     1
  9
$TEXTSIZE
 40
6.35
  9
$TRACEWID
 40
1.0
  9
$TEXTSTYLE
  7
Standard
  9
$CLAYER
  8
0
  9
$CELTYPE
  6
ByLayer
  9
$CECOLOR
 62
   256
  9
$CELTSCALE
 40
1.0
  9
$DISPSILH
 70
     0
  9
$DIMSCALE
 40
1.0
  9
$DIMASZ
 40
6.0
  9
$DIMEXO
 40
1.0
  9
$DIMDLI
 40
3.75
  9
$DIMRND
 40
0.0
  9
$DIMDLE
 40
0.0
  9
$DIMEXE
 40
1.0
  9
$DIMTP
 40
0.0
  9
$DIMTM
 40
0.0
  9
$DIMTXT
 40
6.35
  9
$DIMCEN
 40
2.5
  9
$DIMTSZ
 40
0.0
  9
$DIMTOL
 70
     0
  9
$DIMLIM
 70
     0
  9
$DIMTIH
 70
     1
  9
$DIMTOH
 70
     1
  9
$DIMSE1
 70
     0
  9
$DIMSE2
 70
     0
  9
$DIMTAD
 70
     1
  9
$DIMZIN
 70
     0
  9
$DIMBLK
  1

  9
$DIMASO
 70
     1
  9
$DIMSHO
 70
     1
  9
$DIMPOST
  1

  9
$DIMAPOST
  1

  9
$DIMALT
 70
     0
  9
$DIMALTD
 70
     3
  9
$DIMALTF
 40
0.0393700787
  9
$DIMLFAC
 40
1.0
  9
$DIMTOFL
 70
     1
  9
$DIMTVP
 40
0.0
  9
$DIMTIX
 70
     0
  9
$DIMSOXD
 70
     0
  9
$DIMSAH
 70
     0
  9
$DIMBLK1
  1

  9
$DIMBLK2
  1

  9
$DIMSTYLE
  2
ISO-25
  9
$DIMCLRD
 70
     0
  9
$DIMCLRE
 70
     0
  9
$DIMCLRT
 70
     0
  9
$DIMTFAC
 40
1.0
  9
$DIMGAP
 40
1.524
  9
$DIMJUST
 70
     0
  9
$DIMSD1
 70
     0
  9
$DIMSD2
 70
     0
  9
$DIMTOLJ
 70
     0
  9
$DIMTZIN
 70
     0
  9
$DIMALTZ
 70
     0
  9
$DIMALTTZ
 70
     0
  9
$DIMUPT
 70
     0
  9
$DIMDEC
 70
     3
  9
$DIMTDEC
 70
     2
  9
$DIMALTU
 70
     2
  9
$DIMALTTD
 70
     3
  9
$DIMTXSTY
  7
Standard
  9
$DIMAUNIT
 70
     0
  9
$DIMADEC
 70
     3
  9
$DIMALTRND
 40
0.0
  9
$DIMAZIN
 70
     0
  9
$DIMDSEP
 70
    44
  9
$DIMATFIT
 70
     3
  9
$DIMFRAC
 70
     0
  9
$DIMLDRBLK
  1

  9
$DIMLUNIT
 70
     2
  9
$DIMLWD
 70
    -2
  9
$DIMLWE
 70
    -2
  9
$DIMTMOVE
 70
     0
  9
$LUNITS
 70
     2
  9
$LUPREC
 70
     3
  9
$SKETCHINC
 40
1.0
  9
$FILLETRAD
 40
10.0
  9
$AUNITS
 70
     0
  9
$AUPREC
 70
     3
  9
$MENU
  1
.
  9
$ELEVATION
 40
0.0
  9
$PELEVATION
 40
0.0
  9
$THICKNESS
 40
0.0
  9
$LIMCHECK
 70
     0
  9
$CHAMFERA
 40
0.0
  9
$CHAMFERB
 40
0.0
  9
$CHAMFERC
 40
0.0
  9
$CHAMFERD
 40
0.0
  9
$SKPOLY
 70
     0
  9
$TDCREATE
 40
2458817.475383009
  9
$TDUCREATE
 40
2458817.433716343
  9
$TDUPDATE
 40
2458817.475420231
  9
$TDUUPDATE
 40
2458817.433753565
  9
$TDINDWG
 40
0.0000000116
  9
$TDUSRTIMER
 40
0.0000000116
  9
$USRTIMER
 70
     1
  9
$ANGBASE
 50
0.0
  9
$ANGDIR
 70
     0
  9
$PDMODE
 70
     0
  9
$PDSIZE
 40
-1.0
  9
$PLINEWID
 40
0.0
  9
$SPLFRAME
 70
     0
  9
$SPLINETYPE
 70
     6
  9
$SPLINESEGS
 70
     8
  9
$HANDSEED
  5
2D8
  9
$SURFTAB1
 70
     6
  9
$SURFTAB2
 70
     6
  9
$SURFTYPE
 70
     6
  9
$SURFU
 70
     6
  9
$SURFV
 70
     6
  9
$UCSBASE
  2

  9
$UCSNAME
  2

  9
$UCSORG
 10
0.0
 20
0.0
 30
0.0
  9
$UCSXDIR
 10
1.0
 20
0.0
 30
0.0
  9
$UCSYDIR
 10
0.0
 20
1.0
 30
0.0
  9
$UCSORTHOREF
  2

  9
$UCSORTHOVIEW
 70
     0
  9
$UCSORGTOP
 10
0.0
 20
0.0
 30
0.0
  9
$UCSORGBOTTOM
 10
0.0
 20
0.0
 30
0.0
  9
$UCSORGLEFT
 10
0.0
 20
0.0
 30
0.0
  9
$UCSORGRIGHT
 10
0.0
 20
0.0
 30
0.0
  9
$UCSORGFRONT
 10
0.0
 20
0.0
 30
0.0
  9
$UCSORGBACK
 10
0.0
 20
0.0
 30
0.0
  9
$PUCSBASE
  2

  9
$PUCSNAME
  2

  9
$PUCSORG
 10
0.0
 20
0.0
 30
0.0
  9
$PUCSXDIR
 10
1.0
 20
0.0
 30
0.0
  9
$PUCSYDIR
 10
0.0
 20
1.0
 30
0.0
  9
$PUCSORTHOREF
  2

  9
$PUCSORTHOVIEW
 70
     0
  9
$PUCSORGTOP
 10
0.0
 20
0.0
 30
0.0
  9
$PUCSORGBOTTOM
 10
0.0
 20
0.0
 30
0.0
  9
$PUCSORGLEFT
 10
0.0
 20
0.0
 30
0.0
  9
$PUCSORGRIGHT
 10
0.0
 20
0.0
 30
0.0
  9
$PUCSORGFRONT
 10
0.0
 20
0.0
 30
0.0
  9
$PUCSORGBACK
 10
0.0
 20
0.0
 30
0.0
  9
$USERI1
 70
     0
  9
$USERI2
 70
     0
  9
$USERI3
 70
     0
  9
$USERI4
 70
     0
  9
$USERI5
 70
     0
  9
$USERR1
 40
0.0
  9
$USERR2
 40
0.0
  9
$USERR3
 40
0.0
  9
$USERR4
 40
0.0
  9
$USERR5
 40
0.0
  9
$WORLDVIEW
 70
     1
  9
$SHADEDGE
 70
     3
  9
$SHADEDIF
 70
    70
  9
$TILEMODE
 70
     1
  9
$MAXACTVP
 70
    64
  9
$PINSBASE
 10
0.0
 20
0.0
 30
0.0
  9
$PLIMCHECK
 70
     0
  9
$PEXTMIN
 10
1.0000000000E+20
 20
1.0000000000E+20
 30
1.0000000000E+20
  9
$PEXTMAX
 10
-1.0000000000E+20
 20
-1.0000000000E+20
 30
-1.0000000000E+20
  9
$PLIMMIN
 10
0.0
 20
0.0
  9
$PLIMMAX
 10
420.0
 20
297.0
  9
$UNITMODE
 70
     0
  9
$VISRETAIN
 70
     1
  9
$PLINEGEN
 70
     0
  9
$PSLTSCALE
 70
     1
  9
$TREEDEPTH
 70
  3020
  9
$CMLSTYLE
  2
Standard
  9
$CMLJUST
 70
     0
  9
$CMLSCALE
 40
20.0
  9
$PROXYGRAPHICS
 70
     1
  9
$MEASUREMENT
 70
     1
  9
$CELWEIGHT
370
    -1
  9
$ENDCAPS
280
     0
  9
$JOINSTYLE
280
     0
  9
$LWDISPLAY
290
     1
  9
$INSUNITS
 70
     4
  9
$HYPERLINKBASE
  1

  9
$STYLESHEET
  1

  9
$XEDIT
290
     1
  9
$CEPSNTYPE
380
     0
  9
$PSTYLEMODE
290
     1
  9
$FINGERPRINTGUID
  2
{2CCAB11C-1918-420E-A5A8-ACD3919DF191}
  9
$VERSIONGUID
  2
{FAEB1C32-E019-11D5-929B-00C0DF256EC4}
  9
$EXTNAMES
290
     1
  9
$PSVPSCALE
 40
0.0
  9
$OLESTARTUP
290
     0
  0
ENDSEC
  0
SECTION
  2
CLASSES
  0
CLASS
  1
ACDBDICTIONARYWDFLT
  2
AcDbDictionaryWithDefault
  3
ObjectDBX Classes
 90
        0
280
     0
281
     0
  0
CLASS
  1
VISUALSTYLE
  2
AcDbVisualStyle
  3
ObjectDBX Classes
 90
     4095
280
     0
281
     0
  0
CLASS
  1
MATERIAL
  2
AcDbMaterial
  3
ObjectDBX Classes
 90
     1153
280
     0
281
     0
  0
CLASS
  1
SCALE
  2
AcDbScale
  3
ObjectDBX Classes
 90
     1153
280
     0
281
     0
  0
CLASS
  1
TABLESTYLE
  2
AcDbTableStyle
  3
ObjectDBX Classes
 90
     4095
280
     0
281
     0
  0
CLASS
  1
MLEADERSTYLE
  2
AcDbMLeaderStyle
  3
ACDB_MLEADERSTYLE_CLASS
 90
     4095
280
     0
281
     0
  0
CLASS
  1
SUN
  2
AcDbSun
  3
SCENEOE
 90
     1153
280
     0
281
     0
  0
CLASS
  1
ACDBPLACEHOLDER
  2
AcDbPlaceHolder
  3
ObjectDBX Classes
 90
        0
280
     0
281
     0
  0
CLASS
  1
LAYOUT
  2
AcDbLayout
  3
ObjectDBX Classes
 90
        0
280
     0
281
     0
  0
ENDSEC
  0
SECTION
  2
TABLES
  0
TABLE
  2
VPORT
  5
8
330
0
100
AcDbSymbolTable
 70
     1
  0
VPORT
  5
29
330
8
100
AcDbSymbolTableRecord
100
AcDbViewportTableRecord
  2
*Active
 70
     0
 10
0.0
 20
0.0
 11
1.0
 21
1.0
 12
0.0
 22
0.0
 13
0.0
 23
0.0
 14
10.0
 24
10.0
 15
10.0
 25
10.0
 16
0.0
 26
0.0
 36
1.0
 17
0.0
 27
0.0
 37
0.0
 40
155.0189507946
 41
1.0001357847
 42
50.0
 43
0.0
 44
0.0
 50
0.0
 51
0.0
 71
     0
 72
   100
 73
     1
 74
     3
 75
     0
 76
     0
 77
     0
 78
     0
281
     0
 65
     1
110
0.0
120
0.0
130
0.0
111
1.0
121
0.0
131
0.0
112
0.0
122
1.0
132
0.0
 79
     0
146
0.0
  0
ENDTAB
  0
TABLE
  2
LTYPE
  5
5
330
0
100
AcDbSymbolTable
 70
     6
  0
LTYPE
  5
14
330
5
100
AcDbSymbolTableRecord
100
AcDbLinetypeTableRecord
  2
ByBlock
 70
     0
  3

 72
    65
 73
     0
 40
0.0
  0
LTYPE
  5
15
330
5
100
AcDbSymbolTableRecord
100
AcDbLinetypeTableRecord
  2
ByLayer
 70
     0
  3

 72
    65
 73
     0
 40
0.0
  0
LTYPE
  5
16
330
5
100
AcDbSymbolTableRecord
100
AcDbLinetypeTableRecord
  2
Continuous
 70
     0
  3
Solid line
 72
    65
 73
     0
 40
0.0
  0
LTYPE
  5
6E
330
5
100
AcDbSymbolTableRecord
100
AcDbLinetypeTableRecord
  2
HIDDEN
 70
     0
  3
Hidden __ __ __ __ __ __ __ __ __ __ __ __ __ __
 72
    65
 73
     2
 40
1.905
 49
1.27
 74
     0
 49
-0.635
 74
     0
  0
LTYPE
  5
6F
330
5
100
AcDbSymbolTableRecord
100
AcDbLinetypeTableRecord
  2
PHANTOM
 70
     0
  3
Phantom ______  __  __  ______  __  __  ______
 72
    65
 73
     6
 40
12.7
 49
6.35
 74
     0
 49
-1.27
 74
     0
 49
1.27
 74
     0
 49
-1.27
 74
     0
 49
1.27
 74
     0
 49
-1.27
 74
     0
  0
LTYPE
  5
70
330
5
100
AcDbSymbolTableRecord
100
AcDbLinetypeTableRecord
  2
CENTER
 70
     0
  3
Center ____ _ ____ _ ____ _ ____ _ ____ _ ____
 72
    65
 73
     4
 40
10.16
 49
6.35
 74
     0
 49
-1.27
 74
     0
 49
1.27
 74
     0
 49
-1.27
 74
     0
  0
LTYPE
  5
71
330
5
100
AcDbSymbolTableRecord
100
AcDbLinetypeTableRecord
  2
CENTERX2
 70
     0
  3
Center (2x) ________  __  ________  __  _____
 72
    65
 73
     4
 40
20.32
 49
12.7
 74
     0
 49
-2.54
 74
     0
 49
2.54
 74
     0
 49
-2.54
 74
     0
  0
LTYPE
  5
72
330
5
100
AcDbSymbolTableRecord
100
AcDbLinetypeTableRecord
  2
DOT2
 70
     0
  3
Dot (.5x) ........................................
 72
    65
 73
     2
 40
0.635
 49
0.0
 74
     0
 49
-0.635
 74
     0
  0
ENDTAB
  0
TABLE
  2
LAYER
  5
2
330
0
100
AcDbSymbolTable
 70
     1
  0
LAYER
  5
10
330
2
100
AcDbSymbolTableRecord
100
AcDbLayerTableRecord
  2
0
 70
     0
 62
     7
  6
Continuous
370
    -3
390
F
  0
ENDTAB
  0
TABLE
  2
STYLE
  5
3
330
0
100
AcDbSymbolTable
 70
     2
  0
STYLE
  5
11
330
3
100
AcDbSymbolTableRecord
100
AcDbTextStyleTableRecord
  2
Standard
 70
     0
 40
0.0
 41
1.0
 50
0.0
 71
     0
 42
6.35
  3
txt
  4

  0
STYLE
  5
2D6
330
3
100
AcDbSymbolTableRecord
100
AcDbTextStyleTableRecord
  2
SLDTEXTSTYLE0
 70
     0
 40
0.0
 41
0.7
 50
0.0
 71
     0
 42
6.35
  3
TXT
  4
bigfont
  0
ENDTAB
  0
TABLE
  2
VIEW
  5
6
330
0
100
AcDbSymbolTable
 70
     0
  0
ENDTAB
  0
TABLE
  2
UCS
  5
7
330
0
100
AcDbSymbolTable
 70
     0
  0
ENDTAB
  0
TABLE
  2
APPID
  5
9
330
0
100
AcDbSymbolTable
 70
     1
  0
APPID
  5
12
330
9
100
AcDbSymbolTableRecord
100
AcDbRegAppTableRecord
  2
ACAD
 70
     0
  0
ENDTAB
  0
TABLE
  2
DIMSTYLE
  5
A
330
0
100
AcDbSymbolTable
 70
     1
100
AcDbDimStyleTable
  0
DIMSTYLE
105
27
330
A
100
AcDbSymbolTableRecord
100
AcDbDimStyleTableRecord
  2
ISO-25
 70
     0
 41
2.5
 42
0.625
 43
3.75
 44
1.25
 73
     0
 74
     0
 77
     1
 78
     8
140
2.5
141
2.5
143
0.0393700787
147
0.625
171
     3
172
     1
178
     0
271
     2
272
     2
274
     3
278
    44
283
     0
284
     8
340
11
  0
ENDTAB
  0
TABLE
  2
BLOCK_RECORD
  5
1
330
0
100
AcDbSymbolTable
 70
     1
  0
BLOCK_RECORD
  5
1F
330
1
100
AcDbSymbolTableRecord
100
AcDbBlockTableRecord
  2
*Model_Space
340
22
  0
BLOCK_RECORD
  5
1B
330
1
100
AcDbSymbolTableRecord
100
AcDbBlockTableRecord
  2
*Paper_Space
340
1E
  0
BLOCK_RECORD
  5
23
330
1
100
AcDbSymbolTableRecord
100
AcDbBlockTableRecord
  2
*Paper_Space0
340
26
  0
ENDTAB
  0
ENDSEC
  0
SECTION
  2
BLOCKS
  0
BLOCK
  5
20
330
1F
100
AcDbEntity
  8
0
100
AcDbBlockBegin
  2
*Model_Space
 70
     0
 10
0.0
 20
0.0
 30
0.0
  3
*Model_Space
  1

  0
ENDBLK
  5
21
330
1F
100
AcDbEntity
  8
0
100
AcDbBlockEnd
  0
BLOCK
  5
1C
330
1B
100
AcDbEntity
 67
     1
  8
0
100
AcDbBlockBegin
  2
*Paper_Space
 70
     0
 10
0.0
 20
0.0
 30
0.0
  3
*Paper_Space
  1

  0
ENDBLK
  5
1D
330
1B
100
AcDbEntity
 67
     1
  8
0
100
AcDbBlockEnd
  0
BLOCK
  5
24
330
23
100
AcDbEntity
  8
0
100
AcDbBlockBegin
  2
*Paper_Space0
 70
     0
 10
0.0
 20
0.0
 30
0.0
  3
*Paper_Space0
  1

  0
ENDBLK
  5
25
330
23
100
AcDbEntity
  8
0
100
AcDbBlockEnd
  0
ENDSEC
  0
SECTION
  2
ENTITIES
  0
CIRCLE
  5
73
330
1F
100
AcDbEntity
  8
0
  6
Continuous
 62
     7
370
    25
100
AcDbCircle
 10
-43.3012701892
 20
-25.0
 30
0.0
 40
3.000000000006452
  0
CIRCLE
  5
74
330
1F
100
AcDbEntity
  8
0
  6
Continuous
 62
     7
370
    25
100
AcDbCircle
 10
0.0
 20
50.0
 30
0.0
 40
3.000000000000001
  0
CIRCLE
  5
75
330
1F
100
AcDbEntity
  8
0
  6
Continuous
 62
     7
370
    25
100
AcDbCircle
 10
8.4437476869
 20
4.875
 30
0.0
 40
1.250000000000151
  0
CIRCLE
  5
76
330
1F
100
AcDbEntity
  8
0
  6
Continuous
 62
     7
370
    25
100
AcDbCircle
 10
8.4437476869
 20
-4.875
 30
0.0
 40
1.2500000000007
  0
CIRCLE
  5
77
330
1F
100
AcDbEntity
  8
0
  6
Continuous
 62
     7
370
    25
100
AcDbCircle
 10
0.0
 20
-9.75
 30
0.0
 40
1.250000000001124
  0
CIRCLE
  5
78
330
1F
100
AcDbEntity
  8
0
  6
Continuous
 62
     7
370
    25
100
AcDbCircle
 10
-8.4437476869
 20
-4.875
 30
0.0
 40
1.250000000001023
  0
CIRCLE
  5
79
330
1F
100
AcDbEntity
  8
0
  6
Continuous
 62
     7
370
    25
100
AcDbCircle
 10
-8.4437476869
 20
4.875
 30
0.0
 40
1.250000000000522
  0
CIRCLE
  5
7A
330
1F
100
AcDbEntity
  8
0
  6
Continuous
 62
     7
370
    25
100
AcDbCircle
 10
0.0
 20
65.0
 30
0.0
 40
0.5000000000000002
  0
CIRCLE
  5
7B
330
1F
100
AcDbEntity
  8
0
  6
Continuous
 62
     7
370
    25
100
AcDbCircle
 10
43.3012701892
 20
-25.0
 30
0.0
 40
3.000000000004427
  0
CIRCLE
  5
7C
330
1F
100
AcDbEntity
  8
0
  6
Continuous
 62
     7
370
    25
100
AcDbCircle
 10
0.0
 20
9.75
 30
0.0
 40
1.250000000000001
  0
CIRCLE
  5
7D
330
1F
100
AcDbEntity
  8
0
  6
Continuous
 62
     7
370
    25
100
AcDbCircle
 10
0.0
 20
0.0
 30
0.0
 40
3.0
  0
ARC
  5
7E
330
1F
100
AcDbEntity
  8
0
  6
Continuous
 62
     7
370
    25
100
AcDbCircle
 10
-64.8801341575
 20
27.5239566454
 30
0.0
 40
30.0
100
AcDbArc
 50
248.2450958441
 51
252.8222982363
  0
ARC
  5
7F
330
1F
100
AcDbEntity
  8
0
  6
Continuous
 62
     7
370
    25
100
AcDbCircle
 10
0.0
 20
0.0
 30
0.0
 40
73.74900000000002
100
AcDbArc
 50
180.8840292946
 51
181.5159707054
  0
ARC
  5
80
330
1F
100
AcDbEntity
  8
0
  6
Continuous
 62
     7
370
    25
100
AcDbCircle
 10
-63.6706395789
 20
-30.2167114909
 30
0.0
 40
30.0
100
AcDbArc
 50
109.5777017637
 51
114.1549041559
  0
ARC
  5
81
330
1F
100
AcDbEntity
  8
0
  6
Continuous
 62
     7
370
    25
100
AcDbCircle
 10
0.0
 20
0.0
 30
0.0
 40
76.00000000000001
100
AcDbArc
 50
182.1441446068
 51
182.6558553932
  0
ARC
  5
82
330
1F
100
AcDbEntity
  8
0
  6
Continuous
 62
     7
370
    25
100
AcDbCircle
 10
-65.9758069344
 20
24.7829154272
 30
0.0
 40
30.0
100
AcDbArc
 50
250.6450958441
 51
255.2222982363
  0
ARC
  5
83
330
1F
100
AcDbEntity
  8
0
  6
Continuous
 62
     7
370
    25
100
AcDbCircle
 10
0.0
 20
0.0
 30
0.0
 40
73.749
100
AcDbArc
 50
183.2840292946
 51
183.9159707054
  0
ARC
  5
84
330
1F
100
AcDbEntity
  8
0
  6
Continuous
 62
     7
370
    25
100
AcDbCircle
 10
-62.3494450631
 20
-32.8564559568
 30
0.0
 40
29.99999999999999
100
AcDbArc
 50
111.9777017637
 51
116.5549041559
  0
ARC
  5
85
330
1F
100
AcDbEntity
  8
0
  6
Continuous
 62
     7
370
    25
100
AcDbCircle
 10
0.0
 20
0.0
 30
0.0
 40
76.00000000000001
100
AcDbArc
 50
184.5441446068
 51
185.0558553932
  0
ARC
  5
86
330
1F
100
AcDbEntity
  8
0
  6
Continuous
 62
     7
370
    25
100
AcDbCircle
 10
-66.9557357272
 20
21.998396554
 30
0.0
 40
30.0
100
AcDbArc
 50
253.0450958441
 51
257.6222982363
  0
ARC
  5
87
330
1F
100
AcDbEntity
  8
0
  6
Continuous
 62
     7
370
    25
100
AcDbCircle
 10
0.0
 20
0.0
 30
0.0
 40
73.74900000000001
100
AcDbArc
 50
185.6840292946
 51
186.3159707054
  0
ARC
  5
88
330
1F
100
AcDbEntity
  8
0
  6
Continuous
 62
     7
370
    25
100
AcDbCircle
 10
-60.9188684341
 20
-35.4385590343
 30
0.0
 40
29.99999999999999
100
AcDbArc
 50
114.3777017637
 51
118.9549041559
  0
ARC
  5
89
330
1F
100
AcDbEntity
  8
0
  6
Continuous
 62
     7
370
    25
100
AcDbCircle
 10
0.0
 20
0.0
 30
0.0
 40
76.0
100
AcDbArc
 50
186.9441446068
 51
187.4558553932
  0
ARC
  5
8A
330
1F
100
AcDbEntity
  8
0
  6
Continuous
 62
     7
370
    25
100
AcDbCircle
 10
-67.8182014078
 20
19.1752850182
 30
0.0
 40
30.0
100
AcDbArc
 50
255.4450958441
 51
260.0222982363
  0
ARC
  5
8B
330
1F
100
AcDbEntity
  8
0
  6
Continuous
 62
     7
370
    25
100
AcDbCircle
 10
0.0
 20
0.0
 30
0.0
 40
73.74900000000002
100
AcDbArc
 50
188.0840292946
 51
188.7159707054
  0
ARC
  5
8C
330
1F
100
AcDbEntity
  8
0
  6
Continuous
 62
     7
370
    25
100
AcDbCircle
 10
-59.3814194095
 20
-37.9584908371
 30
0.0
 40
30.0
100
AcDbArc
 50
116.7777017637
 51
121.3549041559
  0
ARC
  5
8D
330
1F
100
AcDbEntity
  8
0
  6
Continuous
 62
     7
370
    25
100
AcDbCircle
 10
0.0
 20
0.0
 30
0.0
 40
76.00000000000001
100
AcDbArc
 50
189.3441446068
 51
189.8558553932
  0
ARC
  5
8E
330
1F
100
AcDbEntity
  8
0
  6
Continuous
 62
     7
370
    25
100
AcDbCircle
 10
-68.5616909183
 20
16.3185335166
 30
0.0
 40
30.0
100
AcDbArc
 50
257.8450958441
 51
262.4222982363
  0
ARC
  5
8F
330
1F
100
AcDbEntity
  8
0
  6
Continuous
 62
     7
370
    25
100
AcDbCircle
 10
0.0
 20
0.0
 30
0.0
 40
73.74900000000001
100
AcDbArc
 50
190.4840292946
 51
191.1159707054
  0
ARC
  5
90
330
1F
100
AcDbEntity
  8
0
  6
Continuous
 62
     7
370
    25
100
AcDbCircle
 10
-57.7397951973
 20
-40.4118305485
 30
0.0
 40
29.99999999999999
100
AcDbArc
 50
119.1777017637
 51
123.7549041559
  0
ARC
  5
91
330
1F
100
AcDbEntity
  8
0
  6
Continuous
 62
     7
370
    25
100
AcDbCircle
 10
0.0
 20
0.0
 30
0.0
 40
76.00000000000001
100
AcDbArc
 50
191.7441446068
 51
192.2558553932
  0
ARC
  5
92
330
1F
100
AcDbEntity
  8
0
  6
Continuous
 62
     7
370
    25
100
AcDbCircle
 10
-69.1848999256
 20
13.4331537622
 30
0.0
 40
30.00000000000001
100
AcDbArc
 50
260.2450958441
 51
264.8222982363
  0
ARC
  5
93
330
1F
100
AcDbEntity
  8
0
  6
Continuous
 62
     7
370
    25
100
AcDbCircle
 10
0.0
 20
0.0
 30
0.0
 40
73.74900000000002
100
AcDbArc
 50
192.8840292946
 51
193.5159707054
  0
ARC
  5
94
330
1F
100
AcDbEntity
  8
0
  6
Continuous
 62
     7
370
    25
100
AcDbCircle
 10
-55.9968757643
 20
-42.7942741772
 30
0.0
 40
30.0
100
AcDbArc
 50
121.5777017637
 51
126.1549041559
  0
ARC
  5
95
330
1F
100
AcDbEntity
  8
0
  6
Continuous
 62
     7
370
    25
100
AcDbCircle
 10
0.0
 20
0.0
 30
0.0
 40
76.00000000000001
100
AcDbArc
 50
194.1441446068
 51
194.6558553932
  0
ARC
  5
96
330
1F
100
AcDbEntity
  8
0
  6
Continuous
 62
     7
370
    25
100
AcDbCircle
 10
-69.6867351092
 20
10.5242076915
 30
0.0
 40
30.0
100
AcDbArc
 50
262.6450958441
 51
267.2222982363
  0
ARC
  5
97
330
1F
100
AcDbEntity
  8
0
  6
Continuous
 62
     7
370
    25
100
AcDbCircle
 10
0.0
 20
0.0
 30
0.0
 40
73.74900000000002
100
AcDbArc
 50
195.2840292946
 51
195.9159707054
  0
ARC
  5
98
330
1F
100
AcDbEntity
  8
0
  6
Continuous
 62
     7
370
    25
100
AcDbCircle
 10
-54.1557187833
 20
-45.1016421074
 30
0.0
 40
29.99999999999999
100
AcDbArc
 50
123.9777017637
 51
128.5549041559
  0
ARC
  5
99
330
1F
100
AcDbEntity
  8
0
  6
Continuous
 62
     7
370
    25
100
AcDbCircle
 10
0.0
 20
0.0
 30
0.0
 40
76.00000000000003
100
AcDbArc
 50
196.5441446068
 51
197.0558553932
  0
ARC
  5
9A
330
1F
100
AcDbEntity
  8
0
  6
Continuous
 62
     7
370
    25
100
AcDbCircle
 10
-70.0663160797
 20
7.5967985843
 30
0.0
 40
30.0
100
AcDbArc
 50
265.0450958441
 51
269.6222982363
  0
ARC
  5
9B
330
1F
100
AcDbEntity
  8
0
  6
Continuous
 62
     7
370
    25
100
AcDbCircle
 10
0.0
 20
0.0
 30
0.0
 40
73.74900000000001
100
AcDbArc
 50
197.6840292946
 51
198.3159707054
  0
ARC
  5
9C
330
1F
100
AcDbEntity
  8
0
  6
Continuous
 62
     7
370
    25
100
AcDbCircle
 10
-52.2195542693
 20
-47.3298864317
 30
0.0
 40
30.0
100
AcDbArc
 50
126.3777017637
 51
130.9549041559
  0
ARC
  5
9D
330
1F
100
AcDbEntity
  8
0
  6
Continuous
 62
     7
370
    25
100
AcDbCircle
 10
0.0
 20
0.0
 30
0.0
 40
76.00000000000001
100
AcDbArc
 50
198.9441446068
 51
199.4558553932
  0
ARC
  5
9E
330
1F
100
AcDbEntity
  8
0
  6
Continuous
 62
     7
370
    25
100
AcDbCircle
 10
-70.3229769231
 20
4.656062111
 30
0.0
 40
30.0
100
AcDbArc
 50
267.4450958441
 51
272.0222982363
  0
ARC
  5
9F
330
1F
100
AcDbEntity
  8
0
  6
Continuous
 62
     7
370
    25
100
AcDbCircle
 10
0.0
 20
0.0
 30
0.0
 40
73.749
100
AcDbArc
 50
200.0840292946
 51
200.7159707054
  0
ARC
  5
A0
330
1F
100
AcDbEntity
  8
0
  6
Continuous
 62
     7
370
    25
100
AcDbCircle
 10
-50.1917789127
 20
-49.4750980523
 30
0.0
 40
29.99999999999999
100
AcDbArc
 50
128.7777017637
 51
133.3549041559
  0
ARC
  5
A1
330
1F
100
AcDbEntity
  8
0
  6
Continuous
 62
     7
370
    25
100
AcDbCircle
 10
0.0
 20
0.0
 30
0.0
 40
76.00000000000001
100
AcDbArc
 50
201.3441446068
 51
201.8558553932
  0
ARC
  5
A2
330
1F
100
AcDbEntity
  8
0
  6
Continuous
 62
     7
370
    25
100
AcDbCircle
 10
-70.4562673691
 20
1.7071573226
 30
0.0
 40
30.00000000000001
100
AcDbArc
 50
269.8450958441
 51
274.4222982363
  0
ARC
  5
A3
330
1F
100
AcDbEntity
  8
0
  6
Continuous
 62
     7
370
    25
100
AcDbCircle
 10
0.0
 20
0.0
 30
0.0
 40
73.74900000000002
100
AcDbArc
 50
202.4840292946
 51
203.1159707054
  0
ARC
  5
A4
330
1F
100
AcDbEntity
  8
0
  6
Continuous
 62
     7
370
    25
100
AcDbCircle
 10
-48.0759501207
 20
-51.5335135393
 30
0.0
 40
30.0
100
AcDbArc
 50
131.1777017637
 51
135.7549041559
  0
ARC
  5
A5
330
1F
100
AcDbEntity
  8
0
  6
Continuous
 62
     7
370
    25
100
AcDbCircle
 10
0.0
 20
0.0
 30
0.0
 40
76.00000000000001
100
AcDbArc
 50
203.7441446068
 51
204.2558553932
  0
ARC
  5
A6
330
1F
100
AcDbEntity
  8
0
  6
Continuous
 62
     7
370
    25
100
AcDbCircle
 10
-70.4659535809
 20
-1.2447423998
 30
0.0
 40
30.0
100
AcDbArc
 50
272.2450958441
 51
276.8222982363
  0
ARC
  5
A7
330
1F
100
AcDbEntity
  8
0
  6
Continuous
 62
     7
370
    25
100
AcDbCircle
 10
0.0
 20
0.0
 30
0.0
 40
73.749
100
AcDbArc
 50
204.8840292946
 51
205.5159707054
  0
ARC
  5
A8
330
1F
100
AcDbEntity
  8
0
  6
Continuous
 62
     7
370
    25
100
AcDbCircle
 10
-45.8757797759
 20
-53.5015217323
 30
0.0
 40
29.99999999999999
100
AcDbArc
 50
133.5777017637
 51
138.1549041559
  0
ARC
  5
A9
330
1F
100
AcDbEntity
  8
0
  6
Continuous
 62
     7
370
    25
100
AcDbCircle
 10
0.0
 20
0.0
 30
0.0
 40
76.00000000000001
100
AcDbArc
 50
206.1441446068
 51
206.6558553932
  0
ARC
  5
AA
330
1F
100
AcDbEntity
  8
0
  6
Continuous
 62
     7
370
    25
100
AcDbCircle
 10
-70.3520185657
 20
-4.1944584211
 30
0.0
 40
30.00000000000001
100
AcDbArc
 50
274.6450958441
 51
279.2222982363
  0
ARC
  5
AB
330
1F
100
AcDbEntity
  8
0
  6
Continuous
 62
     7
370
    25
100
AcDbCircle
 10
0.0
 20
0.0
 30
0.0
 40
73.74900000000001
100
AcDbArc
 50
207.2840292946
 51
207.9159707054
  0
ARC
  5
AC
330
1F
100
AcDbEntity
  8
0
  6
Continuous
 62
     7
370
    25
100
AcDbCircle
 10
-43.5951277247
 20
-55.3756700762
 30
0.0
 40
29.99999999999999
100
AcDbArc
 50
135.9777017637
 51
140.5549041559
  0
ARC
  5
AD
330
1F
100
AcDbEntity
  8
0
  6
Continuous
 62
     7
370
    25
100
AcDbCircle
 10
0.0
 20
0.0
 30
0.0
 40
76.00000000000001
100
AcDbArc
 50
208.5441446068
 51
209.0558553932
  0
ARC
  5
AE
330
1F
100
AcDbEntity
  8
0
  6
Continuous
 62
     7
370
    25
100
AcDbCircle
 10
-70.1146622041
 20
-7.136815937
 30
0.0
 40
30.00000000000001
100
AcDbArc
 50
277.0450958441
 51
281.6222982363
  0
ARC
  5
AF
330
1F
100
AcDbEntity
  8
0
  6
Continuous
 62
     7
370
    25
100
AcDbCircle
 10
0.0
 20
0.0
 30
0.0
 40
73.74900000000004
100
AcDbArc
 50
209.6840292946
 51
210.3159707054
  0
ARC
  5
B0
330
1F
100
AcDbEntity
  8
0
  6
Continuous
 62
     7
370
    25
100
AcDbCircle
 10
-41.2379950056
 20
-57.152670678
 30
0.0
 40
30.0
100
AcDbArc
 50
138.3777017637
 51
142.9549041559
  0
ARC
  5
B1
330
1F
100
AcDbEntity
  8
0
  6
Continuous
 62
     7
370
    25
100
AcDbCircle
 10
0.0
 20
0.0
 30
0.0
 40
76.00000000000001
100
AcDbArc
 50
210.9441446068
 51
211.4558553932
  0
ARC
  5
B2
330
1F
100
AcDbEntity
  8
0
  6
Continuous
 62
     7
370
    25
100
AcDbCircle
 10
-69.7543008999
 20
-10.0666530527
 30
0.0
 40
30.00000000000001
100
AcDbArc
 50
279.4450958441
 51
284.0222982363
  0
ARC
  5
B3
330
1F
100
AcDbEntity
  8
0
  6
Continuous
 62
     7
370
    25
100
AcDbCircle
 10
0.0
 20
0.0
 30
0.0
 40
73.74900000000002
100
AcDbArc
 50
212.0840292946
 51
212.7159707054
  0
ARC
  5
B4
330
1F
100
AcDbEntity
  8
0
  6
Continuous
 62
     7
370
    25
100
AcDbCircle
 10
-38.8085168306
 20
-58.8294060749
 30
0.0
 40
30.0
100
AcDbArc
 50
140.7777017637
 51
145.3549041559
  0
ARC
  5
B5
330
1F
100
AcDbEntity
  8
0
  6
Continuous
 62
     7
370
    25
100
AcDbCircle
 10
0.0
 20
0.0
 30
0.0
 40
76.00000000000001
100
AcDbArc
 50
213.3441446068
 51
213.8558553932
  0
ARC
  5
B6
330
1F
100
AcDbEntity
  8
0
  6
Continuous
 62
     7
370
    25
100
AcDbCircle
 10
-69.2715668492
 20
-12.9788298382
 30
0.0
 40
30.00000000000001
100
AcDbArc
 50
281.8450958441
 51
286.4222982363
  0
ARC
  5
B7
330
1F
100
AcDbEntity
  8
0
  6
Continuous
 62
     7
370
    25
100
AcDbCircle
 10
0.0
 20
0.0
 30
0.0
 40
73.74900000000001
100
AcDbArc
 50
214.4840292946
 51
215.1159707054
  0
ARC
  5
B8
330
1F
100
AcDbEntity
  8
0
  6
Continuous
 62
     7
370
    25
100
AcDbCircle
 10
-36.3109553299
 20
-60.4029347031
 30
0.0
 40
29.99999999999999
100
AcDbArc
 50
143.1777017637
 51
147.7549041559
  0
ARC
  5
B9
330
1F
100
AcDbEntity
  8
0
  6
Continuous
 62
     7
370
    25
100
AcDbCircle
 10
0.0
 20
0.0
 30
0.0
 40
76.00000000000001
100
AcDbArc
 50
215.7441446068
 51
216.2558553932
  0
ARC
  5
BA
330
1F
100
AcDbEntity
  8
0
  6
Continuous
 62
     7
370
    25
100
AcDbCircle
 10
-68.6673069316
 20
-15.868237346
 30
0.0
 40
30.0
100
AcDbArc
 50
284.2450958441
 51
288.8222982363
  0
ARC
  5
BB
330
1F
100
AcDbEntity
  8
0
  6
Continuous
 62
     7
370
    25
100
AcDbCircle
 10
0.0
 20
0.0
 30
0.0
 40
73.74900000000001
100
AcDbArc
 50
216.8840292946
 51
217.5159707054
  0
ARC
  5
BC
330
1F
100
AcDbEntity
  8
0
  6
Continuous
 62
     7
370
    25
100
AcDbCircle
 10
-33.7496920749
 20
-61.8704960588
 30
0.0
 40
30.0
100
AcDbArc
 50
145.5777017637
 51
150.1549041559
  0
ARC
  5
BD
330
1F
100
AcDbEntity
  8
0
  6
Continuous
 62
     7
370
    25
100
AcDbCircle
 10
0.0
 20
0.0
 30
0.0
 40
76.00000000000003
100
AcDbArc
 50
218.1441446068
 51
218.6558553932
  0
ARC
  5
BE
330
1F
100
AcDbEntity
  8
0
  6
Continuous
 62
     7
370
    25
100
AcDbCircle
 10
-67.9425812244
 20
-18.7298065734
 30
0.0
 40
30.00000000000001
100
AcDbArc
 50
286.6450958441
 51
291.2222982363
  0
ARC
  5
BF
330
1F
100
AcDbEntity
  8
0
  6
Continuous
 62
     7
370
    25
100
AcDbCircle
 10
0.0
 20
0.0
 30
0.0
 40
73.74900000000001
100
AcDbArc
 50
219.2840292946
 51
219.9159707054
  0
ARC
  5
C0
330
1F
100
AcDbEntity
  8
0
  6
Continuous
 62
     7
370
    25
100
AcDbCircle
 10
-31.1292203919
 20
-63.2295155407
 30
0.0
 40
29.99999999999999
100
AcDbArc
 50
147.9777017637
 51
152.5549041559
  0
ARC
  5
C1
330
1F
100
AcDbEntity
  8
0
  6
Continuous
 62
     7
370
    25
100
AcDbCircle
 10
0.0
 20
0.0
 30
0.0
 40
76.00000000000001
100
AcDbArc
 50
220.5441446068
 51
221.0558553932
  0
ARC
  5
C2
330
1F
100
AcDbEntity
  8
0
  6
Continuous
 62
     7
370
    25
100
AcDbCircle
 10
-67.0986611427
 20
-21.5585173556
 30
0.0
 40
30.0
100
AcDbArc
 50
289.0450958441
 51
293.6222982363
  0
ARC
  5
C3
330
1F
100
AcDbEntity
  8
0
  6
Continuous
 62
     7
370
    25
100
AcDbCircle
 10
0.0
 20
0.0
 30
0.0
 40
73.74900000000001
100
AcDbArc
 50
221.6840292946
 51
222.3159707054
  0
ARC
  5
C4
330
1F
100
AcDbEntity
  8
0
  6
Continuous
 62
     7
370
    25
100
AcDbCircle
 10
-28.4541374784
 20
-64.4776089668
 30
0.0
 40
30.0
100
AcDbArc
 50
150.3777017637
 51
154.9549041559
  0
ARC
  5
C5
330
1F
100
AcDbEntity
  8
0
  6
Continuous
 62
     7
370
    25
100
AcDbCircle
 10
0.0
 20
0.0
 30
0.0
 40
76.00000000000001
100
AcDbArc
 50
222.9441446068
 51
223.4558553932
  0
ARC
  5
C6
330
1F
100
AcDbEntity
  8
0
  6
Continuous
 62
     7
370
    25
100
AcDbCircle
 10
-66.137027209
 20
-24.3494071728
 30
0.0
 40
30.00000000000001
100
AcDbArc
 50
291.4450958441
 51
296.0222982363
  0
ARC
  5
C7
330
1F
100
AcDbEntity
  8
0
  6
Continuous
 62
     7
370
    25
100
AcDbCircle
 10
0.0
 20
0.0
 30
0.0
 40
73.74900000000002
100
AcDbArc
 50
224.0840292946
 51
224.7159707054
  0
ARC
  5
C8
330
1F
100
AcDbEntity
  8
0
  6
Continuous
 62
     7
370
    25
100
AcDbCircle
 10
-25.7291363391
 20
-65.6125867571
 30
0.0
 40
30.0
100
AcDbArc
 50
152.7777017637
 51
157.3549041559
  0
ARC
  5
C9
330
1F
100
AcDbEntity
  8
0
  6
Continuous
 62
     7
370
    25
100
AcDbCircle
 10
0.0
 20
0.0
 30
0.0
 40
76.00000000000001
100
AcDbArc
 50
225.3441446068
 51
225.8558553932
  0
ARC
  5
CA
330
1F
100
AcDbEntity
  8
0
  6
Continuous
 62
     7
370
    25
100
AcDbCircle
 10
-65.0593664561
 20
-27.0975798558
 30
0.0
 40
30.0
100
AcDbArc
 50
293.8450958441
 51
298.4222982363
  0
ARC
  5
CB
330
1F
100
AcDbEntity
  8
0
  6
Continuous
 62
     7
370
    25
100
AcDbCircle
 10
0.0
 20
0.0
 30
0.0
 40
73.74900000000001
100
AcDbArc
 50
226.4840292946
 51
227.1159707054
  0
ARC
  5
CC
330
1F
100
AcDbEntity
  8
0
  6
Continuous
 62
     7
370
    25
100
AcDbCircle
 10
-22.9589975518
 20
-66.632457775
 30
0.0
 40
30.0
100
AcDbArc
 50
155.1777017637
 51
159.7549041559
  0
ARC
  5
CD
330
1F
100
AcDbEntity
  8
0
  6
Continuous
 62
     7
370
    25
100
AcDbCircle
 10
0.0
 20
0.0
 30
0.0
 40
76.00000000000003
100
AcDbArc
 50
227.7441446068
 51
228.2558553932
  0
ARC
  5
CE
330
1F
100
AcDbEntity
  8
0
  6
Continuous
 62
     7
370
    25
100
AcDbCircle
 10
-63.8675694671
 20
-29.7982141759
 30
0.0
 40
30.0
100
AcDbArc
 50
296.2450958441
 51
300.8222982363
  0
ARC
  5
CF
330
1F
100
AcDbEntity
  8
0
  6
Continuous
 62
     7
370
    25
100
AcDbCircle
 10
0.0
 20
0.0
 30
0.0
 40
73.74900000000001
100
AcDbArc
 50
228.8840292946
 51
229.5159707054
  0
ARC
  5
D0
330
1F
100
AcDbEntity
  8
0
  6
Continuous
 62
     7
370
    25
100
AcDbCircle
 10
-20.1485808813
 20
-67.53543282
 30
0.0
 40
30.0
100
AcDbArc
 50
157.5777017637
 51
162.1549041559
  0
ARC
  5
D1
330
1F
100
AcDbEntity
  8
0
  6
Continuous
 62
     7
370
    25
100
AcDbCircle
 10
0.0
 20
0.0
 30
0.0
 40
76.00000000000003
100
AcDbArc
 50
230.1441446068
 51
230.6558553932
  0
ARC
  5
D2
330
1F
100
AcDbEntity
  8
0
  6
Continuous
 62
     7
370
    25
100
AcDbCircle
 10
-62.563727059
 20
-32.4465723029
 30
0.0
 40
30.0
100
AcDbArc
 50
298.6450958441
 51
303.2222982363
  0
ARC
  5
D3
330
1F
100
AcDbEntity
  8
0
  6
Continuous
 62
     7
370
    25
100
AcDbCircle
 10
0.0
 20
0.0
 30
0.0
 40
73.74900000000001
100
AcDbArc
 50
231.2840292946
 51
231.9159707054
  0
ARC
  5
D4
330
1F
100
AcDbEntity
  8
0
  6
Continuous
 62
     7
370
    25
100
AcDbCircle
 10
-17.3028167534
 20
-68.3199277672
 30
0.0
 40
29.99999999999999
100
AcDbArc
 50
159.9777017637
 51
164.5549041559
  0
ARC
  5
D5
330
1F
100
AcDbEntity
  8
0
  6
Continuous
 62
     7
370
    25
100
AcDbCircle
 10
0.0
 20
0.0
 30
0.0
 40
76.00000000000001
100
AcDbArc
 50
232.5441446068
 51
233.0558553932
  0
ARC
  5
D6
330
1F
100
AcDbEntity
  8
0
  6
Continuous
 62
     7
370
    25
100
AcDbCircle
 10
-61.1501266142
 20
-35.0380081166
 30
0.0
 40
30.0
100
AcDbArc
 50
301.0450958441
 51
305.6222982363
  0
ARC
  5
D7
330
1F
100
AcDbEntity
  8
0
  6
Continuous
 62
     7
370
    25
100
AcDbCircle
 10
0.0
 20
0.0
 30
0.0
 40
73.74900000000001
100
AcDbArc
 50
233.6840292946
 51
234.3159707054
  0
ARC
  5
D8
330
1F
100
AcDbEntity
  8
0
  6
Continuous
 62
     7
370
    25
100
AcDbCircle
 10
-14.4266976053
 20
-68.9845663458
 30
0.0
 40
29.99999999999999
100
AcDbArc
 50
162.3777017637
 51
166.9549041559
  0
ARC
  5
D9
330
1F
100
AcDbEntity
  8
0
  6
Continuous
 62
     7
370
    25
100
AcDbCircle
 10
0.0
 20
0.0
 30
0.0
 40
76.00000000000001
100
AcDbArc
 50
234.9441446068
 51
235.4558553932
  0
ARC
  5
DA
330
1F
100
AcDbEntity
  8
0
  6
Continuous
 62
     7
370
    25
100
AcDbCircle
 10
-59.6292480685
 20
-37.5679753581
 30
0.0
 40
30.0
100
AcDbArc
 50
303.4450958441
 51
308.0222982363
  0
ARC
  5
DB
330
1F
100
AcDbEntity
  8
0
  6
Continuous
 62
     7
370
    25
100
AcDbCircle
 10
0.0
 20
0.0
 30
0.0
 40
73.74900000000001
100
AcDbArc
 50
236.0840292946
 51
236.7159707054
  0
ARC
  5
DC
330
1F
100
AcDbEntity
  8
0
  6
Continuous
 62
     7
370
    25
100
AcDbCircle
 10
-11.5252691274
 20
-69.5281825539
 30
0.0
 40
29.99999999999999
100
AcDbArc
 50
164.7777017637
 51
169.3549041559
  0
ARC
  5
DD
330
1F
100
AcDbEntity
  8
0
  6
Continuous
 62
     7
370
    25
100
AcDbCircle
 10
0.0
 20
0.0
 30
0.0
 40
76.00000000000003
100
AcDbArc
 50
237.3441446068
 51
237.8558553932
  0
ARC
  5
DE
330
1F
100
AcDbEntity
  8
0
  6
Continuous
 62
     7
370
    25
100
AcDbCircle
 10
-58.0037595594
 20
-40.0320356051
 30
0.0
 40
30.00000000000001
100
AcDbArc
 50
305.8450958441
 51
310.4222982363
  0
ARC
  5
DF
330
1F
100
AcDbEntity
  8
0
  6
Continuous
 62
     7
370
    25
100
AcDbCircle
 10
0.0
 20
0.0
 30
0.0
 40
73.74900000000001
100
AcDbArc
 50
238.4840292946
 51
239.1159707054
  0
ARC
  5
E0
330
1F
100
AcDbEntity
  8
0
  6
Continuous
 62
     7
370
    25
100
AcDbCircle
 10
-8.6036214112
 20
-69.949822704
 30
0.0
 40
29.99999999999999
100
AcDbArc
 50
167.1777017637
 51
171.7549041559
  0
ARC
  5
E1
330
1F
100
AcDbEntity
  8
0
  6
Continuous
 62
     7
370
    25
100
AcDbCircle
 10
0.0
 20
0.0
 30
0.0
 40
76.00000000000003
100
AcDbArc
 50
239.7441446068
 51
240.2558553932
  0
ARC
  5
E2
330
1F
100
AcDbEntity
  8
0
  6
Continuous
 62
     7
370
    25
100
AcDbCircle
 10
-56.2765127463
 20
-42.4258660587
 30
0.0
 40
30.00000000000001
100
AcDbArc
 50
308.2450958441
 51
312.8222982363
  0
ARC
  5
E3
330
1F
100
AcDbEntity
  8
0
  6
Continuous
 62
     7
370
    25
100
AcDbCircle
 10
0.0
 20
0.0
 30
0.0
 40
73.74900000000002
100
AcDbArc
 50
240.8840292946
 51
241.5159707054
  0
ARC
  5
E4
330
1F
100
AcDbEntity
  8
0
  6
Continuous
 62
     7
370
    25
100
AcDbCircle
 10
-5.6668800195
 20
-70.248747096
 30
0.0
 40
30.0
100
AcDbArc
 50
169.5777017637
 51
174.1549041559
  0
ARC
  5
E5
330
1F
100
AcDbEntity
  8
0
  6
Continuous
 62
     7
370
    25
100
AcDbCircle
 10
0.0
 20
0.0
 30
0.0
 40
76.00000000000001
100
AcDbArc
 50
242.1441446068
 51
242.6558553932
  0
ARC
  5
E6
330
1F
100
AcDbEntity
  8
0
  6
Continuous
 62
     7
370
    25
100
AcDbCircle
 10
-54.450537807
 20
-44.7452671268
 30
0.0
 40
30.00000000000001
100
AcDbArc
 50
310.6450958441
 51
315.2222982363
  0
ARC
  5
E7
330
1F
100
AcDbEntity
  8
0
  6
Continuous
 62
     7
370
    25
100
AcDbCircle
 10
0.0
 20
0.0
 30
0.0
 40
73.74900000000001
100
AcDbArc
 50
243.2840292946
 51
243.9159707054
  0
ARC
  5
E8
330
1F
100
AcDbEntity
  8
0
  6
Continuous
 62
     7
370
    25
100
AcDbCircle
 10
-2.7201969946
 20
-70.4244313149
 30
0.0
 40
29.99999999999999
100
AcDbArc
 50
171.9777017637
 51
176.5549041559
  0
ARC
  5
E9
330
1F
100
AcDbEntity
  8
0
  6
Continuous
 62
     7
370
    25
100
AcDbCircle
 10
0.0
 20
0.0
 30
0.0
 40
76.00000000000003
100
AcDbArc
 50
244.5441446068
 51
245.0558553932
  0
ARC
  5
EA
330
1F
100
AcDbEntity
  8
0
  6
Continuous
 62
     7
370
    25
100
AcDbCircle
 10
-52.5290381219
 20
-46.9861697918
 30
0.0
 40
30.0
100
AcDbArc
 50
313.0450958441
 51
317.6222982363
  0
ARC
  5
EB
330
1F
100
AcDbEntity
  8
0
  6
Continuous
 62
     7
370
    25
100
AcDbCircle
 10
0.0
 20
0.0
 30
0.0
 40
73.749
100
AcDbArc
 50
245.6840292946
 51
246.3159707054
  0
ARC
  5
EC
330
1F
100
AcDbEntity
  8
0
  6
Continuous
 62
     7
370
    25
100
AcDbCircle
 10
0.2312581801
 20
-70.4765671509
 30
0.0
 40
30.0
100
AcDbArc
 50
174.3777017637
 51
178.9549041559
  0
ARC
  5
ED
330
1F
100
AcDbEntity
  8
0
  6
Continuous
 62
     7
370
    25
100
AcDbCircle
 10
0.0
 20
0.0
 30
0.0
 40
76.00000000000001
100
AcDbArc
 50
246.9441446068
 51
247.4558553932
  0
ARC
  5
EE
330
1F
100
AcDbEntity
  8
0
  6
Continuous
 62
     7
370
    25
100
AcDbCircle
 10
-50.5153846544
 20
-49.144642749
 30
0.0
 40
30.0
100
AcDbArc
 50
315.4450958441
 51
320.0222982363
  0
ARC
  5
EF
330
1F
100
AcDbEntity
  8
0
  6
Continuous
 62
     7
370
    25
100
AcDbCircle
 10
0.0
 20
0.0
 30
0.0
 40
73.74900000000002
100
AcDbArc
 50
248.0840292946
 51
248.7159707054
  0
ARC
  5
F0
330
1F
100
AcDbEntity
  8
0
  6
Continuous
 62
     7
370
    25
100
AcDbCircle
 10
3.1823076495
 20
-70.4050631399
 30
0.0
 40
30.0
100
AcDbArc
 50
176.7777017637
 51
181.3549041559
  0
ARC
  5
F1
330
1F
100
AcDbEntity
  8
0
  6
Continuous
 62
     7
370
    25
100
AcDbCircle
 10
0.0
 20
0.0
 30
0.0
 40
76.00000000000003
100
AcDbArc
 50
249.3441446068
 51
249.8558553932
  0
ARC
  5
F2
330
1F
100
AcDbEntity
  8
0
  6
Continuous
 62
     7
370
    25
100
AcDbCircle
 10
-48.4131100371
 20
-51.2168993034
 30
0.0
 40
30.0
100
AcDbArc
 50
317.8450958441
 51
322.4222982363
  0
ARC
  5
F3
330
1F
100
AcDbEntity
  8
0
  6
Continuous
 62
     7
370
    25
100
AcDbCircle
 10
0.0
 20
0.0
 30
0.0
 40
73.74900000000002
100
AcDbArc
 50
250.4840292946
 51
251.1159707054
  0
ARC
  5
F4
330
1F
100
AcDbEntity
  8
0
  6
Continuous
 62
     7
370
    25
100
AcDbCircle
 10
6.1277742698
 20
-70.2100447245
 30
0.0
 40
30.0
100
AcDbArc
 50
179.1777017637
 51
183.7549041559
  0
ARC
  5
F5
330
1F
100
AcDbEntity
  8
0
  6
Continuous
 62
     7
370
    25
100
AcDbCircle
 10
0.0
 20
0.0
 30
0.0
 40
76.00000000000003
100
AcDbArc
 50
251.7441446068
 51
252.2558553932
  0
ARC
  5
F6
330
1F
100
AcDbEntity
  8
0
  6
Continuous
 62
     7
370
    25
100
AcDbCircle
 10
-46.2259023738
 20
-53.1993040128
 30
0.0
 40
30.0
100
AcDbArc
 50
320.2450958441
 51
324.8222982363
  0
ARC
  5
F7
330
1F
100
AcDbEntity
  8
0
  6
Continuous
 62
     7
370
    25
100
AcDbCircle
 10
0.0
 20
0.0
 30
0.0
 40
73.74900000000002
100
AcDbArc
 50
252.8840292946
 51
253.5159707054
  0
ARC
  5
F8
330
1F
100
AcDbEntity
  8
0
  6
Continuous
 62
     7
370
    25
100
AcDbCircle
 10
9.0624906918
 20
-69.891854033
 30
0.0
 40
30.0
100
AcDbArc
 50
181.5777017637
 51
186.1549041559
  0
ARC
  5
F9
330
1F
100
AcDbEntity
  8
0
  6
Continuous
 62
     7
370
    25
100
AcDbCircle
 10
0.0
 20
0.0
 30
0.0
 40
76.0
100
AcDbArc
 50
254.1441446068
 51
254.6558553932
  0
ARC
  5
FA
330
1F
100
AcDbEntity
  8
0
  6
Continuous
 62
     7
370
    25
100
AcDbCircle
 10
-43.9575987701
 20
-55.0883790656
 30
0.0
 40
30.0
100
AcDbArc
 50
322.6450958441
 51
327.2222982363
  0
ARC
  5
FB
330
1F
100
AcDbEntity
  8
0
  6
Continuous
 62
     7
370
    25
100
AcDbCircle
 10
0.0
 20
0.0
 30
0.0
 40
73.74900000000001
100
AcDbArc
 50
255.2840292946
 51
255.9159707054
  0
ARC
  5
FC
330
1F
100
AcDbEntity
  8
0
  6
Continuous
 62
     7
370
    25
100
AcDbCircle
 10
11.9813084258
 20
-69.4510492802
 30
0.0
 40
30.0
100
AcDbArc
 50
183.9777017637
 51
188.5549041559
  0
ARC
  5
FD
330
1F
100
AcDbEntity
  8
0
  6
Continuous
 62
     7
370
    25
100
AcDbCircle
 10
0.0
 20
0.0
 30
0.0
 40
76.00000000000003
100
AcDbArc
 50
256.5441446068
 51
257.0558553932
  0
ARC
  5
FE
330
1F
100
AcDbEntity
  8
0
  6
Continuous
 62
     7
370
    25
100
AcDbCircle
 10
-41.6121786013
 20
-56.8808103825
 30
0.0
 40
30.00000000000001
100
AcDbArc
 50
325.0450958441
 51
329.6222982363
  0
ARC
  5
FF
330
1F
100
AcDbEntity
  8
0
  6
Continuous
 62
     7
370
    25
100
AcDbCircle
 10
0.0
 20
0.0
 30
0.0
 40
73.74900000000001
100
AcDbArc
 50
257.6840292946
 51
258.3159707054
  0
ARC
  5
100
330
1F
100
AcDbEntity
  8
0
  6
Continuous
 62
     7
370
    25
100
AcDbCircle
 10
14.8791068734
 20
-68.8884037873
 30
0.0
 40
29.99999999999999
100
AcDbArc
 50
186.3777017637
 51
190.9549041559
  0
ARC
  5
101
330
1F
100
AcDbEntity
  8
0
  6
Continuous
 62
     7
370
    25
100
AcDbCircle
 10
0.0
 20
0.0
 30
0.0
 40
76.00000000000003
100
AcDbArc
 50
258.9441446068
 51
259.4558553932
  0
ARC
  5
102
330
1F
100
AcDbEntity
  8
0
  6
Continuous
 62
     7
370
    25
100
AcDbCircle
 10
-39.1937565313
 20
-58.5734534297
 30
0.0
 40
30.00000000000001
100
AcDbArc
 50
327.4450958441
 51
332.0222982363
  0
ARC
  5
103
330
1F
100
AcDbEntity
  8
0
  6
Continuous
 62
     7
370
    25
100
AcDbCircle
 10
0.0
 20
0.0
 30
0.0
 40
73.74900000000001
100
AcDbArc
 50
260.0840292946
 51
260.7159707054
  0
ARC
  5
104
330
1F
100
AcDbEntity
  8
0
  6
Continuous
 62
     7
370
    25
100
AcDbCircle
 10
17.7508023117
 20
-68.2049046257
 30
0.0
 40
30.0
100
AcDbArc
 50
188.7777017637
 51
193.3549041559
  0
ARC
  5
105
330
1F
100
AcDbEntity
  8
0
  6
Continuous
 62
     7
370
    25
100
AcDbCircle
 10
0.0
 20
0.0
 30
0.0
 40
76.00000000000001
100
AcDbArc
 50
261.3441446068
 51
261.8558553932
  0
ARC
  5
106
330
1F
100
AcDbEntity
  8
0
  6
Continuous
 62
     7
370
    25
100
AcDbCircle
 10
-36.7065752942
 20
-60.1633387362
 30
0.0
 40
30.0
100
AcDbArc
 50
329.8450958441
 51
334.4222982363
  0
ARC
  5
107
330
1F
100
AcDbEntity
  8
0
  6
Continuous
 62
     7
370
    25
100
AcDbCircle
 10
0.0
 20
0.0
 30
0.0
 40
73.749
100
AcDbArc
 50
262.4840292946
 51
263.1159707054
  0
ARC
  5
108
330
1F
100
AcDbEntity
  8
0
  6
Continuous
 62
     7
370
    25
100
AcDbCircle
 10
20.5913568109
 20
-67.4017508853
 30
0.0
 40
29.99999999999999
100
AcDbArc
 50
191.1777017637
 51
195.7549041559
  0
ARC
  5
109
330
1F
100
AcDbEntity
  8
0
  6
Continuous
 62
     7
370
    25
100
AcDbCircle
 10
0.0
 20
0.0
 30
0.0
 40
76.00000000000001
100
AcDbArc
 50
263.7441446068
 51
264.2558553932
  0
ARC
  5
10A
330
1F
100
AcDbEntity
  8
0
  6
Continuous
 62
     7
370
    25
100
AcDbCircle
 10
-34.1549982511
 20
-61.6476771029
 30
0.0
 40
30.0
100
AcDbArc
 50
332.2450958441
 51
336.8222982363
  0
ARC
  5
10B
330
1F
100
AcDbEntity
  8
0
  6
Continuous
 62
     7
370
    25
100
AcDbCircle
 10
0.0
 20
0.0
 30
0.0
 40
73.749
100
AcDbArc
 50
264.8840292946
 51
265.5159707054
  0
ARC
  5
10C
330
1F
100
AcDbEntity
  8
0
  6
Continuous
 62
     7
370
    25
100
AcDbCircle
 10
23.3957870733
 20
-66.4803515705
 30
0.0
 40
29.99999999999999
100
AcDbArc
 50
193.5777017637
 51
198.1549041559
  0
ARC
  5
10D
330
1F
100
AcDbEntity
  8
0
  6
Continuous
 62
     7
370
    25
100
AcDbCircle
 10
0.0
 20
0.0
 30
0.0
 40
76.00000000000001
100
AcDbArc
 50
266.1441446068
 51
266.6558553932
  0
ARC
  5
10E
330
1F
100
AcDbEntity
  8
0
  6
Continuous
 62
     7
370
    25
100
AcDbCircle
 10
-31.5435017351
 20
-63.023864496
 30
0.0
 40
30.00000000000001
100
AcDbArc
 50
334.6450958441
 51
339.2222982363
  0
ARC
  5
10F
330
1F
100
AcDbEntity
  8
0
  6
Continuous
 62
     7
370
    25
100
AcDbCircle
 10
0.0
 20
0.0
 30
0.0
 40
73.74900000000002
100
AcDbArc
 50
267.2840292946
 51
267.9159707054
  0
ARC
  5
110
330
1F
100
AcDbEntity
  8
0
  6
Continuous
 62
     7
370
    25
100
AcDbCircle
 10
26.1591731752
 20
-65.4423231289
 30
0.0
 40
30.0
100
AcDbArc
 50
195.9777017637
 51
200.5549041559
  0
ARC
  5
111
330
1F
100
AcDbEntity
  8
0
  6
Continuous
 62
     7
370
    25
100
AcDbCircle
 10
0.0
 20
0.0
 30
0.0
 40
76.0
100
AcDbArc
 50
268.5441446068
 51
269.0558553932
  0
ARC
  5
112
330
1F
100
AcDbEntity
  8
0
  6
Continuous
 62
     7
370
    25
100
AcDbCircle
 10
-28.8766671985
 20
-64.289486615
 30
0.0
 40
30.0
100
AcDbArc
 50
337.0450958441
 51
341.6222982363
  0
ARC
  5
113
330
1F
100
AcDbEntity
  8
0
  6
Continuous
 62
     7
370
    25
100
AcDbCircle
 10
0.0
 20
0.0
 30
0.0
 40
73.74900000000001
100
AcDbArc
 50
269.6840292946
 51
270.3159707054
  0
ARC
  5
114
330
1F
100
AcDbEntity
  8
0
  6
Continuous
 62
     7
370
    25
100
AcDbCircle
 10
28.8766671985
 20
-64.289486615
 30
0.0
 40
29.99999999999999
100
AcDbArc
 50
198.3777017637
 51
202.9549041559
  0
ARC
  5
115
330
1F
100
AcDbEntity
  8
0
  6
Continuous
 62
     7
370
    25
100
AcDbCircle
 10
0.0
 20
0.0
 30
0.0
 40
76.00000000000003
100
AcDbArc
 50
270.9441446068
 51
271.4558553932
  0
ARC
  5
116
330
1F
100
AcDbEntity
  8
0
  6
Continuous
 62
     7
370
    25
100
AcDbCircle
 10
-26.1591731752
 20
-65.4423231289
 30
0.0
 40
30.0
100
AcDbArc
 50
339.4450958441
 51
344.0222982363
  0
ARC
  5
117
330
1F
100
AcDbEntity
  8
0
  6
Continuous
 62
     7
370
    25
100
AcDbCircle
 10
0.0
 20
0.0
 30
0.0
 40
73.74900000000004
100
AcDbArc
 50
272.0840292946
 51
272.7159707054
  0
ARC
  5
118
330
1F
100
AcDbEntity
  8
0
  6
Continuous
 62
     7
370
    25
100
AcDbCircle
 10
31.5435017351
 20
-63.023864496
 30
0.0
 40
30.0
100
AcDbArc
 50
200.7777017637
 51
205.3549041559
  0
ARC
  5
119
330
1F
100
AcDbEntity
  8
0
  6
Continuous
 62
     7
370
    25
100
AcDbCircle
 10
0.0
 20
0.0
 30
0.0
 40
76.0
100
AcDbArc
 50
273.3441446068
 51
273.8558553932
  0
ARC
  5
11A
330
1F
100
AcDbEntity
  8
0
  6
Continuous
 62
     7
370
    25
100
AcDbCircle
 10
-23.3957870733
 20
-66.4803515705
 30
0.0
 40
30.0
100
AcDbArc
 50
341.8450958441
 51
346.4222982363
  0
ARC
  5
11B
330
1F
100
AcDbEntity
  8
0
  6
Continuous
 62
     7
370
    25
100
AcDbCircle
 10
0.0
 20
0.0
 30
0.0
 40
73.74900000000001
100
AcDbArc
 50
274.4840292946
 51
275.1159707054
  0
ARC
  5
11C
330
1F
100
AcDbEntity
  8
0
  6
Continuous
 62
     7
370
    25
100
AcDbCircle
 10
34.1549982511
 20
-61.6476771029
 30
0.0
 40
30.0
100
AcDbArc
 50
203.1777017637
 51
207.7549041559
  0
ARC
  5
11D
330
1F
100
AcDbEntity
  8
0
  6
Continuous
 62
     7
370
    25
100
AcDbCircle
 10
0.0
 20
0.0
 30
0.0
 40
76.00000000000001
100
AcDbArc
 50
275.7441446068
 51
276.2558553932
  0
ARC
  5
11E
330
1F
100
AcDbEntity
  8
0
  6
Continuous
 62
     7
370
    25
100
AcDbCircle
 10
-20.5913568109
 20
-67.4017508853
 30
0.0
 40
30.00000000000001
100
AcDbArc
 50
344.2450958441
 51
348.8222982363
  0
ARC
  5
11F
330
1F
100
AcDbEntity
  8
0
  6
Continuous
 62
     7
370
    25
100
AcDbCircle
 10
0.0
 20
0.0
 30
0.0
 40
73.749
100
AcDbArc
 50
276.8840292946
 51
277.5159707054
  0
ARC
  5
120
330
1F
100
AcDbEntity
  8
0
  6
Continuous
 62
     7
370
    25
100
AcDbCircle
 10
36.7065752942
 20
-60.1633387362
 30
0.0
 40
29.99999999999999
100
AcDbArc
 50
205.5777017637
 51
210.1549041559
  0
ARC
  5
121
330
1F
100
AcDbEntity
  8
0
  6
Continuous
 62
     7
370
    25
100
AcDbCircle
 10
0.0
 20
0.0
 30
0.0
 40
76.00000000000003
100
AcDbArc
 50
278.1441446068
 51
278.6558553932
  0
ARC
  5
122
330
1F
100
AcDbEntity
  8
0
  6
Continuous
 62
     7
370
    25
100
AcDbCircle
 10
-17.7508023117
 20
-68.2049046257
 30
0.0
 40
30.0
100
AcDbArc
 50
346.6450958441
 51
351.2222982363
  0
ARC
  5
123
330
1F
100
AcDbEntity
  8
0
  6
Continuous
 62
     7
370
    25
100
AcDbCircle
 10
0.0
 20
0.0
 30
0.0
 40
73.749
100
AcDbArc
 50
279.2840292946
 51
279.9159707054
  0
ARC
  5
124
330
1F
100
AcDbEntity
  8
0
  6
Continuous
 62
     7
370
    25
100
AcDbCircle
 10
39.1937565313
 20
-58.5734534297
 30
0.0
 40
29.99999999999999
100
AcDbArc
 50
207.9777017637
 51
212.5549041559
  0
ARC
  5
125
330
1F
100
AcDbEntity
  8
0
  6
Continuous
 62
     7
370
    25
100
AcDbCircle
 10
0.0
 20
0.0
 30
0.0
 40
76.00000000000001
100
AcDbArc
 50
280.5441446068
 51
281.0558553932
  0
ARC
  5
126
330
1F
100
AcDbEntity
  8
0
  6
Continuous
 62
     7
370
    25
100
AcDbCircle
 10
-14.8791068734
 20
-68.8884037873
 30
0.0
 40
30.0
100
AcDbArc
 50
349.0450958441
 51
353.6222982363
  0
ARC
  5
127
330
1F
100
AcDbEntity
  8
0
  6
Continuous
 62
     7
370
    25
100
AcDbCircle
 10
0.0
 20
0.0
 30
0.0
 40
73.749
100
AcDbArc
 50
281.6840292946
 51
282.3159707054
  0
ARC
  5
128
330
1F
100
AcDbEntity
  8
0
  6
Continuous
 62
     7
370
    25
100
AcDbCircle
 10
41.6121786013
 20
-56.8808103825
 30
0.0
 40
29.99999999999999
100
AcDbArc
 50
210.3777017637
 51
214.9549041559
  0
ARC
  5
129
330
1F
100
AcDbEntity
  8
0
  6
Continuous
 62
     7
370
    25
100
AcDbCircle
 10
0.0
 20
0.0
 30
0.0
 40
76.00000000000003
100
AcDbArc
 50
282.9441446068
 51
283.4558553932
  0
ARC
  5
12A
330
1F
100
AcDbEntity
  8
0
  6
Continuous
 62
     7
370
    25
100
AcDbCircle
 10
-11.9813084258
 20
-69.4510492802
 30
0.0
 40
30.0
100
AcDbArc
 50
351.4450958441
 51
356.0222982363
  0
ARC
  5
12B
330
1F
100
AcDbEntity
  8
0
  6
Continuous
 62
     7
370
    25
100
AcDbCircle
 10
0.0
 20
0.0
 30
0.0
 40
73.74900000000001
100
AcDbArc
 50
284.0840292946
 51
284.7159707054
  0
ARC
  5
12C
330
1F
100
AcDbEntity
  8
0
  6
Continuous
 62
     7
370
    25
100
AcDbCircle
 10
43.9575987701
 20
-55.0883790656
 30
0.0
 40
29.99999999999999
100
AcDbArc
 50
212.7777017637
 51
217.3549041559
  0
ARC
  5
12D
330
1F
100
AcDbEntity
  8
0
  6
Continuous
 62
     7
370
    25
100
AcDbCircle
 10
0.0
 20
0.0
 30
0.0
 40
76.00000000000001
100
AcDbArc
 50
285.3441446068
 51
285.8558553932
  0
ARC
  5
12E
330
1F
100
AcDbEntity
  8
0
  6
Continuous
 62
     7
370
    25
100
AcDbCircle
 10
-9.0624906918
 20
-69.891854033
 30
0.0
 40
30.00000000000001
100
AcDbArc
 50
353.8450958441
 51
358.4222982363
  0
ARC
  5
12F
330
1F
100
AcDbEntity
  8
0
  6
Continuous
 62
     7
370
    25
100
AcDbCircle
 10
0.0
 20
0.0
 30
0.0
 40
73.74900000000001
100
AcDbArc
 50
286.4840292946
 51
287.1159707054
  0
ARC
  5
130
330
1F
100
AcDbEntity
  8
0
  6
Continuous
 62
     7
370
    25
100
AcDbCircle
 10
46.2259023738
 20
-53.1993040128
 30
0.0
 40
29.99999999999999
100
AcDbArc
 50
215.1777017637
 51
219.7549041559
  0
ARC
  5
131
330
1F
100
AcDbEntity
  8
0
  6
Continuous
 62
     7
370
    25
100
AcDbCircle
 10
0.0
 20
0.0
 30
0.0
 40
76.00000000000003
100
AcDbArc
 50
287.7441446068
 51
288.2558553932
  0
ARC
  5
132
330
1F
100
AcDbEntity
  8
0
  6
Continuous
 62
     7
370
    25
100
AcDbCircle
 10
-6.1277742698
 20
-70.2100447245
 30
0.0
 40
30.00000000000001
100
AcDbArc
 50
356.2450958441
 51
0.8222982363
  0
ARC
  5
133
330
1F
100
AcDbEntity
  8
0
  6
Continuous
 62
     7
370
    25
100
AcDbCircle
 10
0.0
 20
0.0
 30
0.0
 40
73.74900000000002
100
AcDbArc
 50
288.8840292946
 51
289.5159707054
  0
ARC
  5
134
330
1F
100
AcDbEntity
  8
0
  6
Continuous
 62
     7
370
    25
100
AcDbCircle
 10
48.4131100371
 20
-51.2168993034
 30
0.0
 40
30.0
100
AcDbArc
 50
217.5777017637
 51
222.1549041559
  0
ARC
  5
135
330
1F
100
AcDbEntity
  8
0
  6
Continuous
 62
     7
370
    25
100
AcDbCircle
 10
0.0
 20
0.0
 30
0.0
 40
76.00000000000001
100
AcDbArc
 50
290.1441446068
 51
290.6558553932
  0
ARC
  5
136
330
1F
100
AcDbEntity
  8
0
  6
Continuous
 62
     7
370
    25
100
AcDbCircle
 10
-3.1823076495
 20
-70.4050631399
 30
0.0
 40
30.0
100
AcDbArc
 50
358.6450958441
 51
3.2222982363
  0
ARC
  5
137
330
1F
100
AcDbEntity
  8
0
  6
Continuous
 62
     7
370
    25
100
AcDbCircle
 10
0.0
 20
0.0
 30
0.0
 40
73.749
100
AcDbArc
 50
291.2840292946
 51
291.9159707054
  0
ARC
  5
138
330
1F
100
AcDbEntity
  8
0
  6
Continuous
 62
     7
370
    25
100
AcDbCircle
 10
50.5153846544
 20
-49.144642749
 30
0.0
 40
29.99999999999999
100
AcDbArc
 50
219.9777017637
 51
224.5549041559
  0
ARC
  5
139
330
1F
100
AcDbEntity
  8
0
  6
Continuous
 62
     7
370
    25
100
AcDbCircle
 10
0.0
 20
0.0
 30
0.0
 40
76.00000000000003
100
AcDbArc
 50
292.5441446068
 51
293.0558553932
  0
ARC
  5
13A
330
1F
100
AcDbEntity
  8
0
  6
Continuous
 62
     7
370
    25
100
AcDbCircle
 10
-0.2312581801
 20
-70.4765671509
 30
0.0
 40
30.0
100
AcDbArc
 50
1.0450958441
 51
5.6222982363
  0
ARC
  5
13B
330
1F
100
AcDbEntity
  8
0
  6
Continuous
 62
     7
370
    25
100
AcDbCircle
 10
0.0
 20
0.0
 30
0.0
 40
73.74900000000001
100
AcDbArc
 50
293.6840292946
 51
294.3159707054
  0
ARC
  5
13C
330
1F
100
AcDbEntity
  8
0
  6
Continuous
 62
     7
370
    25
100
AcDbCircle
 10
52.5290381219
 20
-46.9861697918
 30
0.0
 40
30.0
100
AcDbArc
 50
222.3777017637
 51
226.9549041559
  0
ARC
  5
13D
330
1F
100
AcDbEntity
  8
0
  6
Continuous
 62
     7
370
    25
100
AcDbCircle
 10
0.0
 20
0.0
 30
0.0
 40
76.00000000000003
100
AcDbArc
 50
294.9441446068
 51
295.4558553932
  0
ARC
  5
13E
330
1F
100
AcDbEntity
  8
0
  6
Continuous
 62
     7
370
    25
100
AcDbCircle
 10
2.7201969946
 20
-70.4244313149
 30
0.0
 40
30.0
100
AcDbArc
 50
3.4450958441
 51
8.0222982363
  0
ARC
  5
13F
330
1F
100
AcDbEntity
  8
0
  6
Continuous
 62
     7
370
    25
100
AcDbCircle
 10
0.0
 20
0.0
 30
0.0
 40
73.74900000000001
100
AcDbArc
 50
296.0840292946
 51
296.7159707054
  0
ARC
  5
140
330
1F
100
AcDbEntity
  8
0
  6
Continuous
 62
     7
370
    25
100
AcDbCircle
 10
54.450537807
 20
-44.7452671268
 30
0.0
 40
29.99999999999999
100
AcDbArc
 50
224.7777017637
 51
229.3549041559
  0
ARC
  5
141
330
1F
100
AcDbEntity
  8
0
  6
Continuous
 62
     7
370
    25
100
AcDbCircle
 10
0.0
 20
0.0
 30
0.0
 40
76.00000000000001
100
AcDbArc
 50
297.3441446068
 51
297.8558553932
  0
ARC
  5
142
330
1F
100
AcDbEntity
  8
0
  6
Continuous
 62
     7
370
    25
100
AcDbCircle
 10
5.6668800195
 20
-70.248747096
 30
0.0
 40
30.0
100
AcDbArc
 50
5.8450958441
 51
10.4222982363
  0
ARC
  5
143
330
1F
100
AcDbEntity
  8
0
  6
Continuous
 62
     7
370
    25
100
AcDbCircle
 10
0.0
 20
0.0
 30
0.0
 40
73.749
100
AcDbArc
 50
298.4840292946
 51
299.1159707054
  0
ARC
  5
144
330
1F
100
AcDbEntity
  8
0
  6
Continuous
 62
     7
370
    25
100
AcDbCircle
 10
56.2765127463
 20
-42.4258660587
 30
0.0
 40
29.99999999999999
100
AcDbArc
 50
227.1777017637
 51
231.7549041559
  0
ARC
  5
145
330
1F
100
AcDbEntity
  8
0
  6
Continuous
 62
     7
370
    25
100
AcDbCircle
 10
0.0
 20
0.0
 30
0.0
 40
76.00000000000001
100
AcDbArc
 50
299.7441446068
 51
300.2558553932
  0
ARC
  5
146
330
1F
100
AcDbEntity
  8
0
  6
Continuous
 62
     7
370
    25
100
AcDbCircle
 10
8.6036214112
 20
-69.949822704
 30
0.0
 40
30.0
100
AcDbArc
 50
8.2450958441
 51
12.8222982363
  0
ARC
  5
147
330
1F
100
AcDbEntity
  8
0
  6
Continuous
 62
     7
370
    25
100
AcDbCircle
 10
0.0
 20
0.0
 30
0.0
 40
73.749
100
AcDbArc
 50
300.8840292946
 51
301.5159707054
  0
ARC
  5
148
330
1F
100
AcDbEntity
  8
0
  6
Continuous
 62
     7
370
    25
100
AcDbCircle
 10
58.0037595594
 20
-40.0320356051
 30
0.0
 40
30.0
100
AcDbArc
 50
229.5777017637
 51
234.1549041559
  0
ARC
  5
149
330
1F
100
AcDbEntity
  8
0
  6
Continuous
 62
     7
370
    25
100
AcDbCircle
 10
0.0
 20
0.0
 30
0.0
 40
76.00000000000001
100
AcDbArc
 50
302.1441446068
 51
302.6558553932
  0
ARC
  5
14A
330
1F
100
AcDbEntity
  8
0
  6
Continuous
 62
     7
370
    25
100
AcDbCircle
 10
11.5252691274
 20
-69.5281825539
 30
0.0
 40
30.0
100
AcDbArc
 50
10.6450958441
 51
15.2222982363
  0
ARC
  5
14B
330
1F
100
AcDbEntity
  8
0
  6
Continuous
 62
     7
370
    25
100
AcDbCircle
 10
0.0
 20
0.0
 30
0.0
 40
73.74900000000002
100
AcDbArc
 50
303.2840292946
 51
303.9159707054
  0
ARC
  5
14C
330
1F
100
AcDbEntity
  8
0
  6
Continuous
 62
     7
370
    25
100
AcDbCircle
 10
59.6292480685
 20
-37.5679753581
 30
0.0
 40
29.99999999999999
100
AcDbArc
 50
231.9777017637
 51
236.5549041559
  0
ARC
  5
14D
330
1F
100
AcDbEntity
  8
0
  6
Continuous
 62
     7
370
    25
100
AcDbCircle
 10
0.0
 20
0.0
 30
0.0
 40
76.00000000000001
100
AcDbArc
 50
304.5441446068
 51
305.0558553932
  0
ARC
  5
14E
330
1F
100
AcDbEntity
  8
0
  6
Continuous
 62
     7
370
    25
100
AcDbCircle
 10
14.4266976053
 20
-68.9845663458
 30
0.0
 40
30.0
100
AcDbArc
 50
13.0450958441
 51
17.6222982363
  0
ARC
  5
14F
330
1F
100
AcDbEntity
  8
0
  6
Continuous
 62
     7
370
    25
100
AcDbCircle
 10
0.0
 20
0.0
 30
0.0
 40
73.74900000000001
100
AcDbArc
 50
305.6840292946
 51
306.3159707054
  0
ARC
  5
150
330
1F
100
AcDbEntity
  8
0
  6
Continuous
 62
     7
370
    25
100
AcDbCircle
 10
61.1501266142
 20
-35.0380081166
 30
0.0
 40
30.0
100
AcDbArc
 50
234.3777017637
 51
238.9549041559
  0
ARC
  5
151
330
1F
100
AcDbEntity
  8
0
  6
Continuous
 62
     7
370
    25
100
AcDbCircle
 10
0.0
 20
0.0
 30
0.0
 40
76.00000000000001
100
AcDbArc
 50
306.9441446068
 51
307.4558553932
  0
ARC
  5
152
330
1F
100
AcDbEntity
  8
0
  6
Continuous
 62
     7
370
    25
100
AcDbCircle
 10
17.3028167534
 20
-68.3199277672
 30
0.0
 40
30.0
100
AcDbArc
 50
15.4450958441
 51
20.0222982363
  0
ARC
  5
153
330
1F
100
AcDbEntity
  8
0
  6
Continuous
 62
     7
370
    25
100
AcDbCircle
 10
0.0
 20
0.0
 30
0.0
 40
73.74900000000001
100
AcDbArc
 50
308.0840292946
 51
308.7159707054
  0
ARC
  5
154
330
1F
100
AcDbEntity
  8
0
  6
Continuous
 62
     7
370
    25
100
AcDbCircle
 10
62.563727059
 20
-32.4465723029
 30
0.0
 40
29.99999999999999
100
AcDbArc
 50
236.7777017637
 51
241.3549041559
  0
ARC
  5
155
330
1F
100
AcDbEntity
  8
0
  6
Continuous
 62
     7
370
    25
100
AcDbCircle
 10
0.0
 20
0.0
 30
0.0
 40
76.00000000000001
100
AcDbArc
 50
309.3441446068
 51
309.8558553932
  0
ARC
  5
156
330
1F
100
AcDbEntity
  8
0
  6
Continuous
 62
     7
370
    25
100
AcDbCircle
 10
20.1485808813
 20
-67.53543282
 30
0.0
 40
30.0
100
AcDbArc
 50
17.8450958441
 51
22.4222982363
  0
ARC
  5
157
330
1F
100
AcDbEntity
  8
0
  6
Continuous
 62
     7
370
    25
100
AcDbCircle
 10
0.0
 20
0.0
 30
0.0
 40
73.74900000000001
100
AcDbArc
 50
310.4840292946
 51
311.1159707054
  0
ARC
  5
158
330
1F
100
AcDbEntity
  8
0
  6
Continuous
 62
     7
370
    25
100
AcDbCircle
 10
63.8675694671
 20
-29.7982141759
 30
0.0
 40
30.0
100
AcDbArc
 50
239.1777017637
 51
243.7549041559
  0
ARC
  5
159
330
1F
100
AcDbEntity
  8
0
  6
Continuous
 62
     7
370
    25
100
AcDbCircle
 10
0.0
 20
0.0
 30
0.0
 40
76.00000000000001
100
AcDbArc
 50
311.7441446068
 51
312.2558553932
  0
ARC
  5
15A
330
1F
100
AcDbEntity
  8
0
  6
Continuous
 62
     7
370
    25
100
AcDbCircle
 10
22.9589975518
 20
-66.632457775
 30
0.0
 40
30.0
100
AcDbArc
 50
20.2450958441
 51
24.8222982363
  0
ARC
  5
15B
330
1F
100
AcDbEntity
  8
0
  6
Continuous
 62
     7
370
    25
100
AcDbCircle
 10
0.0
 20
0.0
 30
0.0
 40
73.74900000000002
100
AcDbArc
 50
312.8840292946
 51
313.5159707054
  0
ARC
  5
15C
330
1F
100
AcDbEntity
  8
0
  6
Continuous
 62
     7
370
    25
100
AcDbCircle
 10
65.0593664561
 20
-27.0975798558
 30
0.0
 40
29.99999999999999
100
AcDbArc
 50
241.5777017637
 51
246.1549041559
  0
ARC
  5
15D
330
1F
100
AcDbEntity
  8
0
  6
Continuous
 62
     7
370
    25
100
AcDbCircle
 10
0.0
 20
0.0
 30
0.0
 40
76.00000000000001
100
AcDbArc
 50
314.1441446068
 51
314.6558553932
  0
ARC
  5
15E
330
1F
100
AcDbEntity
  8
0
  6
Continuous
 62
     7
370
    25
100
AcDbCircle
 10
25.7291363391
 20
-65.6125867571
 30
0.0
 40
30.0
100
AcDbArc
 50
22.6450958441
 51
27.2222982363
  0
ARC
  5
15F
330
1F
100
AcDbEntity
  8
0
  6
Continuous
 62
     7
370
    25
100
AcDbCircle
 10
0.0
 20
0.0
 30
0.0
 40
73.74900000000001
100
AcDbArc
 50
315.2840292946
 51
315.9159707054
  0
ARC
  5
160
330
1F
100
AcDbEntity
  8
0
  6
Continuous
 62
     7
370
    25
100
AcDbCircle
 10
66.137027209
 20
-24.3494071728
 30
0.0
 40
29.99999999999999
100
AcDbArc
 50
243.9777017637
 51
248.5549041559
  0
ARC
  5
161
330
1F
100
AcDbEntity
  8
0
  6
Continuous
 62
     7
370
    25
100
AcDbCircle
 10
0.0
 20
0.0
 30
0.0
 40
76.00000000000003
100
AcDbArc
 50
316.5441446068
 51
317.0558553932
  0
ARC
  5
162
330
1F
100
AcDbEntity
  8
0
  6
Continuous
 62
     7
370
    25
100
AcDbCircle
 10
28.4541374784
 20
-64.4776089668
 30
0.0
 40
30.00000000000001
100
AcDbArc
 50
25.0450958441
 51
29.6222982363
  0
ARC
  5
163
330
1F
100
AcDbEntity
  8
0
  6
Continuous
 62
     7
370
    25
100
AcDbCircle
 10
0.0
 20
0.0
 30
0.0
 40
73.74900000000002
100
AcDbArc
 50
317.6840292946
 51
318.3159707054
  0
ARC
  5
164
330
1F
100
AcDbEntity
  8
0
  6
Continuous
 62
     7
370
    25
100
AcDbCircle
 10
67.0986611427
 20
-21.5585173556
 30
0.0
 40
30.0
100
AcDbArc
 50
246.3777017637
 51
250.9549041559
  0
ARC
  5
165
330
1F
100
AcDbEntity
  8
0
  6
Continuous
 62
     7
370
    25
100
AcDbCircle
 10
0.0
 20
0.0
 30
0.0
 40
76.00000000000001
100
AcDbArc
 50
318.9441446068
 51
319.4558553932
  0
ARC
  5
166
330
1F
100
AcDbEntity
  8
0
  6
Continuous
 62
     7
370
    25
100
AcDbCircle
 10
31.1292203919
 20
-63.2295155407
 30
0.0
 40
30.00000000000001
100
AcDbArc
 50
27.4450958441
 51
32.0222982363
  0
ARC
  5
167
330
1F
100
AcDbEntity
  8
0
  6
Continuous
 62
     7
370
    25
100
AcDbCircle
 10
0.0
 20
0.0
 30
0.0
 40
73.74900000000001
100
AcDbArc
 50
320.0840292946
 51
320.7159707054
  0
ARC
  5
168
330
1F
100
AcDbEntity
  8
0
  6
Continuous
 62
     7
370
    25
100
AcDbCircle
 10
67.9425812244
 20
-18.7298065734
 30
0.0
 40
29.99999999999999
100
AcDbArc
 50
248.7777017637
 51
253.3549041559
  0
ARC
  5
169
330
1F
100
AcDbEntity
  8
0
  6
Continuous
 62
     7
370
    25
100
AcDbCircle
 10
0.0
 20
0.0
 30
0.0
 40
76.00000000000001
100
AcDbArc
 50
321.3441446068
 51
321.8558553932
  0
ARC
  5
16A
330
1F
100
AcDbEntity
  8
0
  6
Continuous
 62
     7
370
    25
100
AcDbCircle
 10
33.7496920749
 20
-61.8704960588
 30
0.0
 40
30.0
100
AcDbArc
 50
29.8450958441
 51
34.4222982363
  0
ARC
  5
16B
330
1F
100
AcDbEntity
  8
0
  6
Continuous
 62
     7
370
    25
100
AcDbCircle
 10
0.0
 20
0.0
 30
0.0
 40
73.74900000000001
100
AcDbArc
 50
322.4840292946
 51
323.1159707054
  0
ARC
  5
16C
330
1F
100
AcDbEntity
  8
0
  6
Continuous
 62
     7
370
    25
100
AcDbCircle
 10
68.6673069316
 20
-15.868237346
 30
0.0
 40
30.0
100
AcDbArc
 50
251.1777017637
 51
255.7549041559
  0
ARC
  5
16D
330
1F
100
AcDbEntity
  8
0
  6
Continuous
 62
     7
370
    25
100
AcDbCircle
 10
0.0
 20
0.0
 30
0.0
 40
76.00000000000003
100
AcDbArc
 50
323.7441446068
 51
324.2558553932
  0
ARC
  5
16E
330
1F
100
AcDbEntity
  8
0
  6
Continuous
 62
     7
370
    25
100
AcDbCircle
 10
36.3109553299
 20
-60.4029347031
 30
0.0
 40
30.0
100
AcDbArc
 50
32.2450958441
 51
36.8222982363
  0
ARC
  5
16F
330
1F
100
AcDbEntity
  8
0
  6
Continuous
 62
     7
370
    25
100
AcDbCircle
 10
0.0
 20
0.0
 30
0.0
 40
73.74900000000001
100
AcDbArc
 50
324.8840292946
 51
325.5159707054
  0
ARC
  5
170
330
1F
100
AcDbEntity
  8
0
  6
Continuous
 62
     7
370
    25
100
AcDbCircle
 10
69.2715668492
 20
-12.9788298382
 30
0.0
 40
29.99999999999999
100
AcDbArc
 50
253.5777017637
 51
258.1549041559
  0
ARC
  5
171
330
1F
100
AcDbEntity
  8
0
  6
Continuous
 62
     7
370
    25
100
AcDbCircle
 10
0.0
 20
0.0
 30
0.0
 40
76.00000000000001
100
AcDbArc
 50
326.1441446068
 51
326.6558553932
  0
ARC
  5
172
330
1F
100
AcDbEntity
  8
0
  6
Continuous
 62
     7
370
    25
100
AcDbCircle
 10
38.8085168306
 20
-58.8294060749
 30
0.0
 40
30.0
100
AcDbArc
 50
34.6450958441
 51
39.2222982363
  0
ARC
  5
173
330
1F
100
AcDbEntity
  8
0
  6
Continuous
 62
     7
370
    25
100
AcDbCircle
 10
0.0
 20
0.0
 30
0.0
 40
73.74900000000001
100
AcDbArc
 50
327.2840292946
 51
327.9159707054
  0
ARC
  5
174
330
1F
100
AcDbEntity
  8
0
  6
Continuous
 62
     7
370
    25
100
AcDbCircle
 10
69.7543008999
 20
-10.0666530527
 30
0.0
 40
29.99999999999999
100
AcDbArc
 50
255.9777017637
 51
260.5549041559
  0
ARC
  5
175
330
1F
100
AcDbEntity
  8
0
  6
Continuous
 62
     7
370
    25
100
AcDbCircle
 10
0.0
 20
0.0
 30
0.0
 40
76.00000000000001
100
AcDbArc
 50
328.5441446068
 51
329.0558553932
  0
ARC
  5
176
330
1F
100
AcDbEntity
  8
0
  6
Continuous
 62
     7
370
    25
100
AcDbCircle
 10
41.2379950056
 20
-57.152670678
 30
0.0
 40
30.00000000000001
100
AcDbArc
 50
37.0450958441
 51
41.6222982363
  0
ARC
  5
177
330
1F
100
AcDbEntity
  8
0
  6
Continuous
 62
     7
370
    25
100
AcDbCircle
 10
0.0
 20
0.0
 30
0.0
 40
73.74900000000001
100
AcDbArc
 50
329.6840292946
 51
330.3159707054
  0
ARC
  5
178
330
1F
100
AcDbEntity
  8
0
  6
Continuous
 62
     7
370
    25
100
AcDbCircle
 10
70.1146622041
 20
-7.136815937
 30
0.0
 40
30.0
100
AcDbArc
 50
258.3777017637
 51
262.9549041559
  0
ARC
  5
179
330
1F
100
AcDbEntity
  8
0
  6
Continuous
 62
     7
370
    25
100
AcDbCircle
 10
0.0
 20
0.0
 30
0.0
 40
76.00000000000003
100
AcDbArc
 50
330.9441446068
 51
331.4558553932
  0
ARC
  5
17A
330
1F
100
AcDbEntity
  8
0
  6
Continuous
 62
     7
370
    25
100
AcDbCircle
 10
43.5951277247
 20
-55.3756700762
 30
0.0
 40
30.00000000000001
100
AcDbArc
 50
39.4450958441
 51
44.0222982363
  0
ARC
  5
17B
330
1F
100
AcDbEntity
  8
0
  6
Continuous
 62
     7
370
    25
100
AcDbCircle
 10
0.0
 20
0.0
 30
0.0
 40
73.74900000000001
100
AcDbArc
 50
332.0840292946
 51
332.7159707054
  0
ARC
  5
17C
330
1F
100
AcDbEntity
  8
0
  6
Continuous
 62
     7
370
    25
100
AcDbCircle
 10
70.3520185657
 20
-4.1944584211
 30
0.0
 40
29.99999999999999
100
AcDbArc
 50
260.7777017637
 51
265.3549041559
  0
ARC
  5
17D
330
1F
100
AcDbEntity
  8
0
  6
Continuous
 62
     7
370
    25
100
AcDbCircle
 10
0.0
 20
0.0
 30
0.0
 40
76.0
100
AcDbArc
 50
333.3441446068
 51
333.8558553932
  0
ARC
  5
17E
330
1F
100
AcDbEntity
  8
0
  6
Continuous
 62
     7
370
    25
100
AcDbCircle
 10
45.8757797759
 20
-53.5015217322
 30
0.0
 40
30.0
100
AcDbArc
 50
41.8450958441
 51
46.4222982363
  0
ARC
  5
17F
330
1F
100
AcDbEntity
  8
0
  6
Continuous
 62
     7
370
    25
100
AcDbCircle
 10
0.0
 20
0.0
 30
0.0
 40
73.749
100
AcDbArc
 50
334.4840292946
 51
335.1159707054
  0
ARC
  5
180
330
1F
100
AcDbEntity
  8
0
  6
Continuous
 62
     7
370
    25
100
AcDbCircle
 10
70.4659535809
 20
-1.2447423998
 30
0.0
 40
29.99999999999999
100
AcDbArc
 50
263.1777017637
 51
267.7549041559
  0
ARC
  5
181
330
1F
100
AcDbEntity
  8
0
  6
Continuous
 62
     7
370
    25
100
AcDbCircle
 10
0.0
 20
0.0
 30
0.0
 40
76.00000000000001
100
AcDbArc
 50
335.7441446068
 51
336.2558553932
  0
ARC
  5
182
330
1F
100
AcDbEntity
  8
0
  6
Continuous
 62
     7
370
    25
100
AcDbCircle
 10
48.0759501207
 20
-51.5335135393
 30
0.0
 40
30.00000000000001
100
AcDbArc
 50
44.2450958441
 51
48.8222982363
  0
ARC
  5
183
330
1F
100
AcDbEntity
  8
0
  6
Continuous
 62
     7
370
    25
100
AcDbCircle
 10
0.0
 20
0.0
 30
0.0
 40
73.74900000000001
100
AcDbArc
 50
336.8840292946
 51
337.5159707054
  0
ARC
  5
184
330
1F
100
AcDbEntity
  8
0
  6
Continuous
 62
     7
370
    25
100
AcDbCircle
 10
70.4562673691
 20
1.7071573226
 30
0.0
 40
30.0
100
AcDbArc
 50
265.5777017637
 51
270.1549041559
  0
ARC
  5
185
330
1F
100
AcDbEntity
  8
0
  6
Continuous
 62
     7
370
    25
100
AcDbCircle
 10
0.0
 20
0.0
 30
0.0
 40
76.00000000000001
100
AcDbArc
 50
338.1441446068
 51
338.6558553932
  0
ARC
  5
186
330
1F
100
AcDbEntity
  8
0
  6
Continuous
 62
     7
370
    25
100
AcDbCircle
 10
50.1917789127
 20
-49.4750980523
 30
0.0
 40
30.0
100
AcDbArc
 50
46.6450958441
 51
51.2222982363
  0
ARC
  5
187
330
1F
100
AcDbEntity
  8
0
  6
Continuous
 62
     7
370
    25
100
AcDbCircle
 10
0.0
 20
0.0
 30
0.0
 40
73.74900000000001
100
AcDbArc
 50
339.2840292946
 51
339.9159707054
  0
ARC
  5
188
330
1F
100
AcDbEntity
  8
0
  6
Continuous
 62
     7
370
    25
100
AcDbCircle
 10
70.3229769231
 20
4.656062111
 30
0.0
 40
29.99999999999999
100
AcDbArc
 50
267.9777017637
 51
272.5549041559
  0
ARC
  5
189
330
1F
100
AcDbEntity
  8
0
  6
Continuous
 62
     7
370
    25
100
AcDbCircle
 10
0.0
 20
0.0
 30
0.0
 40
76.00000000000003
100
AcDbArc
 50
340.5441446068
 51
341.0558553932
  0
ARC
  5
18A
330
1F
100
AcDbEntity
  8
0
  6
Continuous
 62
     7
370
    25
100
AcDbCircle
 10
52.2195542693
 20
-47.3298864317
 30
0.0
 40
30.0
100
AcDbArc
 50
49.0450958441
 51
53.6222982363
  0
ARC
  5
18B
330
1F
100
AcDbEntity
  8
0
  6
Continuous
 62
     7
370
    25
100
AcDbCircle
 10
0.0
 20
0.0
 30
0.0
 40
73.74900000000001
100
AcDbArc
 50
341.6840292946
 51
342.3159707054
  0
ARC
  5
18C
330
1F
100
AcDbEntity
  8
0
  6
Continuous
 62
     7
370
    25
100
AcDbCircle
 10
70.0663160797
 20
7.5967985843
 30
0.0
 40
30.0
100
AcDbArc
 50
270.3777017637
 51
274.9549041559
  0
ARC
  5
18D
330
1F
100
AcDbEntity
  8
0
  6
Continuous
 62
     7
370
    25
100
AcDbCircle
 10
0.0
 20
0.0
 30
0.0
 40
76.00000000000001
100
AcDbArc
 50
342.9441446068
 51
343.4558553932
  0
ARC
  5
18E
330
1F
100
AcDbEntity
  8
0
  6
Continuous
 62
     7
370
    25
100
AcDbCircle
 10
54.1557187833
 20
-45.1016421074
 30
0.0
 40
30.0
100
AcDbArc
 50
51.4450958441
 51
56.0222982363
  0
ARC
  5
18F
330
1F
100
AcDbEntity
  8
0
  6
Continuous
 62
     7
370
    25
100
AcDbCircle
 10
0.0
 20
0.0
 30
0.0
 40
73.74900000000001
100
AcDbArc
 50
344.0840292946
 51
344.7159707054
  0
ARC
  5
190
330
1F
100
AcDbEntity
  8
0
  6
Continuous
 62
     7
370
    25
100
AcDbCircle
 10
69.6867351092
 20
10.5242076915
 30
0.0
 40
30.0
100
AcDbArc
 50
272.7777017637
 51
277.3549041559
  0
ARC
  5
191
330
1F
100
AcDbEntity
  8
0
  6
Continuous
 62
     7
370
    25
100
AcDbCircle
 10
0.0
 20
0.0
 30
0.0
 40
76.00000000000001
100
AcDbArc
 50
345.3441446068
 51
345.8558553932
  0
ARC
  5
192
330
1F
100
AcDbEntity
  8
0
  6
Continuous
 62
     7
370
    25
100
AcDbCircle
 10
55.9968757643
 20
-42.7942741772
 30
0.0
 40
30.0
100
AcDbArc
 50
53.8450958441
 51
58.4222982363
  0
ARC
  5
193
330
1F
100
AcDbEntity
  8
0
  6
Continuous
 62
     7
370
    25
100
AcDbCircle
 10
0.0
 20
0.0
 30
0.0
 40
73.74900000000001
100
AcDbArc
 50
346.4840292946
 51
347.1159707054
  0
ARC
  5
194
330
1F
100
AcDbEntity
  8
0
  6
Continuous
 62
     7
370
    25
100
AcDbCircle
 10
69.1848999256
 20
13.4331537622
 30
0.0
 40
30.0
100
AcDbArc
 50
275.1777017637
 51
279.7549041559
  0
ARC
  5
195
330
1F
100
AcDbEntity
  8
0
  6
Continuous
 62
     7
370
    25
100
AcDbCircle
 10
0.0
 20
0.0
 30
0.0
 40
76.00000000000001
100
AcDbArc
 50
347.7441446068
 51
348.2558553932
  0
ARC
  5
196
330
1F
100
AcDbEntity
  8
0
  6
Continuous
 62
     7
370
    25
100
AcDbCircle
 10
57.7397951973
 20
-40.4118305485
 30
0.0
 40
30.00000000000001
100
AcDbArc
 50
56.2450958441
 51
60.8222982363
  0
ARC
  5
197
330
1F
100
AcDbEntity
  8
0
  6
Continuous
 62
     7
370
    25
100
AcDbCircle
 10
0.0
 20
0.0
 30
0.0
 40
73.74900000000002
100
AcDbArc
 50
348.8840292946
 51
349.5159707054
  0
ARC
  5
198
330
1F
100
AcDbEntity
  8
0
  6
Continuous
 62
     7
370
    25
100
AcDbCircle
 10
68.5616909183
 20
16.3185335166
 30
0.0
 40
30.0
100
AcDbArc
 50
277.5777017637
 51
282.1549041559
  0
ARC
  5
199
330
1F
100
AcDbEntity
  8
0
  6
Continuous
 62
     7
370
    25
100
AcDbCircle
 10
0.0
 20
0.0
 30
0.0
 40
76.00000000000003
100
AcDbArc
 50
350.1441446068
 51
350.6558553932
  0
ARC
  5
19A
330
1F
100
AcDbEntity
  8
0
  6
Continuous
 62
     7
370
    25
100
AcDbCircle
 10
59.3814194095
 20
-37.9584908371
 30
0.0
 40
30.00000000000001
100
AcDbArc
 50
58.6450958441
 51
63.2222982363
  0
ARC
  5
19B
330
1F
100
AcDbEntity
  8
0
  6
Continuous
 62
     7
370
    25
100
AcDbCircle
 10
0.0
 20
0.0
 30
0.0
 40
73.74900000000001
100
AcDbArc
 50
351.2840292946
 51
351.9159707054
  0
ARC
  5
19C
330
1F
100
AcDbEntity
  8
0
  6
Continuous
 62
     7
370
    25
100
AcDbCircle
 10
67.8182014078
 20
19.1752850182
 30
0.0
 40
30.0
100
AcDbArc
 50
279.9777017637
 51
284.5549041559
  0
ARC
  5
19D
330
1F
100
AcDbEntity
  8
0
  6
Continuous
 62
     7
370
    25
100
AcDbCircle
 10
0.0
 20
0.0
 30
0.0
 40
76.00000000000001
100
AcDbArc
 50
352.5441446068
 51
353.0558553932
  0
ARC
  5
19E
330
1F
100
AcDbEntity
  8
0
  6
Continuous
 62
     7
370
    25
100
AcDbCircle
 10
60.9188684341
 20
-35.4385590343
 30
0.0
 40
30.0
100
AcDbArc
 50
61.0450958441
 51
65.6222982363
  0
ARC
  5
19F
330
1F
100
AcDbEntity
  8
0
  6
Continuous
 62
     7
370
    25
100
AcDbCircle
 10
0.0
 20
0.0
 30
0.0
 40
73.74900000000002
100
AcDbArc
 50
353.6840292946
 51
354.3159707054
  0
ARC
  5
1A0
330
1F
100
AcDbEntity
  8
0
  6
Continuous
 62
     7
370
    25
100
AcDbCircle
 10
66.9557357272
 20
21.998396554
 30
0.0
 40
30.0
100
AcDbArc
 50
282.3777017637
 51
286.9549041559
  0
ARC
  5
1A1
330
1F
100
AcDbEntity
  8
0
  6
Continuous
 62
     7
370
    25
100
AcDbCircle
 10
0.0
 20
0.0
 30
0.0
 40
76.00000000000001
100
AcDbArc
 50
354.9441446068
 51
355.4558553932
  0
ARC
  5
1A2
330
1F
100
AcDbEntity
  8
0
  6
Continuous
 62
     7
370
    25
100
AcDbCircle
 10
62.3494450631
 20
-32.8564559568
 30
0.0
 40
30.0
100
AcDbArc
 50
63.4450958441
 51
68.0222982363
  0
ARC
  5
1A3
330
1F
100
AcDbEntity
  8
0
  6
Continuous
 62
     7
370
    25
100
AcDbCircle
 10
0.0
 20
0.0
 30
0.0
 40
73.749
100
AcDbArc
 50
356.0840292946
 51
356.7159707054
  0
ARC
  5
1A4
330
1F
100
AcDbEntity
  8
0
  6
Continuous
 62
     7
370
    25
100
AcDbCircle
 10
65.9758069344
 20
24.7829154272
 30
0.0
 40
30.0
100
AcDbArc
 50
284.7777017637
 51
289.3549041559
  0
ARC
  5
1A5
330
1F
100
AcDbEntity
  8
0
  6
Continuous
 62
     7
370
    25
100
AcDbCircle
 10
0.0
 20
0.0
 30
0.0
 40
76.00000000000003
100
AcDbArc
 50
357.3441446068
 51
357.8558553932
  0
ARC
  5
1A6
330
1F
100
AcDbEntity
  8
0
  6
Continuous
 62
     7
370
    25
100
AcDbCircle
 10
63.6706395789
 20
-30.2167114909
 30
0.0
 40
30.0
100
AcDbArc
 50
65.8450958441
 51
70.4222982363
  0
ARC
  5
1A7
330
1F
100
AcDbEntity
  8
0
  6
Continuous
 62
     7
370
    25
100
AcDbCircle
 10
0.0
 20
0.0
 30
0.0
 40
73.749
100
AcDbArc
 50
358.4840292946
 51
359.1159707054
  0
ARC
  5
1A8
330
1F
100
AcDbEntity
  8
0
  6
Continuous
 62
     7
370
    25
100
AcDbCircle
 10
64.8801341575
 20
27.5239566454
 30
0.0
 40
29.99999999999999
100
AcDbArc
 50
287.1777017637
 51
291.7549041559
  0
ARC
  5
1A9
330
1F
100
AcDbEntity
  8
0
  6
Continuous
 62
     7
370
    25
100
AcDbCircle
 10
0.0
 20
0.0
 30
0.0
 40
76.00000000000003
100
AcDbArc
 50
359.7441446068
 51
0.2558553932
  0
ARC
  5
1AA
330
1F
100
AcDbEntity
  8
0
  6
Continuous
 62
     7
370
    25
100
AcDbCircle
 10
64.8801341575
 20
-27.5239566454
 30
0.0
 40
30.0
100
AcDbArc
 50
68.2450958441
 51
72.8222982363
  0
ARC
  5
1AB
330
1F
100
AcDbEntity
  8
0
  6
Continuous
 62
     7
370
    25
100
AcDbCircle
 10
0.0
 20
0.0
 30
0.0
 40
73.74900000000001
100
AcDbArc
 50
0.8840292946
 51
1.5159707054
  0
ARC
  5
1AC
330
1F
100
AcDbEntity
  8
0
  6
Continuous
 62
     7
370
    25
100
AcDbCircle
 10
63.6706395789
 20
30.2167114909
 30
0.0
 40
29.99999999999999
100
AcDbArc
 50
289.5777017637
 51
294.1549041559
  0
ARC
  5
1AD
330
1F
100
AcDbEntity
  8
0
  6
Continuous
 62
     7
370
    25
100
AcDbCircle
 10
0.0
 20
0.0
 30
0.0
 40
76.00000000000003
100
AcDbArc
 50
2.1441446068
 51
2.6558553932
  0
ARC
  5
1AE
330
1F
100
AcDbEntity
  8
0
  6
Continuous
 62
     7
370
    25
100
AcDbCircle
 10
65.9758069344
 20
-24.7829154272
 30
0.0
 40
30.00000000000001
100
AcDbArc
 50
70.6450958441
 51
75.2222982363
  0
ARC
  5
1AF
330
1F
100
AcDbEntity
  8
0
  6
Continuous
 62
     7
370
    25
100
AcDbCircle
 10
0.0
 20
0.0
 30
0.0
 40
73.74900000000001
100
AcDbArc
 50
3.2840292946
 51
3.9159707054
  0
ARC
  5
1B0
330
1F
100
AcDbEntity
  8
0
  6
Continuous
 62
     7
370
    25
100
AcDbCircle
 10
62.3494450631
 20
32.8564559568
 30
0.0
 40
30.0
100
AcDbArc
 50
291.9777017637
 51
296.5549041559
  0
ARC
  5
1B1
330
1F
100
AcDbEntity
  8
0
  6
Continuous
 62
     7
370
    25
100
AcDbCircle
 10
0.0
 20
0.0
 30
0.0
 40
76.00000000000001
100
AcDbArc
 50
4.5441446068
 51
5.0558553932
  0
ARC
  5
1B2
330
1F
100
AcDbEntity
  8
0
  6
Continuous
 62
     7
370
    25
100
AcDbCircle
 10
66.9557357272
 20
-21.998396554
 30
0.0
 40
30.0
100
AcDbArc
 50
73.0450958441
 51
77.6222982363
  0
ARC
  5
1B3
330
1F
100
AcDbEntity
  8
0
  6
Continuous
 62
     7
370
    25
100
AcDbCircle
 10
0.0
 20
0.0
 30
0.0
 40
73.749
100
AcDbArc
 50
5.6840292946
 51
6.3159707054
  0
ARC
  5
1B4
330
1F
100
AcDbEntity
  8
0
  6
Continuous
 62
     7
370
    25
100
AcDbCircle
 10
60.9188684341
 20
35.4385590343
 30
0.0
 40
30.0
100
AcDbArc
 50
294.3777017637
 51
298.9549041559
  0
ARC
  5
1B5
330
1F
100
AcDbEntity
  8
0
  6
Continuous
 62
     7
370
    25
100
AcDbCircle
 10
0.0
 20
0.0
 30
0.0
 40
76.00000000000003
100
AcDbArc
 50
6.9441446068
 51
7.4558553932
  0
ARC
  5
1B6
330
1F
100
AcDbEntity
  8
0
  6
Continuous
 62
     7
370
    25
100
AcDbCircle
 10
67.8182014078
 20
-19.1752850182
 30
0.0
 40
30.0
100
AcDbArc
 50
75.4450958441
 51
80.0222982363
  0
ARC
  5
1B7
330
1F
100
AcDbEntity
  8
0
  6
Continuous
 62
     7
370
    25
100
AcDbCircle
 10
0.0
 20
0.0
 30
0.0
 40
73.74900000000002
100
AcDbArc
 50
8.0840292946
 51
8.7159707054
  0
ARC
  5
1B8
330
1F
100
AcDbEntity
  8
0
  6
Continuous
 62
     7
370
    25
100
AcDbCircle
 10
59.3814194095
 20
37.9584908371
 30
0.0
 40
30.00000000000001
100
AcDbArc
 50
296.7777017637
 51
301.3549041559
  0
ARC
  5
1B9
330
1F
100
AcDbEntity
  8
0
  6
Continuous
 62
     7
370
    25
100
AcDbCircle
 10
0.0
 20
0.0
 30
0.0
 40
76.00000000000001
100
AcDbArc
 50
9.3441446068
 51
9.8558553932
  0
ARC
  5
1BA
330
1F
100
AcDbEntity
  8
0
  6
Continuous
 62
     7
370
    25
100
AcDbCircle
 10
68.5616909183
 20
-16.3185335166
 30
0.0
 40
30.0
100
AcDbArc
 50
77.8450958441
 51
82.4222982363
  0
ARC
  5
1BB
330
1F
100
AcDbEntity
  8
0
  6
Continuous
 62
     7
370
    25
100
AcDbCircle
 10
0.0
 20
0.0
 30
0.0
 40
73.74900000000001
100
AcDbArc
 50
10.4840292946
 51
11.1159707054
  0
ARC
  5
1BC
330
1F
100
AcDbEntity
  8
0
  6
Continuous
 62
     7
370
    25
100
AcDbCircle
 10
57.7397951973
 20
40.4118305485
 30
0.0
 40
29.99999999999999
100
AcDbArc
 50
299.1777017637
 51
303.7549041559
  0
ARC
  5
1BD
330
1F
100
AcDbEntity
  8
0
  6
Continuous
 62
     7
370
    25
100
AcDbCircle
 10
0.0
 20
0.0
 30
0.0
 40
76.00000000000001
100
AcDbArc
 50
11.7441446068
 51
12.2558553932
  0
ARC
  5
1BE
330
1F
100
AcDbEntity
  8
0
  6
Continuous
 62
     7
370
    25
100
AcDbCircle
 10
69.1848999256
 20
-13.4331537622
 30
0.0
 40
30.0
100
AcDbArc
 50
80.2450958441
 51
84.8222982363
  0
ARC
  5
1BF
330
1F
100
AcDbEntity
  8
0
  6
Continuous
 62
     7
370
    25
100
AcDbCircle
 10
0.0
 20
0.0
 30
0.0
 40
73.74900000000001
100
AcDbArc
 50
12.8840292946
 51
13.5159707054
  0
ARC
  5
1C0
330
1F
100
AcDbEntity
  8
0
  6
Continuous
 62
     7
370
    25
100
AcDbCircle
 10
55.9968757643
 20
42.7942741772
 30
0.0
 40
30.0
100
AcDbArc
 50
301.5777017637
 51
306.1549041559
  0
ARC
  5
1C1
330
1F
100
AcDbEntity
  8
0
  6
Continuous
 62
     7
370
    25
100
AcDbCircle
 10
0.0
 20
0.0
 30
0.0
 40
76.0
100
AcDbArc
 50
14.1441446068
 51
14.6558553932
  0
ARC
  5
1C2
330
1F
100
AcDbEntity
  8
0
  6
Continuous
 62
     7
370
    25
100
AcDbCircle
 10
69.6867351092
 20
-10.5242076915
 30
0.0
 40
30.0
100
AcDbArc
 50
82.6450958441
 51
87.2222982363
  0
ARC
  5
1C3
330
1F
100
AcDbEntity
  8
0
  6
Continuous
 62
     7
370
    25
100
AcDbCircle
 10
0.0
 20
0.0
 30
0.0
 40
73.749
100
AcDbArc
 50
15.2840292946
 51
15.9159707054
  0
ARC
  5
1C4
330
1F
100
AcDbEntity
  8
0
  6
Continuous
 62
     7
370
    25
100
AcDbCircle
 10
54.1557187833
 20
45.1016421074
 30
0.0
 40
30.0
100
AcDbArc
 50
303.9777017637
 51
308.5549041559
  0
ARC
  5
1C5
330
1F
100
AcDbEntity
  8
0
  6
Continuous
 62
     7
370
    25
100
AcDbCircle
 10
0.0
 20
0.0
 30
0.0
 40
76.00000000000003
100
AcDbArc
 50
16.5441446068
 51
17.0558553932
  0
ARC
  5
1C6
330
1F
100
AcDbEntity
  8
0
  6
Continuous
 62
     7
370
    25
100
AcDbCircle
 10
70.0663160797
 20
-7.5967985843
 30
0.0
 40
30.0
100
AcDbArc
 50
85.0450958441
 51
89.6222982363
  0
ARC
  5
1C7
330
1F
100
AcDbEntity
  8
0
  6
Continuous
 62
     7
370
    25
100
AcDbCircle
 10
0.0
 20
0.0
 30
0.0
 40
73.74900000000002
100
AcDbArc
 50
17.6840292946
 51
18.3159707054
  0
ARC
  5
1C8
330
1F
100
AcDbEntity
  8
0
  6
Continuous
 62
     7
370
    25
100
AcDbCircle
 10
52.2195542693
 20
47.3298864317
 30
0.0
 40
30.0
100
AcDbArc
 50
306.3777017637
 51
310.9549041559
  0
ARC
  5
1C9
330
1F
100
AcDbEntity
  8
0
  6
Continuous
 62
     7
370
    25
100
AcDbCircle
 10
0.0
 20
0.0
 30
0.0
 40
76.00000000000003
100
AcDbArc
 50
18.9441446068
 51
19.4558553932
  0
ARC
  5
1CA
330
1F
100
AcDbEntity
  8
0
  6
Continuous
 62
     7
370
    25
100
AcDbCircle
 10
70.3229769231
 20
-4.656062111
 30
0.0
 40
30.0
100
AcDbArc
 50
87.4450958441
 51
92.0222982363
  0
ARC
  5
1CB
330
1F
100
AcDbEntity
  8
0
  6
Continuous
 62
     7
370
    25
100
AcDbCircle
 10
0.0
 20
0.0
 30
0.0
 40
73.74900000000001
100
AcDbArc
 50
20.0840292946
 51
20.7159707054
  0
ARC
  5
1CC
330
1F
100
AcDbEntity
  8
0
  6
Continuous
 62
     7
370
    25
100
AcDbCircle
 10
50.1917789127
 20
49.4750980523
 30
0.0
 40
29.99999999999999
100
AcDbArc
 50
308.7777017637
 51
313.3549041559
  0
ARC
  5
1CD
330
1F
100
AcDbEntity
  8
0
  6
Continuous
 62
     7
370
    25
100
AcDbCircle
 10
0.0
 20
0.0
 30
0.0
 40
76.00000000000001
100
AcDbArc
 50
21.3441446068
 51
21.8558553932
  0
ARC
  5
1CE
330
1F
100
AcDbEntity
  8
0
  6
Continuous
 62
     7
370
    25
100
AcDbCircle
 10
70.4562673691
 20
-1.7071573226
 30
0.0
 40
30.0
100
AcDbArc
 50
89.8450958441
 51
94.4222982363
  0
ARC
  5
1CF
330
1F
100
AcDbEntity
  8
0
  6
Continuous
 62
     7
370
    25
100
AcDbCircle
 10
0.0
 20
0.0
 30
0.0
 40
73.74900000000001
100
AcDbArc
 50
22.4840292946
 51
23.1159707054
  0
ARC
  5
1D0
330
1F
100
AcDbEntity
  8
0
  6
Continuous
 62
     7
370
    25
100
AcDbCircle
 10
48.0759501207
 20
51.5335135393
 30
0.0
 40
30.0
100
AcDbArc
 50
311.1777017637
 51
315.7549041559
  0
ARC
  5
1D1
330
1F
100
AcDbEntity
  8
0
  6
Continuous
 62
     7
370
    25
100
AcDbCircle
 10
0.0
 20
0.0
 30
0.0
 40
76.00000000000001
100
AcDbArc
 50
23.7441446068
 51
24.2558553932
  0
ARC
  5
1D2
330
1F
100
AcDbEntity
  8
0
  6
Continuous
 62
     7
370
    25
100
AcDbCircle
 10
70.4659535809
 20
1.2447423998
 30
0.0
 40
30.00000000000001
100
AcDbArc
 50
92.2450958441
 51
96.8222982363
  0
ARC
  5
1D3
330
1F
100
AcDbEntity
  8
0
  6
Continuous
 62
     7
370
    25
100
AcDbCircle
 10
0.0
 20
0.0
 30
0.0
 40
73.74900000000002
100
AcDbArc
 50
24.8840292946
 51
25.5159707054
  0
ARC
  5
1D4
330
1F
100
AcDbEntity
  8
0
  6
Continuous
 62
     7
370
    25
100
AcDbCircle
 10
45.8757797759
 20
53.5015217323
 30
0.0
 40
30.0
100
AcDbArc
 50
313.5777017637
 51
318.1549041559
  0
ARC
  5
1D5
330
1F
100
AcDbEntity
  8
0
  6
Continuous
 62
     7
370
    25
100
AcDbCircle
 10
0.0
 20
0.0
 30
0.0
 40
76.00000000000003
100
AcDbArc
 50
26.1441446068
 51
26.6558553932
  0
ARC
  5
1D6
330
1F
100
AcDbEntity
  8
0
  6
Continuous
 62
     7
370
    25
100
AcDbCircle
 10
70.3520185657
 20
4.1944584211
 30
0.0
 40
30.00000000000001
100
AcDbArc
 50
94.6450958441
 51
99.2222982363
  0
ARC
  5
1D7
330
1F
100
AcDbEntity
  8
0
  6
Continuous
 62
     7
370
    25
100
AcDbCircle
 10
0.0
 20
0.0
 30
0.0
 40
73.74900000000001
100
AcDbArc
 50
27.2840292946
 51
27.9159707054
  0
ARC
  5
1D8
330
1F
100
AcDbEntity
  8
0
  6
Continuous
 62
     7
370
    25
100
AcDbCircle
 10
43.5951277247
 20
55.3756700762
 30
0.0
 40
30.0
100
AcDbArc
 50
315.9777017637
 51
320.5549041559
  0
ARC
  5
1D9
330
1F
100
AcDbEntity
  8
0
  6
Continuous
 62
     7
370
    25
100
AcDbCircle
 10
0.0
 20
0.0
 30
0.0
 40
76.00000000000003
100
AcDbArc
 50
28.5441446068
 51
29.0558553932
  0
ARC
  5
1DA
330
1F
100
AcDbEntity
  8
0
  6
Continuous
 62
     7
370
    25
100
AcDbCircle
 10
70.1146622041
 20
7.136815937
 30
0.0
 40
30.0
100
AcDbArc
 50
97.0450958441
 51
101.6222982363
  0
ARC
  5
1DB
330
1F
100
AcDbEntity
  8
0
  6
Continuous
 62
     7
370
    25
100
AcDbCircle
 10
0.0
 20
0.0
 30
0.0
 40
73.74900000000001
100
AcDbArc
 50
29.6840292946
 51
30.3159707054
  0
ARC
  5
1DC
330
1F
100
AcDbEntity
  8
0
  6
Continuous
 62
     7
370
    25
100
AcDbCircle
 10
41.2379950056
 20
57.152670678
 30
0.0
 40
30.0
100
AcDbArc
 50
318.3777017637
 51
322.9549041559
  0
ARC
  5
1DD
330
1F
100
AcDbEntity
  8
0
  6
Continuous
 62
     7
370
    25
100
AcDbCircle
 10
0.0
 20
0.0
 30
0.0
 40
76.00000000000001
100
AcDbArc
 50
30.9441446068
 51
31.4558553932
  0
ARC
  5
1DE
330
1F
100
AcDbEntity
  8
0
  6
Continuous
 62
     7
370
    25
100
AcDbCircle
 10
69.7543008999
 20
10.0666530527
 30
0.0
 40
30.0
100
AcDbArc
 50
99.4450958441
 51
104.0222982363
  0
ARC
  5
1DF
330
1F
100
AcDbEntity
  8
0
  6
Continuous
 62
     7
370
    25
100
AcDbCircle
 10
0.0
 20
0.0
 30
0.0
 40
73.74900000000001
100
AcDbArc
 50
32.0840292946
 51
32.7159707054
  0
ARC
  5
1E0
330
1F
100
AcDbEntity
  8
0
  6
Continuous
 62
     7
370
    25
100
AcDbCircle
 10
38.8085168306
 20
58.8294060749
 30
0.0
 40
30.0
100
AcDbArc
 50
320.7777017637
 51
325.3549041559
  0
ARC
  5
1E1
330
1F
100
AcDbEntity
  8
0
  6
Continuous
 62
     7
370
    25
100
AcDbCircle
 10
0.0
 20
0.0
 30
0.0
 40
76.00000000000001
100
AcDbArc
 50
33.3441446068
 51
33.8558553932
  0
ARC
  5
1E2
330
1F
100
AcDbEntity
  8
0
  6
Continuous
 62
     7
370
    25
100
AcDbCircle
 10
69.2715668492
 20
12.9788298382
 30
0.0
 40
30.0
100
AcDbArc
 50
101.8450958441
 51
106.4222982363
  0
ARC
  5
1E3
330
1F
100
AcDbEntity
  8
0
  6
Continuous
 62
     7
370
    25
100
AcDbCircle
 10
0.0
 20
0.0
 30
0.0
 40
73.74900000000001
100
AcDbArc
 50
34.4840292946
 51
35.1159707054
  0
ARC
  5
1E4
330
1F
100
AcDbEntity
  8
0
  6
Continuous
 62
     7
370
    25
100
AcDbCircle
 10
36.3109553299
 20
60.4029347031
 30
0.0
 40
29.99999999999999
100
AcDbArc
 50
323.1777017637
 51
327.7549041559
  0
ARC
  5
1E5
330
1F
100
AcDbEntity
  8
0
  6
Continuous
 62
     7
370
    25
100
AcDbCircle
 10
0.0
 20
0.0
 30
0.0
 40
76.0
100
AcDbArc
 50
35.7441446068
 51
36.2558553932
  0
ARC
  5
1E6
330
1F
100
AcDbEntity
  8
0
  6
Continuous
 62
     7
370
    25
100
AcDbCircle
 10
68.6673069316
 20
15.868237346
 30
0.0
 40
30.0
100
AcDbArc
 50
104.2450958441
 51
108.8222982363
  0
ARC
  5
1E7
330
1F
100
AcDbEntity
  8
0
  6
Continuous
 62
     7
370
    25
100
AcDbCircle
 10
0.0
 20
0.0
 30
0.0
 40
73.74900000000001
100
AcDbArc
 50
36.8840292946
 51
37.5159707054
  0
ARC
  5
1E8
330
1F
100
AcDbEntity
  8
0
  6
Continuous
 62
     7
370
    25
100
AcDbCircle
 10
33.7496920749
 20
61.8704960588
 30
0.0
 40
30.0
100
AcDbArc
 50
325.5777017637
 51
330.1549041559
  0
ARC
  5
1E9
330
1F
100
AcDbEntity
  8
0
  6
Continuous
 62
     7
370
    25
100
AcDbCircle
 10
0.0
 20
0.0
 30
0.0
 40
76.00000000000003
100
AcDbArc
 50
38.1441446068
 51
38.6558553932
  0
ARC
  5
1EA
330
1F
100
AcDbEntity
  8
0
  6
Continuous
 62
     7
370
    25
100
AcDbCircle
 10
67.9425812244
 20
18.7298065734
 30
0.0
 40
30.0
100
AcDbArc
 50
106.6450958441
 51
111.2222982363
  0
ARC
  5
1EB
330
1F
100
AcDbEntity
  8
0
  6
Continuous
 62
     7
370
    25
100
AcDbCircle
 10
0.0
 20
0.0
 30
0.0
 40
73.74900000000001
100
AcDbArc
 50
39.2840292946
 51
39.9159707054
  0
ARC
  5
1EC
330
1F
100
AcDbEntity
  8
0
  6
Continuous
 62
     7
370
    25
100
AcDbCircle
 10
31.1292203919
 20
63.2295155407
 30
0.0
 40
29.99999999999999
100
AcDbArc
 50
327.9777017637
 51
332.5549041559
  0
ARC
  5
1ED
330
1F
100
AcDbEntity
  8
0
  6
Continuous
 62
     7
370
    25
100
AcDbCircle
 10
0.0
 20
0.0
 30
0.0
 40
76.00000000000001
100
AcDbArc
 50
40.5441446068
 51
41.0558553932
  0
ARC
  5
1EE
330
1F
100
AcDbEntity
  8
0
  6
Continuous
 62
     7
370
    25
100
AcDbCircle
 10
67.0986611427
 20
21.5585173556
 30
0.0
 40
30.00000000000001
100
AcDbArc
 50
109.0450958441
 51
113.6222982363
  0
ARC
  5
1EF
330
1F
100
AcDbEntity
  8
0
  6
Continuous
 62
     7
370
    25
100
AcDbCircle
 10
0.0
 20
0.0
 30
0.0
 40
73.74900000000001
100
AcDbArc
 50
41.6840292946
 51
42.3159707054
  0
ARC
  5
1F0
330
1F
100
AcDbEntity
  8
0
  6
Continuous
 62
     7
370
    25
100
AcDbCircle
 10
28.4541374784
 20
64.4776089668
 30
0.0
 40
29.99999999999999
100
AcDbArc
 50
330.3777017637
 51
334.9549041559
  0
ARC
  5
1F1
330
1F
100
AcDbEntity
  8
0
  6
Continuous
 62
     7
370
    25
100
AcDbCircle
 10
0.0
 20
0.0
 30
0.0
 40
76.00000000000001
100
AcDbArc
 50
42.9441446068
 51
43.4558553932
  0
ARC
  5
1F2
330
1F
100
AcDbEntity
  8
0
  6
Continuous
 62
     7
370
    25
100
AcDbCircle
 10
66.137027209
 20
24.3494071728
 30
0.0
 40
30.0
100
AcDbArc
 50
111.4450958441
 51
116.0222982363
  0
ARC
  5
1F3
330
1F
100
AcDbEntity
  8
0
  6
Continuous
 62
     7
370
    25
100
AcDbCircle
 10
0.0
 20
0.0
 30
0.0
 40
73.74900000000001
100
AcDbArc
 50
44.0840292946
 51
44.7159707054
  0
ARC
  5
1F4
330
1F
100
AcDbEntity
  8
0
  6
Continuous
 62
     7
370
    25
100
AcDbCircle
 10
25.7291363391
 20
65.6125867571
 30
0.0
 40
29.99999999999999
100
AcDbArc
 50
332.7777017637
 51
337.3549041559
  0
ARC
  5
1F5
330
1F
100
AcDbEntity
  8
0
  6
Continuous
 62
     7
370
    25
100
AcDbCircle
 10
0.0
 20
0.0
 30
0.0
 40
76.0
100
AcDbArc
 50
45.3441446068
 51
45.8558553932
  0
ARC
  5
1F6
330
1F
100
AcDbEntity
  8
0
  6
Continuous
 62
     7
370
    25
100
AcDbCircle
 10
65.0593664561
 20
27.0975798558
 30
0.0
 40
30.0
100
AcDbArc
 50
113.8450958441
 51
118.4222982363
  0
ARC
  5
1F7
330
1F
100
AcDbEntity
  8
0
  6
Continuous
 62
     7
370
    25
100
AcDbCircle
 10
0.0
 20
0.0
 30
0.0
 40
73.749
100
AcDbArc
 50
46.4840292946
 51
47.1159707054
  0
ARC
  5
1F8
330
1F
100
AcDbEntity
  8
0
  6
Continuous
 62
     7
370
    25
100
AcDbCircle
 10
22.9589975518
 20
66.632457775
 30
0.0
 40
30.0
100
AcDbArc
 50
335.1777017637
 51
339.7549041559
  0
ARC
  5
1F9
330
1F
100
AcDbEntity
  8
0
  6
Continuous
 62
     7
370
    25
100
AcDbCircle
 10
0.0
 20
0.0
 30
0.0
 40
76.00000000000003
100
AcDbArc
 50
47.7441446068
 51
48.2558553932
  0
ARC
  5
1FA
330
1F
100
AcDbEntity
  8
0
  6
Continuous
 62
     7
370
    25
100
AcDbCircle
 10
63.8675694671
 20
29.7982141759
 30
0.0
 40
30.0
100
AcDbArc
 50
116.2450958441
 51
120.8222982363
  0
ARC
  5
1FB
330
1F
100
AcDbEntity
  8
0
  6
Continuous
 62
     7
370
    25
100
AcDbCircle
 10
0.0
 20
0.0
 30
0.0
 40
73.74900000000001
100
AcDbArc
 50
48.8840292946
 51
49.5159707054
  0
ARC
  5
1FC
330
1F
100
AcDbEntity
  8
0
  6
Continuous
 62
     7
370
    25
100
AcDbCircle
 10
20.1485808813
 20
67.53543282
 30
0.0
 40
29.99999999999999
100
AcDbArc
 50
337.5777017637
 51
342.1549041559
  0
ARC
  5
1FD
330
1F
100
AcDbEntity
  8
0
  6
Continuous
 62
     7
370
    25
100
AcDbCircle
 10
0.0
 20
0.0
 30
0.0
 40
76.00000000000003
100
AcDbArc
 50
50.1441446068
 51
50.6558553932
  0
ARC
  5
1FE
330
1F
100
AcDbEntity
  8
0
  6
Continuous
 62
     7
370
    25
100
AcDbCircle
 10
62.563727059
 20
32.4465723029
 30
0.0
 40
30.0
100
AcDbArc
 50
118.6450958441
 51
123.2222982363
  0
ARC
  5
1FF
330
1F
100
AcDbEntity
  8
0
  6
Continuous
 62
     7
370
    25
100
AcDbCircle
 10
0.0
 20
0.0
 30
0.0
 40
73.74900000000002
100
AcDbArc
 50
51.2840292946
 51
51.9159707054
  0
ARC
  5
200
330
1F
100
AcDbEntity
  8
0
  6
Continuous
 62
     7
370
    25
100
AcDbCircle
 10
17.3028167534
 20
68.3199277672
 30
0.0
 40
30.0
100
AcDbArc
 50
339.9777017637
 51
344.5549041559
  0
ARC
  5
201
330
1F
100
AcDbEntity
  8
0
  6
Continuous
 62
     7
370
    25
100
AcDbCircle
 10
0.0
 20
0.0
 30
0.0
 40
76.00000000000001
100
AcDbArc
 50
52.5441446068
 51
53.0558553932
  0
ARC
  5
202
330
1F
100
AcDbEntity
  8
0
  6
Continuous
 62
     7
370
    25
100
AcDbCircle
 10
61.1501266142
 20
35.0380081166
 30
0.0
 40
30.0
100
AcDbArc
 50
121.0450958441
 51
125.6222982363
  0
ARC
  5
203
330
1F
100
AcDbEntity
  8
0
  6
Continuous
 62
     7
370
    25
100
AcDbCircle
 10
0.0
 20
0.0
 30
0.0
 40
73.74900000000001
100
AcDbArc
 50
53.6840292946
 51
54.3159707054
  0
ARC
  5
204
330
1F
100
AcDbEntity
  8
0
  6
Continuous
 62
     7
370
    25
100
AcDbCircle
 10
14.4266976053
 20
68.9845663458
 30
0.0
 40
29.99999999999999
100
AcDbArc
 50
342.3777017637
 51
346.9549041559
  0
ARC
  5
205
330
1F
100
AcDbEntity
  8
0
  6
Continuous
 62
     7
370
    25
100
AcDbCircle
 10
0.0
 20
0.0
 30
0.0
 40
76.00000000000003
100
AcDbArc
 50
54.9441446068
 51
55.4558553932
  0
ARC
  5
206
330
1F
100
AcDbEntity
  8
0
  6
Continuous
 62
     7
370
    25
100
AcDbCircle
 10
59.6292480685
 20
37.5679753581
 30
0.0
 40
30.0
100
AcDbArc
 50
123.4450958441
 51
128.0222982363
  0
ARC
  5
207
330
1F
100
AcDbEntity
  8
0
  6
Continuous
 62
     7
370
    25
100
AcDbCircle
 10
0.0
 20
0.0
 30
0.0
 40
73.74900000000001
100
AcDbArc
 50
56.0840292946
 51
56.7159707054
  0
ARC
  5
208
330
1F
100
AcDbEntity
  8
0
  6
Continuous
 62
     7
370
    25
100
AcDbCircle
 10
11.5252691274
 20
69.5281825539
 30
0.0
 40
29.99999999999999
100
AcDbArc
 50
344.7777017637
 51
349.3549041559
  0
ARC
  5
209
330
1F
100
AcDbEntity
  8
0
  6
Continuous
 62
     7
370
    25
100
AcDbCircle
 10
0.0
 20
0.0
 30
0.0
 40
76.00000000000003
100
AcDbArc
 50
57.3441446068
 51
57.8558553932
  0
ARC
  5
20A
330
1F
100
AcDbEntity
  8
0
  6
Continuous
 62
     7
370
    25
100
AcDbCircle
 10
58.0037595594
 20
40.0320356051
 30
0.0
 40
30.00000000000001
100
AcDbArc
 50
125.8450958441
 51
130.4222982363
  0
ARC
  5
20B
330
1F
100
AcDbEntity
  8
0
  6
Continuous
 62
     7
370
    25
100
AcDbCircle
 10
0.0
 20
0.0
 30
0.0
 40
73.74900000000001
100
AcDbArc
 50
58.4840292946
 51
59.1159707054
  0
ARC
  5
20C
330
1F
100
AcDbEntity
  8
0
  6
Continuous
 62
     7
370
    25
100
AcDbCircle
 10
8.6036214112
 20
69.949822704
 30
0.0
 40
30.0
100
AcDbArc
 50
347.1777017637
 51
351.7549041559
  0
ARC
  5
20D
330
1F
100
AcDbEntity
  8
0
  6
Continuous
 62
     7
370
    25
100
AcDbCircle
 10
0.0
 20
0.0
 30
0.0
 40
76.00000000000001
100
AcDbArc
 50
59.7441446068
 51
60.2558553932
  0
ARC
  5
20E
330
1F
100
AcDbEntity
  8
0
  6
Continuous
 62
     7
370
    25
100
AcDbCircle
 10
56.2765127463
 20
42.4258660587
 30
0.0
 40
30.00000000000001
100
AcDbArc
 50
128.2450958441
 51
132.8222982363
  0
ARC
  5
20F
330
1F
100
AcDbEntity
  8
0
  6
Continuous
 62
     7
370
    25
100
AcDbCircle
 10
0.0
 20
0.0
 30
0.0
 40
73.74900000000001
100
AcDbArc
 50
60.8840292946
 51
61.5159707054
  0
ARC
  5
210
330
1F
100
AcDbEntity
  8
0
  6
Continuous
 62
     7
370
    25
100
AcDbCircle
 10
5.6668800195
 20
70.248747096
 30
0.0
 40
30.0
100
AcDbArc
 50
349.5777017637
 51
354.1549041559
  0
ARC
  5
211
330
1F
100
AcDbEntity
  8
0
  6
Continuous
 62
     7
370
    25
100
AcDbCircle
 10
0.0
 20
0.0
 30
0.0
 40
76.00000000000001
100
AcDbArc
 50
62.1441446068
 51
62.6558553932
  0
ARC
  5
212
330
1F
100
AcDbEntity
  8
0
  6
Continuous
 62
     7
370
    25
100
AcDbCircle
 10
54.450537807
 20
44.7452671268
 30
0.0
 40
30.00000000000001
100
AcDbArc
 50
130.6450958441
 51
135.2222982363
  0
ARC
  5
213
330
1F
100
AcDbEntity
  8
0
  6
Continuous
 62
     7
370
    25
100
AcDbCircle
 10
0.0
 20
0.0
 30
0.0
 40
73.74900000000001
100
AcDbArc
 50
63.2840292946
 51
63.9159707054
  0
ARC
  5
214
330
1F
100
AcDbEntity
  8
0
  6
Continuous
 62
     7
370
    25
100
AcDbCircle
 10
2.7201969946
 20
70.4244313149
 30
0.0
 40
29.99999999999999
100
AcDbArc
 50
351.9777017637
 51
356.5549041559
  0
ARC
  5
215
330
1F
100
AcDbEntity
  8
0
  6
Continuous
 62
     7
370
    25
100
AcDbCircle
 10
0.0
 20
0.0
 30
0.0
 40
76.00000000000003
100
AcDbArc
 50
64.5441446068
 51
65.0558553932
  0
ARC
  5
216
330
1F
100
AcDbEntity
  8
0
  6
Continuous
 62
     7
370
    25
100
AcDbCircle
 10
52.5290381219
 20
46.9861697918
 30
0.0
 40
30.00000000000001
100
AcDbArc
 50
133.0450958441
 51
137.6222982363
  0
ARC
  5
217
330
1F
100
AcDbEntity
  8
0
  6
Continuous
 62
     7
370
    25
100
AcDbCircle
 10
0.0
 20
0.0
 30
0.0
 40
73.74900000000004
100
AcDbArc
 50
65.6840292946
 51
66.3159707054
  0
ARC
  5
218
330
1F
100
AcDbEntity
  8
0
  6
Continuous
 62
     7
370
    25
100
AcDbCircle
 10
-0.2312581801
 20
70.4765671509
 30
0.0
 40
30.0
100
AcDbArc
 50
354.3777017637
 51
358.9549041559
  0
ARC
  5
219
330
1F
100
AcDbEntity
  8
0
  6
Continuous
 62
     7
370
    25
100
AcDbCircle
 10
0.0
 20
0.0
 30
0.0
 40
76.00000000000003
100
AcDbArc
 50
66.9441446068
 51
67.4558553932
  0
ARC
  5
21A
330
1F
100
AcDbEntity
  8
0
  6
Continuous
 62
     7
370
    25
100
AcDbCircle
 10
50.5153846544
 20
49.144642749
 30
0.0
 40
30.0
100
AcDbArc
 50
135.4450958441
 51
140.0222982363
  0
ARC
  5
21B
330
1F
100
AcDbEntity
  8
0
  6
Continuous
 62
     7
370
    25
100
AcDbCircle
 10
0.0
 20
0.0
 30
0.0
 40
73.74900000000001
100
AcDbArc
 50
68.0840292946
 51
68.7159707054
  0
ARC
  5
21C
330
1F
100
AcDbEntity
  8
0
  6
Continuous
 62
     7
370
    25
100
AcDbCircle
 10
-3.1823076495
 20
70.4050631399
 30
0.0
 40
30.0
100
AcDbArc
 50
356.7777017637
 51
1.3549041559
  0
ARC
  5
21D
330
1F
100
AcDbEntity
  8
0
  6
Continuous
 62
     7
370
    25
100
AcDbCircle
 10
0.0
 20
0.0
 30
0.0
 40
76.00000000000001
100
AcDbArc
 50
69.3441446068
 51
69.8558553932
  0
ARC
  5
21E
330
1F
100
AcDbEntity
  8
0
  6
Continuous
 62
     7
370
    25
100
AcDbCircle
 10
48.4131100371
 20
51.2168993034
 30
0.0
 40
30.00000000000001
100
AcDbArc
 50
137.8450958441
 51
142.4222982363
  0
ARC
  5
21F
330
1F
100
AcDbEntity
  8
0
  6
Continuous
 62
     7
370
    25
100
AcDbCircle
 10
0.0
 20
0.0
 30
0.0
 40
73.74900000000001
100
AcDbArc
 50
70.4840292946
 51
71.1159707054
  0
ARC
  5
220
330
1F
100
AcDbEntity
  8
0
  6
Continuous
 62
     7
370
    25
100
AcDbCircle
 10
-6.1277742698
 20
70.2100447245
 30
0.0
 40
29.99999999999999
100
AcDbArc
 50
359.1777017637
 51
3.7549041559
  0
ARC
  5
221
330
1F
100
AcDbEntity
  8
0
  6
Continuous
 62
     7
370
    25
100
AcDbCircle
 10
0.0
 20
0.0
 30
0.0
 40
76.00000000000003
100
AcDbArc
 50
71.7441446068
 51
72.2558553932
  0
ARC
  5
222
330
1F
100
AcDbEntity
  8
0
  6
Continuous
 62
     7
370
    25
100
AcDbCircle
 10
46.2259023738
 20
53.1993040128
 30
0.0
 40
30.00000000000001
100
AcDbArc
 50
140.2450958441
 51
144.8222982363
  0
ARC
  5
223
330
1F
100
AcDbEntity
  8
0
  6
Continuous
 62
     7
370
    25
100
AcDbCircle
 10
0.0
 20
0.0
 30
0.0
 40
73.74900000000001
100
AcDbArc
 50
72.8840292946
 51
73.5159707054
  0
ARC
  5
224
330
1F
100
AcDbEntity
  8
0
  6
Continuous
 62
     7
370
    25
100
AcDbCircle
 10
-9.0624906918
 20
69.891854033
 30
0.0
 40
30.0
100
AcDbArc
 50
1.5777017637
 51
6.1549041559
  0
ARC
  5
225
330
1F
100
AcDbEntity
  8
0
  6
Continuous
 62
     7
370
    25
100
AcDbCircle
 10
0.0
 20
0.0
 30
0.0
 40
76.00000000000003
100
AcDbArc
 50
74.1441446068
 51
74.6558553932
  0
ARC
  5
226
330
1F
100
AcDbEntity
  8
0
  6
Continuous
 62
     7
370
    25
100
AcDbCircle
 10
43.9575987701
 20
55.0883790656
 30
0.0
 40
30.00000000000001
100
AcDbArc
 50
142.6450958441
 51
147.2222982363
  0
ARC
  5
227
330
1F
100
AcDbEntity
  8
0
  6
Continuous
 62
     7
370
    25
100
AcDbCircle
 10
0.0
 20
0.0
 30
0.0
 40
73.74900000000002
100
AcDbArc
 50
75.2840292946
 51
75.9159707054
  0
ARC
  5
228
330
1F
100
AcDbEntity
  8
0
  6
Continuous
 62
     7
370
    25
100
AcDbCircle
 10
-11.9813084258
 20
69.4510492802
 30
0.0
 40
29.99999999999999
100
AcDbArc
 50
3.9777017637
 51
8.5549041559
  0
ARC
  5
229
330
1F
100
AcDbEntity
  8
0
  6
Continuous
 62
     7
370
    25
100
AcDbCircle
 10
0.0
 20
0.0
 30
0.0
 40
76.00000000000003
100
AcDbArc
 50
76.5441446068
 51
77.0558553932
  0
ARC
  5
22A
330
1F
100
AcDbEntity
  8
0
  6
Continuous
 62
     7
370
    25
100
AcDbCircle
 10
41.6121786013
 20
56.8808103825
 30
0.0
 40
30.0
100
AcDbArc
 50
145.0450958441
 51
149.6222982363
  0
ARC
  5
22B
330
1F
100
AcDbEntity
  8
0
  6
Continuous
 62
     7
370
    25
100
AcDbCircle
 10
0.0
 20
0.0
 30
0.0
 40
73.74900000000001
100
AcDbArc
 50
77.6840292946
 51
78.3159707054
  0
ARC
  5
22C
330
1F
100
AcDbEntity
  8
0
  6
Continuous
 62
     7
370
    25
100
AcDbCircle
 10
-14.8791068734
 20
68.8884037873
 30
0.0
 40
30.0
100
AcDbArc
 50
6.3777017637
 51
10.9549041559
  0
ARC
  5
22D
330
1F
100
AcDbEntity
  8
0
  6
Continuous
 62
     7
370
    25
100
AcDbCircle
 10
0.0
 20
0.0
 30
0.0
 40
76.00000000000003
100
AcDbArc
 50
78.9441446068
 51
79.4558553932
  0
ARC
  5
22E
330
1F
100
AcDbEntity
  8
0
  6
Continuous
 62
     7
370
    25
100
AcDbCircle
 10
39.1937565313
 20
58.5734534297
 30
0.0
 40
30.0
100
AcDbArc
 50
147.4450958441
 51
152.0222982363
  0
ARC
  5
22F
330
1F
100
AcDbEntity
  8
0
  6
Continuous
 62
     7
370
    25
100
AcDbCircle
 10
0.0
 20
0.0
 30
0.0
 40
73.749
100
AcDbArc
 50
80.0840292946
 51
80.7159707054
  0
ARC
  5
230
330
1F
100
AcDbEntity
  8
0
  6
Continuous
 62
     7
370
    25
100
AcDbCircle
 10
-17.7508023117
 20
68.2049046257
 30
0.0
 40
29.99999999999999
100
AcDbArc
 50
8.7777017637
 51
13.3549041559
  0
ARC
  5
231
330
1F
100
AcDbEntity
  8
0
  6
Continuous
 62
     7
370
    25
100
AcDbCircle
 10
0.0
 20
0.0
 30
0.0
 40
76.00000000000001
100
AcDbArc
 50
81.3441446068
 51
81.8558553932
  0
ARC
  5
232
330
1F
100
AcDbEntity
  8
0
  6
Continuous
 62
     7
370
    25
100
AcDbCircle
 10
36.7065752942
 20
60.1633387362
 30
0.0
 40
30.0
100
AcDbArc
 50
149.8450958441
 51
154.4222982363
  0
ARC
  5
233
330
1F
100
AcDbEntity
  8
0
  6
Continuous
 62
     7
370
    25
100
AcDbCircle
 10
0.0
 20
0.0
 30
0.0
 40
73.74900000000001
100
AcDbArc
 50
82.4840292946
 51
83.1159707054
  0
ARC
  5
234
330
1F
100
AcDbEntity
  8
0
  6
Continuous
 62
     7
370
    25
100
AcDbCircle
 10
-20.5913568109
 20
67.4017508853
 30
0.0
 40
29.99999999999999
100
AcDbArc
 50
11.1777017637
 51
15.7549041559
  0
ARC
  5
235
330
1F
100
AcDbEntity
  8
0
  6
Continuous
 62
     7
370
    25
100
AcDbCircle
 10
0.0
 20
0.0
 30
0.0
 40
76.00000000000003
100
AcDbArc
 50
83.7441446068
 51
84.2558553932
  0
ARC
  5
236
330
1F
100
AcDbEntity
  8
0
  6
Continuous
 62
     7
370
    25
100
AcDbCircle
 10
34.1549982511
 20
61.6476771029
 30
0.0
 40
30.00000000000001
100
AcDbArc
 50
152.2450958441
 51
156.8222982363
  0
ARC
  5
237
330
1F
100
AcDbEntity
  8
0
  6
Continuous
 62
     7
370
    25
100
AcDbCircle
 10
0.0
 20
0.0
 30
0.0
 40
73.74900000000004
100
AcDbArc
 50
84.8840292946
 51
85.5159707054
  0
ARC
  5
238
330
1F
100
AcDbEntity
  8
0
  6
Continuous
 62
     7
370
    25
100
AcDbCircle
 10
-23.3957870733
 20
66.4803515705
 30
0.0
 40
30.0
100
AcDbArc
 50
13.5777017637
 51
18.1549041559
  0
ARC
  5
239
330
1F
100
AcDbEntity
  8
0
  6
Continuous
 62
     7
370
    25
100
AcDbCircle
 10
0.0
 20
0.0
 30
0.0
 40
76.00000000000001
100
AcDbArc
 50
86.1441446068
 51
86.6558553932
  0
ARC
  5
23A
330
1F
100
AcDbEntity
  8
0
  6
Continuous
 62
     7
370
    25
100
AcDbCircle
 10
31.5435017351
 20
63.023864496
 30
0.0
 40
30.0
100
AcDbArc
 50
154.6450958441
 51
159.2222982363
  0
ARC
  5
23B
330
1F
100
AcDbEntity
  8
0
  6
Continuous
 62
     7
370
    25
100
AcDbCircle
 10
0.0
 20
0.0
 30
0.0
 40
73.74900000000001
100
AcDbArc
 50
87.2840292946
 51
87.9159707054
  0
ARC
  5
23C
330
1F
100
AcDbEntity
  8
0
  6
Continuous
 62
     7
370
    25
100
AcDbCircle
 10
-26.1591731752
 20
65.4423231289
 30
0.0
 40
29.99999999999999
100
AcDbArc
 50
15.9777017637
 51
20.5549041559
  0
ARC
  5
23D
330
1F
100
AcDbEntity
  8
0
  6
Continuous
 62
     7
370
    25
100
AcDbCircle
 10
0.0
 20
0.0
 30
0.0
 40
76.00000000000003
100
AcDbArc
 50
88.5441446068
 51
89.0558553932
  0
ARC
  5
23E
330
1F
100
AcDbEntity
  8
0
  6
Continuous
 62
     7
370
    25
100
AcDbCircle
 10
28.8766671985
 20
64.289486615
 30
0.0
 40
30.0
100
AcDbArc
 50
157.0450958441
 51
161.6222982363
  0
ARC
  5
23F
330
1F
100
AcDbEntity
  8
0
  6
Continuous
 62
     7
370
    25
100
AcDbCircle
 10
0.0
 20
0.0
 30
0.0
 40
73.74900000000001
100
AcDbArc
 50
89.6840292946
 51
90.3159707054
  0
ARC
  5
240
330
1F
100
AcDbEntity
  8
0
  6
Continuous
 62
     7
370
    25
100
AcDbCircle
 10
-28.8766671985
 20
64.289486615
 30
0.0
 40
30.0
100
AcDbArc
 50
18.3777017637
 51
22.9549041559
  0
ARC
  5
241
330
1F
100
AcDbEntity
  8
0
  6
Continuous
 62
     7
370
    25
100
AcDbCircle
 10
0.0
 20
0.0
 30
0.0
 40
76.00000000000001
100
AcDbArc
 50
90.9441446068
 51
91.4558553932
  0
ARC
  5
242
330
1F
100
AcDbEntity
  8
0
  6
Continuous
 62
     7
370
    25
100
AcDbCircle
 10
26.1591731752
 20
65.4423231289
 30
0.0
 40
30.0
100
AcDbArc
 50
159.4450958441
 51
164.0222982363
  0
ARC
  5
243
330
1F
100
AcDbEntity
  8
0
  6
Continuous
 62
     7
370
    25
100
AcDbCircle
 10
0.0
 20
0.0
 30
0.0
 40
73.74900000000001
100
AcDbArc
 50
92.0840292946
 51
92.7159707054
  0
ARC
  5
244
330
1F
100
AcDbEntity
  8
0
  6
Continuous
 62
     7
370
    25
100
AcDbCircle
 10
-31.5435017351
 20
63.023864496
 30
0.0
 40
29.99999999999999
100
AcDbArc
 50
20.7777017637
 51
25.3549041559
  0
ARC
  5
245
330
1F
100
AcDbEntity
  8
0
  6
Continuous
 62
     7
370
    25
100
AcDbCircle
 10
0.0
 20
0.0
 30
0.0
 40
76.00000000000001
100
AcDbArc
 50
93.3441446068
 51
93.8558553932
  0
ARC
  5
246
330
1F
100
AcDbEntity
  8
0
  6
Continuous
 62
     7
370
    25
100
AcDbCircle
 10
23.3957870733
 20
66.4803515705
 30
0.0
 40
30.0
100
AcDbArc
 50
161.8450958441
 51
166.4222982363
  0
ARC
  5
247
330
1F
100
AcDbEntity
  8
0
  6
Continuous
 62
     7
370
    25
100
AcDbCircle
 10
0.0
 20
0.0
 30
0.0
 40
73.74900000000001
100
AcDbArc
 50
94.4840292946
 51
95.1159707054
  0
ARC
  5
248
330
1F
100
AcDbEntity
  8
0
  6
Continuous
 62
     7
370
    25
100
AcDbCircle
 10
-34.1549982511
 20
61.6476771029
 30
0.0
 40
30.0
100
AcDbArc
 50
23.1777017637
 51
27.7549041559
  0
ARC
  5
249
330
1F
100
AcDbEntity
  8
0
  6
Continuous
 62
     7
370
    25
100
AcDbCircle
 10
0.0
 20
0.0
 30
0.0
 40
76.00000000000001
100
AcDbArc
 50
95.7441446068
 51
96.2558553932
  0
ARC
  5
24A
330
1F
100
AcDbEntity
  8
0
  6
Continuous
 62
     7
370
    25
100
AcDbCircle
 10
20.5913568109
 20
67.4017508853
 30
0.0
 40
30.00000000000001
100
AcDbArc
 50
164.2450958441
 51
168.8222982363
  0
ARC
  5
24B
330
1F
100
AcDbEntity
  8
0
  6
Continuous
 62
     7
370
    25
100
AcDbCircle
 10
0.0
 20
0.0
 30
0.0
 40
73.74900000000002
100
AcDbArc
 50
96.8840292946
 51
97.5159707054
  0
ARC
  5
24C
330
1F
100
AcDbEntity
  8
0
  6
Continuous
 62
     7
370
    25
100
AcDbCircle
 10
-36.7065752942
 20
60.1633387362
 30
0.0
 40
30.0
100
AcDbArc
 50
25.5777017637
 51
30.1549041559
  0
ARC
  5
24D
330
1F
100
AcDbEntity
  8
0
  6
Continuous
 62
     7
370
    25
100
AcDbCircle
 10
0.0
 20
0.0
 30
0.0
 40
76.00000000000001
100
AcDbArc
 50
98.1441446068
 51
98.6558553932
  0
ARC
  5
24E
330
1F
100
AcDbEntity
  8
0
  6
Continuous
 62
     7
370
    25
100
AcDbCircle
 10
17.7508023117
 20
68.2049046257
 30
0.0
 40
30.0
100
AcDbArc
 50
166.6450958441
 51
171.2222982363
  0
ARC
  5
24F
330
1F
100
AcDbEntity
  8
0
  6
Continuous
 62
     7
370
    25
100
AcDbCircle
 10
0.0
 20
0.0
 30
0.0
 40
73.74900000000001
100
AcDbArc
 50
99.2840292946
 51
99.9159707054
  0
ARC
  5
250
330
1F
100
AcDbEntity
  8
0
  6
Continuous
 62
     7
370
    25
100
AcDbCircle
 10
-39.1937565313
 20
58.5734534297
 30
0.0
 40
29.99999999999999
100
AcDbArc
 50
27.9777017637
 51
32.5549041559
  0
ARC
  5
251
330
1F
100
AcDbEntity
  8
0
  6
Continuous
 62
     7
370
    25
100
AcDbCircle
 10
0.0
 20
0.0
 30
0.0
 40
76.00000000000001
100
AcDbArc
 50
100.5441446068
 51
101.0558553932
  0
ARC
  5
252
330
1F
100
AcDbEntity
  8
0
  6
Continuous
 62
     7
370
    25
100
AcDbCircle
 10
14.8791068734
 20
68.8884037873
 30
0.0
 40
30.0
100
AcDbArc
 50
169.0450958441
 51
173.6222982363
  0
ARC
  5
253
330
1F
100
AcDbEntity
  8
0
  6
Continuous
 62
     7
370
    25
100
AcDbCircle
 10
0.0
 20
0.0
 30
0.0
 40
73.74900000000001
100
AcDbArc
 50
101.6840292946
 51
102.3159707054
  0
ARC
  5
254
330
1F
100
AcDbEntity
  8
0
  6
Continuous
 62
     7
370
    25
100
AcDbCircle
 10
-41.6121786013
 20
56.8808103825
 30
0.0
 40
29.99999999999999
100
AcDbArc
 50
30.3777017637
 51
34.9549041559
  0
ARC
  5
255
330
1F
100
AcDbEntity
  8
0
  6
Continuous
 62
     7
370
    25
100
AcDbCircle
 10
0.0
 20
0.0
 30
0.0
 40
76.00000000000001
100
AcDbArc
 50
102.9441446068
 51
103.4558553932
  0
ARC
  5
256
330
1F
100
AcDbEntity
  8
0
  6
Continuous
 62
     7
370
    25
100
AcDbCircle
 10
11.9813084258
 20
69.4510492802
 30
0.0
 40
30.0
100
AcDbArc
 50
171.4450958441
 51
176.0222982363
  0
ARC
  5
257
330
1F
100
AcDbEntity
  8
0
  6
Continuous
 62
     7
370
    25
100
AcDbCircle
 10
0.0
 20
0.0
 30
0.0
 40
73.749
100
AcDbArc
 50
104.0840292946
 51
104.7159707054
  0
ARC
  5
258
330
1F
100
AcDbEntity
  8
0
  6
Continuous
 62
     7
370
    25
100
AcDbCircle
 10
-43.9575987701
 20
55.0883790656
 30
0.0
 40
30.0
100
AcDbArc
 50
32.7777017637
 51
37.3549041559
  0
ARC
  5
259
330
1F
100
AcDbEntity
  8
0
  6
Continuous
 62
     7
370
    25
100
AcDbCircle
 10
0.0
 20
0.0
 30
0.0
 40
76.00000000000001
100
AcDbArc
 50
105.3441446068
 51
105.8558553932
  0
ARC
  5
25A
330
1F
100
AcDbEntity
  8
0
  6
Continuous
 62
     7
370
    25
100
AcDbCircle
 10
9.0624906918
 20
69.891854033
 30
0.0
 40
30.00000000000001
100
AcDbArc
 50
173.8450958441
 51
178.4222982363
  0
ARC
  5
25B
330
1F
100
AcDbEntity
  8
0
  6
Continuous
 62
     7
370
    25
100
AcDbCircle
 10
0.0
 20
0.0
 30
0.0
 40
73.74900000000001
100
AcDbArc
 50
106.4840292946
 51
107.1159707054
  0
ARC
  5
25C
330
1F
100
AcDbEntity
  8
0
  6
Continuous
 62
     7
370
    25
100
AcDbCircle
 10
-46.2259023738
 20
53.1993040128
 30
0.0
 40
30.0
100
AcDbArc
 50
35.1777017637
 51
39.7549041559
  0
ARC
  5
25D
330
1F
100
AcDbEntity
  8
0
  6
Continuous
 62
     7
370
    25
100
AcDbCircle
 10
0.0
 20
0.0
 30
0.0
 40
76.0
100
AcDbArc
 50
107.7441446068
 51
108.2558553932
  0
ARC
  5
25E
330
1F
100
AcDbEntity
  8
0
  6
Continuous
 62
     7
370
    25
100
AcDbCircle
 10
6.1277742698
 20
70.2100447245
 30
0.0
 40
30.00000000000001
100
AcDbArc
 50
176.2450958441
 51
180.8222982363
  0
ARC
  5
25F
330
1F
100
AcDbEntity
  8
0
  6
Continuous
 62
     7
370
    25
100
AcDbCircle
 10
0.0
 20
0.0
 30
0.0
 40
73.74900000000001
100
AcDbArc
 50
108.8840292946
 51
109.5159707054
  0
ARC
  5
260
330
1F
100
AcDbEntity
  8
0
  6
Continuous
 62
     7
370
    25
100
AcDbCircle
 10
-48.4131100371
 20
51.2168993034
 30
0.0
 40
29.99999999999999
100
AcDbArc
 50
37.5777017637
 51
42.1549041559
  0
ARC
  5
261
330
1F
100
AcDbEntity
  8
0
  6
Continuous
 62
     7
370
    25
100
AcDbCircle
 10
0.0
 20
0.0
 30
0.0
 40
76.00000000000001
100
AcDbArc
 50
110.1441446068
 51
110.6558553932
  0
ARC
  5
262
330
1F
100
AcDbEntity
  8
0
  6
Continuous
 62
     7
370
    25
100
AcDbCircle
 10
3.1823076495
 20
70.4050631399
 30
0.0
 40
30.0
100
AcDbArc
 50
178.6450958441
 51
183.2222982363
  0
ARC
  5
263
330
1F
100
AcDbEntity
  8
0
  6
Continuous
 62
     7
370
    25
100
AcDbCircle
 10
0.0
 20
0.0
 30
0.0
 40
73.74900000000001
100
AcDbArc
 50
111.2840292946
 51
111.9159707054
  0
ARC
  5
264
330
1F
100
AcDbEntity
  8
0
  6
Continuous
 62
     7
370
    25
100
AcDbCircle
 10
-50.5153846544
 20
49.144642749
 30
0.0
 40
29.99999999999999
100
AcDbArc
 50
39.9777017637
 51
44.5549041559
  0
ARC
  5
265
330
1F
100
AcDbEntity
  8
0
  6
Continuous
 62
     7
370
    25
100
AcDbCircle
 10
0.0
 20
0.0
 30
0.0
 40
76.00000000000001
100
AcDbArc
 50
112.5441446068
 51
113.0558553932
  0
ARC
  5
266
330
1F
100
AcDbEntity
  8
0
  6
Continuous
 62
     7
370
    25
100
AcDbCircle
 10
0.2312581801
 20
70.4765671509
 30
0.0
 40
30.0
100
AcDbArc
 50
181.0450958441
 51
185.6222982363
  0
ARC
  5
267
330
1F
100
AcDbEntity
  8
0
  6
Continuous
 62
     7
370
    25
100
AcDbCircle
 10
0.0
 20
0.0
 30
0.0
 40
73.749
100
AcDbArc
 50
113.6840292946
 51
114.3159707054
  0
ARC
  5
268
330
1F
100
AcDbEntity
  8
0
  6
Continuous
 62
     7
370
    25
100
AcDbCircle
 10
-52.5290381219
 20
46.9861697918
 30
0.0
 40
29.99999999999999
100
AcDbArc
 50
42.3777017637
 51
46.9549041559
  0
ARC
  5
269
330
1F
100
AcDbEntity
  8
0
  6
Continuous
 62
     7
370
    25
100
AcDbCircle
 10
0.0
 20
0.0
 30
0.0
 40
76.0
100
AcDbArc
 50
114.9441446068
 51
115.4558553932
  0
ARC
  5
26A
330
1F
100
AcDbEntity
  8
0
  6
Continuous
 62
     7
370
    25
100
AcDbCircle
 10
-2.7201969946
 20
70.4244313149
 30
0.0
 40
30.0
100
AcDbArc
 50
183.4450958441
 51
188.0222982363
  0
ARC
  5
26B
330
1F
100
AcDbEntity
  8
0
  6
Continuous
 62
     7
370
    25
100
AcDbCircle
 10
0.0
 20
0.0
 30
0.0
 40
73.74900000000001
100
AcDbArc
 50
116.0840292946
 51
116.7159707054
  0
ARC
  5
26C
330
1F
100
AcDbEntity
  8
0
  6
Continuous
 62
     7
370
    25
100
AcDbCircle
 10
-54.450537807
 20
44.7452671268
 30
0.0
 40
29.99999999999999
100
AcDbArc
 50
44.7777017637
 51
49.3549041559
  0
ARC
  5
26D
330
1F
100
AcDbEntity
  8
0
  6
Continuous
 62
     7
370
    25
100
AcDbCircle
 10
0.0
 20
0.0
 30
0.0
 40
76.0
100
AcDbArc
 50
117.3441446068
 51
117.8558553932
  0
ARC
  5
26E
330
1F
100
AcDbEntity
  8
0
  6
Continuous
 62
     7
370
    25
100
AcDbCircle
 10
-5.6668800195
 20
70.248747096
 30
0.0
 40
29.99999999999999
100
AcDbArc
 50
185.8450958441
 51
190.4222982363
  0
ARC
  5
26F
330
1F
100
AcDbEntity
  8
0
  6
Continuous
 62
     7
370
    25
100
AcDbCircle
 10
0.0
 20
0.0
 30
0.0
 40
73.74900000000001
100
AcDbArc
 50
118.4840292946
 51
119.1159707054
  0
ARC
  5
270
330
1F
100
AcDbEntity
  8
0
  6
Continuous
 62
     7
370
    25
100
AcDbCircle
 10
-56.2765127463
 20
42.4258660587
 30
0.0
 40
30.0
100
AcDbArc
 50
47.1777017637
 51
51.7549041559
  0
ARC
  5
271
330
1F
100
AcDbEntity
  8
0
  6
Continuous
 62
     7
370
    25
100
AcDbCircle
 10
0.0
 20
0.0
 30
0.0
 40
76.00000000000003
100
AcDbArc
 50
119.7441446068
 51
120.2558553932
  0
ARC
  5
272
330
1F
100
AcDbEntity
  8
0
  6
Continuous
 62
     7
370
    25
100
AcDbCircle
 10
-8.6036214112
 20
69.949822704
 30
0.0
 40
30.00000000000001
100
AcDbArc
 50
188.2450958441
 51
192.8222982363
  0
ARC
  5
273
330
1F
100
AcDbEntity
  8
0
  6
Continuous
 62
     7
370
    25
100
AcDbCircle
 10
0.0
 20
0.0
 30
0.0
 40
73.74900000000001
100
AcDbArc
 50
120.8840292946
 51
121.5159707054
  0
ARC
  5
274
330
1F
100
AcDbEntity
  8
0
  6
Continuous
 62
     7
370
    25
100
AcDbCircle
 10
-58.0037595594
 20
40.0320356051
 30
0.0
 40
29.99999999999999
100
AcDbArc
 50
49.5777017637
 51
54.1549041559
  0
ARC
  5
275
330
1F
100
AcDbEntity
  8
0
  6
Continuous
 62
     7
370
    25
100
AcDbCircle
 10
0.0
 20
0.0
 30
0.0
 40
76.00000000000001
100
AcDbArc
 50
122.1441446068
 51
122.6558553932
  0
ARC
  5
276
330
1F
100
AcDbEntity
  8
0
  6
Continuous
 62
     7
370
    25
100
AcDbCircle
 10
-11.5252691274
 20
69.5281825539
 30
0.0
 40
30.00000000000001
100
AcDbArc
 50
190.6450958441
 51
195.2222982363
  0
ARC
  5
277
330
1F
100
AcDbEntity
  8
0
  6
Continuous
 62
     7
370
    25
100
AcDbCircle
 10
0.0
 20
0.0
 30
0.0
 40
73.74900000000002
100
AcDbArc
 50
123.2840292946
 51
123.9159707054
  0
ARC
  5
278
330
1F
100
AcDbEntity
  8
0
  6
Continuous
 62
     7
370
    25
100
AcDbCircle
 10
-59.6292480685
 20
37.5679753581
 30
0.0
 40
30.0
100
AcDbArc
 50
51.9777017637
 51
56.5549041559
  0
ARC
  5
279
330
1F
100
AcDbEntity
  8
0
  6
Continuous
 62
     7
370
    25
100
AcDbCircle
 10
0.0
 20
0.0
 30
0.0
 40
76.00000000000001
100
AcDbArc
 50
124.5441446068
 51
125.0558553932
  0
ARC
  5
27A
330
1F
100
AcDbEntity
  8
0
  6
Continuous
 62
     7
370
    25
100
AcDbCircle
 10
-14.4266976053
 20
68.9845663458
 30
0.0
 40
30.0
100
AcDbArc
 50
193.0450958441
 51
197.6222982363
  0
ARC
  5
27B
330
1F
100
AcDbEntity
  8
0
  6
Continuous
 62
     7
370
    25
100
AcDbCircle
 10
0.0
 20
0.0
 30
0.0
 40
73.74900000000002
100
AcDbArc
 50
125.6840292946
 51
126.3159707054
  0
ARC
  5
27C
330
1F
100
AcDbEntity
  8
0
  6
Continuous
 62
     7
370
    25
100
AcDbCircle
 10
-61.1501266142
 20
35.0380081166
 30
0.0
 40
30.00000000000001
100
AcDbArc
 50
54.3777017637
 51
58.9549041559
  0
ARC
  5
27D
330
1F
100
AcDbEntity
  8
0
  6
Continuous
 62
     7
370
    25
100
AcDbCircle
 10
0.0
 20
0.0
 30
0.0
 40
76.00000000000001
100
AcDbArc
 50
126.9441446068
 51
127.4558553932
  0
ARC
  5
27E
330
1F
100
AcDbEntity
  8
0
  6
Continuous
 62
     7
370
    25
100
AcDbCircle
 10
-17.3028167534
 20
68.3199277672
 30
0.0
 40
30.00000000000001
100
AcDbArc
 50
195.4450958441
 51
200.0222982363
  0
ARC
  5
27F
330
1F
100
AcDbEntity
  8
0
  6
Continuous
 62
     7
370
    25
100
AcDbCircle
 10
0.0
 20
0.0
 30
0.0
 40
73.74900000000002
100
AcDbArc
 50
128.0840292946
 51
128.7159707054
  0
ARC
  5
280
330
1F
100
AcDbEntity
  8
0
  6
Continuous
 62
     7
370
    25
100
AcDbCircle
 10
-62.563727059
 20
32.4465723029
 30
0.0
 40
29.99999999999999
100
AcDbArc
 50
56.7777017637
 51
61.3549041559
  0
ARC
  5
281
330
1F
100
AcDbEntity
  8
0
  6
Continuous
 62
     7
370
    25
100
AcDbCircle
 10
0.0
 20
0.0
 30
0.0
 40
76.0
100
AcDbArc
 50
129.3441446068
 51
129.8558553932
  0
ARC
  5
282
330
1F
100
AcDbEntity
  8
0
  6
Continuous
 62
     7
370
    25
100
AcDbCircle
 10
-20.1485808813
 20
67.53543282
 30
0.0
 40
30.0
100
AcDbArc
 50
197.8450958441
 51
202.4222982363
  0
ARC
  5
283
330
1F
100
AcDbEntity
  8
0
  6
Continuous
 62
     7
370
    25
100
AcDbCircle
 10
0.0
 20
0.0
 30
0.0
 40
73.74900000000002
100
AcDbArc
 50
130.4840292946
 51
131.1159707054
  0
ARC
  5
284
330
1F
100
AcDbEntity
  8
0
  6
Continuous
 62
     7
370
    25
100
AcDbCircle
 10
-63.8675694671
 20
29.7982141759
 30
0.0
 40
30.0
100
AcDbArc
 50
59.1777017637
 51
63.7549041559
  0
ARC
  5
285
330
1F
100
AcDbEntity
  8
0
  6
Continuous
 62
     7
370
    25
100
AcDbCircle
 10
0.0
 20
0.0
 30
0.0
 40
76.00000000000001
100
AcDbArc
 50
131.7441446068
 51
132.2558553932
  0
ARC
  5
286
330
1F
100
AcDbEntity
  8
0
  6
Continuous
 62
     7
370
    25
100
AcDbCircle
 10
-22.9589975518
 20
66.632457775
 30
0.0
 40
30.00000000000001
100
AcDbArc
 50
200.2450958441
 51
204.8222982363
  0
ARC
  5
287
330
1F
100
AcDbEntity
  8
0
  6
Continuous
 62
     7
370
    25
100
AcDbCircle
 10
0.0
 20
0.0
 30
0.0
 40
73.74900000000001
100
AcDbArc
 50
132.8840292946
 51
133.5159707054
  0
ARC
  5
288
330
1F
100
AcDbEntity
  8
0
  6
Continuous
 62
     7
370
    25
100
AcDbCircle
 10
-65.0593664561
 20
27.0975798558
 30
0.0
 40
29.99999999999999
100
AcDbArc
 50
61.5777017637
 51
66.1549041559
  0
ARC
  5
289
330
1F
100
AcDbEntity
  8
0
  6
Continuous
 62
     7
370
    25
100
AcDbCircle
 10
0.0
 20
0.0
 30
0.0
 40
76.00000000000001
100
AcDbArc
 50
134.1441446068
 51
134.6558553932
  0
ARC
  5
28A
330
1F
100
AcDbEntity
  8
0
  6
Continuous
 62
     7
370
    25
100
AcDbCircle
 10
-25.7291363391
 20
65.6125867571
 30
0.0
 40
30.0
100
AcDbArc
 50
202.6450958441
 51
207.2222982363
  0
ARC
  5
28B
330
1F
100
AcDbEntity
  8
0
  6
Continuous
 62
     7
370
    25
100
AcDbCircle
 10
0.0
 20
0.0
 30
0.0
 40
73.74900000000001
100
AcDbArc
 50
135.2840292946
 51
135.9159707054
  0
ARC
  5
28C
330
1F
100
AcDbEntity
  8
0
  6
Continuous
 62
     7
370
    25
100
AcDbCircle
 10
-66.137027209
 20
24.3494071728
 30
0.0
 40
29.99999999999999
100
AcDbArc
 50
63.9777017637
 51
68.5549041559
  0
ARC
  5
28D
330
1F
100
AcDbEntity
  8
0
  6
Continuous
 62
     7
370
    25
100
AcDbCircle
 10
0.0
 20
0.0
 30
0.0
 40
76.00000000000001
100
AcDbArc
 50
136.5441446068
 51
137.0558553932
  0
ARC
  5
28E
330
1F
100
AcDbEntity
  8
0
  6
Continuous
 62
     7
370
    25
100
AcDbCircle
 10
-28.4541374784
 20
64.4776089668
 30
0.0
 40
30.0
100
AcDbArc
 50
205.0450958441
 51
209.6222982363
  0
ARC
  5
28F
330
1F
100
AcDbEntity
  8
0
  6
Continuous
 62
     7
370
    25
100
AcDbCircle
 10
0.0
 20
0.0
 30
0.0
 40
73.74900000000001
100
AcDbArc
 50
137.6840292946
 51
138.3159707054
  0
ARC
  5
290
330
1F
100
AcDbEntity
  8
0
  6
Continuous
 62
     7
370
    25
100
AcDbCircle
 10
-67.0986611427
 20
21.5585173556
 30
0.0
 40
29.99999999999999
100
AcDbArc
 50
66.3777017637
 51
70.9549041559
  0
ARC
  5
291
330
1F
100
AcDbEntity
  8
0
  6
Continuous
 62
     7
370
    25
100
AcDbCircle
 10
0.0
 20
0.0
 30
0.0
 40
76.00000000000003
100
AcDbArc
 50
138.9441446068
 51
139.4558553932
  0
ARC
  5
292
330
1F
100
AcDbEntity
  8
0
  6
Continuous
 62
     7
370
    25
100
AcDbCircle
 10
-31.1292203919
 20
63.2295155407
 30
0.0
 40
30.0
100
AcDbArc
 50
207.4450958441
 51
212.0222982363
  0
ARC
  5
293
330
1F
100
AcDbEntity
  8
0
  6
Continuous
 62
     7
370
    25
100
AcDbCircle
 10
0.0
 20
0.0
 30
0.0
 40
73.74900000000001
100
AcDbArc
 50
140.0840292946
 51
140.7159707054
  0
ARC
  5
294
330
1F
100
AcDbEntity
  8
0
  6
Continuous
 62
     7
370
    25
100
AcDbCircle
 10
-67.9425812244
 20
18.7298065734
 30
0.0
 40
29.99999999999999
100
AcDbArc
 50
68.7777017637
 51
73.3549041559
  0
ARC
  5
295
330
1F
100
AcDbEntity
  8
0
  6
Continuous
 62
     7
370
    25
100
AcDbCircle
 10
0.0
 20
0.0
 30
0.0
 40
76.00000000000001
100
AcDbArc
 50
141.3441446068
 51
141.8558553932
  0
ARC
  5
296
330
1F
100
AcDbEntity
  8
0
  6
Continuous
 62
     7
370
    25
100
AcDbCircle
 10
-33.7496920749
 20
61.8704960588
 30
0.0
 40
30.0
100
AcDbArc
 50
209.8450958441
 51
214.4222982363
  0
ARC
  5
297
330
1F
100
AcDbEntity
  8
0
  6
Continuous
 62
     7
370
    25
100
AcDbCircle
 10
0.0
 20
0.0
 30
0.0
 40
73.74900000000001
100
AcDbArc
 50
142.4840292946
 51
143.1159707054
  0
ARC
  5
298
330
1F
100
AcDbEntity
  8
0
  6
Continuous
 62
     7
370
    25
100
AcDbCircle
 10
-68.6673069316
 20
15.868237346
 30
0.0
 40
29.99999999999999
100
AcDbArc
 50
71.1777017637
 51
75.7549041559
  0
ARC
  5
299
330
1F
100
AcDbEntity
  8
0
  6
Continuous
 62
     7
370
    25
100
AcDbCircle
 10
0.0
 20
0.0
 30
0.0
 40
76.00000000000003
100
AcDbArc
 50
143.7441446068
 51
144.2558553932
  0
ARC
  5
29A
330
1F
100
AcDbEntity
  8
0
  6
Continuous
 62
     7
370
    25
100
AcDbCircle
 10
-36.3109553299
 20
60.4029347031
 30
0.0
 40
30.0
100
AcDbArc
 50
212.2450958441
 51
216.8222982363
  0
ARC
  5
29B
330
1F
100
AcDbEntity
  8
0
  6
Continuous
 62
     7
370
    25
100
AcDbCircle
 10
0.0
 20
0.0
 30
0.0
 40
73.74900000000001
100
AcDbArc
 50
144.8840292946
 51
145.5159707054
  0
ARC
  5
29C
330
1F
100
AcDbEntity
  8
0
  6
Continuous
 62
     7
370
    25
100
AcDbCircle
 10
-69.2715668492
 20
12.9788298382
 30
0.0
 40
29.99999999999999
100
AcDbArc
 50
73.5777017637
 51
78.1549041559
  0
ARC
  5
29D
330
1F
100
AcDbEntity
  8
0
  6
Continuous
 62
     7
370
    25
100
AcDbCircle
 10
0.0
 20
0.0
 30
0.0
 40
76.00000000000001
100
AcDbArc
 50
146.1441446068
 51
146.6558553932
  0
ARC
  5
29E
330
1F
100
AcDbEntity
  8
0
  6
Continuous
 62
     7
370
    25
100
AcDbCircle
 10
-38.8085168306
 20
58.8294060749
 30
0.0
 40
30.00000000000001
100
AcDbArc
 50
214.6450958441
 51
219.2222982363
  0
ARC
  5
29F
330
1F
100
AcDbEntity
  8
0
  6
Continuous
 62
     7
370
    25
100
AcDbCircle
 10
0.0
 20
0.0
 30
0.0
 40
73.74900000000002
100
AcDbArc
 50
147.2840292946
 51
147.9159707054
  0
ARC
  5
2A0
330
1F
100
AcDbEntity
  8
0
  6
Continuous
 62
     7
370
    25
100
AcDbCircle
 10
-69.7543008999
 20
10.0666530527
 30
0.0
 40
29.99999999999999
100
AcDbArc
 50
75.9777017637
 51
80.5549041559
  0
ARC
  5
2A1
330
1F
100
AcDbEntity
  8
0
  6
Continuous
 62
     7
370
    25
100
AcDbCircle
 10
0.0
 20
0.0
 30
0.0
 40
76.00000000000001
100
AcDbArc
 50
148.5441446068
 51
149.0558553932
  0
ARC
  5
2A2
330
1F
100
AcDbEntity
  8
0
  6
Continuous
 62
     7
370
    25
100
AcDbCircle
 10
-41.2379950056
 20
57.152670678
 30
0.0
 40
30.0
100
AcDbArc
 50
217.0450958441
 51
221.6222982363
  0
ARC
  5
2A3
330
1F
100
AcDbEntity
  8
0
  6
Continuous
 62
     7
370
    25
100
AcDbCircle
 10
0.0
 20
0.0
 30
0.0
 40
73.74900000000001
100
AcDbArc
 50
149.6840292946
 51
150.3159707054
  0
ARC
  5
2A4
330
1F
100
AcDbEntity
  8
0
  6
Continuous
 62
     7
370
    25
100
AcDbCircle
 10
-70.1146622041
 20
7.136815937
 30
0.0
 40
30.0
100
AcDbArc
 50
78.3777017637
 51
82.9549041559
  0
ARC
  5
2A5
330
1F
100
AcDbEntity
  8
0
  6
Continuous
 62
     7
370
    25
100
AcDbCircle
 10
0.0
 20
0.0
 30
0.0
 40
76.00000000000003
100
AcDbArc
 50
150.9441446068
 51
151.4558553932
  0
ARC
  5
2A6
330
1F
100
AcDbEntity
  8
0
  6
Continuous
 62
     7
370
    25
100
AcDbCircle
 10
-43.5951277247
 20
55.3756700762
 30
0.0
 40
30.0
100
AcDbArc
 50
219.4450958441
 51
224.0222982363
  0
ARC
  5
2A7
330
1F
100
AcDbEntity
  8
0
  6
Continuous
 62
     7
370
    25
100
AcDbCircle
 10
0.0
 20
0.0
 30
0.0
 40
73.74900000000001
100
AcDbArc
 50
152.0840292946
 51
152.7159707054
  0
ARC
  5
2A8
330
1F
100
AcDbEntity
  8
0
  6
Continuous
 62
     7
370
    25
100
AcDbCircle
 10
-70.3520185657
 20
4.1944584211
 30
0.0
 40
30.0
100
AcDbArc
 50
80.7777017637
 51
85.3549041559
  0
ARC
  5
2A9
330
1F
100
AcDbEntity
  8
0
  6
Continuous
 62
     7
370
    25
100
AcDbCircle
 10
0.0
 20
0.0
 30
0.0
 40
76.00000000000001
100
AcDbArc
 50
153.3441446068
 51
153.8558553932
  0
ARC
  5
2AA
330
1F
100
AcDbEntity
  8
0
  6
Continuous
 62
     7
370
    25
100
AcDbCircle
 10
-45.8757797759
 20
53.5015217323
 30
0.0
 40
30.0
100
AcDbArc
 50
221.8450958441
 51
226.4222982363
  0
ARC
  5
2AB
330
1F
100
AcDbEntity
  8
0
  6
Continuous
 62
     7
370
    25
100
AcDbCircle
 10
0.0
 20
0.0
 30
0.0
 40
73.74900000000001
100
AcDbArc
 50
154.4840292946
 51
155.1159707054
  0
ARC
  5
2AC
330
1F
100
AcDbEntity
  8
0
  6
Continuous
 62
     7
370
    25
100
AcDbCircle
 10
-70.4659535809
 20
1.2447423998
 30
0.0
 40
29.99999999999999
100
AcDbArc
 50
83.1777017637
 51
87.7549041559
  0
ARC
  5
2AD
330
1F
100
AcDbEntity
  8
0
  6
Continuous
 62
     7
370
    25
100
AcDbCircle
 10
0.0
 20
0.0
 30
0.0
 40
76.00000000000001
100
AcDbArc
 50
155.7441446068
 51
156.2558553932
  0
ARC
  5
2AE
330
1F
100
AcDbEntity
  8
0
  6
Continuous
 62
     7
370
    25
100
AcDbCircle
 10
-48.0759501207
 20
51.5335135393
 30
0.0
 40
30.0
100
AcDbArc
 50
224.2450958441
 51
228.8222982363
  0
ARC
  5
2AF
330
1F
100
AcDbEntity
  8
0
  6
Continuous
 62
     7
370
    25
100
AcDbCircle
 10
0.0
 20
0.0
 30
0.0
 40
73.74900000000001
100
AcDbArc
 50
156.8840292946
 51
157.5159707054
  0
ARC
  5
2B0
330
1F
100
AcDbEntity
  8
0
  6
Continuous
 62
     7
370
    25
100
AcDbCircle
 10
-70.4562673691
 20
-1.7071573226
 30
0.0
 40
30.0
100
AcDbArc
 50
85.5777017637
 51
90.1549041559
  0
ARC
  5
2B1
330
1F
100
AcDbEntity
  8
0
  6
Continuous
 62
     7
370
    25
100
AcDbCircle
 10
0.0
 20
0.0
 30
0.0
 40
76.00000000000001
100
AcDbArc
 50
158.1441446068
 51
158.6558553932
  0
ARC
  5
2B2
330
1F
100
AcDbEntity
  8
0
  6
Continuous
 62
     7
370
    25
100
AcDbCircle
 10
-50.1917789127
 20
49.4750980523
 30
0.0
 40
30.0
100
AcDbArc
 50
226.6450958441
 51
231.2222982363
  0
ARC
  5
2B3
330
1F
100
AcDbEntity
  8
0
  6
Continuous
 62
     7
370
    25
100
AcDbCircle
 10
0.0
 20
0.0
 30
0.0
 40
73.74900000000001
100
AcDbArc
 50
159.2840292946
 51
159.9159707054
  0
ARC
  5
2B4
330
1F
100
AcDbEntity
  8
0
  6
Continuous
 62
     7
370
    25
100
AcDbCircle
 10
-70.3229769231
 20
-4.656062111
 30
0.0
 40
29.99999999999999
100
AcDbArc
 50
87.9777017637
 51
92.5549041559
  0
ARC
  5
2B5
330
1F
100
AcDbEntity
  8
0
  6
Continuous
 62
     7
370
    25
100
AcDbCircle
 10
0.0
 20
0.0
 30
0.0
 40
76.00000000000003
100
AcDbArc
 50
160.5441446068
 51
161.0558553932
  0
ARC
  5
2B6
330
1F
100
AcDbEntity
  8
0
  6
Continuous
 62
     7
370
    25
100
AcDbCircle
 10
-52.2195542693
 20
47.3298864317
 30
0.0
 40
30.00000000000001
100
AcDbArc
 50
229.0450958441
 51
233.6222982363
  0
ARC
  5
2B7
330
1F
100
AcDbEntity
  8
0
  6
Continuous
 62
     7
370
    25
100
AcDbCircle
 10
0.0
 20
0.0
 30
0.0
 40
73.74900000000002
100
AcDbArc
 50
161.6840292946
 51
162.3159707054
  0
ARC
  5
2B8
330
1F
100
AcDbEntity
  8
0
  6
Continuous
 62
     7
370
    25
100
AcDbCircle
 10
-70.0663160797
 20
-7.5967985843
 30
0.0
 40
30.0
100
AcDbArc
 50
90.3777017637
 51
94.9549041559
  0
ARC
  5
2B9
330
1F
100
AcDbEntity
  8
0
  6
Continuous
 62
     7
370
    25
100
AcDbCircle
 10
0.0
 20
0.0
 30
0.0
 40
76.00000000000001
100
AcDbArc
 50
162.9441446068
 51
163.4558553932
  0
ARC
  5
2BA
330
1F
100
AcDbEntity
  8
0
  6
Continuous
 62
     7
370
    25
100
AcDbCircle
 10
-54.1557187833
 20
45.1016421074
 30
0.0
 40
30.0
100
AcDbArc
 50
231.4450958441
 51
236.0222982363
  0
ARC
  5
2BB
330
1F
100
AcDbEntity
  8
0
  6
Continuous
 62
     7
370
    25
100
AcDbCircle
 10
0.0
 20
0.0
 30
0.0
 40
73.74900000000002
100
AcDbArc
 50
164.0840292946
 51
164.7159707054
  0
ARC
  5
2BC
330
1F
100
AcDbEntity
  8
0
  6
Continuous
 62
     7
370
    25
100
AcDbCircle
 10
-69.6867351092
 20
-10.5242076915
 30
0.0
 40
30.0
100
AcDbArc
 50
92.7777017637
 51
97.3549041559
  0
ARC
  5
2BD
330
1F
100
AcDbEntity
  8
0
  6
Continuous
 62
     7
370
    25
100
AcDbCircle
 10
0.0
 20
0.0
 30
0.0
 40
76.00000000000001
100
AcDbArc
 50
165.3441446068
 51
165.8558553932
  0
ARC
  5
2BE
330
1F
100
AcDbEntity
  8
0
  6
Continuous
 62
     7
370
    25
100
AcDbCircle
 10
-55.9968757643
 20
42.7942741772
 30
0.0
 40
30.0
100
AcDbArc
 50
233.8450958441
 51
238.4222982363
  0
ARC
  5
2BF
330
1F
100
AcDbEntity
  8
0
  6
Continuous
 62
     7
370
    25
100
AcDbCircle
 10
0.0
 20
0.0
 30
0.0
 40
73.74900000000001
100
AcDbArc
 50
166.4840292946
 51
167.1159707054
  0
ARC
  5
2C0
330
1F
100
AcDbEntity
  8
0
  6
Continuous
 62
     7
370
    25
100
AcDbCircle
 10
-69.1848999256
 20
-13.4331537622
 30
0.0
 40
29.99999999999999
100
AcDbArc
 50
95.1777017637
 51
99.7549041559
  0
ARC
  5
2C1
330
1F
100
AcDbEntity
  8
0
  6
Continuous
 62
     7
370
    25
100
AcDbCircle
 10
0.0
 20
0.0
 30
0.0
 40
76.00000000000003
100
AcDbArc
 50
167.7441446068
 51
168.2558553932
  0
ARC
  5
2C2
330
1F
100
AcDbEntity
  8
0
  6
Continuous
 62
     7
370
    25
100
AcDbCircle
 10
-57.7397951973
 20
40.4118305485
 30
0.0
 40
30.0
100
AcDbArc
 50
236.2450958441
 51
240.8222982363
  0
ARC
  5
2C3
330
1F
100
AcDbEntity
  8
0
  6
Continuous
 62
     7
370
    25
100
AcDbCircle
 10
0.0
 20
0.0
 30
0.0
 40
73.74900000000001
100
AcDbArc
 50
168.8840292946
 51
169.5159707054
  0
ARC
  5
2C4
330
1F
100
AcDbEntity
  8
0
  6
Continuous
 62
     7
370
    25
100
AcDbCircle
 10
-68.5616909183
 20
-16.3185335166
 30
0.0
 40
29.99999999999999
100
AcDbArc
 50
97.5777017637
 51
102.1549041559
  0
ARC
  5
2C5
330
1F
100
AcDbEntity
  8
0
  6
Continuous
 62
     7
370
    25
100
AcDbCircle
 10
0.0
 20
0.0
 30
0.0
 40
76.00000000000003
100
AcDbArc
 50
170.1441446068
 51
170.6558553932
  0
ARC
  5
2C6
330
1F
100
AcDbEntity
  8
0
  6
Continuous
 62
     7
370
    25
100
AcDbCircle
 10
-59.3814194095
 20
37.9584908371
 30
0.0
 40
30.0
100
AcDbArc
 50
238.6450958441
 51
243.2222982363
  0
ARC
  5
2C7
330
1F
100
AcDbEntity
  8
0
  6
Continuous
 62
     7
370
    25
100
AcDbCircle
 10
0.0
 20
0.0
 30
0.0
 40
73.74900000000001
100
AcDbArc
 50
171.2840292946
 51
171.9159707054
  0
ARC
  5
2C8
330
1F
100
AcDbEntity
  8
0
  6
Continuous
 62
     7
370
    25
100
AcDbCircle
 10
-67.8182014078
 20
-19.1752850182
 30
0.0
 40
29.99999999999999
100
AcDbArc
 50
99.9777017637
 51
104.5549041559
  0
ARC
  5
2C9
330
1F
100
AcDbEntity
  8
0
  6
Continuous
 62
     7
370
    25
100
AcDbCircle
 10
0.0
 20
0.0
 30
0.0
 40
76.00000000000001
100
AcDbArc
 50
172.5441446068
 51
173.0558553932
  0
ARC
  5
2CA
330
1F
100
AcDbEntity
  8
0
  6
Continuous
 62
     7
370
    25
100
AcDbCircle
 10
-60.9188684341
 20
35.4385590343
 30
0.0
 40
30.00000000000001
100
AcDbArc
 50
241.0450958441
 51
245.6222982363
  0
ARC
  5
2CB
330
1F
100
AcDbEntity
  8
0
  6
Continuous
 62
     7
370
    25
100
AcDbCircle
 10
0.0
 20
0.0
 30
0.0
 40
73.74900000000004
100
AcDbArc
 50
173.6840292946
 51
174.3159707054
  0
ARC
  5
2CC
330
1F
100
AcDbEntity
  8
0
  6
Continuous
 62
     7
370
    25
100
AcDbCircle
 10
-66.9557357272
 20
-21.998396554
 30
0.0
 40
30.00000000000001
100
AcDbArc
 50
102.3777017637
 51
106.9549041559
  0
ARC
  5
2CD
330
1F
100
AcDbEntity
  8
0
  6
Continuous
 62
     7
370
    25
100
AcDbCircle
 10
0.0
 20
0.0
 30
0.0
 40
76.00000000000001
100
AcDbArc
 50
174.9441446068
 51
175.4558553932
  0
ARC
  5
2CE
330
1F
100
AcDbEntity
  8
0
  6
Continuous
 62
     7
370
    25
100
AcDbCircle
 10
-62.3494450631
 20
32.8564559568
 30
0.0
 40
30.0
100
AcDbArc
 50
243.4450958441
 51
248.0222982363
  0
ARC
  5
2CF
330
1F
100
AcDbEntity
  8
0
  6
Continuous
 62
     7
370
    25
100
AcDbCircle
 10
0.0
 20
0.0
 30
0.0
 40
73.74900000000001
100
AcDbArc
 50
176.0840292946
 51
176.7159707054
  0
ARC
  5
2D0
330
1F
100
AcDbEntity
  8
0
  6
Continuous
 62
     7
370
    25
100
AcDbCircle
 10
-65.9758069344
 20
-24.7829154272
 30
0.0
 40
29.99999999999999
100
AcDbArc
 50
104.7777017637
 51
109.3549041559
  0
ARC
  5
2D1
330
1F
100
AcDbEntity
  8
0
  6
Continuous
 62
     7
370
    25
100
AcDbCircle
 10
0.0
 20
0.0
 30
0.0
 40
76.00000000000003
100
AcDbArc
 50
177.3441446068
 51
177.8558553932
  0
ARC
  5
2D2
330
1F
100
AcDbEntity
  8
0
  6
Continuous
 62
     7
370
    25
100
AcDbCircle
 10
-63.6706395789
 20
30.2167114909
 30
0.0
 40
30.0
100
AcDbArc
 50
245.8450958441
 51
250.4222982363
  0
ARC
  5
2D3
330
1F
100
AcDbEntity
  8
0
  6
Continuous
 62
     7
370
    25
100
AcDbCircle
 10
0.0
 20
0.0
 30
0.0
 40
73.74900000000001
100
AcDbArc
 50
178.4840292946
 51
179.1159707054
  0
ARC
  5
2D4
330
1F
100
AcDbEntity
  8
0
  6
Continuous
 62
     7
370
    25
100
AcDbCircle
 10
-64.8801341575
 20
-27.5239566454
 30
0.0
 40
29.99999999999999
100
AcDbArc
 50
107.1777017637
 51
111.7549041559
  0
ARC
  5
2D5
330
1F
100
AcDbEntity
  8
0
  6
Continuous
 62
     7
370
    25
100
AcDbCircle
 10
0.0
 20
0.0
 30
0.0
 40
76.00000000000003
100
AcDbArc
 50
179.7441446068
 51
180.2558553932
  0
MTEXT
  5
2D7
330
1F
100
AcDbEntity
  8
0
  6
Continuous
 62
     7
100
AcDbMText
 10
-76.0
 20
-77.0092481538
 30
0.0
 40
4.83362
 41
0.0
 71
     1
 72
     1
  1
Produit d'éducation SOLIDWORKS – A titre éducatif uniquement.
  7
SLDTEXTSTYLE0
 73
     1
 44
1.0
  0
ENDSEC
  0
SECTION
  2
OBJECTS
  0
DICTIONARY
  5
C
330
0
100
AcDbDictionary
281
     1
  3
ACAD_GROUP
350
D
  3
ACAD_LAYOUT
350
1A
  3
ACAD_MLINESTYLE
350
17
  3
ACAD_PLOTSETTINGS
350
19
  3
ACAD_PLOTSTYLENAME
350
E
  3
ACAD_SCALELIST
350
47
  0
DICTIONARY
  5
D
102
{ACAD_REACTORS
330
C
102
}
330
C
100
AcDbDictionary
281
     1
  0
DICTIONARY
  5
1A
102
{ACAD_REACTORS
330
C
102
}
330
C
100
AcDbDictionary
281
     1
  3
Layout1
350
1E
  3
Layout2
350
26
  3
Model
350
22
  0
DICTIONARY
  5
17
102
{ACAD_REACTORS
330
C
102
}
330
C
100
AcDbDictionary
281
     1
  3
Standard
350
18
  0
DICTIONARY
  5
19
102
{ACAD_REACTORS
330
C
102
}
330
C
100
AcDbDictionary
281
     1
  0
ACDBDICTIONARYWDFLT
  5
E
102
{ACAD_REACTORS
330
C
102
}
330
C
100
AcDbDictionary
281
     1
  3
Normal
350
F
100
AcDbDictionaryWithDefault
340
F
  0
DICTIONARY
  5
47
102
{ACAD_REACTORS
330
C
102
}
330
C
100
AcDbDictionary
281
     1
  3
A0
350
48
  3
A1
350
49
  3
A2
350
4A
  3
A3
350
4B
  3
A4
350
4C
  3
A5
350
4D
  3
A6
350
4E
  3
A7
350
4F
  3
A8
350
50
  3
A9
350
51
  3
B0
350
52
  3
B1
350
53
  3
B2
350
54
  3
B3
350
55
  3
B4
350
56
  3
B5
350
57
  3
B6
350
58
  3
B7
350
59
  3
B8
350
5A
  3
B9
350
5B
  3
C0
350
5C
  3
C1
350
5D
  3
C2
350
5E
  3
C3
350
5F
  3
C4
350
60
  3
C5
350
61
  3
C6
350
62
  3
C7
350
63
  3
C8
350
64
  3
C9
350
65
  3
D0
350
66
  3
D1
350
67
  3
D2
350
68
  0
LAYOUT
  5
1E
102
{ACAD_REACTORS
330
1A
102
}
330
1A
100
AcDbPlotSettings
  1

  2
none_device
  4

  6

 40
0.0
 41
0.0
 42
0.0
 43
0.0
 44
0.0
 45
0.0
 46
0.0
 47
0.0
 48
0.0
 49
0.0
140
0.0
141
0.0
142
1.0
143
1.0
 70
   688
 72
     1
 73
     0
 74
     5
  7

 75
    16
147
1.0
148
0.0
149
0.0
100
AcDbLayout
  1
Layout1
 70
     1
 71
     1
 10
0.0
 20
0.0
 11
420.0
 21
297.0
 12
0.0
 22
0.0
 32
0.0
 14
1.0000000000E+20
 24
1.0000000000E+20
 34
1.0000000000E+20
 15
-1.0000000000E+20
 25
-1.0000000000E+20
 35
-1.0000000000E+20
146
0.0
 13
0.0
 23
0.0
 33
0.0
 16
1.0
 26
0.0
 36
0.0
 17
0.0
 27
1.0
 37
0.0
 76
     0
330
1B
  0
LAYOUT
  5
26
102
{ACAD_REACTORS
330
1A
102
}
330
1A
100
AcDbPlotSettings
  1

  2
none_device
  4

  6

 40
0.0
 41
0.0
 42
0.0
 43
0.0
 44
0.0
 45
0.0
 46
0.0
 47
0.0
 48
0.0
 49
0.0
140
0.0
141
0.0
142
1.0
143
1.0
 70
   688
 72
     1
 73
     0
 74
     5
  7

 75
    16
147
1.0
148
0.0
149
0.0
100
AcDbLayout
  1
Layout2
 70
     1
 71
     2
 10
0.0
 20
0.0
 11
0.0
 21
0.0
 12
0.0
 22
0.0
 32
0.0
 14
0.0
 24
0.0
 34
0.0
 15
0.0
 25
0.0
 35
0.0
146
0.0
 13
0.0
 23
0.0
 33
0.0
 16
1.0
 26
0.0
 36
0.0
 17
0.0
 27
1.0
 37
0.0
 76
     0
330
23
  0
LAYOUT
  5
22
102
{ACAD_REACTORS
330
1A
102
}
330
1A
100
AcDbPlotSettings
  1

  2
none_device
  4
ANSI_A_(11.00_x_8.50_Inches)
  6

 40
6.35
 41
19.05
 42
6.35000508
 43
19.05000254
 44
279.4
 45
215.9
 46
133.34999746
 47
88.89999873
 48
0.0
 49
0.0
140
0.0
141
0.0
142
0.0553693594
143
1.0
 70
  1696
 72
     0
 73
     0
 74
     0
  7

 75
     0
147
0.0179189148
148
-1300.4909072572
149
0.0
100
AcDbLayout
  1
Model
 70
     1
 71
     0
 10
0.0
 20
0.0
 11
420.0
 21
297.0
 12
0.0
 22
0.0
 32
0.0
 14
-76.0
 24
-75.9896817621
 34
0.0
 15
76.0
 25
75.9896817621
 35
0.0
146
0.0
 13
0.0
 23
0.0
 33
0.0
 16
1.0
 26
0.0
 36
0.0
 17
0.0
 27
1.0
 37
0.0
 76
     0
330
1F
331
29
  0
MLINESTYLE
  5
18
102
{ACAD_REACTORS
330
17
102
}
330
17
100
AcDbMlineStyle
  2
Standard
 70
     0
  3

 62
   256
 51
90.0
 52
90.0
 71
     2
 49
0.5
 62
   256
  6
BYLAYER
 49
-0.5
 62
   256
  6
BYLAYER
  0
ACDBPLACEHOLDER
  5
F
102
{ACAD_REACTORS
330
E
102
}
330
E
  0
SCALE
  5
48
102
{ACAD_REACTORS
330
47
102
}
330
47
100
AcDbScale
 70
     0
300
1:1
140
1.0
141
1.0
290
     1
  0
SCALE
  5
49
102
{ACAD_REACTORS
330
47
102
}
330
47
100
AcDbScale
 70
     0
300
1:2
140
1.0
141
2.0
290
     0
  0
SCALE
  5
4A
102
{ACAD_REACTORS
330
47
102
}
330
47
100
AcDbScale
 70
     0
300
1:4
140
1.0
141
4.0
290
     0
  0
SCALE
  5
4B
102
{ACAD_REACTORS
330
47
102
}
330
47
100
AcDbScale
 70
     0
300
1:5
140
1.0
141
5.0
290
     0
  0
SCALE
  5
4C
102
{ACAD_REACTORS
330
47
102
}
330
47
100
AcDbScale
 70
     0
300
1:8
140
1.0
141
8.0
290
     0
  0
SCALE
  5
4D
102
{ACAD_REACTORS
330
47
102
}
330
47
100
AcDbScale
 70
     0
300
1:10
140
1.0
141
10.0
290
     0
  0
SCALE
  5
4E
102
{ACAD_REACTORS
330
47
102
}
330
47
100
AcDbScale
 70
     0
300
1:16
140
1.0
141
16.0
290
     0
  0
SCALE
  5
4F
102
{ACAD_REACTORS
330
47
102
}
330
47
100
AcDbScale
 70
     0
300
1:20
140
1.0
141
20.0
290
     0
  0
SCALE
  5
50
102
{ACAD_REACTORS
330
47
102
}
330
47
100
AcDbScale
 70
     0
300
1:30
140
1.0
141
30.0
290
     0
  0
SCALE
  5
51
102
{ACAD_REACTORS
330
47
102
}
330
47
100
AcDbScale
 70
     0
300
1:40
140
1.0
141
40.0
290
     0
  0
SCALE
  5
52
102
{ACAD_REACTORS
330
47
102
}
330
47
100
AcDbScale
 70
     0
300
1:50
140
1.0
141
50.0
290
     0
  0
SCALE
  5
53
102
{ACAD_REACTORS
330
47
102
}
330
47
100
AcDbScale
 70
     0
300
1:100
140
1.0
141
100.0
290
     0
  0
SCALE
  5
54
102
{ACAD_REACTORS
330
47
102
}
330
47
100
AcDbScale
 70
     0
300
2:1
140
2.0
141
1.0
290
     0
  0
SCALE
  5
55
102
{ACAD_REACTORS
330
47
102
}
330
47
100
AcDbScale
 70
     0
300
4:1
140
4.0
141
1.0
290
     0
  0
SCALE
  5
56
102
{ACAD_REACTORS
330
47
102
}
330
47
100
AcDbScale
 70
     0
300
8:1
140
8.0
141
1.0
290
     0
  0
SCALE
  5
57
102
{ACAD_REACTORS
330
47
102
}
330
47
100
AcDbScale
 70
     0
300
10:1
140
10.0
141
1.0
290
     0
  0
SCALE
  5
58
102
{ACAD_REACTORS
330
47
102
}
330
47
100
AcDbScale
 70
     0
300
100:1
140
100.0
141
1.0
290
     0
  0
SCALE
  5
59
102
{ACAD_REACTORS
330
47
102
}
330
47
100
AcDbScale
 70
     0
300
1/128" = 1'-0"
140
0.0078125
141
12.0
290
     0
  0
SCALE
  5
5A
102
{ACAD_REACTORS
330
47
102
}
330
47
100
AcDbScale
 70
     0
300
1/64" = 1'-0"
140
0.015625
141
12.0
290
     0
  0
SCALE
  5
5B
102
{ACAD_REACTORS
330
47
102
}
330
47
100
AcDbScale
 70
     0
300
1/32" = 1'-0"
140
0.03125
141
12.0
290
     0
  0
SCALE
  5
5C
102
{ACAD_REACTORS
330
47
102
}
330
47
100
AcDbScale
 70
     0
300
1/16" = 1'-0"
140
0.0625
141
12.0
290
     0
  0
SCALE
  5
5D
102
{ACAD_REACTORS
330
47
102
}
330
47
100
AcDbScale
 70
     0
300
3/32" = 1'-0"
140
0.09375
141
12.0
290
     0
  0
SCALE
  5
5E
102
{ACAD_REACTORS
330
47
102
}
330
47
100
AcDbScale
 70
     0
300
1/8" = 1'-0"
140
0.125
141
12.0
290
     0
  0
SCALE
  5
5F
102
{ACAD_REACTORS
330
47
102
}
330
47
100
AcDbScale
 70
     0
300
3/16" = 1'-0"
140
0.1875
141
12.0
290
     0
  0
SCALE
  5
60
102
{ACAD_REACTORS
330
47
102
}
330
47
100
AcDbScale
 70
     0
300
1/4" = 1'-0"
140
0.25
141
12.0
290
     0
  0
SCALE
  5
61
102
{ACAD_REACTORS
330
47
102
}
330
47
100
AcDbScale
 70
     0
300
3/8" = 1'-0"
140
0.375
141
12.0
290
     0
  0
SCALE
  5
62
102
{ACAD_REACTORS
330
47
102
}
330
47
100
AcDbScale
 70
     0
300
1/2" = 1'-0"
140
0.5
141
12.0
290
     0
  0
SCALE
  5
63
102
{ACAD_REACTORS
330
47
102
}
330
47
100
AcDbScale
 70
     0
300
3/4" = 1'-0"
140
0.75
141
12.0
290
     0
  0
SCALE
  5
64
102
{ACAD_REACTORS
330
47
102
}
330
47
100
AcDbScale
 70
     0
300
1" = 1'-0"
140
1.0
141
12.0
290
     0
  0
SCALE
  5
65
102
{ACAD_REACTORS
330
47
102
}
330
47
100
AcDbScale
 70
     0
300
1-1/2" = 1'-0"
140
1.5
141
12.0
290
     0
  0
SCALE
  5
66
102
{ACAD_REACTORS
330
47
102
}
330
47
100
AcDbScale
 70
     0
300
3" = 1'-0"
140
3.0
141
12.0
290
     0
  0
SCALE
  5
67
102
{ACAD_REACTORS
330
47
102
}
330
47
100
AcDbScale
 70
     0
300
6" = 1'-0"
140
6.0
141
12.0
290
     0
  0
SCALE
  5
68
102
{ACAD_REACTORS
330
47
102
}
330
47
100
AcDbScale
 70
     0
300
1'-0" = 1'-0"
140
12.0
141
12.0
290
     0
  0
ENDSEC
  0
EOF
