  0
SECTION
  2
HEADER
  9
$ACADVER
  1
AC1014
  9
$HANDSEED
  5
FFFF
  9
$MEASUREMENT
 70
     1
  0
ENDSEC
  0
SECTION
  2
TABLES
  0
TABLE
  2
VPORT
  5
8
330
0
100
AcDbSymbolTable
 70
     4
  0
VPORT
  5
2E
330
8
100
AcDbSymbolTableRecord
100
AcDbViewportTableRecord
  2
*ACTIVE
 70
     0
 10
0.0
 20
0.0
 11
1.0
 21
1.0
 12
210.0
 22
148.5
 13
0.0
 23
0.0
 14
10.0
 24
10.0
 15
10.0
 25
10.0
 16
0.0
 26
0.0
 36
1.0
 17
0.0
 27
0.0
 37
0.0
 40
341.0
 41
1.24
 42
50.0
 43
0.0
 44
0.0
 50
0.0
 51
0.0
 71
     0
 72
   100
 73
     1
 74
     3
 75
     0
 76
     0
 77
     0
 78
     0
  0
ENDTAB
  0
TABLE
  2
LTYPE
  5
5
330
0
100
AcDbSymbolTable
 70
     1
  0
LTYPE
  5
14
330
5
100
AcDbSymbolTableRecord
100
AcDbLinetypeTableRecord
  2
BYBLOCK
 70
     0
  3

 72
    65
 73
     0
 40
0.0
  0
LTYPE
  5
15
330
5
100
AcDbSymbolTableRecord
100
AcDbLinetypeTableRecord
  2
BYLAYER
 70
     0
  3

 72
    65
 73
     0
 40
0.0
  0
LTYPE
  5
16
330
5
100
AcDbSymbolTableRecord
100
AcDbLinetypeTableRecord
  2
CONTINUOUS
 70
     0
  3
Solid line
 72
    65
 73
     0
 40
0.0
  0
ENDTAB
  0
TABLE
  2
LAYER
  5
2
100
AcDbSymbolTable
 70
1
  0
LAYER
  5
50
100
AcDbSymbolTableRecord
100
AcDbLayerTableRecord
  2
0
 70
0
  6
CONTINUOUS
  0
ENDTAB
  0
TABLE
  2
STYLE
  5
3
330
0
100
AcDbSymbolTable
 70
     1
  0
STYLE
  5
11
330
3
100
AcDbSymbolTableRecord
100
AcDbTextStyleTableRecord
  2
STANDARD
 70
     0
 40
0.0
 41
1.0
 50
0.0
 71
     0
 42
2.5
  3
txt
  4

  0
ENDTAB
  0
TABLE
  2
VIEW
  5
6
330
0
100
AcDbSymbolTable
 70
     0
  0
ENDTAB
  0
TABLE
  2
UCS
  5
7
330
0
100
AcDbSymbolTable
 70
     0
  0
ENDTAB
  0
TABLE
  2
APPID
  5
9
330
0
100
AcDbSymbolTable
 70
     2
  0
APPID
  5
12
330
9
100
AcDbSymbolTableRecord
100
AcDbRegAppTableRecord
  2
ACAD
 70
     0
  0
ENDTAB
  0
TABLE
  2
DIMSTYLE
  5
A
330
0
100
AcDbSymbolTable
 70
     1
  0
DIMSTYLE
105
27
330
A
100
AcDbSymbolTableRecord
100
AcDbDimStyleTableRecord
  2
ISO-25
 70
     0
  3

  4

  5

  6

  7

 40
1.0
 41
2.5
 42
0.625
 43
3.75
 44
1.25
 45
0.0
 46
0.0
 47
0.0
 48
0.0
140
2.5
141
2.5
142
0.0
143
0.03937007874016
144
1.0
145
0.0
146
1.0
147
0.625
 71
     0
 72
     0
 73
     0
 74
     0
 75
     0
 76
     0
 77
     1
 78
     8
170
     0
171
     3
172
     1
173
     0
174
     0
175
     0
176
     0
177
     0
178
     0
270
     2
271
     2
272
     2
273
     2
274
     3
340
11
275
     0
280
     0
281
     0
282
     0
283
     0
284
     8
285
     0
286
     0
287
     3
288
     0
  0
ENDTAB
  0
TABLE
  2
BLOCK_RECORD
  5
1
330
0
100
AcDbSymbolTable
 70
     1
  0
BLOCK_RECORD
  5
1F
330
1
100
AcDbSymbolTableRecord
100
AcDbBlockTableRecord
  2
*MODEL_SPACE
  0
BLOCK_RECORD
  5
1B
330
1
100
AcDbSymbolTableRecord
100
AcDbBlockTableRecord
  2
*PAPER_SPACE
  0
ENDTAB
  0
ENDSEC
  0
SECTION
  2
BLOCKS
  0
BLOCK
  5
20
330
1F
100
AcDbEntity
  8
0
100
AcDbBlockBegin
  2
*MODEL_SPACE
 70
     0
 10
0.0
 20
0.0
 30
0.0
  3
*MODEL_SPACE
  1

  0
ENDBLK
  5
21
330
1F
100
AcDbEntity
  8
0
100
AcDbBlockEnd
  0
BLOCK
  5
1C
330
1B
100
AcDbEntity
 67
     1
  8
0
100
AcDbBlockBegin
  2
*PAPER_SPACE
  1

  0
ENDBLK
  5
1D
330
1B
100
AcDbEntity
 67
     1
  8
0
100
AcDbBlockEnd
  0
ENDSEC
  0
SECTION
  2
ENTITIES
  0
SPLINE
  5
100
100
AcDbEntity
  8
0
 62
7
100
AcDbSpline
 70
0
 71
3
 72
10
 73
6
 74
4
 40
0.000000
 40
0.000000
 40
0.000000
 40
0.000000
 40
36.565803
 40
72.687398
 40
109.253201
 40
109.253201
 40
109.253201
 40
109.253201
 10
286.165951
 20
166.519521
 30
0.0
 10
287.132810
 20
178.742062
 30
0.0
 10
289.054780
 20
203.038661
 30
0.0
 10
277.737640
 20
238.932040
 30
0.0
 10
262.227296
 20
257.732251
 30
0.0
 10
254.424730
 20
267.189802
 30
0.0
 11
286.165951
 21
166.519521
 31
0.0
 11
286.674709
 21
203.081785
 31
0.0
 11
275.812735
 21
237.531562
 31
0.0
 11
254.424730
 21
267.189802
 31
0.0
  0
LWPOLYLINE
  5
101
100
AcDbEntity
  8
0
 62
7
100
AcDbPolyline
 90
2
 70
0
 10
254.424730
 20
267.189802
 30
0.0
 10
240.954346
 20
253.719420
 30
0.0
  0
SPLINE
  5
102
100
AcDbEntity
  8
0
 62
7
100
AcDbSpline
 70
0
 71
3
 72
10
 73
6
 74
4
 40
0.000000
 40
0.000000
 40
0.000000
 40
0.000000
 40
13.853426
 40
27.670606
 40
41.524032
 40
41.524032
 40
41.524032
 40
41.524032
 10
263.108146
 20
218.944918
 30
0.0
 10
261.339137
 20
223.216189
 30
0.0
 10
257.805748
 20
231.747558
 30
0.0
 10
250.316588
 20
243.503185
 30
0.0
 10
244.077817
 20
250.311036
 30
0.0
 10
240.954346
 20
253.719420
 30
0.0
 11
263.108146
 21
218.944918
 31
0.0
 11
257.435863
 21
231.583850
 31
0.0
 11
250.011898
 21
243.237142
 31
0.0
 11
240.954346
 21
253.719420
 31
0.0
  0
LWPOLYLINE
  5
103
100
AcDbEntity
  8
0
 62
7
100
AcDbPolyline
 90
2
 70
0
 10
263.108146
 20
218.944918
 30
0.0
 10
233.272907
 20
208.085777
 30
0.0
  0
SPLINE
  5
104
100
AcDbEntity
  8
0
 62
7
100
AcDbSpline
 70
0
 71
3
 72
10
 73
6
 74
4
 40
0.000000
 40
0.000000
 40
0.000000
 40
0.000000
 40
11.082634
 40
22.123709
 40
33.206343
 40
33.206343
 40
33.206343
 40
33.206343
 10
236.137717
 20
175.340838
 30
0.0
 10
236.588941
 20
179.013590
 30
0.0
 10
237.489697
 20
186.345322
 30
0.0
 10
236.515255
 20
197.483245
 30
0.0
 10
234.355042
 20
204.547177
 30
0.0
 10
233.272907
 20
208.085777
 30
0.0
 11
236.137717
 21
175.340838
 31
0.0
 11
237.102438
 21
186.381404
 31
0.0
 11
236.140145
 21
197.380465
 31
0.0
 11
233.272907
 21
208.085777
 31
0.0
  0
LWPOLYLINE
  5
105
100
AcDbEntity
  8
0
 62
7
100
AcDbPolyline
 90
2
 70
0
 10
236.137717
 20
175.340838
 30
0.0
 10
248.644775
 20
173.135507
 30
0.0
  0
SPLINE
  5
106
100
AcDbEntity
  8
0
 62
7
100
AcDbSpline
 70
0
 71
3
 72
10
 73
6
 74
4
 40
0.000000
 40
0.000000
 40
0.000000
 40
0.000000
 40
15.515443
 40
30.952136
 40
46.467579
 40
46.467579
 40
46.467579
 40
46.467579
 10
227.483961
 20
132.485956
 30
0.0
 10
230.919184
 20
136.367893
 30
0.0
 10
237.772193
 20
144.112064
 30
0.0
 10
245.022313
 20
158.039418
 30
0.0
 10
247.435242
 20
168.094949
 30
0.0
 10
248.644775
 20
173.135507
 30
0.0
 11
227.483961
 21
132.485956
 31
0.0
 11
237.281128
 21
144.516936
 31
0.0
 11
244.408999
 21
158.209450
 31
0.0
 11
248.644775
 21
173.135507
 31
0.0
  0
LWPOLYLINE
  5
107
100
AcDbEntity
  8
0
 62
7
100
AcDbPolyline
 90
2
 70
0
 10
227.483961
 20
132.485955
 30
0.0
 10
240.954346
 20
119.015568
 30
0.0
  0
SPLINE
  5
108
100
AcDbEntity
  8
0
 62
7
100
AcDbSpline
 70
0
 71
3
 72
10
 73
6
 74
4
 40
0.000000
 40
0.000000
 40
0.000000
 40
0.000000
 40
19.394302
 40
38.690166
 40
58.084468
 40
58.084468
 40
58.084468
 40
58.084468
 10
240.954346
 20
119.015568
 30
0.0
 10
245.248374
 20
123.867989
 30
0.0
 10
253.814635
 20
133.548202
 30
0.0
 10
262.877285
 20
150.957392
 30
0.0
 10
265.893446
 20
163.526805
 30
0.0
 10
267.405363
 20
169.827501
 30
0.0
 11
240.954346
 21
119.015568
 31
0.0
 11
253.200804
 21
134.054292
 31
0.0
 11
262.110642
 21
151.169932
 31
0.0
 11
267.405363
 21
169.827501
 31
0.0
  0
LWPOLYLINE
  5
109
100
AcDbEntity
  8
0
 62
7
100
AcDbPolyline
 90
2
 70
0
 10
267.405363
 20
169.827501
 30
0.0
 10
286.165951
 20
166.519521
 30
0.0
  0
SPLINE
  5
10a
100
AcDbEntity
  8
0
 62
7
100
AcDbSpline
 70
0
 71
3
 72
10
 73
6
 74
4
 40
0.000000
 40
0.000000
 40
0.000000
 40
0.000000
 40
7.388540
 40
14.764660
 40
22.153200
 40
22.153200
 40
22.153200
 40
22.153200
 10
113.444920
 20
131.383543
 30
0.0
 10
115.885572
 20
131.040477
 30
0.0
 10
120.762773
 20
130.354923
 30
0.0
 10
128.180404
 20
130.354923
 30
0.0
 10
133.057606
 20
131.040477
 30
0.0
 10
135.498258
 20
131.383543
 30
0.0
 11
113.444920
 21
131.383543
 31
0.0
 11
120.783528
 21
130.526023
 31
0.0
 11
128.159649
 21
130.526023
 31
0.0
 11
135.498258
 21
131.383543
 31
0.0
  0
LWPOLYLINE
  5
10b
100
AcDbEntity
  8
0
 62
7
100
AcDbPolyline
 90
2
 70
0
 10
113.444920
 20
131.383543
 30
0.0
 10
107.931585
 20
100.115878
 30
0.0
  0
SPLINE
  5
10c
100
AcDbEntity
  8
0
 62
7
100
AcDbSpline
 70
0
 71
3
 72
10
 73
6
 74
4
 40
0.000000
 40
0.000000
 40
0.000000
 40
0.000000
 40
5.541420
 40
11.080499
 40
16.621918
 40
16.621918
 40
16.621918
 40
16.621918
 10
91.894157
 20
104.413108
 30
0.0
 10
93.640976
 20
103.811623
 30
0.0
 10
97.133877
 20
102.608907
 30
0.0
 10
102.491756
 20
101.173263
 30
0.0
 10
106.118053
 20
100.468389
 30
0.0
 10
107.931585
 20
100.115878
 30
0.0
 11
91.894157
 21
104.413108
 31
0.0
 11
97.154315
 21
102.670101
 31
0.0
 11
102.504653
 21
101.236477
 31
0.0
 11
107.931585
 21
100.115878
 31
0.0
  0
LWPOLYLINE
  5
10d
100
AcDbEntity
  8
0
 62
7
100
AcDbPolyline
 90
2
 70
0
 10
91.894157
 20
104.413108
 30
0.0
 10
85.378687
 20
86.511956
 30
0.0
  0
SPLINE
  5
10e
100
AcDbEntity
  8
0
 62
7
100
AcDbSpline
 70
0
 71
3
 72
10
 73
6
 74
4
 40
0.000000
 40
0.000000
 40
0.000000
 40
0.000000
 40
19.948739
 40
39.822673
 40
59.771412
 40
59.771412
 40
59.771412
 40
59.771412
 10
85.378687
 20
86.511955
 30
0.0
 10
91.748167
 20
84.564113
 30
0.0
 10
104.463243
 20
80.675732
 30
0.0
 10
124.511504
 20
78.921740
 30
0.0
 10
137.708619
 20
80.543102
 30
0.0
 10
144.319572
 20
81.355306
 30
0.0
 11
85.378687
 21
86.511955
 31
0.0
 11
104.648249
 21
81.350931
 31
0.0
 11
124.446556
 21
79.618807
 31
0.0
 11
144.319572
 21
81.355306
 31
0.0
  0
LWPOLYLINE
  5
10f
100
AcDbEntity
  8
0
 62
7
100
AcDbPolyline
 90
2
 70
0
 10
144.319572
 20
81.355306
 30
0.0
 10
141.011574
 20
100.115878
 30
0.0
  0
SPLINE
  5
110
100
AcDbEntity
  8
0
 62
7
100
AcDbSpline
 70
0
 71
3
 72
10
 73
6
 74
4
 40
0.000000
 40
0.000000
 40
0.000000
 40
0.000000
 40
5.541420
 40
11.080500
 40
16.621921
 40
16.621921
 40
16.621921
 40
16.621921
 10
141.011574
 20
100.115878
 30
0.0
 10
142.825106
 20
100.468389
 30
0.0
 10
146.451404
 20
101.173263
 30
0.0
 10
151.809284
 20
102.608907
 30
0.0
 10
155.302185
 20
103.811623
 30
0.0
 10
157.049004
 20
104.413108
 30
0.0
 11
141.011574
 21
100.115878
 31
0.0
 11
146.438507
 21
101.236477
 31
0.0
 11
151.788846
 21
102.670101
 31
0.0
 11
157.049004
 21
104.413108
 31
0.0
  0
LWPOLYLINE
  5
111
100
AcDbEntity
  8
0
 62
7
100
AcDbPolyline
 90
2
 70
0
 10
157.049004
 20
104.413108
 30
0.0
 10
150.533521
 20
122.314234
 30
0.0
  0
LWPOLYLINE
  5
112
100
AcDbEntity
  8
0
 62
7
100
AcDbPolyline
 90
2
 70
0
 10
137.703586
 20
118.876477
 30
0.0
 10
135.498258
 20
131.383543
 30
0.0
  0
SPLINE
  5
113
100
AcDbEntity
  8
0
 62
7
100
AcDbSpline
 70
0
 71
3
 72
10
 73
6
 74
4
 40
0.000000
 40
0.000000
 40
0.000000
 40
0.000000
 40
4.433131
 40
8.864389
 40
13.297520
 40
13.297520
 40
13.297520
 40
13.297520
 10
137.703586
 20
118.876477
 30
0.0
 10
139.154411
 20
119.158483
 30
0.0
 10
142.055446
 20
119.722376
 30
0.0
 10
146.341747
 20
120.870883
 30
0.0
 10
149.136066
 20
121.833050
 30
0.0
 10
150.533521
 20
122.314234
 30
0.0
 11
137.703586
 21
118.876477
 31
0.0
 11
142.045129
 21
119.772948
 31
0.0
 11
146.325397
 21
120.919838
 31
0.0
 11
150.533521
 21
122.314234
 31
0.0
  0
SPLINE
  5
114
100
AcDbEntity
  8
0
 62
7
100
AcDbSpline
 70
0
 71
3
 72
10
 73
6
 74
4
 40
0.000000
 40
0.000000
 40
0.000000
 40
0.000000
 40
11.811418
 40
23.340270
 40
35.146768
 40
35.146768
 40
35.146768
 40
35.146768
 10
103.213165
 20
227.741689
 30
0.0
 10
105.083052
 20
224.216827
 30
0.0
 10
108.778092
 20
217.251428
 30
0.0
 10
119.626447
 20
210.984832
 30
0.0
 10
127.505314
 20
211.275322
 30
0.0
 10
131.491620
 20
211.422295
 30
0.0
 11
103.213165
 21
227.741689
 31
0.0
 11
109.721479
 21
217.885147
 31
0.0
 11
119.705802
 21
212.120797
 31
0.0
 11
131.491620
 21
211.422295
 31
0.0
  0
LWPOLYLINE
  5
115
100
AcDbEntity
  8
0
 62
7
100
AcDbPolyline
 90
2
 70
0
 10
103.213165
 20
227.741689
 30
0.0
 10
7.752212
 20
192.986260
 30
0.0
  0
SPLINE
  5
116
100
AcDbEntity
  8
0
 62
7
100
AcDbSpline
 70
0
 71
3
 72
16
 73
12
 74
10
 40
0.000000
 40
0.000000
 40
0.000000
 40
0.000000
 40
11.802034
 40
23.320513
 40
35.124535
 40
46.943038
 40
58.465712
 40
70.268054
 40
82.075113
 40
93.601610
 40
105.409088
 40
105.409088
 40
105.409088
 40
105.409088
 10
131.491620
 20
211.422295
 30
0.0
 10
135.306014
 20
212.650000
 30
0.0
 10
142.843158
 20
215.075914
 30
0.0
 10
150.581302
 20
224.671452
 30
0.0
 10
153.419633
 20
236.406594
 30
0.0
 10
150.592856
 20
248.251646
 30
0.0
 10
142.806951
 20
257.537917
 30
0.0
 10
131.637309
 20
262.380553
 30
0.0
 10
119.589906
 20
261.619124
 30
0.0
 10
108.788246
 20
255.668826
 30
0.0
 10
105.086384
 20
248.664003
 30
0.0
 10
103.213165
 20
245.119417
 30
0.0
 11
131.491620
 21
211.422295
 31
0.0
 11
142.320252
 21
216.115772
 31
0.0
 11
149.724612
 21
224.939083
 31
0.0
 11
152.467635
 21
236.419969
 31
0.0
 11
149.724612
 21
247.915744
 31
0.0
 11
142.320252
 21
256.744530
 31
0.0
 11
131.491620
 21
261.438784
 31
0.0
 11
119.705802
 21
260.730876
 31
0.0
 11
109.721479
 21
254.971237
 31
0.0
 11
103.213165
 21
245.119417
 31
0.0
  0
LWPOLYLINE
  5
117
100
AcDbEntity
  8
0
 62
7
100
AcDbPolyline
 90
2
 70
0
 10
103.213165
 20
245.119417
 30
0.0
 10
7.752212
 20
279.853641
 30
0.0
  0
SPLINE
  5
118
100
AcDbEntity
  8
0
 62
7
100
AcDbSpline
 70
0
 71
3
 72
10
 73
6
 74
4
 40
0.000000
 40
0.000000
 40
0.000000
 40
0.000000
 40
29.545685
 40
58.901298
 40
88.460721
 40
88.460721
 40
88.460721
 40
88.460721
 10
7.752212
 20
279.853641
 30
0.0
 10
5.024108
 20
270.359408
 30
0.0
 10
-0.414552
 20
251.432019
 30
0.0
 10
-0.413081
 20
221.417538
 30
0.0
 10
5.024178
 20
202.485184
 30
0.0
 10
7.752212
 20
192.986260
 30
0.0
 11
7.752212
 21
279.853641
 31
0.0
 11
0.936599
 21
251.104817
 31
0.0
 11
0.936599
 21
221.749203
 31
0.0
 11
7.752212
 21
192.986260
 31
0.0
  0
LWPOLYLINE
  5
119
100
AcDbEntity
  8
0
 62
7
100
AcDbPolyline
 90
2
 70
0
 10
113.648252
 20
353.597763
 30
0.0
 10
108.716471
 20
372.012625
 30
0.0
  0
SPLINE
  5
11a
100
AcDbEntity
  8
0
 62
7
100
AcDbSpline
 70
0
 71
3
 72
10
 73
6
 74
4
 40
0.000000
 40
0.000000
 40
0.000000
 40
0.000000
 40
30.470837
 40
60.571641
 40
91.034695
 40
91.034695
 40
91.034695
 40
91.034695
 10
113.648252
 20
353.597763
 30
0.0
 10
104.077028
 20
350.023199
 30
0.0
 10
85.050813
 20
342.917479
 30
0.0
 10
61.927139
 20
321.735314
 30
0.0
 10
53.189175
 20
303.403899
 30
0.0
 10
48.794061
 20
294.183369
 30
0.0
 11
113.648252
 21
353.597763
 31
0.0
 11
85.855846
 21
341.105601
 31
0.0
 11
63.660795
 21
320.772425
 31
0.0
 11
48.794061
 21
294.183369
 31
0.0
  0
LWPOLYLINE
  5
11b
100
AcDbEntity
  8
0
 62
7
100
AcDbPolyline
 90
2
 70
0
 10
66.700929
 20
287.664083
 30
0.0
 10
48.794061
 20
294.183369
 30
0.0
  0
SPLINE
  5
11c
100
AcDbEntity
  8
0
 62
7
100
AcDbSpline
 70
0
 71
3
 72
10
 73
6
 74
4
 40
0.000000
 40
0.000000
 40
0.000000
 40
0.000000
 40
24.382751
 40
48.462103
 40
72.836371
 40
72.836371
 40
72.836371
 40
72.836371
 10
118.580059
 20
335.204065
 30
0.0
 10
110.920482
 20
332.345483
 30
0.0
 10
95.696638
 20
326.663890
 30
0.0
 10
77.194207
 20
309.715097
 30
0.0
 10
70.212852
 20
295.044186
 30
0.0
 10
66.700929
 20
287.664083
 30
0.0
 11
118.580059
 21
335.204065
 31
0.0
 11
96.338762
 21
325.211904
 31
0.0
 11
78.584758
 21
308.945050
 31
0.0
 11
66.700929
 21
287.664083
 31
0.0
  0
LWPOLYLINE
  5
11d
100
AcDbEntity
  8
0
 62
7
100
AcDbPolyline
 90
2
 70
0
 10
121.860866
 20
322.927488
 30
0.0
 10
118.580059
 20
335.204065
 30
0.0
  0
SPLINE
  5
11e
100
AcDbEntity
  8
0
 62
7
100
AcDbSpline
 70
0
 71
3
 72
10
 73
6
 74
4
 40
0.000000
 40
0.000000
 40
0.000000
 40
0.000000
 40
11.086288
 40
22.125013
 40
33.211299
 40
33.211299
 40
33.211299
 40
33.211299
 10
154.732453
 20
322.927488
 30
0.0
 10
151.112542
 20
323.701104
 30
0.0
 10
143.888251
 20
325.245016
 30
0.0
 10
132.705066
 20
325.245017
 30
0.0
 10
125.480776
 20
323.701104
 30
0.0
 10
121.860866
 20
322.927488
 30
0.0
 11
154.732453
 21
322.927488
 31
0.0
 11
143.816021
 21
324.860696
 31
0.0
 11
132.777296
 21
324.860696
 31
0.0
 11
121.860866
 21
322.927488
 31
0.0
  0
LWPOLYLINE
  5
11f
100
AcDbEntity
  8
0
 62
7
100
AcDbPolyline
 90
2
 70
0
 10
154.732453
 20
322.927488
 30
0.0
 10
162.945059
 20
353.597763
 30
0.0
  0
SPLINE
  5
120
100
AcDbEntity
  8
0
 62
7
100
AcDbSpline
 70
0
 71
3
 72
10
 73
6
 74
4
 40
0.000000
 40
0.000000
 40
0.000000
 40
0.000000
 40
30.463052
 40
60.563851
 40
91.034693
 40
91.034693
 40
91.034693
 40
91.034693
 10
227.799244
 20
294.183369
 30
0.0
 10
223.404132
 20
303.403899
 30
0.0
 10
214.666172
 20
321.735313
 30
0.0
 10
191.542502
 20
342.917482
 30
0.0
 10
172.516285
 20
350.023199
 30
0.0
 10
162.945059
 20
353.597763
 30
0.0
 11
227.799244
 21
294.183369
 31
0.0
 11
212.932515
 21
320.772425
 31
0.0
 11
190.737470
 21
341.105601
 31
0.0
 11
162.945059
 21
353.597763
 31
0.0
  0
SPLINE
  5
121
100
AcDbEntity
  8
0
 62
7
100
AcDbSpline
 70
0
 71
3
 72
10
 73
6
 74
4
 40
0.000000
 40
0.000000
 40
0.000000
 40
0.000000
 40
56.470174
 40
111.411571
 40
167.863036
 40
167.863036
 40
167.863036
 40
167.863036
 10
245.706112
 20
300.681488
 30
0.0
 10
236.605751
 20
317.491889
 30
0.0
 10
218.651398
 20
350.657597
 30
0.0
 10
165.160010
 20
378.504205
 30
0.0
 10
127.700255
 20
374.195953
 30
0.0
 10
108.716471
 20
372.012625
 30
0.0
 11
245.706112
 21
300.681488
 31
0.0
 11
213.896767
 21
347.340315
 31
0.0
 11
165.163625
 21
372.710336
 31
0.0
 11
108.716471
 21
372.012625
 31
0.0
  0
LWPOLYLINE
  5
122
100
AcDbEntity
  8
0
 62
7
100
AcDbPolyline
 90
2
 70
0
 10
227.799244
 20
294.183369
 30
0.0
 10
245.706112
 20
300.681488
 30
0.0
  0
SPLINE
  5
123
100
AcDbEntity
  8
0
 62
7
100
AcDbSpline
 70
0
 71
3
 72
10
 73
6
 74
4
 40
0.000000
 40
0.000000
 40
0.000000
 40
0.000000
 40
26.592371
 40
53.008325
 40
79.600331
 40
79.600331
 40
79.600331
 40
79.600331
 10
175.285207
 20
19.867065
 30
0.0
 10
183.408303
 20
23.481729
 30
0.0
 10
199.600605
 20
30.687075
 30
0.0
 10
220.283847
 20
48.053066
 30
0.0
 10
230.193816
 20
62.745664
 30
0.0
 10
235.165257
 20
70.116361
 30
0.0
 11
175.285207
 21
19.867065
 31
0.0
 11
199.045791
 21
31.808122
 31
0.0
 11
219.278620
 21
48.791503
 31
0.0
 11
235.165257
 21
70.116361
 31
0.0
  0
LWPOLYLINE
  5
124
100
AcDbEntity
  8
0
 62
7
100
AcDbPolyline
 90
2
 70
0
 10
235.165257
 20
70.116361
 30
0.0
 10
202.166688
 20
89.166229
 30
0.0
  0
SPLINE
  5
125
100
AcDbEntity
  8
0
 62
7
100
AcDbSpline
 70
0
 71
3
 72
10
 73
6
 74
4
 40
0.000000
 40
0.000000
 40
0.000000
 40
0.000000
 40
22.160985
 40
44.093423
 40
66.247111
 40
66.247111
 40
66.247111
 40
66.247111
 10
149.419752
 20
52.230660
 30
0.0
 10
156.589758
 20
54.150791
 30
0.0
 10
170.855825
 20
57.971250
 30
0.0
 10
189.444317
 20
70.990071
 30
0.0
 10
197.911733
 20
83.087273
 30
0.0
 10
202.166688
 20
89.166229
 30
0.0
 11
149.419752
 21
52.230660
 31
0.0
 11
170.451411
 21
59.214825
 31
0.0
 11
188.416291
 21
71.796357
 31
0.0
 11
202.166688
 21
89.166229
 31
0.0
  0
LWPOLYLINE
  5
126
100
AcDbEntity
  8
0
 62
7
100
AcDbPolyline
 90
2
 70
0
 10
149.419752
 20
52.230660
 30
0.0
 10
152.721725
 20
33.477126
 30
0.0
  0
SPLINE
  5
127
100
AcDbEntity
  8
0
 62
7
100
AcDbSpline
 70
0
 71
3
 72
10
 73
6
 74
4
 40
0.000000
 40
0.000000
 40
0.000000
 40
0.000000
 40
5.542697
 40
11.085700
 40
16.629099
 40
16.629099
 40
16.629099
 40
16.629099
 10
152.721725
 20
33.477126
 30
0.0
 10
154.536207
 20
33.827033
 30
0.0
 10
158.165271
 20
34.526867
 30
0.0
 10
163.525942
 20
35.962311
 30
0.0
 10
167.019223
 20
37.170044
 30
0.0
 10
168.765926
 20
37.773933
 30
0.0
 11
152.721725
 21
33.477126
 31
0.0
 11
158.151321
 21
34.591119
 31
0.0
 11
163.505664
 21
36.024958
 31
0.0
 11
168.765926
 21
37.773933
 31
0.0
  0
LWPOLYLINE
  5
128
100
AcDbEntity
  8
0
 62
7
100
AcDbPolyline
 90
2
 70
0
 10
168.765926
 20
37.773933
 30
0.0
 10
175.285207
 20
19.867065
 30
0.0
  0
SPLINE
  5
129
100
AcDbEntity
  8
0
 62
7
100
AcDbSpline
 70
0
 71
3
 72
13
 73
9
 74
7
 40
0.000000
 40
0.000000
 40
0.000000
 40
0.000000
 40
34.902412
 40
69.417744
 40
104.317491
 40
139.216901
 40
173.736536
 40
208.649236
 40
208.649236
 40
208.649236
 40
208.649236
 10
45.079020
 20
179.895235
 30
0.0
 10
37.556640
 20
170.899187
 30
0.0
 10
22.595305
 20
153.006859
 30
0.0
 10
11.686405
 20
119.152599
 30
0.0
 10
10.757324
 20
83.918327
 30
0.0
 10
20.774855
 20
50.122790
 30
0.0
 10
40.083824
 20
20.246732
 30
0.0
 10
59.168170
 20
6.831380
 30
0.0
 10
68.764362
 20
0.085730
 30
0.0
 11
45.079020
 21
179.895235
 31
0.0
 11
24.458923
 21
151.735158
 31
0.0
 11
13.368459
 21
119.050150
 31
0.0
 11
12.588425
 21
84.159122
 31
0.0
 11
22.373629
 21
50.659590
 31
0.0
 11
41.552059
 21
21.957795
 31
0.0
 11
68.764362
 21
0.085730
 31
0.0
  0
LWPOLYLINE
  5
12a
100
AcDbEntity
  8
0
 62
7
100
AcDbPolyline
 90
2
 70
0
 10
68.764362
 20
0.085730
 30
0.0
 10
87.814203
 20
33.084325
 30
0.0
  0
LWPOLYLINE
  5
12b
100
AcDbEntity
  8
0
 62
7
100
AcDbPolyline
 90
2
 70
0
 10
72.024002
 20
152.950259
 30
0.0
 10
45.079020
 20
179.895235
 30
0.0
  0
SPLINE
  5
12c
100
AcDbEntity
  8
0
 62
7
100
AcDbSpline
 70
0
 71
3
 72
13
 73
9
 74
7
 40
0.000000
 40
0.000000
 40
0.000000
 40
0.000000
 40
23.258800
 40
46.263732
 40
69.536243
 40
92.808451
 40
115.817907
 40
139.087197
 40
139.087197
 40
139.087197
 40
139.087197
 10
72.024002
 20
152.950259
 30
0.0
 10
67.010885
 20
146.955523
 30
0.0
 10
57.039368
 20
135.031482
 30
0.0
 10
49.768162
 20
112.464370
 30
0.0
 10
49.150582
 20
88.972945
 30
0.0
 10
55.825787
 20
66.438712
 30
0.0
 10
68.698833
 20
46.522816
 30
0.0
 10
81.418608
 20
37.580558
 30
0.0
 10
87.814203
 20
33.084325
 30
0.0
 11
72.024002
 21
152.950259
 31
0.0
 11
58.282237
 21
134.184980
 31
0.0
 11
50.890420
 21
112.399941
 31
0.0
 11
50.370661
 21
89.133236
 31
0.0
 11
56.893862
 21
66.793953
 31
0.0
 11
69.677646
 21
47.662567
 31
0.0
 11
87.814203
 21
33.084325
 31
0.0
  0
SPLINE
  5
12d
100
AcDbEntity
  8
0
 62
7
100
AcDbSpline
 70
0
 71
3
 72
10
 73
6
 74
4
 40
0.000000
 40
0.000000
 40
0.000000
 40
0.000000
 40
0.362782
 40
0.661021
 40
0.913158
 40
0.913158
 40
0.913158
 40
0.913158
 10
129.393183
 20
342.663545
 30
0.0
 10
129.397812
 20
342.542861
 30
0.0
 10
129.406248
 20
342.322966
 30
0.0
 10
129.479986
 20
342.020597
 30
0.0
 10
129.589735
 20
341.871742
 30
0.0
 10
129.640013
 20
341.803548
 30
0.0
 11
129.393183
 21
342.663545
 31
0.0
 11
129.420608
 21
342.301801
 31
0.0
 11
129.502885
 21
342.015135
 31
0.0
 11
129.640013
 21
341.803548
 31
0.0
  0
SPLINE
  5
12e
100
AcDbEntity
  8
0
 62
7
100
AcDbSpline
 70
0
 71
3
 72
13
 73
9
 74
7
 40
0.000000
 40
0.000000
 40
0.000000
 40
0.000000
 40
0.124746
 40
0.230559
 40
0.319998
 40
0.459504
 40
0.719155
 40
1.098958
 40
1.098958
 40
1.098958
 40
1.098958
 10
129.640013
 20
341.803548
 30
0.0
 10
129.667870
 20
341.772604
 30
0.0
 10
129.719357
 20
341.715411
 30
0.0
 10
129.801969
 20
341.647404
 30
0.0
 10
129.900119
 20
341.591688
 30
0.0
 10
130.062624
 20
341.564741
 30
0.0
 10
130.312457
 20
341.496585
 30
0.0
 10
130.520243
 20
341.448302
 30
0.0
 10
130.643656
 20
341.419624
 30
0.0
 11
129.640013
 21
341.803548
 31
0.0
 11
129.725937
 21
341.713113
 31
0.0
 11
129.808205
 21
341.646567
 31
0.0
 11
129.886816
 21
341.603909
 31
0.0
 11
130.022086
 21
341.569790
 31
0.0
 11
130.274366
 21
341.508362
 31
0.0
 11
130.643656
 21
341.419624
 31
0.0
  0
LWPOLYLINE
  5
12f
100
AcDbEntity
  8
0
 62
7
100
AcDbPolyline
 90
2
 70
0
 10
129.393183
 20
360.708091
 30
0.0
 10
129.393183
 20
342.663545
 30
0.0
  0
SPLINE
  5
130
100
AcDbEntity
  8
0
 62
7
100
AcDbSpline
 70
0
 71
3
 72
16
 73
12
 74
10
 40
0.000000
 40
0.000000
 40
0.000000
 40
0.000000
 40
0.470150
 40
0.855598
 40
1.259411
 40
1.513030
 40
1.771012
 40
2.069656
 40
2.343625
 40
2.694562
 40
3.131960
 40
3.131960
 40
3.131960
 40
3.131960
 10
130.643656
 20
341.419624
 30
0.0
 10
130.796962
 20
341.377453
 30
0.0
 10
131.075953
 20
341.300707
 30
0.0
 10
131.383450
 20
340.980976
 30
0.0
 10
131.453561
 20
340.624859
 30
0.0
 10
131.403470
 20
340.317484
 30
0.0
 10
131.244260
 20
340.089954
 30
0.0
 10
131.018878
 20
339.922616
 30
0.0
 10
130.729594
 20
339.809729
 30
0.0
 10
130.377710
 20
339.754782
 30
0.0
 10
130.114912
 20
339.748941
 30
0.0
 10
129.969101
 20
339.745701
 30
0.0
 11
130.643656
 21
341.419624
 31
0.0
 11
131.082409
 21
341.250695
 31
0.0
 11
131.345661
 21
340.969148
 31
0.0
 11
131.433411
 21
340.574985
 31
0.0
 11
131.385883
 21
340.325859
 31
0.0
 11
131.243299
 21
340.110860
 31
0.0
 11
131.005659
 21
339.929986
 31
0.0
 11
130.751539
 21
339.827605
 31
0.0
 11
130.406019
 21
339.766177
 31
0.0
 11
129.969101
 21
339.745701
 31
0.0
  0
SPLINE
  5
131
100
AcDbEntity
  8
0
 62
7
100
AcDbSpline
 70
0
 71
3
 72
10
 73
6
 74
4
 40
0.000000
 40
0.000000
 40
0.000000
 40
0.000000
 40
0.444704
 40
0.795642
 40
1.062840
 40
1.062840
 40
1.062840
 40
1.062840
 10
122.548544
 20
339.745701
 30
0.0
 10
122.400595
 20
339.749437
 30
0.0
 10
122.135892
 20
339.756120
 30
0.0
 10
121.780648
 20
339.804685
 30
0.0
 10
121.593070
 20
339.892169
 30
0.0
 10
121.511986
 20
339.929986
 30
0.0
 11
122.548544
 21
339.745701
 31
0.0
 11
122.104312
 21
339.766177
 31
0.0
 11
121.758792
 21
339.827605
 31
0.0
 11
121.511986
 21
339.929986
 31
0.0
  0
SPLINE
  5
132
100
AcDbEntity
  8
0
 62
7
100
AcDbSpline
 70
0
 71
3
 72
13
 73
9
 74
7
 40
0.000000
 40
0.000000
 40
0.000000
 40
0.000000
 40
0.298667
 40
0.556659
 40
0.810279
 40
1.214093
 40
1.599547
 40
2.069711
 40
2.069711
 40
2.069711
 40
2.069711
 10
121.511986
 20
339.929986
 30
0.0
 10
121.428143
 20
339.984862
 30
0.0
 10
121.271877
 20
340.087141
 30
0.0
 10
121.114488
 20
340.318161
 30
0.0
 10
121.063868
 20
340.624555
 30
0.0
 10
121.134193
 20
340.981069
 30
0.0
 10
121.441640
 20
341.300680
 30
0.0
 10
121.720647
 20
341.377443
 30
0.0
 10
121.873963
 20
341.419624
 30
0.0
 11
121.511986
 21
339.929986
 31
0.0
 11
121.274317
 21
340.110860
 31
0.0
 11
121.131715
 21
340.325859
 31
0.0
 11
121.084181
 21
340.574985
 31
0.0
 11
121.171935
 21
340.969148
 31
0.0
 11
121.435195
 21
341.250695
 31
0.0
 11
121.873963
 21
341.419624
 31
0.0
  0
SPLINE
  5
133
100
AcDbEntity
  8
0
 62
7
100
AcDbSpline
 70
0
 71
3
 72
13
 73
9
 74
7
 40
0.000000
 40
0.000000
 40
0.000000
 40
0.000000
 40
0.379803
 40
0.639463
 40
0.778986
 40
0.866811
 40
0.968418
 40
1.087059
 40
1.087059
 40
1.087059
 40
1.087059
 10
121.873962
 20
341.419624
 30
0.0
 10
121.997387
 20
341.448271
 30
0.0
 10
122.205192
 20
341.496503
 30
0.0
 10
122.454958
 20
341.564889
 30
0.0
 10
122.617069
 20
341.591341
 30
0.0
 10
122.713322
 20
341.646706
 30
0.0
 10
122.790678
 20
341.715050
 30
0.0
 10
122.836495
 20
341.772566
 30
0.0
 10
122.861176
 20
341.803548
 30
0.0
 11
121.873963
 21
341.419624
 31
0.0
 11
122.243256
 21
341.508354
 31
0.0
 11
122.495545
 21
341.569782
 31
0.0
 11
122.630830
 21
341.603909
 31
0.0
 11
122.707600
 21
341.646567
 31
0.0
 11
122.784382
 21
341.713113
 31
0.0
 11
122.861176
 21
341.803548
 31
0.0
  0
LWPOLYLINE
  5
134
100
AcDbEntity
  8
0
 62
7
100
AcDbPolyline
 90
4
 70
0
 10
129.969101
 20
339.745701
 30
0.0
 10
129.409640
 20
339.745701
 30
0.0
 10
123.091496
 20
339.745701
 30
0.0
 10
122.548544
 20
339.745701
 30
0.0
  0
SPLINE
  5
135
100
AcDbEntity
  8
0
 62
7
100
AcDbSpline
 70
0
 71
3
 72
10
 73
6
 74
4
 40
0.000000
 40
0.000000
 40
0.000000
 40
0.000000
 40
0.252129
 40
0.550366
 40
0.913147
 40
0.913147
 40
0.913147
 40
0.913147
 10
122.861176
 20
341.803548
 30
0.0
 10
122.911448
 20
341.871742
 30
0.0
 10
123.021187
 20
342.020600
 30
0.0
 10
123.094915
 20
342.322967
 30
0.0
 10
123.103350
 20
342.542861
 30
0.0
 10
123.107979
 20
342.663545
 30
0.0
 11
122.861176
 21
341.803548
 31
0.0
 11
122.998289
 21
342.015135
 31
0.0
 11
123.080557
 21
342.301801
 31
0.0
 11
123.107979
 21
342.663545
 31
0.0
  0
SPLINE
  5
136
100
AcDbEntity
  8
0
 62
7
100
AcDbSpline
 70
0
 71
3
 72
10
 73
6
 74
4
 40
0.000000
 40
0.000000
 40
0.000000
 40
0.000000
 40
0.485018
 40
0.878713
 40
1.188948
 40
1.188948
 40
1.188948
 40
1.188948
 10
123.107979
 20
357.037751
 30
0.0
 10
123.104322
 20
357.199245
 30
0.0
 10
123.097697
 20
357.491825
 30
0.0
 10
123.048150
 20
357.888235
 30
0.0
 10
122.964063
 20
358.108024
 30
0.0
 10
122.927004
 20
358.204889
 30
0.0
 11
123.107979
 21
357.037751
 31
0.0
 11
123.087871
 21
357.522352
 31
0.0
 11
123.027546
 21
357.911398
 31
0.0
 11
122.927004
 21
358.204889
 31
0.0
  0
LWPOLYLINE
  5
137
100
AcDbEntity
  8
0
 62
7
100
AcDbPolyline
 90
2
 70
0
 10
123.107979
 20
342.663545
 30
0.0
 10
123.107979
 20
357.037751
 30
0.0
  0
SPLINE
  5
138
100
AcDbEntity
  8
0
 62
7
100
AcDbSpline
 70
0
 71
3
 72
10
 73
6
 74
4
 40
0.000000
 40
0.000000
 40
0.000000
 40
0.000000
 40
0.248728
 40
0.476466
 40
0.714485
 40
0.714485
 40
0.714485
 40
0.714485
 10
122.927004
 20
358.204889
 30
0.0
 10
122.887516
 20
358.278455
 30
0.0
 10
122.811872
 20
358.419379
 30
0.0
 10
122.615834
 20
358.571174
 30
0.0
 10
122.462407
 20
358.603176
 30
0.0
 10
122.384000
 20
358.619531
 30
0.0
 11
122.927004
 21
358.204889
 31
0.0
 11
122.793528
 21
358.414769
 31
0.0
 11
122.612526
 21
358.552983
 31
0.0
 11
122.384000
 21
358.619531
 31
0.0
  0
SPLINE
  5
139
100
AcDbEntity
  8
0
 62
7
100
AcDbSpline
 70
0
 71
3
 72
13
 73
9
 74
7
 40
0.000000
 40
0.000000
 40
0.000000
 40
0.000000
 40
0.448784
 40
0.804913
 40
1.176722
 40
1.485362
 40
1.789641
 40
2.133944
 40
2.133944
 40
2.133944
 40
2.133944
 10
121.808161
 20
358.696316
 30
0.0
 10
121.659257
 20
358.724976
 30
0.0
 10
121.392192
 20
358.776380
 30
0.0
 10
121.082048
 20
359.057039
 30
0.0
 10
121.014439
 20
359.413816
 30
0.0
 10
121.068921
 20
359.742553
 30
0.0
 10
121.248114
 20
360.020064
 30
0.0
 10
121.431233
 20
360.138458
 30
0.0
 10
121.528443
 20
360.201308
 30
0.0
 11
121.808161
 21
358.696316
 31
0.0
 11
121.378521
 21
358.825998
 31
0.0
 11
121.120738
 21
359.071711
 31
0.0
 11
121.034810
 21
359.433455
 31
0.0
 11
121.089658
 21
359.737183
 31
0.0
 11
121.254202
 21
359.993134
 31
0.0
 11
121.528443
 21
360.201308
 31
0.0
  0
LWPOLYLINE
  5
13a
100
AcDbEntity
  8
0
 62
7
100
AcDbPolyline
 90
2
 70
0
 10
122.384000
 20
358.619531
 30
0.0
 10
121.808161
 20
358.696316
 30
0.0
  0
LWPOLYLINE
  5
13b
100
AcDbEntity
  8
0
 62
7
100
AcDbPolyline
 90
2
 70
0
 10
122.548544
 20
360.370236
 30
0.0
 10
129.393183
 20
360.708091
 30
0.0
  0
SPLINE
  5
13c
100
AcDbEntity
  8
0
 62
7
100
AcDbSpline
 70
0
 71
3
 72
10
 73
6
 74
4
 40
0.000000
 40
0.000000
 40
0.000000
 40
0.000000
 40
0.234782
 40
0.579447
 40
1.038173
 40
1.038173
 40
1.038173
 40
1.038173
 10
121.528443
 20
360.201308
 30
0.0
 10
121.602199
 20
360.228008
 30
0.0
 10
121.784230
 20
360.293905
 30
0.0
 10
122.129526
 20
360.338535
 30
0.0
 10
122.396249
 20
360.358714
 30
0.0
 10
122.548544
 20
360.370236
 30
0.0
 11
121.528443
 21
360.201308
 31
0.0
 11
121.751466
 21
360.274680
 31
0.0
 11
122.091500
 21
360.330989
 31
0.0
 11
122.548544
 21
360.370236
 31
0.0
  0
SPLINE
  5
13d
100
AcDbEntity
  8
0
 62
7
100
AcDbSpline
 70
0
 71
3
 72
10
 73
6
 74
4
 40
0.000000
 40
0.000000
 40
0.000000
 40
0.000000
 40
0.297200
 40
0.564077
 40
0.803604
 40
0.803604
 40
0.803604
 40
0.803604
 10
143.115414
 20
359.295242
 30
0.0
 10
143.018719
 20
359.273651
 30
0.0
 10
142.835197
 20
359.232670
 30
0.0
 10
142.580078
 20
359.147676
 30
0.0
 10
142.429683
 20
359.070618
 30
0.0
 10
142.358547
 20
359.034170
 30
0.0
 11
143.115414
 21
359.295242
 31
0.0
 11
142.826565
 21
359.225281
 31
0.0
 11
142.574276
 21
359.138257
 31
0.0
 11
142.358547
 21
359.034170
 31
0.0
  0
SPLINE
  5
13e
100
AcDbEntity
  8
0
 62
7
100
AcDbSpline
 70
0
 71
3
 72
13
 73
9
 74
7
 40
0.000000
 40
0.000000
 40
0.000000
 40
0.000000
 40
0.190428
 40
0.333199
 40
0.447937
 40
0.608042
 40
0.821382
 40
1.103552
 40
1.103552
 40
1.103552
 40
1.103552
 10
142.358547
 20
359.034170
 30
0.0
 10
142.305371
 20
358.999328
 30
0.0
 10
142.212328
 20
358.938363
 30
0.0
 10
142.111810
 20
358.823105
 30
0.0
 10
142.079906
 20
358.678945
 30
0.0
 10
142.164037
 20
358.527852
 30
0.0
 10
142.319518
 20
358.375001
 30
0.0
 10
142.459713
 20
358.286181
 30
0.0
 10
142.539548
 20
358.235602
 30
0.0
 11
142.358547
 21
359.034170
 31
0.0
 11
142.204988
 21
358.921552
 31
0.0
 11
142.117235
 21
358.808934
 31
0.0
 11
142.095286
 21
358.696316
 31
0.0
 11
142.159312
 21
358.549569
 31
0.0
 11
142.307400
 21
358.395998
 31
0.0
 11
142.539548
 21
358.235602
 31
0.0
  0
SPLINE
  5
13f
100
AcDbEntity
  8
0
 62
7
100
AcDbSpline
 70
0
 71
3
 72
16
 73
12
 74
10
 40
0.000000
 40
0.000000
 40
0.000000
 40
0.000000
 40
0.553913
 40
1.048595
 40
1.495688
 40
1.930190
 40
2.388856
 40
2.886746
 40
3.636539
 40
4.378751
 40
5.178618
 40
5.178618
 40
5.178618
 40
5.178618
 10
142.539548
 20
358.235602
 30
0.0
 10
142.692095
 20
358.131150
 30
0.0
 10
142.980878
 20
357.933415
 30
0.0
 10
143.342923
 20
357.587199
 30
0.0
 10
143.620313
 20
357.218492
 30
0.0
 10
143.808536
 20
356.809566
 30
0.0
 10
143.916223
 20
356.356042
 30
0.0
 10
143.957779
 20
355.786778
 30
0.0
 10
143.870413
 20
355.120912
 30
0.0
 10
143.538469
 20
354.414721
 30
0.0
 10
143.173231
 20
354.048698
 30
0.0
 10
142.983783
 20
353.858843
 30
0.0
 11
142.539548
 21
358.235602
 31
0.0
 11
142.987435
 21
357.909692
 31
0.0
 11
143.343917
 21
357.566719
 31
0.0
 11
143.608994
 21
357.206682
 31
0.0
 11
143.791821
 21
356.812517
 31
0.0
 11
143.901517
 21
356.367162
 31
0.0
 11
143.938083
 21
355.870616
 31
0.0
 11
143.832049
 21
355.128359
 31
0.0
 11
143.513950
 21
354.457768
 31
0.0
 11
142.983783
 21
353.858843
 31
0.0
  0
SPLINE
  5
140
100
AcDbEntity
  8
0
 62
7
100
AcDbSpline
 70
0
 71
3
 72
13
 73
9
 74
7
 40
0.000000
 40
0.000000
 40
0.000000
 40
0.000000
 40
0.812771
 40
1.604896
 40
2.427439
 40
3.314169
 40
4.147650
 40
4.985749
 40
4.985749
 40
4.985749
 40
4.985749
 10
142.983783
 20
353.858843
 30
0.0
 10
142.770151
 20
353.689928
 30
0.0
 10
142.348312
 20
353.356388
 30
0.0
 10
141.576208
 20
353.073062
 30
0.0
 10
140.741112
 20
352.983478
 30
0.0
 10
139.892459
 20
353.075020
 30
0.0
 10
139.076132
 20
353.369920
 30
0.0
 10
138.643218
 20
353.726254
 30
0.0
 10
138.426164
 20
353.904912
 30
0.0
 11
142.983783
 21
353.858843
 31
0.0
 11
142.320153
 21
353.389599
 31
0.0
 11
141.579751
 21
353.108052
 31
0.0
 11
140.762580
 21
353.014203
 31
0.0
 11
139.881390
 21
353.113171
 31
0.0
 11
139.102584
 21
353.410074
 31
0.0
 11
138.426164
 21
353.904912
 31
0.0
  0
SPLINE
  5
141
100
AcDbEntity
  8
0
 62
7
100
AcDbSpline
 70
0
 71
3
 72
13
 73
9
 74
7
 40
0.000000
 40
0.000000
 40
0.000000
 40
0.000000
 40
0.834478
 40
1.644604
 40
2.493952
 40
3.319577
 40
4.147613
 40
5.017468
 40
5.017468
 40
5.017468
 40
5.017468
 10
138.426164
 20
353.904912
 30
0.0
 10
138.238701
 20
354.112853
 30
0.0
 10
137.869246
 20
354.522667
 30
0.0
 10
137.552543
 20
355.309050
 30
0.0
 10
137.456757
 20
356.139320
 30
0.0
 10
137.548882
 20
356.974389
 30
0.0
 10
137.819809
 20
357.780843
 30
0.0
 10
138.133715
 20
358.254178
 30
0.0
 10
138.294533
 20
358.496674
 30
0.0
 11
138.426164
 21
353.904912
 31
0.0
 11
137.905125
 21
354.556735
 31
0.0
 11
137.592503
 21
355.304111
 31
0.0
 11
137.488295
 21
356.147042
 31
0.0
 11
137.577877
 21
356.967793
 31
0.0
 11
137.846623
 21
357.751004
 31
0.0
 11
138.294533
 21
358.496674
 31
0.0
  0
LWPOLYLINE
  5
142
100
AcDbEntity
  8
0
 62
7
100
AcDbPolyline
 90
2
 70
0
 10
143.115414
 20
360.923089
 30
0.0
 10
143.115414
 20
359.295242
 30
0.0
  0
LWPOLYLINE
  5
143
100
AcDbEntity
  8
0
 62
7
100
AcDbPolyline
 90
1
 70
1
 10
143.115414
 20
360.923089
 30
0.0
  0
SPLINE
  5
144
100
AcDbEntity
  8
0
 62
7
100
AcDbSpline
 70
0
 71
3
 72
13
 73
9
 74
7
 40
0.000000
 40
0.000000
 40
0.000000
 40
0.000000
 40
0.911960
 40
1.848393
 40
2.836248
 40
3.566334
 40
4.464313
 40
5.535469
 40
5.535469
 40
5.535469
 40
5.535469
 10
138.294533
 20
358.496674
 30
0.0
 10
138.490654
 20
358.730076
 30
0.0
 10
138.888158
 20
359.203142
 30
0.0
 10
139.649910
 20
359.774628
 30
0.0
 10
140.428537
 20
360.201397
 30
0.0
 10
141.249304
 20
360.501435
 30
0.0
 10
142.119905
 20
360.732192
 30
0.0
 10
142.764676
 20
360.855832
 30
0.0
 10
143.115414
 20
360.923089
 30
0.0
 11
138.294533
 21
358.496674
 31
0.0
 11
138.906978
 21
359.172383
 31
0.0
 11
139.647383
 21
359.745713
 31
0.0
 11
140.515750
 21
360.216664
 31
0.0
 11
141.199501
 21
360.472616
 31
0.0
 11
142.066056
 21
360.708091
 31
0.0
 11
143.115414
 21
360.923089
 31
0.0
  0
SPLINE
  5
145
100
AcDbEntity
  8
0
 62
7
100
AcDbSpline
 70
0
 71
3
 72
10
 73
6
 74
4
 40
0.000000
 40
0.000000
 40
0.000000
 40
0.000000
 40
1.124088
 40
2.224708
 40
3.315744
 40
3.315744
 40
3.315744
 40
3.315744
 10
145.007555
 20
360.969158
 30
0.0
 10
145.382296
 20
360.957508
 30
0.0
 10
146.123954
 20
360.934451
 30
0.0
 10
147.219280
 20
360.755476
 30
0.0
 10
147.917693
 20
360.539287
 30
0.0
 10
148.265372
 20
360.431665
 30
0.0
 11
145.007555
 21
360.969158
 31
0.0
 11
146.130055
 21
360.909436
 31
0.0
 11
147.215994
 21
360.730272
 31
0.0
 11
148.265372
 21
360.431665
 31
0.0
  0
SPLINE
  5
146
100
AcDbEntity
  8
0
 62
7
100
AcDbSpline
 70
0
 71
3
 72
10
 73
6
 74
4
 40
0.000000
 40
0.000000
 40
0.000000
 40
0.000000
 40
1.059582
 40
2.053255
 40
3.000048
 40
3.000048
 40
3.000048
 40
3.000048
 10
148.265372
 20
360.431665
 30
0.0
 10
148.596676
 20
360.308659
 30
0.0
 10
149.238676
 20
360.070299
 30
0.0
 10
150.119800
 20
359.584054
 30
0.0
 10
150.620627
 20
359.173204
 30
0.0
 10
150.864991
 20
358.972742
 30
0.0
 11
148.265372
 21
360.431665
 31
0.0
 11
149.248911
 21
360.037500
 31
0.0
 11
150.115451
 21
359.551193
 31
0.0
 11
150.864991
 21
358.972742
 31
0.0
  0
SPLINE
  5
147
100
AcDbEntity
  8
0
 62
7
100
AcDbSpline
 70
0
 71
3
 72
13
 73
9
 74
7
 40
0.000000
 40
0.000000
 40
0.000000
 40
0.000000
 40
1.501225
 40
2.953603
 40
4.481175
 40
5.820131
 40
7.124692
 40
8.467464
 40
8.467464
 40
8.467464
 40
8.467464
 10
150.864991
 20
358.972742
 30
0.0
 10
151.213448
 20
358.608661
 30
0.0
 10
151.899023
 20
357.892348
 30
0.0
 10
152.490316
 20
356.485970
 30
0.0
 10
152.663030
 20
355.042467
 30
0.0
 10
152.514784
 20
353.650832
 30
0.0
 10
152.074939
 20
352.377315
 30
0.0
 10
151.556019
 20
351.658705
 30
0.0
 10
151.292814
 20
351.294213
 30
0.0
 11
150.864991
 21
358.972742
 31
0.0
 11
151.833933
 21
357.826082
 31
0.0
 11
152.415299
 21
356.495137
 31
0.0
 11
152.609087
 21
354.979907
 31
0.0
 11
152.462834
 21
353.648963
 31
0.0
 11
152.024077
 21
352.420398
 31
0.0
 11
151.292814
 21
351.294213
 31
0.0
  0
LWPOLYLINE
  5
148
100
AcDbEntity
  8
0
 62
7
100
AcDbPolyline
 90
3
 70
0
 10
144.563319
 20
359.295242
 30
0.0
 10
144.563319
 20
360.969158
 30
0.0
 10
145.007555
 20
360.969158
 30
0.0
  0
SPLINE
  5
149
100
AcDbEntity
  8
0
 62
7
100
AcDbSpline
 70
0
 71
3
 72
10
 73
6
 74
4
 40
0.000000
 40
0.000000
 40
0.000000
 40
0.000000
 40
1.397969
 40
2.887607
 40
4.515768
 40
4.515768
 40
4.515768
 40
4.515768
 10
151.292814
 20
351.294213
 30
0.0
 10
150.975366
 20
350.951346
 30
0.0
 10
150.319655
 20
350.243129
 30
0.0
 10
149.049275
 20
349.406678
 30
0.0
 10
148.091124
 20
349.002224
 30
0.0
 10
147.590764
 20
348.791011
 30
0.0
 11
151.292814
 21
351.294213
 31
0.0
 11
150.303759
 21
350.306241
 31
0.0
 11
149.069743
 21
349.471841
 31
0.0
 11
147.590764
 21
348.791011
 31
0.0
  0
LWPOLYLINE
  5
14a
100
AcDbEntity
  8
0
 62
7
100
AcDbPolyline
 90
2
 70
0
 10
147.590764
 20
348.791011
 30
0.0
 10
145.435360
 20
347.992446
 30
0.0
  0
SPLINE
  5
14b
100
AcDbEntity
  8
0
 62
7
100
AcDbSpline
 70
0
 71
3
 72
10
 73
6
 74
4
 40
0.000000
 40
0.000000
 40
0.000000
 40
0.000000
 40
0.769335
 40
1.742680
 40
2.921205
 40
2.921205
 40
2.921205
 40
2.921205
 10
145.435360
 20
347.992446
 30
0.0
 10
145.197436
 20
347.896643
 30
0.0
 10
144.658495
 20
347.679631
 30
0.0
 10
143.777613
 20
347.263556
 30
0.0
 10
143.137128
 20
346.940700
 30
0.0
 10
142.786351
 20
346.763880
 30
0.0
 11
145.435360
 21
347.992446
 31
0.0
 11
144.724207
 21
347.698955
 31
0.0
 11
143.841204
 21
347.289433
 31
0.0
 11
142.786351
 21
346.763880
 31
0.0
  0
SPLINE
  5
14c
100
AcDbEntity
  8
0
 62
7
100
AcDbSpline
 70
0
 71
3
 72
10
 73
6
 74
4
 40
0.000000
 40
0.000000
 40
0.000000
 40
0.000000
 40
0.433670
 40
0.859701
 40
1.281592
 40
1.281592
 40
1.281592
 40
1.281592
 10
142.292718
 20
346.502810
 30
0.0
 10
142.148151
 20
346.499128
 30
0.0
 10
141.861564
 20
346.491828
 30
0.0
 10
141.436896
 20
346.435703
 30
0.0
 10
141.162412
 20
346.367713
 30
0.0
 10
141.025840
 20
346.333884
 30
0.0
 11
142.292718
 21
346.502810
 31
0.0
 11
141.859454
 21
346.484041
 31
0.0
 11
141.437162
 21
346.427732
 31
0.0
 11
141.025840
 21
346.333884
 31
0.0
  0
SPLINE
  5
14d
100
AcDbEntity
  8
0
 62
7
100
AcDbSpline
 70
0
 71
3
 72
10
 73
6
 74
4
 40
0.000000
 40
0.000000
 40
0.000000
 40
0.000000
 40
0.485763
 40
1.107318
 40
1.865695
 40
1.865695
 40
1.865695
 40
1.865695
 10
141.025840
 20
346.333884
 30
0.0
 10
140.869951
 20
346.289956
 30
0.0
 10
140.514596
 20
346.189820
 30
0.0
 10
139.928807
 20
345.979746
 30
0.0
 10
139.500597
 20
345.811865
 30
0.0
 10
139.265263
 20
345.719601
 30
0.0
 11
141.025840
 21
346.333884
 31
0.0
 11
140.559652
 21
346.197376
 31
0.0
 11
139.972793
 21
345.992615
 31
0.0
 11
139.265263
 21
345.719601
 31
0.0
  0
SPLINE
  5
14e
100
AcDbEntity
  8
0
 62
7
100
AcDbSpline
 70
0
 71
3
 72
10
 73
6
 74
4
 40
0.000000
 40
0.000000
 40
0.000000
 40
0.000000
 40
0.613297
 40
1.193352
 40
1.741741
 40
1.741741
 40
1.741741
 40
1.741741
 10
139.265263
 20
345.719601
 30
0.0
 10
139.395395
 20
345.877288
 30
0.0
 10
139.648604
 20
346.184115
 30
0.0
 10
140.043060
 20
346.610841
 30
0.0
 10
140.316880
 20
346.868852
 30
0.0
 10
140.449948
 20
346.994237
 30
0.0
 11
139.265263
 21
345.719601
 31
0.0
 11
139.660161
 21
346.188844
 31
0.0
 11
140.055056
 21
346.613722
 31
0.0
 11
140.449948
 21
346.994237
 31
0.0
  0
SPLINE
  5
14f
100
AcDbEntity
  8
0
 62
7
100
AcDbSpline
 70
0
 71
3
 72
10
 73
6
 74
4
 40
0.000000
 40
0.000000
 40
0.000000
 40
0.000000
 40
0.615781
 40
1.381136
 40
2.296711
 40
2.296711
 40
2.296711
 40
2.296711
 10
140.449948
 20
346.994237
 30
0.0
 10
140.606243
 20
347.127328
 30
0.0
 10
140.956797
 20
347.425839
 30
0.0
 10
141.563037
 20
347.893770
 30
0.0
 10
142.014145
 20
348.226081
 30
0.0
 10
142.259857
 20
348.407085
 30
0.0
 11
140.449948
 21
346.994237
 31
0.0
 11
140.921618
 21
347.390108
 31
0.0
 11
141.524921
 21
347.861057
 31
0.0
 11
142.259857
 21
348.407085
 31
0.0
  0
SPLINE
  5
150
100
AcDbEntity
  8
0
 62
7
100
AcDbSpline
 70
0
 71
3
 72
13
 73
9
 74
7
 40
0.000000
 40
0.000000
 40
0.000000
 40
0.000000
 40
1.140661
 40
2.016126
 40
2.627431
 40
3.121489
 40
3.617155
 40
4.119430
 40
4.119430
 40
4.119430
 40
4.119430
 10
142.259857
 20
348.407085
 30
0.0
 10
142.566967
 20
348.631316
 30
0.0
 10
143.109785
 20
349.027645
 30
0.0
 10
143.802503
 20
349.563383
 30
0.0
 10
144.311178
 20
349.985547
 30
0.0
 10
144.682949
 20
350.369589
 30
0.0
 10
144.993661
 20
350.759500
 30
0.0
 10
145.167078
 20
351.043683
 30
0.0
 10
145.254361
 20
351.186716
 30
0.0
 11
142.259857
 21
348.407085
 31
0.0
 11
143.177579
 21
349.084503
 31
0.0
 11
143.868618
 21
349.622000
 31
0.0
 11
144.332973
 21
350.019578
 31
0.0
 11
144.676667
 21
350.374497
 31
0.0
 11
144.983796
 21
350.763542
 31
0.0
 11
145.254361
 21
351.186716
 31
0.0
  0
SPLINE
  5
151
100
AcDbEntity
  8
0
 62
7
100
AcDbSpline
 70
0
 71
3
 72
10
 73
6
 74
4
 40
0.000000
 40
0.000000
 40
0.000000
 40
0.000000
 40
0.528077
 40
1.085535
 40
1.679178
 40
1.679178
 40
1.679178
 40
1.679178
 10
145.254361
 20
351.186716
 30
0.0
 10
145.334368
 20
351.343698
 30
0.0
 10
145.498832
 20
351.666395
 30
0.0
 10
145.678123
 20
352.199044
 30
0.0
 10
145.756771
 20
352.574738
 30
0.0
 10
145.797331
 20
352.768490
 30
0.0
 11
145.254361
 21
351.186716
 31
0.0
 11
145.482889
 21
351.662783
 31
0.0
 11
145.663879
 21
352.190041
 31
0.0
 11
145.797331
 21
352.768490
 31
0.0
  0
SPLINE
  5
152
100
AcDbEntity
  8
0
 62
7
100
AcDbSpline
 70
0
 71
3
 72
16
 73
12
 74
10
 40
0.000000
 40
0.000000
 40
0.000000
 40
0.000000
 40
0.674712
 40
1.450034
 40
2.329031
 40
3.790555
 40
4.906877
 40
5.700096
 40
5.942559
 40
6.160774
 40
6.357961
 40
6.357961
 40
6.357961
 40
6.357961
 10
145.797331
 20
352.768490
 30
0.0
 10
145.834182
 20
352.990462
 30
0.0
 10
145.913380
 20
353.467507
 30
0.0
 10
145.966324
 20
354.243087
 30
0.0
 10
145.987702
 20
355.281343
 30
0.0
 10
145.954905
 20
356.435034
 30
0.0
 10
145.823203
 20
357.551114
 30
0.0
 10
145.617017
 20
358.249270
 30
0.0
 10
145.400599
 20
358.607736
 30
0.0
 10
145.270959
 20
358.785692
 30
0.0
 10
145.170439
 20
358.881292
 30
0.0
 10
145.122723
 20
358.926672
 30
0.0
 11
145.797331
 21
352.768490
 31
0.0
 11
145.897874
 21
353.435668
 31
0.0
 11
145.958200
 21
354.208641
 31
0.0
 11
145.978309
 21
355.087407
 31
0.0
 11
145.927119
 21
356.548034
 31
0.0
 11
145.773549
 21
357.653743
 31
0.0
 11
145.517600
 21
358.404533
 31
0.0
 11
145.393292
 21
358.612706
 31
0.0
 11
145.261666
 21
358.786752
 31
0.0
 11
145.122723
 21
358.926672
 31
0.0
  0
LWPOLYLINE
  5
153
100
AcDbEntity
  8
0
 62
7
100
AcDbPolyline
 90
2
 70
0
 10
142.786351
 20
346.763880
 30
0.0
 10
142.292718
 20
346.502810
 30
0.0
  0
SPLINE
  5
154
100
AcDbEntity
  8
0
 62
7
100
AcDbSpline
 70
0
 71
3
 72
10
 73
6
 74
4
 40
0.000000
 40
0.000000
 40
0.000000
 40
0.000000
 40
0.193823
 40
0.417125
 40
0.671749
 40
0.671749
 40
0.671749
 40
0.671749
 10
145.122723
 20
358.926672
 30
0.0
 10
145.073586
 20
358.968711
 30
0.0
 10
144.967838
 20
359.059183
 30
0.0
 10
144.778889
 20
359.180565
 30
0.0
 10
144.638248
 20
359.255382
 30
0.0
 10
144.563319
 20
359.295242
 30
0.0
 11
145.122723
 21
358.926672
 31
0.0
 11
144.972811
 21
359.049529
 31
0.0
 11
144.786343
 21
359.172386
 31
0.0
 11
144.563319
 21
359.295242
 31
0.0
  0
SPLINE
  5
155
100
AcDbEntity
  8
0
 62
7
100
AcDbSpline
 70
0
 71
3
 72
10
 73
6
 74
4
 40
0.000000
 40
0.000000
 40
0.000000
 40
0.000000
 40
0.227934
 40
0.445812
 40
0.678227
 40
0.678227
 40
0.678227
 40
0.678227
 10
152.477467
 20
346.564236
 30
0.0
 10
152.553939
 20
346.561508
 30
0.0
 10
152.703508
 20
346.556172
 30
0.0
 10
152.915133
 20
346.456696
 30
0.0
 10
153.017128
 20
346.345304
 30
0.0
 10
153.069772
 20
346.287810
 30
0.0
 11
152.477467
 21
346.564236
 31
0.0
 11
152.704147
 21
346.540354
 31
0.0
 11
152.901582
 21
346.448212
 31
0.0
 11
153.069772
 21
346.287810
 31
0.0
  0
SPLINE
  5
156
100
AcDbEntity
  8
0
 62
7
100
AcDbSpline
 70
0
 71
3
 72
13
 73
9
 74
7
 40
0.000000
 40
0.000000
 40
0.000000
 40
0.000000
 40
0.255000
 40
0.523848
 40
0.822015
 40
1.560551
 40
2.379539
 40
3.295718
 40
3.295718
 40
3.295718
 40
3.295718
 10
153.069772
 20
346.287810
 30
0.0
 10
153.119556
 20
346.218314
 30
0.0
 10
153.221830
 20
346.075549
 30
0.0
 10
153.301268
 20
345.808403
 30
0.0
 10
153.332412
 20
345.373148
 30
0.0
 10
153.261407
 20
344.754395
 30
0.0
 10
153.056915
 20
343.952922
 30
0.0
 10
152.828424
 20
343.420655
 30
0.0
 10
152.707779
 20
343.139615
 30
0.0
 11
153.069772
 21
346.287810
 31
0.0
 11
153.206887
 21
346.072812
 31
0.0
 11
153.289157
 21
345.816861
 31
0.0
 11
153.316580
 21
345.519957
 31
0.0
 11
153.248936
 21
344.784526
 31
0.0
 11
153.046002
 21
343.991078
 31
0.0
 11
152.707779
 21
343.139615
 31
0.0
  0
LWPOLYLINE
  5
157
100
AcDbEntity
  8
0
 62
7
100
AcDbPolyline
 90
1
 70
1
 10
144.563319
 20
359.295242
 30
0.0
  0
SPLINE
  5
158
100
AcDbEntity
  8
0
 62
7
100
AcDbSpline
 70
0
 71
3
 72
19
 73
15
 74
13
 40
0.000000
 40
0.000000
 40
0.000000
 40
0.000000
 40
0.916960
 40
1.765193
 40
2.558643
 40
3.235278
 40
3.940274
 40
4.685078
 40
5.424897
 40
6.114544
 40
6.765287
 40
7.548736
 40
8.368935
 40
9.232472
 40
9.232472
 40
9.232472
 40
9.232472
 10
152.707779
 20
343.139615
 30
0.0
 10
152.573695
 20
342.864581
 30
0.0
 10
152.315576
 20
342.335129
 30
0.0
 10
151.833728
 20
341.627711
 30
0.0
 10
151.317358
 20
341.049253
 30
0.0
 10
150.756718
 20
340.585717
 30
0.0
 10
150.152717
 20
340.211032
 30
0.0
 10
149.489141
 20
339.903505
 30
0.0
 10
148.802736
 20
339.666955
 30
0.0
 10
148.123324
 20
339.518045
 30
0.0
 10
147.414777
 20
339.468673
 30
0.0
 10
146.663394
 20
339.514577
 30
0.0
 10
145.847766
 20
339.629601
 30
0.0
 10
145.303279
 20
339.767249
 30
0.0
 10
145.024028
 20
339.837845
 30
0.0
 11
152.707779
 21
343.139615
 31
0.0
 11
152.285475
 21
342.325689
 31
0.0
 11
151.808329
 21
341.624382
 31
0.0
 11
151.276341
 21
341.035696
 31
0.0
 11
150.755317
 21
340.603992
 31
0.0
 11
150.157506
 21
340.230304
 31
0.0
 11
149.482908
 21
339.914632
 31
0.0
 11
148.782718
 21
339.675744
 31
0.0
 11
148.108131
 21
339.532412
 31
0.0
 11
147.459144
 21
339.484634
 31
0.0
 11
146.676679
 21
339.523880
 31
0.0
 11
145.864973
 21
339.641617
 31
0.0
 11
145.024028
 21
339.837845
 31
0.0
  0
SPLINE
  5
159
100
AcDbEntity
  8
0
 62
7
100
AcDbSpline
 70
0
 71
3
 72
13
 73
9
 74
7
 40
0.000000
 40
0.000000
 40
0.000000
 40
0.000000
 40
1.109077
 40
1.915650
 40
2.423174
 40
2.920154
 40
3.473683
 40
4.112085
 40
4.112085
 40
4.112085
 40
4.112085
 10
142.852153
 20
340.436771
 30
0.0
 10
142.494489
 20
340.531179
 30
0.0
 10
141.876713
 20
340.694245
 30
0.0
 10
141.087889
 20
340.861988
 30
0.0
 10
140.486989
 20
340.954090
 30
0.0
 10
139.966231
 20
340.872747
 30
0.0
 10
139.444435
 20
340.646880
 30
0.0
 10
139.124185
 20
340.410048
 30
0.0
 10
138.952658
 20
340.283199
 30
0.0
 11
142.852153
 21
340.436771
 31
0.0
 11
141.777204
 21
340.709786
 31
0.0
 11
140.987440
 21
340.873595
 31
0.0
 11
140.482862
 21
340.928198
 31
0.0
 11
139.991077
 21
340.856531
 31
0.0
 11
139.481009
 21
340.641532
 31
0.0
 11
138.952658
 21
340.283199
 31
0.0
  0
SPLINE
  5
15a
100
AcDbEntity
  8
0
 62
7
100
AcDbSpline
 70
0
 71
3
 72
13
 73
9
 74
7
 40
0.000000
 40
0.000000
 40
0.000000
 40
0.000000
 40
0.383312
 40
0.673410
 40
0.881130
 40
1.116532
 40
1.328378
 40
1.533948
 40
1.533948
 40
1.533948
 40
1.533948
 10
138.952658
 20
340.283199
 30
0.0
 10
138.850313
 20
340.206708
 30
0.0
 10
138.670511
 20
340.072325
 30
0.0
 10
138.412751
 20
339.927393
 30
0.0
 10
138.170651
 20
339.869414
 30
0.0
 10
137.951489
 20
339.900450
 30
0.0
 10
137.742252
 20
339.973249
 30
0.0
 10
137.638254
 20
340.067739
 30
0.0
 10
137.587038
 20
340.114274
 30
0.0
 11
138.952658
 21
340.283199
 31
0.0
 11
138.640053
 21
340.061376
 31
0.0
 11
138.382287
 21
339.928281
 31
0.0
 11
138.179360
 21
339.883917
 31
0.0
 11
137.945354
 21
339.909512
 31
0.0
 11
137.747913
 21
339.986298
 31
0.0
 11
137.587038
 21
340.114274
 31
0.0
  0
SPLINE
  5
15b
100
AcDbEntity
  8
0
 62
7
100
AcDbSpline
 70
0
 71
3
 72
22
 73
18
 74
16
 40
0.000000
 40
0.000000
 40
0.000000
 40
0.000000
 40
0.207170
 40
0.436916
 40
0.702309
 40
1.260449
 40
1.839993
 40
2.454014
 40
3.083469
 40
3.708574
 40
4.339868
 40
5.692047
 40
7.126478
 40
8.735128
 40
9.629947
 40
10.716785
 40
11.998817
 40
11.998817
 40
11.998817
 40
11.998817
 10
137.587038
 20
340.114274
 30
0.0
 10
137.546995
 20
340.171099
 30
0.0
 10
137.462545
 20
340.290941
 30
0.0
 10
137.401469
 20
340.521308
 30
0.0
 10
137.378769
 20
340.872025
 30
0.0
 10
137.422802
 20
341.340563
 30
0.0
 10
137.562075
 20
341.909396
 30
0.0
 10
137.791763
 20
342.474090
 30
0.0
 10
138.095648
 20
343.019576
 30
0.0
 10
138.472186
 20
343.525317
 30
0.0
 10
139.077313
 20
344.152341
 30
0.0
 10
140.034930
 20
344.800970
 30
0.0
 10
141.445457
 20
345.252279
 30
0.0
 10
142.762955
 20
345.362038
 30
0.0
 10
143.958811
 20
345.301423
 30
0.0
 10
145.040589
 20
345.179779
 30
0.0
 10
145.819837
 20
345.051750
 30
0.0
 10
146.241566
 20
344.982461
 30
0.0
 11
137.587038
 21
340.114274
 31
0.0
 11
137.477353
 21
340.290026
 31
0.0
 11
137.411542
 21
340.510144
 31
0.0
 11
137.389605
 21
340.774629
 31
0.0
 11
137.435308
 21
341.330895
 31
0.0
 11
137.572415
 21
341.893987
 31
0.0
 11
137.800927
 21
342.463903
 31
0.0
 11
138.108052
 21
343.013345
 31
0.0
 11
138.481000
 21
343.515009
 31
0.0
 11
138.919770
 21
343.968896
 31
0.0
 11
140.038618
 21
344.728216
 31
0.0
 11
141.398775
 21
345.183808
 31
0.0
 11
143.000241
 21
345.335672
 31
0.0
 11
143.894199
 21
345.296426
 31
0.0
 11
144.974641
 21
345.178690
 31
0.0
 11
146.241566
 21
344.982461
 31
0.0
  0
SPLINE
  5
15c
100
AcDbEntity
  8
0
 62
7
100
AcDbSpline
 70
0
 71
3
 72
13
 73
9
 74
7
 40
0.000000
 40
0.000000
 40
0.000000
 40
0.000000
 40
1.778851
 40
3.084843
 40
3.920504
 40
4.403049
 40
4.811377
 40
5.172952
 40
5.172952
 40
5.172952
 40
5.172952
 10
146.241566
 20
344.982461
 30
0.0
 10
146.826125
 20
344.881869
 30
0.0
 10
147.839853
 20
344.707425
 30
0.0
 10
149.133408
 20
344.530438
 30
0.0
 10
150.007020
 20
344.442062
 30
0.0
 10
150.581858
 20
344.482186
 30
0.0
 10
150.993245
 20
344.594495
 30
0.0
 10
151.197084
 20
344.753988
 30
0.0
 10
151.292814
 20
344.828892
 30
0.0
 11
146.241566
 21
344.982461
 31
0.0
 11
147.996607
 21
344.692384
 31
0.0
 11
149.290949
 21
344.518337
 31
0.0
 11
150.124594
 21
344.460322
 31
0.0
 11
150.605398
 21
344.501274
 31
0.0
 11
150.994805
 21
344.624131
 31
0.0
 11
151.292814
 21
344.828892
 31
0.0
  0
SPLINE
  5
15d
100
AcDbEntity
  8
0
 62
7
100
AcDbSpline
 70
0
 71
3
 72
13
 73
9
 74
7
 40
0.000000
 40
0.000000
 40
0.000000
 40
0.000000
 40
0.124900
 40
0.246607
 40
0.367213
 40
0.531545
 40
0.756392
 40
1.042332
 40
1.042332
 40
1.042332
 40
1.042332
 10
151.292814
 20
344.828892
 30
0.0
 10
151.320479
 20
344.860060
 30
0.0
 10
151.375103
 20
344.921599
 30
0.0
 10
151.441568
 20
345.025132
 30
0.0
 10
151.497148
 20
345.148982
 30
0.0
 10
151.557557
 20
345.307902
 30
0.0
 10
151.621480
 20
345.523853
 30
0.0
 10
151.663929
 20
345.688729
 30
0.0
 10
151.687691
 20
345.781027
 30
0.0
 11
151.292814
 21
344.828892
 31
0.0
 11
151.373248
 21
344.924445
 31
0.0
 11
151.439058
 21
345.026825
 31
0.0
 11
151.490243
 21
345.136031
 31
0.0
 11
151.548733
 21
345.289601
 31
0.0
 11
151.614549
 21
345.504600
 31
0.0
 11
151.687691
 21
345.781027
 31
0.0
  0
LWPOLYLINE
  5
15e
100
AcDbEntity
  8
0
 62
7
100
AcDbPolyline
 90
2
 70
0
 10
145.024028
 20
339.837845
 30
0.0
 10
142.852153
 20
340.436771
 30
0.0
  0
LWPOLYLINE
  5
15f
100
AcDbEntity
  8
0
 62
7
100
AcDbPolyline
 90
1
 70
1
 10
152.477467
 20
346.564236
 30
0.0
  0
SPLINE
  5
160
100
AcDbEntity
  8
0
 62
7
100
AcDbSpline
 70
0
 71
3
 72
10
 73
6
 74
4
 40
0.000000
 40
0.000000
 40
0.000000
 40
0.000000
 40
0.453784
 40
0.824544
 40
1.196748
 40
1.196748
 40
1.196748
 40
1.196748
 10
151.687691
 20
345.781027
 30
0.0
 10
151.731566
 20
345.926649
 30
0.0
 10
151.811288
 20
346.191251
 30
0.0
 10
152.102203
 20
346.501490
 30
0.0
 10
152.352217
 20
346.543293
 30
0.0
 10
152.477467
 20
346.564236
 30
0.0
 11
151.687691
 21
345.781027
 31
0.0
 11
151.855878
 21
346.202493
 31
0.0
 11
152.119136
 21
346.463562
 31
0.0
 11
152.477467
 21
346.564236
 31
0.0
  0
SPLINE
  5
161
100
AcDbEntity
  8
0
 62
7
100
AcDbSpline
 70
0
 71
3
 72
10
 73
6
 74
4
 40
0.000000
 40
0.000000
 40
0.000000
 40
0.000000
 40
0.513730
 40
0.930791
 40
1.255077
 40
1.255077
 40
1.255077
 40
1.255077
 10
258.252008
 20
206.344509
 30
0.0
 10
258.086355
 20
206.301406
 30
0.0
 10
257.786220
 20
206.223309
 30
0.0
 10
257.387936
 20
206.090133
 30
0.0
 10
257.169537
 20
205.973785
 30
0.0
 10
257.074003
 20
205.922891
 30
0.0
 11
258.252008
 21
206.344509
 31
0.0
 11
257.756499
 21
206.208902
 31
0.0
 11
257.363831
 21
206.068362
 31
0.0
 11
257.074003
 21
205.922891
 31
0.0
  0
SPLINE
  5
162
100
AcDbEntity
  8
0
 62
7
100
AcDbSpline
 70
0
 71
3
 72
10
 73
6
 74
4
 40
0.000000
 40
0.000000
 40
0.000000
 40
0.000000
 40
0.177222
 40
0.355423
 40
0.537838
 40
0.537838
 40
0.537838
 40
0.537838
 10
257.074003
 20
205.922891
 30
0.0
 10
257.023980
 20
205.891346
 30
0.0
 10
256.923658
 20
205.828081
 30
0.0
 10
256.789041
 20
205.708066
 30
0.0
 10
256.712859
 20
205.614947
 30
0.0
 10
256.674324
 20
205.567844
 30
0.0
 11
257.074003
 21
205.922891
 31
0.0
 11
256.926760
 21
205.824266
 31
0.0
 11
256.793533
 21
205.705917
 31
0.0
 11
256.674324
 21
205.567844
 31
0.0
  0
SPLINE
  5
163
100
AcDbEntity
  8
0
 62
7
100
AcDbSpline
 70
0
 71
3
 72
10
 73
6
 74
4
 40
0.000000
 40
0.000000
 40
0.000000
 40
0.000000
 40
0.162613
 40
0.297599
 40
0.409754
 40
0.409754
 40
0.409754
 40
0.409754
 10
256.674324
 20
205.567844
 30
0.0
 10
256.645794
 20
205.521810
 30
0.0
 10
256.593582
 20
205.437564
 30
0.0
 10
256.539162
 20
205.310315
 30
0.0
 10
256.530854
 20
205.227970
 30
0.0
 10
256.527083
 20
205.190601
 30
0.0
 11
256.674324
 21
205.567844
 31
0.0
 11
256.592523
 21
205.427303
 31
0.0
 11
256.543443
 21
205.301555
 31
0.0
 11
256.527083
 21
205.190601
 31
0.0
  0
LWPOLYLINE
  5
164
100
AcDbEntity
  8
0
 62
7
100
AcDbPolyline
 90
2
 70
0
 10
258.252008
 20
208.585755
 30
0.0
 10
258.252008
 20
206.344509
 30
0.0
  0
SPLINE
  5
165
100
AcDbEntity
  8
0
 62
7
100
AcDbSpline
 70
0
 71
3
 72
10
 73
6
 74
4
 40
0.000000
 40
0.000000
 40
0.000000
 40
0.000000
 40
0.243820
 40
0.522587
 40
0.856852
 40
0.856852
 40
0.856852
 40
0.856852
 10
256.527083
 20
205.190601
 30
0.0
 10
256.541577
 20
205.109891
 30
0.0
 10
256.572643
 20
204.936904
 30
0.0
 10
256.736646
 20
204.694158
 30
0.0
 10
256.886919
 20
204.555894
 30
0.0
 10
256.968858
 20
204.480504
 30
0.0
 11
256.527083
 21
205.190601
 31
0.0
 11
256.585577
 21
204.953901
 31
0.0
 11
256.732835
 21
204.717202
 31
0.0
 11
256.968858
 21
204.480504
 31
0.0
  0
SPLINE
  5
166
100
AcDbEntity
  8
0
 62
7
100
AcDbSpline
 70
0
 71
3
 72
13
 73
9
 74
7
 40
0.000000
 40
0.000000
 40
0.000000
 40
0.000000
 40
0.631866
 40
1.371685
 40
2.279847
 40
3.315444
 40
4.311942
 40
5.340420
 40
5.340420
 40
5.340420
 40
5.340420
 10
257.936492
 20
203.659454
 30
0.0
 10
258.078110
 20
203.500231
 30
0.0
 10
258.385542
 20
203.154580
 30
0.0
 10
258.589513
 20
202.401106
 30
0.0
 10
258.660694
 20
201.510083
 30
0.0
 10
258.554121
 20
200.526609
 30
0.0
 10
258.176991
 20
199.558912
 30
0.0
 10
257.738491
 20
199.040722
 30
0.0
 10
257.515778
 20
198.777535
 30
0.0
 11
257.936492
 21
203.659454
 31
0.0
 11
258.322152
 21
203.158933
 31
0.0
 11
258.553547
 21
202.456233
 31
0.0
 11
258.630679
 21
201.551352
 31
0.0
 11
258.506801
 21
200.523191
 31
0.0
 11
258.135168
 21
199.598585
 31
0.0
 11
257.515778
 21
198.777535
 31
0.0
  0
SPLINE
  5
167
100
AcDbEntity
  8
0
 62
7
100
AcDbSpline
 70
0
 71
3
 72
13
 73
9
 74
7
 40
0.000000
 40
0.000000
 40
0.000000
 40
0.000000
 40
1.010143
 40
1.973736
 40
2.968366
 40
3.958708
 40
4.912484
 40
5.912678
 40
5.912678
 40
5.912678
 40
5.912678
 10
257.515778
 20
198.777535
 30
0.0
 10
257.267078
 20
198.547420
 30
0.0
 10
256.781139
 20
198.097796
 30
0.0
 10
255.851877
 20
197.704564
 30
0.0
 10
254.866794
 20
197.582375
 30
0.0
 10
253.884557
 20
197.704892
 30
0.0
 10
252.966234
 20
198.107133
 30
0.0
 10
252.497020
 20
198.565232
 30
0.0
 10
252.256840
 20
198.799723
 30
0.0
 11
257.515778
 21
198.777535
 31
0.0
 11
256.735116
 21
198.136476
 31
0.0
 11
255.851619
 21
197.751840
 31
0.0
 11
254.865288
 21
197.623628
 31
0.0
 11
253.883605
 21
197.754306
 31
0.0
 11
253.014122
 21
198.146337
 31
0.0
 11
252.256840
 21
198.799723
 31
0.0
  0
SPLINE
  5
168
100
AcDbEntity
  8
0
 62
7
100
AcDbSpline
 70
0
 71
3
 72
13
 73
9
 74
7
 40
0.000000
 40
0.000000
 40
0.000000
 40
0.000000
 40
1.040155
 40
2.084546
 40
3.197761
 40
4.189852
 40
5.175101
 40
6.181633
 40
6.181633
 40
6.181633
 40
6.181633
 10
252.256840
 20
198.799723
 30
0.0
 10
252.045662
 20
199.077169
 30
0.0
 10
251.622445
 20
199.633191
 30
0.0
 10
251.276272
 20
200.659656
 30
0.0
 10
251.173069
 20
201.710820
 30
0.0
 10
251.260377
 20
202.741325
 30
0.0
 10
251.502041
 20
203.713320
 30
0.0
 10
251.793822
 20
204.311408
 30
0.0
 10
251.941272
 20
204.613648
 30
0.0
 11
252.256840
 21
198.799723
 31
0.0
 11
251.672493
 21
199.660223
 31
0.0
 11
251.321885
 21
200.644005
 31
0.0
 11
251.205016
 21
201.751068
 31
0.0
 11
251.286822
 21
202.739780
 31
0.0
 11
251.532241
 21
203.693974
 31
0.0
 11
251.941272
 21
204.613648
 31
0.0
  0
SPLINE
  5
169
100
AcDbEntity
  8
0
 62
7
100
AcDbSpline
 70
0
 71
3
 72
10
 73
6
 74
4
 40
0.000000
 40
0.000000
 40
0.000000
 40
0.000000
 40
1.040565
 40
2.086932
 40
3.163411
 40
3.163411
 40
3.163411
 40
3.163411
 10
251.941272
 20
204.613648
 30
0.0
 10
252.122460
 20
204.910000
 30
0.0
 10
252.485847
 20
205.504356
 30
0.0
 10
253.199703
 20
206.291311
 30
0.0
 10
253.760477
 20
206.724161
 30
0.0
 10
254.044842
 20
206.943656
 30
0.0
 11
251.941272
 21
204.613648
 31
0.0
 11
252.511575
 21
205.484009
 31
0.0
 11
253.212765
 21
206.260679
 31
0.0
 11
254.044842
 21
206.943656
 31
0.0
  0
LWPOLYLINE
  5
16a
100
AcDbEntity
  8
0
 62
7
100
AcDbPolyline
 90
2
 70
0
 10
256.968858
 20
204.480504
 30
0.0
 10
257.936492
 20
203.659454
 30
0.0
  0
SPLINE
  5
16b
100
AcDbEntity
  8
0
 62
7
100
AcDbSpline
 70
0
 71
3
 72
10
 73
6
 74
4
 40
0.000000
 40
0.000000
 40
0.000000
 40
0.000000
 40
1.341800
 40
2.847225
 40
4.545231
 40
4.545231
 40
4.545231
 40
4.545231
 10
254.044842
 20
206.943656
 30
0.0
 10
254.424680
 20
207.181486
 30
0.0
 10
255.230677
 20
207.686148
 30
0.0
 10
256.659690
 20
208.219273
 30
0.0
 10
257.700381
 20
208.458795
 30
0.0
 10
258.252008
 20
208.585755
 30
0.0
 11
254.044842
 21
206.943656
 31
0.0
 11
255.204160
 21
207.619235
 31
0.0
 11
256.606549
 21
208.166601
 31
0.0
 11
258.252008
 21
208.585755
 31
0.0
  0
SPLINE
  5
16c
100
AcDbEntity
  8
0
 62
7
100
AcDbSpline
 70
0
 71
3
 72
10
 73
6
 74
4
 40
0.000000
 40
0.000000
 40
0.000000
 40
0.000000
 40
1.177631
 40
2.153235
 40
2.929513
 40
2.929513
 40
2.929513
 40
2.929513
 10
264.583804
 20
193.518375
 30
0.0
 10
264.957060
 20
193.396971
 30
0.0
 10
265.639539
 20
193.174992
 30
0.0
 10
266.556516
 20
192.836150
 30
0.0
 10
267.084520
 20
192.586184
 30
0.0
 10
267.318485
 20
192.475422
 30
0.0
 11
264.583804
 21
193.518375
 31
0.0
 11
265.701034
 21
193.146066
 31
0.0
 11
266.612594
 21
192.798415
 31
0.0
 11
267.318485
 21
192.475422
 31
0.0
  0
SPLINE
  5
16d
100
AcDbEntity
  8
0
 62
7
100
AcDbSpline
 70
0
 71
3
 72
10
 73
6
 74
4
 40
0.000000
 40
0.000000
 40
0.000000
 40
0.000000
 40
0.662369
 40
1.311039
 40
1.952946
 40
1.952946
 40
1.952946
 40
1.952946
 10
267.318485
 20
192.475422
 30
0.0
 10
267.513928
 20
192.372469
 30
0.0
 10
267.900774
 20
192.168693
 30
0.0
 10
268.438029
 20
191.797024
 30
0.0
 10
268.758037
 20
191.509101
 30
0.0
 10
268.917203
 20
191.365894
 30
0.0
 11
267.318485
 21
192.475422
 31
0.0
 11
267.898134
 21
192.154891
 31
0.0
 11
268.431040
 21
191.785048
 31
0.0
 11
268.917203
 21
191.365894
 31
0.0
  0
SPLINE
  5
16e
100
AcDbEntity
  8
0
 62
7
100
AcDbSpline
 70
0
 71
3
 72
16
 73
12
 74
10
 40
0.000000
 40
0.000000
 40
0.000000
 40
0.000000
 40
0.875917
 40
1.788437
 40
2.755832
 40
3.747847
 40
4.733837
 40
5.729338
 40
7.903380
 40
9.937625
 40
11.982800
 40
11.982800
 40
11.982800
 40
11.982800
 10
268.917203
 20
191.365894
 30
0.0
 10
269.116064
 20
191.151334
 30
0.0
 10
269.522096
 20
190.713248
 30
0.0
 10
270.008930
 20
189.928306
 30
0.0
 10
270.411028
 20
189.057774
 30
0.0
 10
270.713076
 20
188.120817
 30
0.0
 10
270.897603
 20
187.144106
 30
0.0
 10
270.976354
 20
185.758189
 30
0.0
 10
270.785645
 20
184.020460
 30
0.0
 10
270.046199
 20
182.029412
 30
0.0
 10
269.154067
 20
180.990954
 30
0.0
 10
268.706806
 20
180.470334
 30
0.0
 11
268.917203
 21
191.365894
 31
0.0
 11
269.492175
 21
190.705108
 31
0.0
 11
269.983004
 21
189.935835
 31
0.0
 11
270.389689
 21
189.058076
 31
0.0
 11
270.693548
 21
188.113745
 31
0.0
 11
270.875863
 21
187.144757
 31
0.0
 11
270.936635
 21
186.151113
 31
0.0
 11
270.688877
 21
183.991235
 31
0.0
 11
269.945600
 21
182.097642
 31
0.0
 11
268.706806
 21
180.470334
 31
0.0
  0
SPLINE
  5
16f
100
AcDbEntity
  8
0
 62
7
100
AcDbSpline
 70
0
 71
3
 72
10
 73
6
 74
4
 40
0.000000
 40
0.000000
 40
0.000000
 40
0.000000
 40
1.293956
 40
2.611822
 40
3.981813
 40
3.981813
 40
3.981813
 40
3.981813
 10
268.706806
 20
180.470334
 30
0.0
 10
268.388647
 20
180.178204
 30
0.0
 10
267.746449
 20
179.588545
 30
0.0
 10
266.612985
 20
178.880178
 30
0.0
 10
265.784437
 20
178.537100
 30
0.0
 10
265.362129
 20
178.362234
 30
0.0
 11
268.706806
 21
180.470334
 31
0.0
 11
267.727469
 21
179.624627
 31
0.0
 11
266.612576
 21
178.921927
 31
0.0
 11
265.362129
 21
178.362234
 31
0.0
  0
LWPOLYLINE
  5
170
100
AcDbEntity
  8
0
 62
7
100
AcDbPolyline
 90
1
 70
1
 10
258.252008
 20
208.585755
 30
0.0
  0
SPLINE
  5
171
100
AcDbEntity
  8
0
 62
7
100
AcDbSpline
 70
0
 71
3
 72
10
 73
6
 74
4
 40
0.000000
 40
0.000000
 40
0.000000
 40
0.000000
 40
1.405143
 40
2.861947
 40
4.390249
 40
4.390249
 40
4.390249
 40
4.390249
 10
265.362129
 20
178.362234
 30
0.0
 10
264.915530
 20
178.219551
 30
0.0
 10
264.005914
 20
177.928939
 30
0.0
 10
262.554348
 20
177.696649
 30
0.0
 10
261.559255
 20
177.667210
 30
0.0
 10
261.049791
 20
177.652138
 30
0.0
 11
265.362129
 21
178.362234
 31
0.0
 11
264.013501
 21
177.967736
 31
0.0
 11
262.576055
 21
177.731037
 31
0.0
 11
261.049791
 21
177.652138
 31
0.0
  0
SPLINE
  5
172
100
AcDbEntity
  8
0
 62
7
100
AcDbSpline
 70
0
 71
3
 72
10
 73
6
 74
4
 40
0.000000
 40
0.000000
 40
0.000000
 40
0.000000
 40
0.763612
 40
1.429535
 40
2.026816
 40
2.026816
 40
2.026816
 40
2.026816
 10
260.124199
 20
180.004344
 30
0.0
 10
260.364908
 20
180.087229
 30
0.0
 10
260.815531
 20
180.242394
 30
0.0
 10
261.408498
 20
180.586765
 30
0.0
 10
261.693404
 20
180.899450
 30
0.0
 10
261.828116
 20
181.047297
 30
0.0
 11
260.124199
 21
180.004344
 31
0.0
 11
260.837081
 21
180.278028
 31
0.0
 11
261.405053
 21
180.625679
 31
0.0
 11
261.828116
 21
181.047297
 31
0.0
  0
SPLINE
  5
173
100
AcDbEntity
  8
0
 62
7
100
AcDbSpline
 70
0
 71
3
 72
10
 73
6
 74
4
 40
0.000000
 40
0.000000
 40
0.000000
 40
0.000000
 40
0.330756
 40
0.648075
 40
0.957452
 40
0.957452
 40
0.957452
 40
0.957452
 10
261.828116
 20
181.047297
 30
0.0
 10
261.893528
 20
181.136144
 30
0.0
 10
262.021693
 20
181.310229
 30
0.0
 10
262.171796
 20
181.593945
 30
0.0
 10
262.237470
 20
181.792512
 30
0.0
 10
262.269891
 20
181.890538
 30
0.0
 11
261.828116
 21
181.047297
 31
0.0
 11
262.017431
 21
181.318516
 31
0.0
 11
262.164689
 21
181.599596
 31
0.0
 11
262.269891
 21
181.890538
 31
0.0
  0
LWPOLYLINE
  5
174
100
AcDbEntity
  8
0
 62
7
100
AcDbPolyline
 90
3
 70
0
 10
261.049791
 20
177.652138
 30
0.0
 10
260.124199
 20
177.674336
 30
0.0
 10
260.124199
 20
180.004344
 30
0.0
  0
SPLINE
  5
175
100
AcDbEntity
  8
0
 62
7
100
AcDbSpline
 70
0
 71
3
 72
10
 73
6
 74
4
 40
0.000000
 40
0.000000
 40
0.000000
 40
0.000000
 40
0.349818
 40
0.758814
 40
1.229956
 40
1.229956
 40
1.229956
 40
1.229956
 10
262.269891
 20
181.890538
 30
0.0
 10
262.295568
 20
182.004381
 30
0.0
 10
262.351265
 20
182.251327
 30
0.0
 10
262.388685
 20
182.660688
 30
0.0
 10
262.393495
 20
182.954007
 30
0.0
 10
262.396071
 20
183.111021
 30
0.0
 11
262.269891
 21
181.890538
 31
0.0
 11
262.339991
 21
182.233260
 31
0.0
 11
262.382051
 21
182.640088
 31
0.0
 11
262.396071
 21
183.111021
 31
0.0
  0
SPLINE
  5
176
100
AcDbEntity
  8
0
 62
7
100
AcDbSpline
 70
0
 71
3
 72
13
 73
9
 74
7
 40
0.000000
 40
0.000000
 40
0.000000
 40
0.000000
 40
0.564704
 40
1.016782
 40
1.357791
 40
1.647515
 40
1.948896
 40
2.268489
 40
2.268489
 40
2.268489
 40
2.268489
 10
262.396071
 20
189.479706
 30
0.0
 10
262.394751
 20
189.667981
 30
0.0
 10
262.392376
 20
190.006981
 30
0.0
 10
262.365866
 20
190.458815
 30
0.0
 10
262.323626
 20
190.818153
 30
0.0
 10
262.238262
 20
191.118168
 30
0.0
 10
262.110866
 20
191.395435
 30
0.0
 10
261.993644
 20
191.566394
 30
0.0
 10
261.933314
 20
191.654380
 30
0.0
 11
262.396071
 21
189.479706
 31
0.0
 11
262.386722
 21
190.044332
 31
0.0
 11
262.358676
 21
190.495540
 31
0.0
 11
262.311933
 21
190.833330
 31
0.0
 11
262.232470
 21
191.111944
 31
0.0
 11
262.106264
 21
191.385627
 31
0.0
 11
261.933314
 21
191.654380
 31
0.0
  0
SPLINE
  5
177
100
AcDbEntity
  8
0
 62
7
100
AcDbSpline
 70
0
 71
3
 72
13
 73
9
 74
7
 40
0.000000
 40
0.000000
 40
0.000000
 40
0.000000
 40
0.658326
 40
1.342647
 40
2.119930
 40
2.619749
 40
2.998673
 40
3.265052
 40
3.265052
 40
3.265052
 40
3.265052
 10
261.933314
 20
191.654380
 30
0.0
 10
261.787316
 20
191.821026
 30
0.0
 10
261.489554
 20
192.160898
 30
0.0
 10
260.825844
 20
192.458463
 30
0.0
 10
260.174074
 20
192.540184
 30
0.0
 10
259.624775
 20
192.575075
 30
0.0
 10
259.243478
 20
192.634445
 30
0.0
 10
259.047964
 20
192.726080
 30
0.0
 10
258.967256
 20
192.763907
 30
0.0
 11
261.933314
 21
191.654380
 31
0.0
 11
261.465846
 21
192.117917
 31
0.0
 11
260.848793
 21
192.413790
 31
0.0
 11
260.082157
 21
192.542001
 31
0.0
 11
259.584311
 21
192.586372
 31
0.0
 11
259.212677
 21
192.660341
 31
0.0
 11
258.967256
 21
192.763907
 31
0.0
  0
SPLINE
  5
178
100
AcDbEntity
  8
0
 62
7
100
AcDbSpline
 70
0
 71
3
 72
13
 73
9
 74
7
 40
0.000000
 40
0.000000
 40
0.000000
 40
0.000000
 40
0.352836
 40
0.699699
 40
1.082871
 40
1.456826
 40
1.763884
 40
2.033358
 40
2.033358
 40
2.033358
 40
2.033358
 10
258.967256
 20
192.763907
 30
0.0
 10
258.874680
 20
192.838532
 30
0.0
 10
258.691095
 20
192.986517
 30
0.0
 10
258.532422
 20
193.323610
 30
0.0
 10
258.492085
 20
193.693386
 30
0.0
 10
258.522888
 20
194.046739
 30
0.0
 10
258.618375
 20
194.358942
 30
0.0
 10
258.755788
 20
194.496874
 30
0.0
 10
258.820015
 20
194.561344
 30
0.0
 11
258.967256
 21
192.763907
 31
0.0
 11
258.710140
 21
193.005537
 31
0.0
 11
258.555870
 21
193.316204
 31
0.0
 11
258.504447
 21
193.695910
 31
0.0
 11
258.539510
 21
194.068218
 31
0.0
 11
258.644699
 21
194.356696
 31
0.0
 11
258.820015
 21
194.561344
 31
0.0
  0
SPLINE
  5
179
100
AcDbEntity
  8
0
 62
7
100
AcDbSpline
 70
0
 71
3
 72
10
 73
6
 74
4
 40
0.000000
 40
0.000000
 40
0.000000
 40
0.000000
 40
0.322199
 40
0.750521
 40
1.295819
 40
1.295819
 40
1.295819
 40
1.295819
 10
258.820015
 20
194.561344
 30
0.0
 10
258.914166
 20
194.613924
 30
0.0
 10
259.133480
 20
194.736403
 30
0.0
 10
259.559322
 20
194.832904
 30
0.0
 10
259.880974
 20
194.872193
 30
0.0
 10
260.061123
 20
194.894197
 30
0.0
 11
258.820015
 21
194.561344
 31
0.0
 11
259.107505
 21
194.706812
 31
0.0
 11
259.521208
 21
194.817764
 31
0.0
 11
260.061123
 21
194.894197
 31
0.0
  0
LWPOLYLINE
  5
17a
100
AcDbEntity
  8
0
 62
7
100
AcDbPolyline
 90
2
 70
0
 10
262.396071
 20
183.111021
 30
0.0
 10
262.396071
 20
189.479706
 30
0.0
  0
SPLINE
  5
17b
100
AcDbEntity
  8
0
 62
7
100
AcDbSpline
 70
0
 71
3
 72
10
 73
6
 74
4
 40
0.000000
 40
0.000000
 40
0.000000
 40
0.000000
 40
1.362172
 40
2.509077
 40
3.829732
 40
3.829732
 40
3.829732
 40
3.829732
 10
260.061123
 20
194.894197
 30
0.0
 10
260.518648
 20
194.968733
 30
0.0
 10
261.361394
 20
195.106025
 30
0.0
 10
262.317935
 20
196.111196
 30
0.0
 10
262.382549
 20
196.951823
 30
0.0
 10
262.417131
 20
197.401733
 30
0.0
 11
260.061123
 21
194.894197
 31
0.0
 11
261.370016
 21
195.271437
 31
0.0
 11
262.155353
 21
196.107283
 31
0.0
 11
262.417131
 21
197.401733
 31
0.0
  0
SPLINE
  5
17c
100
AcDbEntity
  8
0
 62
7
100
AcDbSpline
 70
0
 71
3
 72
10
 73
6
 74
4
 40
0.000000
 40
0.000000
 40
0.000000
 40
0.000000
 40
0.852486
 40
1.560678
 40
2.156058
 40
2.156058
 40
2.156058
 40
2.156058
 10
262.395965
 20
203.282225
 30
0.0
 10
262.386232
 20
203.565955
 30
0.0
 10
262.368415
 20
204.085391
 30
0.0
 10
262.219259
 20
204.800426
 30
0.0
 10
261.993997
 20
205.174910
 30
0.0
 10
261.891113
 20
205.345948
 30
0.0
 11
262.395965
 21
203.282225
 31
0.0
 11
262.339870
 21
204.132863
 31
0.0
 11
262.171586
 21
204.820771
 31
0.0
 11
261.891113
 21
205.345948
 31
0.0
  0
LWPOLYLINE
  5
17d
100
AcDbEntity
  8
0
 62
7
100
AcDbPolyline
 90
3
 70
0
 10
262.417131
 20
197.401733
 30
0.0
 10
262.395965
 20
198.267161
 30
0.0
 10
262.395965
 20
203.282225
 30
0.0
  0
SPLINE
  5
17e
100
AcDbEntity
  8
0
 62
7
100
AcDbSpline
 70
0
 71
3
 72
10
 73
6
 74
4
 40
0.000000
 40
0.000000
 40
0.000000
 40
0.000000
 40
0.592137
 40
1.268681
 40
2.065860
 40
2.065860
 40
2.065860
 40
2.065860
 10
261.891113
 20
205.345948
 30
0.0
 10
261.757838
 20
205.493208
 30
0.0
 10
261.472289
 20
205.808720
 30
0.0
 10
260.851202
 20
206.134914
 30
0.0
 10
260.379355
 20
206.270940
 30
0.0
 10
260.124120
 20
206.344520
 30
0.0
 11
261.891113
 21
205.345948
 31
0.0
 11
261.470402
 21
205.762635
 31
0.0
 11
260.881404
 21
206.095493
 31
0.0
 11
260.124120
 21
206.344520
 31
0.0
  0
SPLINE
  5
17f
100
AcDbEntity
  8
0
 62
7
100
AcDbSpline
 70
0
 71
3
 72
13
 73
9
 74
7
 40
0.000000
 40
0.000000
 40
0.000000
 40
0.000000
 40
1.331596
 40
2.644096
 40
3.951674
 40
5.221872
 40
6.423421
 40
7.574520
 40
7.574520
 40
7.574520
 40
7.574520
 10
260.713109
 20
208.696716
 30
0.0
 10
261.157187
 20
208.684159
 30
0.0
 10
262.038976
 20
208.659225
 30
0.0
 10
263.343253
 20
208.451660
 30
0.0
 10
264.599924
 20
208.123239
 30
0.0
 10
265.779504
 20
207.675933
 30
0.0
 10
266.861318
 20
207.128143
 30
0.0
 10
267.493086
 20
206.661568
 30
0.0
 10
267.802196
 20
206.433282
 30
0.0
 11
260.713109
 21
208.696716
 31
0.0
 11
262.043040
 21
208.630145
 31
0.0
 11
263.340257
 21
208.430431
 31
0.0
 11
264.604759
 21
208.097575
 31
0.0
 11
265.792115
 21
207.646366
 31
0.0
 11
266.857927
 21
207.091602
 31
0.0
 11
267.802196
 21
206.433282
 31
0.0
  0
SPLINE
  5
180
100
AcDbEntity
  8
0
 62
7
100
AcDbSpline
 70
0
 71
3
 72
10
 73
6
 74
4
 40
0.000000
 40
0.000000
 40
0.000000
 40
0.000000
 40
1.089073
 40
2.147729
 40
3.201540
 40
3.201540
 40
3.201540
 40
3.201540
 10
267.802196
 20
206.433282
 30
0.0
 10
268.076368
 20
206.194702
 30
0.0
 10
268.617055
 20
205.724203
 30
0.0
 10
269.288686
 20
204.884053
 30
0.0
 10
269.616168
 20
204.259500
 30
0.0
 10
269.779533
 20
203.947940
 30
0.0
 11
267.802196
 21
206.433282
 31
0.0
 11
268.601537
 21
205.693599
 31
0.0
 11
269.260650
 21
204.865151
 31
0.0
 11
269.779533
 21
203.947940
 31
0.0
  0
SPLINE
  5
181
100
AcDbEntity
  8
0
 62
7
100
AcDbSpline
 70
0
 71
3
 72
13
 73
9
 74
7
 40
0.000000
 40
0.000000
 40
0.000000
 40
0.000000
 40
1.045205
 40
2.091869
 40
3.164723
 40
5.036833
 40
6.790708
 40
8.538004
 40
8.538004
 40
8.538004
 40
8.538004
 10
269.779533
 20
203.947940
 30
0.0
 10
269.918869
 20
203.627869
 30
0.0
 10
270.197737
 20
202.987281
 30
0.0
 10
270.423590
 20
201.950041
 30
0.0
 10
270.514362
 20
200.619370
 30
0.0
 10
270.351121
 20
199.050900
 30
0.0
 10
269.764387
 20
197.327750
 30
0.0
 10
269.044789
 20
196.400106
 30
0.0
 10
268.685666
 20
195.937156
 30
0.0
 11
269.779533
 21
203.947940
 31
0.0
 11
270.165193
 21
202.976488
 31
0.0
 11
270.396588
 21
201.955723
 31
0.0
 11
270.473720
 21
200.885645
 31
0.0
 11
270.275048
 21
199.024106
 31
0.0
 11
269.679030
 21
197.374610
 31
0.0
 11
268.685666
 21
195.937156
 31
0.0
  0
SPLINE
  5
182
100
AcDbEntity
  8
0
 62
7
100
AcDbSpline
 70
0
 71
3
 72
10
 73
6
 74
4
 40
0.000000
 40
0.000000
 40
0.000000
 40
0.000000
 40
0.755250
 40
1.474394
 40
2.165391
 40
2.165391
 40
2.165391
 40
2.165391
 10
268.685666
 20
195.937156
 30
0.0
 10
268.512331
 20
195.754447
 30
0.0
 10
268.173947
 20
195.397765
 30
0.0
 10
267.617915
 20
194.933363
 30
0.0
 10
267.219216
 20
194.683689
 30
0.0
 10
267.023845
 20
194.561344
 30
0.0
 11
268.685666
 21
195.937156
 31
0.0
 11
268.155109
 21
195.399651
 31
0.0
 11
267.601168
 21
194.941047
 31
0.0
 11
267.023845
 21
194.561344
 31
0.0
  0
LWPOLYLINE
  5
183
100
AcDbEntity
  8
0
 62
7
100
AcDbPolyline
 90
3
 70
0
 10
260.124120
 20
206.344520
 30
0.0
 10
260.124120
 20
208.696716
 30
0.0
 10
260.713109
 20
208.696716
 30
0.0
  0
LWPOLYLINE
  5
184
100
AcDbEntity
  8
0
 62
7
100
AcDbPolyline
 90
2
 70
0
 10
264.583698
 20
193.518385
 30
0.0
 10
264.583804
 20
193.518375
 30
0.0
  0
SPLINE
  5
185
100
AcDbEntity
  8
0
 62
7
100
AcDbSpline
 70
0
 71
3
 72
10
 73
6
 74
4
 40
0.000000
 40
0.000000
 40
0.000000
 40
0.000000
 40
0.738753
 40
1.623316
 40
2.657590
 40
2.657590
 40
2.657590
 40
2.657590
 10
267.023845
 20
194.561344
 30
0.0
 10
266.807425
 20
194.443582
 30
0.0
 10
266.331871
 20
194.184816
 30
0.0
 10
265.512332
 20
193.844670
 30
0.0
 10
264.908936
 20
193.632660
 30
0.0
 10
264.583698
 20
193.518385
 30
0.0
 11
267.023845
 21
194.561344
 31
0.0
 11
266.369401
 21
194.218621
 31
0.0
 11
265.556019
 21
193.870968
 31
0.0
 11
264.583698
 21
193.518385
 31
0.0
  0
SPLINE
  5
186
100
AcDbEntity
  8
0
 62
7
100
AcDbSpline
 70
0
 71
3
 72
10
 73
6
 74
4
 40
0.000000
 40
0.000000
 40
0.000000
 40
0.000000
 40
1.504297
 40
2.884976
 40
4.156135
 40
4.156135
 40
4.156135
 40
4.156135
 10
258.252008
 20
177.674326
 30
0.0
 10
257.756502
 20
177.751795
 30
0.0
 10
256.806208
 20
177.900367
 30
0.0
 10
255.461928
 20
178.254721
 30
0.0
 10
254.646239
 20
178.597401
 30
0.0
 10
254.255238
 20
178.761665
 30
0.0
 11
258.252008
 21
177.674326
 31
0.0
 11
256.770156
 21
177.933215
 31
0.0
 11
255.437899
 21
178.295661
 31
0.0
 11
254.255238
 21
178.761665
 31
0.0
  0
SPLINE
  5
187
100
AcDbEntity
  8
0
 62
7
100
AcDbSpline
 70
0
 71
3
 72
10
 73
6
 74
4
 40
0.000000
 40
0.000000
 40
0.000000
 40
0.000000
 40
1.340125
 40
2.596486
 40
3.806347
 40
3.806347
 40
3.806347
 40
3.806347
 10
254.255238
 20
178.761665
 30
0.0
 10
253.858436
 20
178.967804
 30
0.0
 10
253.089633
 20
179.367198
 30
0.0
 10
252.082216
 20
180.158707
 30
0.0
 10
251.564293
 20
180.799504
 30
0.0
 10
251.310214
 20
181.113861
 30
0.0
 11
254.255238
 21
178.761665
 31
0.0
 11
253.086568
 21
179.417519
 31
0.0
 11
252.104893
 21
180.201584
 31
0.0
 11
251.310214
 21
181.113861
 31
0.0
  0
SPLINE
  5
188
100
AcDbEntity
  8
0
 62
7
100
AcDbSpline
 70
0
 71
3
 72
13
 73
9
 74
7
 40
0.000000
 40
0.000000
 40
0.000000
 40
0.000000
 40
1.176877
 40
2.331322
 40
3.512984
 40
4.693384
 40
5.796000
 40
6.893157
 40
6.893157
 40
6.893157
 40
6.893157
 10
251.310214
 20
181.113861
 30
0.0
 10
251.103778
 20
181.449090
 30
0.0
 10
250.694840
 20
182.113158
 30
0.0
 10
250.354546
 20
183.246715
 30
0.0
 10
250.240726
 20
184.419747
 30
0.0
 10
250.355785
 20
185.575976
 30
0.0
 10
250.730009
 20
186.659418
 30
0.0
 10
251.187323
 20
187.238236
 30
0.0
 10
251.415412
 20
187.526927
 30
0.0
 11
251.310214
 21
181.113861
 31
0.0
 11
250.737568
 21
182.142022
 31
0.0
 11
250.393980
 21
183.244152
 31
0.0
 11
250.279450
 21
184.420251
 31
0.0
 11
250.405668
 21
185.593884
 31
0.0
 11
250.784322
 21
186.629443
 31
0.0
 11
251.415412
 21
187.526927
 31
0.0
  0
SPLINE
  5
189
100
AcDbEntity
  8
0
 62
7
100
AcDbSpline
 70
0
 71
3
 72
13
 73
9
 74
7
 40
0.000000
 40
0.000000
 40
0.000000
 40
0.000000
 40
1.078418
 40
2.108268
 40
3.178666
 40
4.355380
 40
5.502622
 40
6.737657
 40
6.737657
 40
6.737657
 40
6.737657
 10
251.415412
 20
187.526927
 30
0.0
 10
251.674940
 20
187.779187
 30
0.0
 10
252.182306
 20
188.272345
 30
0.0
 10
253.174668
 20
188.704273
 30
0.0
 10
254.269337
 20
188.841226
 30
0.0
 10
255.405585
 20
188.683553
 30
0.0
 10
256.493692
 20
188.141987
 30
0.0
 10
257.028286
 20
187.546940
 30
0.0
 10
257.305434
 20
187.238452
 30
0.0
 11
251.415412
 21
187.526927
 31
0.0
 11
252.233457
 21
188.229628
 31
0.0
 11
253.173045
 21
188.651249
 31
0.0
 11
254.234177
 21
188.791789
 31
0.0
 11
255.398165
 21
188.619196
 31
0.0
 11
256.421917
 21
188.101417
 31
0.0
 11
257.305434
 21
187.238452
 31
0.0
  0
SPLINE
  5
18a
100
AcDbEntity
  8
0
 62
7
100
AcDbSpline
 70
0
 71
3
 72
16
 73
12
 74
10
 40
0.000000
 40
0.000000
 40
0.000000
 40
0.000000
 40
0.895841
 40
1.737898
 40
2.569421
 40
3.173029
 40
3.782820
 40
4.414337
 40
5.047832
 40
5.662888
 40
6.273925
 40
6.273925
 40
6.273925
 40
6.273925
 10
257.305434
 20
187.238452
 30
0.0
 10
257.477127
 20
186.992817
 30
0.0
 10
257.810203
 20
186.516296
 30
0.0
 10
258.102637
 20
185.700266
 30
0.0
 10
258.190935
 20
184.940085
 30
0.0
 10
258.134820
 20
184.257691
 30
0.0
 10
257.984657
 20
183.658610
 30
0.0
 10
257.738957
 20
183.081359
 30
0.0
 10
257.414635
 20
182.543331
 30
0.0
 10
257.021300
 20
182.059352
 30
0.0
 10
256.705517
 20
181.798582
 30
0.0
 10
256.548144
 20
181.668624
 30
0.0
 11
257.305434
 21
187.238452
 31
0.0
 11
257.784565
 21
186.481507
 31
0.0
 11
258.072044
 21
185.690043
 31
0.0
 11
258.167870
 21
184.864060
 31
0.0
 11
258.118790
 21
184.262451
 31
0.0
 11
257.971549
 21
183.670703
 31
0.0
 11
257.726148
 21
183.088817
 31
0.0
 11
257.398915
 21
182.546383
 31
0.0
 11
257.006246
 21
182.072985
 31
0.0
 11
256.548144
 21
181.668624
 31
0.0
  0
LWPOLYLINE
  5
18b
100
AcDbEntity
  8
0
 62
7
100
AcDbPolyline
 90
2
 70
0
 10
258.252008
 20
180.004334
 30
0.0
 10
258.252008
 20
177.674326
 30
0.0
  0
LWPOLYLINE
  5
18c
100
AcDbEntity
  8
0
 62
7
100
AcDbPolyline
 90
1
 70
1
 10
258.252008
 20
180.004334
 30
0.0
  0
SPLINE
  5
18d
100
AcDbEntity
  8
0
 62
7
100
AcDbSpline
 70
0
 71
3
 72
16
 73
12
 74
10
 40
0.000000
 40
0.000000
 40
0.000000
 40
0.000000
 40
0.487759
 40
0.830355
 40
1.048241
 40
1.288593
 40
1.604392
 40
2.043694
 40
2.567551
 40
3.128558
 40
3.734627
 40
3.734627
 40
3.734627
 40
3.734627
 10
256.548144
 20
181.668624
 30
0.0
 10
256.420468
 20
181.567295
 30
0.0
 10
256.203113
 20
181.394794
 30
0.0
 10
255.961852
 20
181.143566
 30
0.0
 10
255.841156
 20
180.886332
 30
0.0
 10
255.951994
 20
180.625802
 30
0.0
 10
256.221679
 20
180.424176
 30
0.0
 10
256.613057
 20
180.250508
 30
0.0
 10
257.102325
 20
180.109198
 30
0.0
 10
257.660642
 20
180.019549
 30
0.0
 10
258.049876
 20
180.009534
 30
0.0
 10
258.252008
 20
180.004334
 30
0.0
 11
256.548144
 21
181.668624
 31
0.0
 11
256.174170
 21
181.355491
 31
0.0
 11
255.949786
 21
181.096602
 31
0.0
 11
255.874991
 21
180.891955
 31
0.0
 11
255.954457
 21
180.665119
 31
0.0
 11
256.192855
 21
180.458008
 31
0.0
 11
256.590186
 21
180.270621
 31
0.0
 11
257.092721
 21
180.122684
 31
0.0
 11
257.646662
 21
180.033921
 31
0.0
 11
258.252008
 21
180.004334
 31
0.0
  0
SPLINE
  5
18e
100
AcDbEntity
  8
0
 62
7
100
AcDbSpline
 70
0
 71
3
 72
10
 73
6
 74
4
 40
0.000000
 40
0.000000
 40
0.000000
 40
0.000000
 40
0.561028
 40
1.057495
 40
1.514601
 40
1.514601
 40
1.514601
 40
1.514601
 10
122.655330
 20
112.466575
 30
0.0
 10
122.480195
 20
112.400648
 30
0.0
 10
122.150079
 20
112.276381
 30
0.0
 10
121.720451
 20
111.995243
 30
0.0
 10
121.521499
 20
111.745321
 30
0.0
 10
121.426129
 20
111.625518
 30
0.0
 11
122.655330
 21
112.466575
 31
0.0
 11
122.138411
 21
112.248523
 31
0.0
 11
121.728677
 21
111.968171
 31
0.0
 11
121.426129
 21
111.625518
 31
0.0
  0
LWPOLYLINE
  5
18f
100
AcDbEntity
  8
0
 62
7
100
AcDbPolyline
 90
2
 70
0
 10
122.655330
 20
114.132180
 30
0.0
 10
122.655330
 20
112.466575
 30
0.0
  0
SPLINE
  5
190
100
AcDbEntity
  8
0
 62
7
100
AcDbSpline
 70
0
 71
3
 72
10
 73
6
 74
4
 40
0.000000
 40
0.000000
 40
0.000000
 40
0.000000
 40
0.459374
 40
0.989696
 40
1.610314
 40
1.610314
 40
1.610314
 40
1.610314
 10
121.426129
 20
111.625518
 30
0.0
 10
121.353386
 20
111.490032
 30
0.0
 10
121.196667
 20
111.198137
 30
0.0
 10
121.088241
 20
110.665316
 30
0.0
 10
121.075256
 20
110.282012
 30
0.0
 10
121.068253
 20
110.075324
 30
0.0
 11
121.426129
 21
111.625518
 31
0.0
 11
121.227309
 21
111.211398
 31
0.0
 11
121.108017
 21
110.694666
 31
0.0
 11
121.068253
 21
110.075324
 31
0.0
  0
LWPOLYLINE
  5
191
100
AcDbEntity
  8
0
 62
7
100
AcDbPolyline
 90
2
 70
0
 10
121.068253
 20
110.075324
 30
0.0
 10
121.068253
 20
94.969335
 30
0.0
  0
SPLINE
  5
192
100
AcDbEntity
  8
0
 62
7
100
AcDbSpline
 70
0
 71
3
 72
16
 73
12
 74
10
 40
0.000000
 40
0.000000
 40
0.000000
 40
0.000000
 40
0.474611
 40
0.843249
 40
1.106563
 40
1.302354
 40
1.492659
 40
1.682548
 40
1.988188
 40
2.357387
 40
2.807818
 40
2.807818
 40
2.807818
 40
2.807818
 10
121.068253
 20
94.969335
 30
0.0
 10
121.068881
 20
94.811104
 30
0.0
 10
121.069995
 20
94.529973
 30
0.0
 10
121.085145
 20
94.161511
 30
0.0
 10
121.105753
 20
93.885900
 30
0.0
 10
121.154136
 20
93.673934
 30
0.0
 10
121.227974
 20
93.495821
 30
0.0
 10
121.348060
 20
93.299942
 30
0.0
 10
121.558778
 20
93.096891
 30
0.0
 10
121.892605
 20
92.917982
 30
0.0
 10
122.153873
 20
92.836987
 30
0.0
 10
122.297455
 20
92.792476
 30
0.0
 11
121.068253
 21
94.969335
 31
0.0
 11
121.073439
 21
94.494752
 31
0.0
 11
121.088997
 21
94.126443
 31
0.0
 11
121.114926
 21
93.864409
 31
0.0
 11
121.159876
 21
93.673847
 31
0.0
 11
121.232495
 21
93.497943
 31
0.0
 11
121.332784
 21
93.336697
 31
0.0
 11
121.550624
 21
93.122311
 31
0.0
 11
121.872181
 21
92.940904
 31
0.0
 11
122.297455
 21
92.792476
 31
0.0
  0
SPLINE
  5
193
100
AcDbEntity
  8
0
 62
7
100
AcDbSpline
 70
0
 71
3
 72
10
 73
6
 74
4
 40
0.000000
 40
0.000000
 40
0.000000
 40
0.000000
 40
0.992467
 40
1.977218
 40
2.972619
 40
2.972619
 40
2.972619
 40
2.972619
 10
122.297455
 20
91.060910
 30
0.0
 10
121.970528
 20
91.113702
 30
0.0
 10
121.319216
 20
91.218874
 30
0.0
 10
120.374146
 20
91.536255
 30
0.0
 10
119.790252
 20
91.845461
 30
0.0
 10
119.496734
 20
92.000896
 30
0.0
 11
122.297455
 21
91.060910
 31
0.0
 11
121.322394
 21
91.245975
 31
0.0
 11
120.388821
 21
91.559303
 31
0.0
 11
119.496734
 21
92.000896
 31
0.0
  0
SPLINE
  5
194
100
AcDbEntity
  8
0
 62
7
100
AcDbSpline
 70
0
 71
3
 72
10
 73
6
 74
4
 40
0.000000
 40
0.000000
 40
0.000000
 40
0.000000
 40
1.018342
 40
2.059974
 40
3.140820
 40
3.140820
 40
3.140820
 40
3.140820
 10
119.496734
 20
92.000896
 30
0.0
 10
119.211523
 20
92.185595
 30
0.0
 10
118.634579
 20
92.559220
 30
0.0
 10
117.851060
 20
93.261559
 30
0.0
 10
117.395023
 20
93.803052
 30
0.0
 10
117.162792
 20
94.078801
 30
0.0
 11
119.496734
 21
92.000896
 31
0.0
 11
118.656512
 21
92.576261
 31
0.0
 11
117.878531
 21
93.268896
 31
0.0
 11
117.162792
 21
94.078801
 31
0.0
  0
SPLINE
  5
195
100
AcDbEntity
  8
0
 62
7
100
AcDbSpline
 70
0
 71
3
 72
10
 73
6
 74
4
 40
0.000000
 40
0.000000
 40
0.000000
 40
0.000000
 40
1.281482
 40
2.659588
 40
4.157617
 40
4.157617
 40
4.157617
 40
4.157617
 10
117.162792
 20
94.078801
 30
0.0
 10
116.915497
 20
94.427866
 30
0.0
 10
116.402261
 20
95.152316
 30
0.0
 10
115.810788
 20
96.414369
 30
0.0
 10
115.523203
 20
97.329292
 30
0.0
 10
115.373415
 20
97.805827
 30
0.0
 11
117.162792
 21
94.078801
 31
0.0
 11
116.452221
 21
95.145236
 31
0.0
 11
115.855762
 21
96.387578
 31
0.0
 11
115.373415
 21
97.805827
 31
0.0
  0
SPLINE
  5
196
100
AcDbEntity
  8
0
 62
7
100
AcDbSpline
 70
0
 71
3
 72
13
 73
9
 74
7
 40
0.000000
 40
0.000000
 40
0.000000
 40
0.000000
 40
1.597223
 40
3.253891
 40
4.983180
 40
8.510468
 40
11.670621
 40
14.670783
 40
14.670783
 40
14.670783
 40
14.670783
 10
115.373415
 20
97.805827
 30
0.0
 10
115.247870
 20
98.323642
 30
0.0
 10
114.992108
 20
99.378544
 30
0.0
 10
114.796616
 20
101.031597
 30
0.0
 10
114.702158
 20
103.335958
 30
0.0
 10
114.946834
 20
106.142498
 30
0.0
 10
115.926788
 20
109.282187
 30
0.0
 10
117.197454
 20
110.913493
 30
0.0
 10
117.816286
 20
111.707962
 30
0.0
 11
115.373415
 21
97.805827
 31
0.0
 11
115.027648
 21
99.365176
 31
0.0
 11
114.820188
 21
101.008803
 31
0.0
 11
114.751035
 21
102.736708
 31
0.0
 11
115.091619
 21
106.247514
 31
0.0
 11
116.113369
 21
109.237932
 31
0.0
 11
117.816286
 21
111.707962
 31
0.0
  0
SPLINE
  5
197
100
AcDbEntity
  8
0
 62
7
100
AcDbSpline
 70
0
 71
3
 72
10
 73
6
 74
4
 40
0.000000
 40
0.000000
 40
0.000000
 40
0.000000
 40
1.023661
 40
2.002301
 40
2.950211
 40
2.950211
 40
2.950211
 40
2.950211
 10
117.816286
 20
111.707962
 30
0.0
 10
118.056407
 20
111.950660
 30
0.0
 10
118.526088
 20
112.425383
 30
0.0
 10
119.309077
 20
113.028207
 30
0.0
 10
119.872860
 20
113.337065
 30
0.0
 10
120.150255
 20
113.489031
 30
0.0
 11
117.816286
 21
111.707962
 31
0.0
 11
118.552783
 21
112.418915
 31
0.0
 11
119.330773
 21
113.012605
 31
0.0
 11
120.150255
 21
113.489031
 31
0.0
  0
LWPOLYLINE
  5
198
100
AcDbEntity
  8
0
 62
7
100
AcDbPolyline
 90
2
 70
0
 10
122.297455
 20
92.792476
 30
0.0
 10
122.297455
 20
91.060910
 30
0.0
  0
LWPOLYLINE
  5
199
100
AcDbEntity
  8
0
 62
7
100
AcDbPolyline
 90
1
 70
1
 10
122.655330
 20
114.132180
 30
0.0
  0
SPLINE
  5
19a
100
AcDbEntity
  8
0
 62
7
100
AcDbSpline
 70
0
 71
3
 72
10
 73
6
 74
4
 40
0.000000
 40
0.000000
 40
0.000000
 40
0.000000
 40
0.917803
 40
1.779909
 40
2.607653
 40
2.607653
 40
2.607653
 40
2.607653
 10
120.150255
 20
113.489031
 30
0.0
 10
120.428656
 20
113.616474
 30
0.0
 10
120.968563
 20
113.863627
 30
0.0
 10
121.815721
 20
114.087833
 30
0.0
 10
122.379280
 20
114.117599
 30
0.0
 10
122.655330
 20
114.132180
 30
0.0
 11
120.150255
 21
113.489031
 31
0.0
 11
120.995652
 21
113.846336
 31
0.0
 11
121.830677
 21
114.060719
 31
0.0
 11
122.655330
 21
114.132180
 31
0.0
  0
SPLINE
  5
19b
100
AcDbEntity
  8
0
 62
7
100
AcDbSpline
 70
0
 71
3
 72
10
 73
6
 74
4
 40
0.000000
 40
0.000000
 40
0.000000
 40
0.000000
 40
1.035848
 40
2.111207
 40
3.252221
 40
3.252221
 40
3.252221
 40
3.252221
 10
123.822328
 20
114.132180
 30
0.0
 10
124.167775
 20
114.114282
 30
0.0
 10
124.871846
 20
114.077802
 30
0.0
 10
125.929341
 20
113.802385
 30
0.0
 10
126.602983
 20
113.497538
 30
0.0
 10
126.949782
 20
113.340600
 30
0.0
 11
123.822328
 21
114.132180
 31
0.0
 11
124.854435
 21
114.044227
 31
0.0
 11
125.896920
 21
113.780367
 31
0.0
 11
126.949782
 21
113.340600
 31
0.0
  0
SPLINE
  5
19c
100
AcDbEntity
  8
0
 62
7
100
AcDbSpline
 70
0
 71
3
 72
10
 73
6
 74
4
 40
0.000000
 40
0.000000
 40
0.000000
 40
0.000000
 40
0.964120
 40
1.874614
 40
2.757670
 40
2.757670
 40
2.757670
 40
2.757670
 10
126.949782
 20
113.340600
 30
0.0
 10
127.230718
 20
113.183842
 30
0.0
 10
127.776964
 20
112.879046
 30
0.0
 10
128.489301
 20
112.284423
 30
0.0
 10
128.854834
 20
111.809747
 30
0.0
 10
129.034805
 20
111.576040
 30
0.0
 11
126.949782
 21
113.340600
 31
0.0
 11
127.776188
 21
112.844030
 31
0.0
 11
128.471195
 21
112.255843
 31
0.0
 11
129.034805
 21
111.576040
 31
0.0
  0
SPLINE
  5
19d
100
AcDbEntity
  8
0
 62
7
100
AcDbSpline
 70
0
 71
3
 72
25
 73
21
 74
19
 40
0.000000
 40
0.000000
 40
0.000000
 40
0.000000
 40
0.848120
 40
1.663810
 40
2.483597
 40
3.352052
 40
4.169493
 40
4.992154
 40
5.804098
 40
6.592773
 40
7.422079
 40
8.156939
 40
8.861711
 40
9.587558
 40
10.307613
 40
10.994900
 40
11.702433
 40
12.290302
 40
12.917999
 40
13.618600
 40
13.618600
 40
13.618600
 40
13.618600
 10
129.034805
 20
111.576040
 30
0.0
 10
129.187063
 20
111.336713
 30
0.0
 10
129.485758
 20
110.867209
 30
0.0
 10
129.740860
 20
110.069895
 30
0.0
 10
129.826176
 20
109.235062
 30
0.0
 10
129.739774
 20
108.396423
 30
0.0
 10
129.442411
 20
107.603845
 30
0.0
 10
128.952716
 20
106.938304
 30
0.0
 10
128.324198
 20
106.415679
 30
0.0
 10
127.566637
 20
106.096619
 30
0.0
 10
126.779029
 20
106.005630
 30
0.0
 10
126.020133
 20
106.088040
 30
0.0
 10
125.341377
 20
106.361670
 30
0.0
 10
124.769242
 20
106.805444
 30
0.0
 10
124.314733
 20
107.362224
 30
0.0
 10
124.034906
 20
108.019296
 30
0.0
 10
123.949480
 20
108.683505
 30
0.0
 10
124.033721
 20
109.324991
 30
0.0
 10
124.277568
 20
109.923935
 30
0.0
 10
124.539789
 20
110.282167
 30
0.0
 10
124.678096
 20
110.471114
 30
0.0
 11
129.034805
 21
111.576040
 31
0.0
 11
129.458373
 21
110.841263
 31
0.0
 11
129.712514
 21
110.066175
 31
0.0
 11
129.797228
 21
109.250776
 31
0.0
 11
129.700411
 21
108.387735
 31
0.0
 11
129.409960
 21
107.623636
 31
0.0
 11
128.925876
 21
106.958479
 31
0.0
 11
128.296582
 21
106.445408
 31
0.0
 11
127.570468
 21
106.137565
 31
0.0
 11
126.747535
 21
106.034951
 31
0.0
 11
126.017958
 21
106.122907
 31
0.0
 11
125.364446
 21
106.386776
 31
0.0
 11
124.786999
 21
106.826558
 31
0.0
 11
124.337501
 21
107.389080
 31
0.0
 11
124.067802
 21
108.021240
 31
0.0
 11
123.977903
 21
108.723038
 31
0.0
 11
124.055702
 21
109.305736
 31
0.0
 11
124.289100
 21
109.888428
 31
0.0
 11
124.678096
 21
110.471114
 31
0.0
  0
LWPOLYLINE
  5
19e
100
AcDbEntity
  8
0
 62
7
100
AcDbPolyline
 90
2
 70
0
 10
123.822328
 20
112.466575
 30
0.0
 10
123.822328
 20
114.132180
 30
0.0
  0
LWPOLYLINE
  5
19f
100
AcDbEntity
  8
0
 62
7
100
AcDbPolyline
 90
1
 70
1
 10
123.822328
 20
112.466575
 30
0.0
  0
SPLINE
  5
1a0
100
AcDbEntity
  8
0
 62
7
100
AcDbSpline
 70
0
 71
3
 72
16
 73
12
 74
10
 40
0.000000
 40
0.000000
 40
0.000000
 40
0.000000
 40
0.309833
 40
0.555299
 40
0.737137
 40
0.894020
 40
1.046817
 40
1.199395
 40
1.676246
 40
2.241521
 40
3.041622
 40
3.041622
 40
3.041622
 40
3.041622
 10
124.678096
 20
110.471114
 30
0.0
 10
124.743423
 20
110.551155
 30
0.0
 10
124.860504
 20
110.694607
 30
0.0
 10
125.005922
 20
110.892504
 30
0.0
 10
125.114856
 20
111.054728
 30
0.0
 10
125.177556
 20
111.207105
 30
0.0
 10
125.214325
 20
111.357323
 30
0.0
 10
125.237857
 20
111.617536
 30
0.0
 10
125.098066
 20
112.028385
 30
0.0
 10
124.533444
 20
112.348303
 30
0.0
 10
124.085071
 20
112.422876
 30
0.0
 10
123.822328
 20
112.466575
 30
0.0
 11
124.678096
 21
110.471114
 31
0.0
 11
124.871730
 21
110.712987
 31
0.0
 11
125.016951
 21
110.910887
 31
0.0
 11
125.113759
 21
111.064813
 31
0.0
 11
125.174260
 21
111.209560
 31
0.0
 11
125.210561
 21
111.357983
 31
0.0
 11
125.222661
 21
111.510080
 31
0.0
 11
125.067069
 21
111.960833
 31
0.0
 11
124.600291
 21
112.279665
 31
0.0
 11
123.822328
 21
112.466575
 31
0.0
  0
SPLINE
  5
1a1
100
AcDbEntity
  8
0
 62
7
100
AcDbSpline
 70
0
 71
3
 72
13
 73
9
 74
7
 40
0.000000
 40
0.000000
 40
0.000000
 40
0.000000
 40
1.246351
 40
2.389333
 40
3.465108
 40
4.109741
 40
4.766265
 40
5.445946
 40
5.445946
 40
5.445946
 40
5.445946
 10
122.297455
 20
103.544799
 30
0.0
 10
122.664503
 20
103.741215
 30
0.0
 10
123.368156
 20
104.117759
 30
0.0
 10
124.481550
 20
104.453048
 30
0.0
 10
125.436858
 20
104.558786
 30
0.0
 10
126.229297
 20
104.503643
 30
0.0
 10
126.879359
 20
104.373121
 30
0.0
 10
127.297326
 20
104.217586
 30
0.0
 10
127.509931
 20
104.138471
 30
0.0
 11
122.297455
 21
103.544799
 31
0.0
 11
123.416034
 21
104.094500
 31
0.0
 11
124.510394
 21
104.424321
 31
0.0
 11
125.580537
 21
104.534261
 31
0.0
 11
126.223668
 21
104.490284
 31
0.0
 11
126.866800
 21
104.358354
 31
0.0
 11
127.509931
 21
104.138471
 31
0.0
  0
SPLINE
  5
1a2
100
AcDbEntity
  8
0
 62
7
100
AcDbSpline
 70
0
 71
3
 72
10
 73
6
 74
4
 40
0.000000
 40
0.000000
 40
0.000000
 40
0.000000
 40
0.692695
 40
1.368811
 40
2.039083
 40
2.039083
 40
2.039083
 40
2.039083
 10
127.509931
 20
104.138471
 30
0.0
 10
127.721096
 20
104.044642
 30
0.0
 10
128.138372
 20
103.859232
 30
0.0
 10
128.715619
 20
103.493698
 30
0.0
 10
129.053376
 20
103.197507
 30
0.0
 10
129.221521
 20
103.050054
 30
0.0
 11
127.509931
 21
104.138471
 31
0.0
 11
128.135800
 21
103.841629
 31
0.0
 11
128.706330
 21
103.478823
 31
0.0
 11
129.221521
 21
103.050054
 31
0.0
  0
SPLINE
  5
1a3
100
AcDbEntity
  8
0
 62
7
100
AcDbSpline
 70
0
 71
3
 72
10
 73
6
 74
4
 40
0.000000
 40
0.000000
 40
0.000000
 40
0.000000
 40
0.755128
 40
1.523339
 40
2.319939
 40
2.319939
 40
2.319939
 40
2.319939
 10
129.221521
 20
103.050054
 30
0.0
 10
129.393752
 20
102.866044
 30
0.0
 10
129.741199
 20
102.494836
 30
0.0
 10
130.164619
 20
101.841696
 30
0.0
 10
130.374844
 20
101.363842
 30
0.0
 10
130.481864
 20
101.120580
 30
0.0
 11
129.221521
 21
103.050054
 31
0.0
 11
129.721157
 21
102.483855
 31
0.0
 11
130.141272
 21
101.840697
 31
0.0
 11
130.481864
 21
101.120580
 31
0.0
  0
SPLINE
  5
1a4
100
AcDbEntity
  8
0
 62
7
100
AcDbSpline
 70
0
 71
3
 72
13
 73
9
 74
7
 40
0.000000
 40
0.000000
 40
0.000000
 40
0.000000
 40
0.804164
 40
1.615312
 40
2.446893
 40
3.565393
 40
4.693623
 40
5.851770
 40
5.851770
 40
5.851770
 40
5.851770
 10
130.481864
 20
101.120580
 30
0.0
 10
130.572532
 20
100.867919
 30
0.0
 10
130.754655
 20
100.360402
 30
0.0
 10
130.900106
 20
99.554232
 30
0.0
 10
130.954173
 20
98.633699
 30
0.0
 10
130.879925
 20
97.607264
 30
0.0
 10
130.656105
 20
96.489737
 30
0.0
 10
130.385496
 20
95.776093
 30
0.0
 10
130.248422
 20
95.414603
 30
0.0
 11
130.481864
 21
101.120580
 31
0.0
 11
130.732527
 21
100.356481
 31
0.0
 11
130.882925
 21
99.559398
 31
0.0
 11
130.933058
 21
98.729329
 31
0.0
 11
130.856987
 21
97.613419
 31
0.0
 11
130.628775
 21
96.508511
 31
0.0
 11
130.248422
 21
95.414603
 31
0.0
  0
SPLINE
  5
1a5
100
AcDbEntity
  8
0
 62
7
100
AcDbSpline
 70
0
 71
3
 72
10
 73
6
 74
4
 40
0.000000
 40
0.000000
 40
0.000000
 40
0.000000
 40
1.127168
 40
2.183731
 40
3.193524
 40
3.193524
 40
3.193524
 40
3.193524
 10
130.248422
 20
95.414603
 30
0.0
 10
130.089484
 20
95.073858
 30
0.0
 10
129.781565
 20
94.413713
 30
0.0
 10
129.177549
 20
93.527511
 30
0.0
 10
128.684472
 20
93.044853
 30
0.0
 10
128.443514
 20
92.808986
 30
0.0
 11
130.248422
 21
95.414603
 31
0.0
 11
129.743606
 21
94.406799
 31
0.0
 11
129.141970
 21
93.538260
 31
0.0
 11
128.443514
 21
92.808986
 31
0.0
  0
LWPOLYLINE
  5
1a6
100
AcDbEntity
  8
0
 62
7
100
AcDbPolyline
 90
2
 70
0
 10
122.297455
 20
101.648292
 30
0.0
 10
122.297455
 20
103.544799
 30
0.0
  0
SPLINE
  5
1a7
100
AcDbEntity
  8
0
 62
7
100
AcDbSpline
 70
0
 71
3
 72
13
 73
9
 74
7
 40
0.000000
 40
0.000000
 40
0.000000
 40
0.000000
 40
0.814425
 40
1.650429
 40
2.519199
 40
3.383950
 40
4.208600
 40
5.005641
 40
5.005641
 40
5.005641
 40
5.005641
 10
128.443514
 20
92.808986
 30
0.0
 10
128.231360
 20
92.639062
 30
0.0
 10
127.801431
 20
92.294711
 30
0.0
 10
127.070855
 20
91.874744
 30
0.0
 10
126.287506
 20
91.525236
 30
0.0
 10
125.475005
 20
91.262204
 30
0.0
 10
124.660214
 20
91.092930
 30
0.0
 10
124.119297
 20
91.071462
 30
0.0
 10
123.853443
 20
91.060910
 30
0.0
 11
128.443514
 21
92.808986
 31
0.0
 11
127.795193
 21
92.316067
 31
0.0
 11
127.074266
 21
91.892787
 31
0.0
 11
126.280730
 21
91.539145
 31
0.0
 11
125.457805
 21
91.273459
 31
0.0
 11
124.648710
 21
91.114047
 31
0.0
 11
123.853443
 21
91.060910
 31
0.0
  0
LWPOLYLINE
  5
1a8
100
AcDbEntity
  8
0
 62
7
100
AcDbPolyline
 90
3
 70
0
 10
123.853443
 20
91.060910
 30
0.0
 10
123.464426
 20
91.060910
 30
0.0
 10
123.464426
 20
92.792476
 30
0.0
  0
SPLINE
  5
1a9
100
AcDbEntity
  8
0
 62
7
100
AcDbSpline
 70
0
 71
3
 72
13
 73
9
 74
7
 40
0.000000
 40
0.000000
 40
0.000000
 40
0.000000
 40
0.397681
 40
0.741696
 40
1.050011
 40
1.364918
 40
1.727608
 40
2.153726
 40
2.153726
 40
2.153726
 40
2.153726
 10
123.464426
 20
92.792476
 30
0.0
 10
123.591511
 20
92.831356
 30
0.0
 10
123.828531
 20
92.903870
 30
0.0
 10
124.134056
 20
93.081831
 30
0.0
 10
124.366326
 20
93.312086
 30
0.0
 10
124.516418
 20
93.609466
 30
0.0
 10
124.602641
 20
93.970074
 30
0.0
 10
124.611228
 20
94.233391
 30
0.0
 10
124.615866
 20
94.375637
 30
0.0
 11
123.464426
 21
92.792476
 31
0.0
 11
123.839584
 21
92.924409
 31
0.0
 11
124.135221
 21
93.100322
 31
0.0
 11
124.351336
 21
93.320214
 31
0.0
 11
124.498297
 21
93.598726
 31
0.0
 11
124.586474
 21
93.950534
 31
0.0
 11
124.615866
 21
94.375637
 31
0.0
  0
SPLINE
  5
1aa
100
AcDbEntity
  8
0
 62
7
100
AcDbSpline
 70
0
 71
3
 72
13
 73
9
 74
7
 40
0.000000
 40
0.000000
 40
0.000000
 40
0.000000
 40
0.461094
 40
0.863639
 40
1.223925
 40
1.544029
 40
1.834986
 40
2.137225
 40
2.137225
 40
2.137225
 40
2.137225
 10
124.615866
 20
100.543365
 30
0.0
 10
124.610528
 20
100.697276
 30
0.0
 10
124.600529
 20
100.985553
 30
0.0
 10
124.502662
 20
101.385099
 30
0.0
 10
124.340544
 20
101.711545
 30
0.0
 10
124.122284
 20
101.956469
 30
0.0
 10
123.844335
 20
102.104955
 30
0.0
 10
123.644207
 20
102.108325
 30
0.0
 10
123.542240
 20
102.110043
 30
0.0
 11
124.615866
 21
100.543365
 31
0.0
 11
124.583017
 21
101.003288
 31
0.0
 11
124.484468
 21
101.393583
 31
0.0
 11
124.320221
 21
101.714252
 31
0.0
 11
124.102380
 21
101.948800
 31
0.0
 11
123.843053
 21
102.080730
 31
0.0
 11
123.542240
 21
102.110043
 31
0.0
  0
LWPOLYLINE
  5
1ab
100
AcDbEntity
  8
0
 62
7
100
AcDbPolyline
 90
2
 70
0
 10
124.615866
 20
94.375637
 30
0.0
 10
124.615866
 20
100.543365
 30
0.0
  0
LWPOLYLINE
  5
1ac
100
AcDbEntity
  8
0
 62
7
100
AcDbPolyline
 90
1
 70
1
 10
122.297455
 20
101.648292
 30
0.0
  0
SPLINE
  5
1ad
100
AcDbEntity
  8
0
 62
7
100
AcDbSpline
 70
0
 71
3
 72
10
 73
6
 74
4
 40
0.000000
 40
0.000000
 40
0.000000
 40
0.000000
 40
0.357527
 40
0.800083
 40
1.338419
 40
1.338419
 40
1.338419
 40
1.338419
 10
123.542240
 20
102.110043
 30
0.0
 10
123.423615
 20
102.094995
 30
0.0
 10
123.158153
 20
102.061321
 30
0.0
 10
122.740736
 20
101.892282
 30
0.0
 10
122.454531
 20
101.734749
 30
0.0
 10
122.297455
 20
101.648292
 30
0.0
 11
123.542240
 21
102.110043
 31
0.0
 11
123.189547
 21
102.051446
 31
0.0
 11
122.774619
 21
101.897529
 31
0.0
 11
122.297455
 21
101.648292
 31
0.0
  0
SPLINE
  5
1ae
100
AcDbEntity
  8
0
 62
7
100
AcDbSpline
 70
0
 71
3
 72
10
 73
6
 74
4
 40
0.000000
 40
0.000000
 40
0.000000
 40
0.000000
 40
0.437990
 40
0.808673
 40
1.115614
 40
1.115614
 40
1.115614
 40
1.115614
 10
32.170899
 20
224.291882
 30
0.0
 10
32.308699
 20
224.340015
 30
0.0
 10
32.563124
 20
224.428883
 30
0.0
 10
32.904504
 20
224.579724
 30
0.0
 10
33.094528
 20
224.702341
 30
0.0
 10
33.180602
 20
224.757882
 30
0.0
 11
32.170899
 21
224.291882
 31
0.0
 11
32.582256
 21
224.442285
 31
0.0
 11
32.918823
 21
224.597618
 31
0.0
 11
33.180602
 21
224.757882
 31
0.0
  0
SPLINE
  5
1af
100
AcDbEntity
  8
0
 62
7
100
AcDbSpline
 70
0
 71
3
 72
10
 73
6
 74
4
 40
0.000000
 40
0.000000
 40
0.000000
 40
0.000000
 40
0.294137
 40
0.606191
 40
0.944117
 40
0.944117
 40
0.944117
 40
0.944117
 10
33.180602
 20
224.757882
 30
0.0
 10
33.258472
 20
224.817800
 30
0.0
 10
33.418956
 20
224.941286
 30
0.0
 10
33.623331
 20
225.184104
 30
0.0
 10
33.733418
 20
225.370876
 30
0.0
 10
33.790652
 20
225.467979
 30
0.0
 11
33.180602
 21
224.757882
 31
0.0
 11
33.407324
 21
224.945269
 31
0.0
 11
33.610673
 21
225.181968
 31
0.0
 11
33.790652
 21
225.467979
 31
0.0
  0
LWPOLYLINE
  5
1b0
100
AcDbEntity
  8
0
 62
7
100
AcDbPolyline
 90
2
 70
0
 10
32.170899
 20
222.050634
 30
0.0
 10
32.170899
 20
224.291882
 30
0.0
  0
SPLINE
  5
1b1
100
AcDbEntity
  8
0
 62
7
100
AcDbSpline
 70
0
 71
3
 72
10
 73
6
 74
4
 40
0.000000
 40
0.000000
 40
0.000000
 40
0.000000
 40
0.704502
 40
1.407229
 40
2.129557
 40
2.129557
 40
2.129557
 40
2.129557
 10
33.790652
 20
225.467979
 30
0.0
 10
33.895791
 20
225.678443
 30
0.0
 10
34.105806
 20
226.098841
 30
0.0
 10
34.283267
 20
226.793404
 30
0.0
 10
34.305364
 20
227.268629
 30
0.0
 10
34.316564
 20
227.509509
 30
0.0
 11
33.790652
 21
225.467979
 31
0.0
 11
34.082825
 21
226.109039
 31
0.0
 11
34.258129
 21
226.789549
 31
0.0
 11
34.316564
 21
227.509509
 31
0.0
  0
SPLINE
  5
1b2
100
AcDbEntity
  8
0
 62
7
100
AcDbSpline
 70
0
 71
3
 72
13
 73
9
 74
7
 40
0.000000
 40
0.000000
 40
0.000000
 40
0.000000
 40
0.613978
 40
1.095234
 40
1.444651
 40
1.732221
 40
2.002188
 40
2.262220
 40
2.262220
 40
2.262220
 40
2.262220
 10
34.316564
 20
247.991384
 30
0.0
 10
34.315582
 20
248.196065
 30
0.0
 10
34.313829
 20
248.561181
 30
0.0
 10
34.294435
 20
249.042344
 30
0.0
 10
34.262697
 20
249.414239
 30
0.0
 10
34.201309
 20
249.710946
 30
0.0
 10
34.104847
 20
249.968173
 30
0.0
 10
34.006973
 20
250.115811
 30
0.0
 10
33.958953
 20
250.188246
 30
0.0
 11
34.316564
 21
247.991384
 31
0.0
 11
34.309547
 21
248.605322
 31
0.0
 11
34.288495
 21
249.086117
 31
0.0
 11
34.253408
 21
249.433768
 31
0.0
 11
34.192657
 21
249.714847
 31
0.0
 11
34.094505
 21
249.966340
 31
0.0
 11
33.958953
 21
250.188246
 31
0.0
  0
LWPOLYLINE
  5
1b3
100
AcDbEntity
  8
0
 62
7
100
AcDbPolyline
 90
2
 70
0
 10
34.316564
 20
227.509509
 30
0.0
 10
34.316564
 20
247.991384
 30
0.0
  0
SPLINE
  5
1b4
100
AcDbEntity
  8
0
 62
7
100
AcDbSpline
 70
0
 71
3
 72
10
 73
6
 74
4
 40
0.000000
 40
0.000000
 40
0.000000
 40
0.000000
 40
0.412255
 40
0.910848
 40
1.519545
 40
1.519545
 40
1.519545
 40
1.519545
 10
33.958953
 20
250.188246
 30
0.0
 10
33.865464
 20
250.290166
 30
0.0
 10
33.658906
 20
250.515351
 30
0.0
 10
33.199972
 20
250.750277
 30
0.0
 10
32.848113
 20
250.860141
 30
0.0
 10
32.654690
 20
250.920536
 30
0.0
 11
33.958953
 21
250.188246
 31
0.0
 11
33.664446
 21
250.476724
 31
0.0
 11
33.229691
 21
250.720820
 31
0.0
 11
32.654690
 21
250.920536
 31
0.0
  0
SPLINE
  5
1b5
100
AcDbEntity
  8
0
 62
7
100
AcDbSpline
 70
0
 71
3
 72
10
 73
6
 74
4
 40
0.000000
 40
0.000000
 40
0.000000
 40
0.000000
 40
1.339774
 40
2.670484
 40
4.019357
 40
4.019357
 40
4.019357
 40
4.019357
 10
32.654690
 20
253.095210
 30
0.0
 10
33.096730
 20
253.028122
 30
0.0
 10
33.977820
 20
252.894400
 30
0.0
 10
35.256911
 20
252.466490
 30
0.0
 10
36.044618
 20
252.043349
 30
0.0
 10
36.441142
 20
251.830345
 30
0.0
 11
32.654690
 21
253.095210
 31
0.0
 11
33.972944
 21
252.856044
 31
0.0
 11
35.235095
 21
252.434423
 31
0.0
 11
36.441142
 21
251.830345
 31
0.0
  0
SPLINE
  5
1b6
100
AcDbEntity
  8
0
 62
7
100
AcDbSpline
 70
0
 71
3
 72
10
 73
6
 74
4
 40
0.000000
 40
0.000000
 40
0.000000
 40
0.000000
 40
1.369153
 40
2.774467
 40
4.239260
 40
4.239260
 40
4.239260
 40
4.239260
 10
36.441142
 20
251.830345
 30
0.0
 10
36.826959
 20
251.585591
 30
0.0
 10
37.608782
 20
251.089617
 30
0.0
 10
38.668420
 20
250.143079
 30
0.0
 10
39.282919
 20
249.408989
 30
0.0
 10
39.596536
 20
249.034337
 30
0.0
 11
36.441142
 21
251.830345
 31
0.0
 11
37.577083
 21
251.066004
 31
0.0
 11
38.628882
 21
250.134002
 31
0.0
 11
39.596536
 21
249.034337
 31
0.0
  0
SPLINE
  5
1b7
100
AcDbEntity
  8
0
 62
7
100
AcDbSpline
 70
0
 71
3
 72
10
 73
6
 74
4
 40
0.000000
 40
0.000000
 40
0.000000
 40
0.000000
 40
1.717350
 40
3.570321
 40
5.592650
 40
5.592650
 40
5.592650
 40
5.592650
 10
39.596536
 20
249.034337
 30
0.0
 10
39.930523
 20
248.568284
 30
0.0
 10
40.624871
 20
247.599373
 30
0.0
 10
41.416813
 20
245.899069
 30
0.0
 10
41.796465
 20
244.663866
 30
0.0
 10
41.994587
 20
244.019274
 30
0.0
 11
39.596536
 21
249.034337
 31
0.0
 11
40.554819
 21
247.609211
 31
0.0
 11
41.354169
 21
245.937523
 31
0.0
 11
41.994587
 21
244.019274
 31
0.0
  0
SPLINE
  5
1b8
100
AcDbEntity
  8
0
 62
7
100
AcDbSpline
 70
0
 71
3
 72
13
 73
9
 74
7
 40
0.000000
 40
0.000000
 40
0.000000
 40
0.000000
 40
2.152255
 40
4.382519
 40
6.709567
 40
11.465891
 40
15.720277
 40
19.755320
 40
19.755320
 40
19.755320
 40
19.755320
 10
41.994587
 20
244.019274
 30
0.0
 10
42.168534
 20
243.322665
 30
0.0
 10
42.522731
 20
241.904200
 30
0.0
 10
42.794082
 20
239.679142
 30
0.0
 10
42.923934
 20
236.574643
 30
0.0
 10
42.592765
 20
232.794180
 30
0.0
 10
41.268705
 20
228.566348
 30
0.0
 10
39.549749
 20
226.377912
 30
0.0
 10
38.713013
 20
225.312647
 30
0.0
 11
41.994587
 21
244.019274
 31
0.0
 11
42.473748
 21
241.921035
 31
0.0
 11
42.761244
 21
239.709378
 31
0.0
 11
42.857076
 21
237.384304
 31
0.0
 11
42.396625
 21
232.650320
 31
0.0
 11
41.015270
 21
228.626435
 31
0.0
 11
38.713013
 21
225.312647
 31
0.0
  0
SPLINE
  5
1b9
100
AcDbEntity
  8
0
 62
7
100
AcDbSpline
 70
0
 71
3
 72
10
 73
6
 74
4
 40
0.000000
 40
0.000000
 40
0.000000
 40
0.000000
 40
1.384186
 40
2.715017
 40
4.011310
 40
4.011310
 40
4.011310
 40
4.011310
 10
38.713013
 20
225.312647
 30
0.0
 10
38.387528
 20
224.985251
 30
0.0
 10
37.749105
 20
224.343078
 30
0.0
 10
36.683266
 20
223.525394
 30
0.0
 10
35.915465
 20
223.102528
 30
0.0
 10
35.536611
 20
222.893874
 30
0.0
 11
38.713013
 21
225.312647
 31
0.0
 11
37.714990
 21
224.353522
 31
0.0
 11
36.656189
 21
223.547264
 31
0.0
 11
35.536611
 21
222.893874
 31
0.0
  0
LWPOLYLINE
  5
1ba
100
AcDbEntity
  8
0
 62
7
100
AcDbPolyline
 90
2
 70
0
 10
32.654690
 20
250.920536
 30
0.0
 10
32.654690
 20
253.095210
 30
0.0
  0
LWPOLYLINE
  5
1bb
100
AcDbEntity
  8
0
 62
7
100
AcDbPolyline
 90
1
 70
1
 10
32.170899
 20
222.050634
 30
0.0
  0
SPLINE
  5
1bc
100
AcDbEntity
  8
0
 62
7
100
AcDbSpline
 70
0
 71
3
 72
10
 73
6
 74
4
 40
0.000000
 40
0.000000
 40
0.000000
 40
0.000000
 40
1.224426
 40
2.381005
 40
3.497487
 40
3.497487
 40
3.497487
 40
3.497487
 10
35.536611
 20
222.893874
 30
0.0
 10
35.163927
 20
222.726634
 30
0.0
 10
34.439211
 20
222.401422
 30
0.0
 10
33.301273
 20
222.108418
 30
0.0
 10
32.543233
 20
222.069667
 30
0.0
 10
32.170899
 20
222.050634
 30
0.0
 11
35.536611
 21
222.893874
 31
0.0
 11
34.405347
 21
222.425407
 31
0.0
 11
33.283443
 21
222.144327
 31
0.0
 11
32.170899
 21
222.050634
 31
0.0
  0
SPLINE
  5
1bd
100
AcDbEntity
  8
0
 62
7
100
AcDbSpline
 70
0
 71
3
 72
10
 73
6
 74
4
 40
0.000000
 40
0.000000
 40
0.000000
 40
0.000000
 40
1.400381
 40
2.853815
 40
4.395345
 40
4.395345
 40
4.395345
 40
4.395345
 10
30.593215
 20
222.050634
 30
0.0
 10
30.126202
 20
222.074715
 30
0.0
 10
29.174483
 20
222.123789
 30
0.0
 10
27.744938
 20
222.494281
 30
0.0
 10
26.833922
 20
222.904591
 30
0.0
 10
26.365015
 20
223.115780
 30
0.0
 11
30.593215
 21
222.050634
 31
0.0
 11
29.197844
 21
222.168983
 31
0.0
 11
27.788444
 21
222.524032
 31
0.0
 11
26.365015
 21
223.115780
 31
0.0
  0
SPLINE
  5
1be
100
AcDbEntity
  8
0
 62
7
100
AcDbSpline
 70
0
 71
3
 72
10
 73
6
 74
4
 40
0.000000
 40
0.000000
 40
0.000000
 40
0.000000
 40
1.302537
 40
2.531694
 40
3.720346
 40
3.720346
 40
3.720346
 40
3.720346
 10
26.365015
 20
223.115780
 30
0.0
 10
25.984794
 20
223.326263
 30
0.0
 10
25.245772
 20
223.735371
 30
0.0
 10
24.276905
 20
224.526804
 30
0.0
 10
23.772947
 20
225.157778
 30
0.0
 10
23.525189
 20
225.467979
 30
0.0
 11
26.365015
 21
223.115780
 31
0.0
 11
25.245451
 21
223.781498
 31
0.0
 11
24.298842
 21
224.565564
 31
0.0
 11
23.525189
 21
225.467979
 31
0.0
  0
SPLINE
  5
1bf
100
AcDbEntity
  8
0
 62
7
100
AcDbSpline
 70
0
 71
3
 72
19
 73
15
 74
13
 40
0.000000
 40
0.000000
 40
0.000000
 40
0.000000
 40
1.147500
 40
2.250462
 40
3.355836
 40
4.524495
 40
5.625088
 40
6.733852
 40
7.829501
 40
8.894990
 40
10.016092
 40
11.009795
 40
11.964747
 40
12.951835
 40
12.951835
 40
12.951835
 40
12.951835
 10
23.525189
 20
225.467979
 30
0.0
 10
23.323543
 20
225.794442
 30
0.0
 10
22.928078
 20
226.434696
 30
0.0
 10
22.590595
 20
227.513606
 30
0.0
 10
22.476663
 20
228.639414
 30
0.0
 10
22.593070
 20
229.768958
 30
0.0
 10
22.995453
 20
230.835665
 30
0.0
 10
23.657618
 20
231.731147
 30
0.0
 10
24.507523
 20
232.434309
 30
0.0
 10
25.531311
 20
232.863000
 30
0.0
 10
26.596541
 20
232.986700
 30
0.0
 10
27.621004
 20
232.871287
 30
0.0
 10
28.547924
 20
232.503385
 30
0.0
 10
29.039250
 20
232.076055
 30
0.0
 10
29.288978
 20
231.858854
 30
0.0
 11
23.525189
 21
225.467979
 31
0.0
 11
22.964228
 21
226.469018
 31
0.0
 11
22.627652
 21
227.519371
 31
0.0
 11
22.515460
 21
228.619037
 31
0.0
 11
22.646349
 21
229.780343
 31
0.0
 11
23.039017
 21
230.808505
 31
0.0
 11
23.693464
 21
231.703523
 31
0.0
 11
24.544246
 21
232.393896
 31
0.0
 11
25.525921
 21
232.808119
 31
0.0
 11
26.638488
 21
232.946194
 31
0.0
 11
27.624820
 21
232.825378
 31
0.0
 11
28.508316
 21
232.462932
 31
0.0
 11
29.288978
 21
231.858854
 31
0.0
  0
LWPOLYLINE
  5
1c0
100
AcDbEntity
  8
0
 62
7
100
AcDbPolyline
 90
2
 70
0
 10
30.593215
 20
224.291882
 30
0.0
 10
30.593215
 20
222.050634
 30
0.0
  0
SPLINE
  5
1c1
100
AcDbEntity
  8
0
 62
7
100
AcDbSpline
 70
0
 71
3
 72
13
 73
9
 74
7
 40
0.000000
 40
0.000000
 40
0.000000
 40
0.000000
 40
0.981884
 40
1.923734
 40
2.900605
 40
3.563575
 40
4.176905
 40
4.764673
 40
4.764673
 40
4.764673
 40
4.764673
 10
29.288978
 20
231.858854
 30
0.0
 10
29.511456
 20
231.615989
 30
0.0
 10
29.947340
 20
231.140160
 30
0.0
 10
30.326501
 20
230.230099
 30
0.0
 10
30.429879
 20
229.366839
 30
0.0
 10
30.370767
 20
228.616090
 30
0.0
 10
30.217165
 20
228.007046
 30
0.0
 10
30.017681
 20
227.658087
 30
0.0
 10
29.920062
 20
227.487321
 30
0.0
 11
29.288978
 21
231.858854
 31
0.0
 11
29.908368
 21
231.096979
 31
0.0
 11
30.280001
 21
230.231549
 31
0.0
 11
30.403879
 21
229.262564
 31
0.0
 11
30.350122
 21
228.601778
 31
0.0
 11
30.188850
 21
228.010030
 31
0.0
 11
29.920062
 21
227.487321
 31
0.0
  0
SPLINE
  5
1c2
100
AcDbEntity
  8
0
 62
7
100
AcDbSpline
 70
0
 71
3
 72
13
 73
9
 74
7
 40
0.000000
 40
0.000000
 40
0.000000
 40
0.000000
 40
0.304441
 40
0.578912
 40
0.834682
 40
1.250338
 40
1.679330
 40
2.169649
 40
2.169649
 40
2.169649
 40
2.169649
 10
29.246909
 20
226.466556
 30
0.0
 10
29.192807
 20
226.380436
 30
0.0
 10
29.089930
 20
226.216674
 30
0.0
 10
28.995695
 20
225.952086
 30
0.0
 10
28.957069
 20
225.636835
 30
0.0
 10
29.023245
 20
225.267403
 30
0.0
 10
29.256574
 20
224.876094
 30
0.0
 10
29.497210
 20
224.683225
 30
0.0
 10
29.625555
 20
224.580357
 30
0.0
 11
29.246909
 21
226.466556
 31
0.0
 11
29.094980
 21
226.202734
 31
0.0
 11
29.003822
 21
225.943844
 31
0.0
 11
28.973436
 21
225.689885
 31
0.0
 11
29.045894
 21
225.280593
 31
0.0
 11
29.263267
 21
224.910751
 31
0.0
 11
29.625555
 21
224.580357
 31
0.0
  0
LWPOLYLINE
  5
1c3
100
AcDbEntity
  8
0
 62
7
100
AcDbPolyline
 90
2
 70
0
 10
29.920062
 20
227.487321
 30
0.0
 10
29.246909
 20
226.466556
 30
0.0
  0
LWPOLYLINE
  5
1c4
100
AcDbEntity
  8
0
 62
7
100
AcDbPolyline
 90
1
 70
1
 10
30.593215
 20
224.291882
 30
0.0
  0
SPLINE
  5
1c5
100
AcDbEntity
  8
0
 62
7
100
AcDbSpline
 70
0
 71
3
 72
10
 73
6
 74
4
 40
0.000000
 40
0.000000
 40
0.000000
 40
0.000000
 40
0.280119
 40
0.616701
 40
1.018790
 40
1.018790
 40
1.018790
 40
1.018790
 10
29.625555
 20
224.580357
 30
0.0
 10
29.706630
 20
224.533392
 30
0.0
 10
29.885122
 20
224.429993
 30
0.0
 10
30.216384
 20
224.341009
 30
0.0
 10
30.460392
 20
224.309198
 30
0.0
 10
30.593215
 20
224.291882
 30
0.0
 11
29.625555
 21
224.580357
 31
0.0
 11
29.873325
 21
224.449680
 31
0.0
 11
30.195879
 21
224.353521
 31
0.0
 11
30.593215
 21
224.291882
 31
0.0
  0
SPLINE
  5
1c6
100
AcDbEntity
  8
0
 62
7
100
AcDbSpline
 70
0
 71
3
 72
13
 73
9
 74
7
 40
0.000000
 40
0.000000
 40
0.000000
 40
0.000000
 40
1.683430
 40
3.228076
 40
4.682432
 40
5.556240
 40
6.450531
 40
7.380064
 40
7.380064
 40
7.380064
 40
7.380064
 10
32.654690
 20
236.296965
 30
0.0
 10
32.158410
 20
236.032642
 30
0.0
 10
31.206764
 20
235.525789
 30
0.0
 10
29.701681
 20
235.074765
 30
0.0
 10
28.409612
 20
234.932465
 30
0.0
 10
27.335295
 20
235.007007
 30
0.0
 10
26.449811
 20
235.182930
 30
0.0
 10
25.878062
 20
235.391702
 30
0.0
 10
25.586664
 20
235.498106
 30
0.0
 11
32.654690
 21
236.296965
 31
0.0
 11
31.142473
 21
235.557279
 31
0.0
 11
29.662958
 21
235.113468
 31
0.0
 11
28.216146
 21
234.965531
 31
0.0
 11
27.344344
 21
235.024706
 31
0.0
 11
26.467850
 21
235.202231
 31
0.0
 11
25.586664
 21
235.498106
 31
0.0
  0
SPLINE
  5
1c7
100
AcDbEntity
  8
0
 62
7
100
AcDbSpline
 70
0
 71
3
 72
10
 73
6
 74
4
 40
0.000000
 40
0.000000
 40
0.000000
 40
0.000000
 40
0.925076
 40
1.831972
 40
2.734606
 40
2.734606
 40
2.734606
 40
2.734606
 10
25.586664
 20
235.498106
 30
0.0
 10
25.305147
 20
235.624505
 30
0.0
 10
24.747646
 20
235.874819
 30
0.0
 10
23.974881
 20
236.366906
 30
0.0
 10
23.520478
 20
236.764401
 30
0.0
 10
23.293811
 20
236.962680
 30
0.0
 11
25.586664
 21
235.498106
 31
0.0
 11
24.752265
 21
235.897535
 31
0.0
 11
23.987980
 21
236.385726
 31
0.0
 11
23.293811
 21
236.962680
 31
0.0
  0
SPLINE
  5
1c8
100
AcDbEntity
  8
0
 62
7
100
AcDbSpline
 70
0
 71
3
 72
10
 73
6
 74
4
 40
0.000000
 40
0.000000
 40
0.000000
 40
0.000000
 40
1.016359
 40
2.045347
 40
3.107053
 40
3.107053
 40
3.107053
 40
3.107053
 10
23.293811
 20
236.962680
 30
0.0
 10
23.061153
 20
237.209523
 30
0.0
 10
22.592946
 20
237.706277
 30
0.0
 10
22.020041
 20
238.577041
 30
0.0
 10
21.734765
 20
239.213550
 30
0.0
 10
21.589894
 20
239.536785
 30
0.0
 11
23.293811
 21
236.962680
 31
0.0
 11
22.618324
 21
237.722090
 31
0.0
 11
22.050351
 21
238.580125
 31
0.0
 11
21.589894
 21
239.536785
 31
0.0
  0
SPLINE
  5
1c9
100
AcDbEntity
  8
0
 62
7
100
AcDbSpline
 70
0
 71
3
 72
13
 73
9
 74
7
 40
0.000000
 40
0.000000
 40
0.000000
 40
0.000000
 40
1.096641
 40
2.202830
 40
3.336576
 40
4.978079
 40
6.615328
 40
8.283687
 40
8.283687
 40
8.283687
 40
8.283687
 10
21.589894
 20
239.536785
 30
0.0
 10
21.467307
 20
239.881706
 30
0.0
 10
21.221066
 20
240.574550
 30
0.0
 10
21.024374
 20
241.674062
 30
0.0
 10
20.949240
 20
242.968023
 30
0.0
 10
21.061756
 20
244.439452
 30
0.0
 10
21.411721
 20
246.059630
 30
0.0
 10
21.837671
 20
247.077984
 30
0.0
 10
22.052650
 20
247.591953
 30
0.0
 11
21.589894
 21
239.536785
 31
0.0
 11
21.250978
 21
240.579741
 31
0.0
 11
21.047628
 21
241.667078
 31
0.0
 11
20.979844
 21
242.798796
 31
0.0
 11
21.099045
 21
244.435965
 31
0.0
 11
21.456647
 21
246.033685
 31
0.0
 11
22.052650
 21
247.591953
 31
0.0
  0
SPLINE
  5
1ca
100
AcDbEntity
  8
0
 62
7
100
AcDbSpline
 70
0
 71
3
 72
10
 73
6
 74
4
 40
0.000000
 40
0.000000
 40
0.000000
 40
0.000000
 40
1.639592
 40
3.181185
 40
4.668072
 40
4.668072
 40
4.668072
 40
4.668072
 10
22.052650
 20
247.591953
 30
0.0
 10
22.306569
 20
248.076513
 30
0.0
 10
22.799230
 20
249.016670
 30
0.0
 10
23.768644
 20
250.252149
 30
0.0
 10
24.550637
 20
250.893921
 30
0.0
 10
24.934571
 20
251.209011
 30
0.0
 11
22.052650
 21
247.591953
 31
0.0
 11
22.859027
 21
249.019545
 31
0.0
 11
23.819667
 21
250.225231
 31
0.0
 11
24.934571
 21
251.209011
 31
0.0
  0
LWPOLYLINE
  5
1cb
100
AcDbEntity
  8
0
 62
7
100
AcDbPolyline
 90
2
 70
0
 10
32.654690
 20
238.848879
 30
0.0
 10
32.654690
 20
236.296965
 30
0.0
  0
SPLINE
  5
1cc
100
AcDbEntity
  8
0
 62
7
100
AcDbSpline
 70
0
 71
3
 72
10
 73
6
 74
4
 40
0.000000
 40
0.000000
 40
0.000000
 40
0.000000
 40
2.119037
 40
4.260884
 40
6.523778
 40
6.523778
 40
6.523778
 40
6.523778
 10
24.934571
 20
251.209011
 30
0.0
 10
25.534082
 20
251.586763
 30
0.0
 10
26.739556
 20
252.346333
 30
0.0
 10
28.853126
 20
252.980835
 30
0.0
 10
30.322272
 20
253.056393
 30
0.0
 10
31.077032
 20
253.095210
 30
0.0
 11
24.934571
 21
251.209011
 31
0.0
 11
26.776377
 21
252.256899
 31
0.0
 11
28.823864
 21
252.885632
 31
0.0
 11
31.077032
 21
253.095210
 31
0.0
  0
SPLINE
  5
1cd
100
AcDbEntity
  8
0
 62
7
100
AcDbSpline
 70
0
 71
3
 72
10
 73
6
 74
4
 40
0.000000
 40
0.000000
 40
0.000000
 40
0.000000
 40
0.528553
 40
0.993071
 40
1.415517
 40
1.415517
 40
1.415517
 40
1.415517
 10
31.077032
 20
250.920536
 30
0.0
 10
30.908932
 20
250.867540
 30
0.0
 10
30.593096
 20
250.767969
 30
0.0
 10
30.175375
 20
250.532765
 30
0.0
 10
29.973918
 20
250.314429
 30
0.0
 10
29.877967
 20
250.210439
 30
0.0
 11
31.077032
 21
250.920536
 31
0.0
 11
30.579183
 21
250.743011
 31
0.0
 11
30.179495
 21
250.506312
 31
0.0
 11
29.877967
 21
250.210439
 31
0.0
  0
LWPOLYLINE
  5
1ce
100
AcDbEntity
  8
0
 62
7
100
AcDbPolyline
 90
2
 70
0
 10
31.077032
 20
253.095210
 30
0.0
 10
31.077032
 20
250.920536
 30
0.0
  0
SPLINE
  5
1cf
100
AcDbEntity
  8
0
 62
7
100
AcDbSpline
 70
0
 71
3
 72
10
 73
6
 74
4
 40
0.000000
 40
0.000000
 40
0.000000
 40
0.000000
 40
0.424164
 40
0.912336
 40
1.485737
 40
1.485737
 40
1.485737
 40
1.485737
 10
29.877967
 20
250.210439
 30
0.0
 10
29.805310
 20
250.088308
 30
0.0
 10
29.649032
 20
249.825616
 30
0.0
 10
29.540151
 20
249.334678
 30
0.0
 10
29.527333
 20
248.981182
 30
0.0
 10
29.520409
 20
248.790243
 30
0.0
 11
29.877967
 21
250.210439
 31
0.0
 11
29.679324
 21
249.835665
 31
0.0
 11
29.560138
 21
249.362266
 31
0.0
 11
29.520409
 21
248.790243
 31
0.0
  0
SPLINE
  5
1d0
100
AcDbEntity
  8
0
 62
7
100
AcDbSpline
 70
0
 71
3
 72
10
 73
6
 74
4
 40
0.000000
 40
0.000000
 40
0.000000
 40
0.000000
 40
0.620459
 40
1.162268
 40
1.647526
 40
1.647526
 40
1.647526
 40
1.647526
 10
29.520409
 20
240.335644
 30
0.0
 10
29.528242
 20
240.128943
 30
0.0
 10
29.542916
 20
239.741742
 30
0.0
 10
29.667704
 20
239.199027
 30
0.0
 10
29.839088
 20
238.900949
 30
0.0
 10
29.920062
 20
238.760116
 30
0.0
 11
29.520409
 21
240.335644
 31
0.0
 11
29.564815
 21
239.716776
 31
0.0
 11
29.698033
 21
239.191600
 31
0.0
 11
29.920062
 21
238.760116
 31
0.0
  0
LWPOLYLINE
  5
1d1
100
AcDbEntity
  8
0
 62
7
100
AcDbPolyline
 90
2
 70
0
 10
29.520409
 20
248.790243
 30
0.0
 10
29.520409
 20
240.335644
 30
0.0
  0
SPLINE
  5
1d2
100
AcDbEntity
  8
0
 62
7
100
AcDbSpline
 70
0
 71
3
 72
13
 73
9
 74
7
 40
0.000000
 40
0.000000
 40
0.000000
 40
0.000000
 40
0.426130
 40
0.825372
 40
1.246636
 40
1.718421
 40
2.309813
 40
3.034765
 40
3.034765
 40
3.034765
 40
3.034765
 10
29.920062
 20
238.760116
 30
0.0
 10
30.012203
 20
238.650231
 30
0.0
 10
30.190671
 20
238.437392
 30
0.0
 10
30.575896
 20
238.251467
 30
0.0
 10
31.011213
 20
238.205775
 30
0.0
 10
31.501350
 20
238.302567
 30
0.0
 10
32.058886
 20
238.518919
 30
0.0
 10
32.443094
 20
238.731696
 30
0.0
 10
32.654690
 20
238.848879
 30
0.0
 11
29.920062
 21
238.760116
 31
0.0
 11
30.216898
 21
238.454379
 31
0.0
 11
30.574500
 21
238.276856
 31
0.0
 11
30.992868
 21
238.227545
 31
0.0
 11
31.458009
 21
238.306448
 31
0.0
 11
32.011949
 21
238.513559
 31
0.0
 11
32.654690
 21
238.848879
 31
0.0
  0
LWPOLYLINE
  5
1d3
100
AcDbEntity
  8
0
 62
7
100
AcDbPolyline
 90
1
 70
1
 10
32.654690
 20
238.848879
 30
0.0
  0
SPLINE
  5
1d4
100
AcDbEntity
  8
0
 62
7
100
AcDbSpline
 70
0
 71
3
 72
22
 73
18
 74
16
 40
0.000000
 40
0.000000
 40
0.000000
 40
0.000000
 40
1.288914
 40
2.538483
 40
3.773044
 40
4.977492
 40
6.152879
 40
7.357327
 40
8.591888
 40
9.841457
 40
11.130371
 40
13.056148
 40
14.863511
 40
16.660729
 40
18.457947
 40
20.265309
 40
22.191087
 40
22.191087
 40
22.191087
 40
22.191087
 10
63.786282
 20
300.706872
 30
0.0
 10
63.746011
 20
300.275302
 30
0.0
 10
63.666697
 20
299.425336
 30
0.0
 10
63.046086
 20
298.292826
 30
0.0
 10
62.128100
 20
297.442651
 30
0.0
 10
60.980529
 20
296.986897
 30
0.0
 10
59.757557
 20
296.986886
 30
0.0
 10
58.611432
 20
297.442684
 30
0.0
 10
57.687467
 20
298.292702
 30
0.0
 10
57.089893
 20
299.425810
 30
0.0
 10
56.846793
 20
300.917900
 30
0.0
 10
57.259038
 20
302.614215
 30
0.0
 10
58.547016
 20
304.042831
 30
0.0
 10
60.371881
 20
304.591141
 30
0.0
 10
62.180382
 20
304.043076
 30
0.0
 10
63.518812
 20
302.613199
 30
0.0
 10
63.695260
 20
301.355611
 30
0.0
 10
63.786282
 20
300.706872
 30
0.0
 11
63.786282
 21
300.706872
 31
0.0
 11
63.578269
 21
299.434854
 31
0.0
 11
62.990575
 21
298.332113
 31
0.0
 11
62.077721
 21
297.500947
 31
0.0
 11
60.956853
 21
297.060095
 31
0.0
 11
59.781465
 21
297.060095
 31
0.0
 11
58.660597
 21
297.500947
 31
0.0
 11
57.747743
 21
298.332113
 31
0.0
 11
57.160049
 21
299.434854
 31
0.0
 11
56.952036
 21
300.706872
 31
0.0
 11
57.418573
 21
302.575283
 31
0.0
 11
58.644471
 21
303.903340
 31
0.0
 11
60.369159
 21
304.408755
 31
0.0
 11
62.093846
 21
303.903340
 31
0.0
 11
63.319745
 21
302.575283
 31
0.0
 11
63.786282
 21
300.706872
 31
0.0
  0
LWPOLYLINE
  5
1d5
100
AcDbEntity
  8
0
 62
7
100
AcDbPolyline
 90
1
 70
1
 10
63.786282
 20
300.706872
 30
0.0
  0
SPLINE
  5
1d6
100
AcDbEntity
  8
0
 62
7
100
AcDbSpline
 70
0
 71
3
 72
25
 73
21
 74
19
 40
0.000000
 40
0.000000
 40
0.000000
 40
0.000000
 40
1.288914
 40
2.538483
 40
3.773044
 40
4.977492
 40
6.152879
 40
7.357327
 40
8.591888
 40
9.841457
 40
11.130371
 40
12.419285
 40
13.668854
 40
14.903415
 40
16.107863
 40
17.283250
 40
18.487698
 40
19.722259
 40
20.971828
 40
22.260742
 40
22.260742
 40
22.260742
 40
22.260742
 10
65.494882
 20
251.158587
 30
0.0
 10
65.454611
 20
250.727017
 30
0.0
 10
65.375297
 20
249.877050
 30
0.0
 10
64.754686
 20
248.744541
 30
0.0
 10
63.836700
 20
247.894367
 30
0.0
 10
62.689128
 20
247.438609
 30
0.0
 10
61.466160
 20
247.438609
 30
0.0
 10
60.320020
 20
247.894367
 30
0.0
 10
59.396110
 20
248.744541
 30
0.0
 10
58.798325
 20
249.877050
 30
0.0
 10
58.590724
 20
251.158587
 30
0.0
 10
58.798325
 20
252.440123
 30
0.0
 10
59.396110
 20
253.572633
 30
0.0
 10
60.320020
 20
254.422807
 30
0.0
 10
61.466160
 20
254.878564
 30
0.0
 10
62.689128
 20
254.878564
 30
0.0
 10
63.836700
 20
254.422807
 30
0.0
 10
64.754686
 20
253.572633
 30
0.0
 10
65.375297
 20
252.440123
 30
0.0
 10
65.454611
 20
251.590157
 30
0.0
 10
65.494882
 20
251.158587
 30
0.0
 11
65.494882
 21
251.158587
 31
0.0
 11
65.286869
 21
249.886569
 31
0.0
 11
64.699175
 21
248.783827
 31
0.0
 11
63.786320
 21
247.952661
 31
0.0
 11
62.665453
 21
247.511810
 31
0.0
 11
61.490065
 21
247.511810
 31
0.0
 11
60.369197
 21
247.952661
 31
0.0
 11
59.456343
 21
248.783827
 31
0.0
 11
58.868649
 21
249.886569
 31
0.0
 11
58.660635
 21
251.158587
 31
0.0
 11
58.868649
 21
252.430604
 31
0.0
 11
59.456343
 21
253.533346
 31
0.0
 11
60.369197
 21
254.364512
 31
0.0
 11
61.490065
 21
254.805364
 31
0.0
 11
62.665453
 21
254.805364
 31
0.0
 11
63.786320
 21
254.364512
 31
0.0
 11
64.699175
 21
253.533346
 31
0.0
 11
65.286869
 21
252.430604
 31
0.0
 11
65.494882
 21
251.158587
 31
0.0
  0
LWPOLYLINE
  5
1d7
100
AcDbEntity
  8
0
 62
7
100
AcDbPolyline
 90
1
 70
1
 10
65.494882
 20
251.158587
 30
0.0
  0
SPLINE
  5
1d8
100
AcDbEntity
  8
0
 62
7
100
AcDbSpline
 70
0
 71
3
 72
25
 73
21
 74
19
 40
0.000000
 40
0.000000
 40
0.000000
 40
0.000000
 40
1.288914
 40
2.538483
 40
3.773044
 40
4.977492
 40
6.152879
 40
7.357327
 40
8.591888
 40
9.841457
 40
11.130371
 40
12.419285
 40
13.668854
 40
14.903415
 40
16.107863
 40
17.283250
 40
18.487698
 40
19.722259
 40
20.971828
 40
22.260742
 40
22.260742
 40
22.260742
 40
22.260742
 10
67.203429
 20
223.821593
 30
0.0
 10
67.163158
 20
223.390023
 30
0.0
 10
67.083844
 20
222.540057
 30
0.0
 10
66.463233
 20
221.407547
 30
0.0
 10
65.545247
 20
220.557373
 30
0.0
 10
64.397675
 20
220.101616
 30
0.0
 10
63.174706
 20
220.101616
 30
0.0
 10
62.028567
 20
220.557373
 30
0.0
 10
61.104657
 20
221.407547
 30
0.0
 10
60.506872
 20
222.540057
 30
0.0
 10
60.299271
 20
223.821593
 30
0.0
 10
60.506872
 20
225.103129
 30
0.0
 10
61.104657
 20
226.235639
 30
0.0
 10
62.028567
 20
227.085813
 30
0.0
 10
63.174706
 20
227.541571
 30
0.0
 10
64.397675
 20
227.541571
 30
0.0
 10
65.545247
 20
227.085813
 30
0.0
 10
66.463233
 20
226.235639
 30
0.0
 10
67.083844
 20
225.103129
 30
0.0
 10
67.163158
 20
224.253163
 30
0.0
 10
67.203429
 20
223.821593
 30
0.0
 11
67.203429
 21
223.821593
 31
0.0
 11
66.995416
 21
222.549576
 31
0.0
 11
66.407722
 21
221.446834
 31
0.0
 11
65.494867
 21
220.615668
 31
0.0
 11
64.373999
 21
220.174816
 31
0.0
 11
63.198612
 21
220.174816
 31
0.0
 11
62.077744
 21
220.615668
 31
0.0
 11
61.164889
 21
221.446834
 31
0.0
 11
60.577196
 21
222.549576
 31
0.0
 11
60.369182
 21
223.821593
 31
0.0
 11
60.577196
 21
225.093611
 31
0.0
 11
61.164889
 21
226.196353
 31
0.0
 11
62.077744
 21
227.027518
 31
0.0
 11
63.198612
 21
227.468370
 31
0.0
 11
64.373999
 21
227.468370
 31
0.0
 11
65.494867
 21
227.027518
 31
0.0
 11
66.407722
 21
226.196353
 31
0.0
 11
66.995416
 21
225.093611
 31
0.0
 11
67.203429
 21
223.821593
 31
0.0
  0
LWPOLYLINE
  5
1d9
100
AcDbEntity
  8
0
 62
7
100
AcDbPolyline
 90
1
 70
1
 10
67.203429
 20
223.821593
 30
0.0
  0
SPLINE
  5
1da
100
AcDbEntity
  8
0
 62
7
100
AcDbSpline
 70
0
 71
3
 72
25
 73
21
 74
19
 40
0.000000
 40
0.000000
 40
0.000000
 40
0.000000
 40
1.288914
 40
2.538483
 40
3.773044
 40
4.977492
 40
6.152879
 40
7.357327
 40
8.591888
 40
9.841457
 40
11.130371
 40
12.419285
 40
13.668854
 40
14.903415
 40
16.107863
 40
17.283250
 40
18.487698
 40
19.722259
 40
20.971828
 40
22.260742
 40
22.260742
 40
22.260742
 40
22.260742
 10
59.230131
 20
152.631516
 30
0.0
 10
59.189859
 20
152.199946
 30
0.0
 10
59.110546
 20
151.349979
 30
0.0
 10
58.489935
 20
150.217470
 30
0.0
 10
57.571949
 20
149.367296
 30
0.0
 10
56.424377
 20
148.911538
 30
0.0
 10
55.201408
 20
148.911538
 30
0.0
 10
54.055269
 20
149.367296
 30
0.0
 10
53.131359
 20
150.217470
 30
0.0
 10
52.533573
 20
151.349979
 30
0.0
 10
52.325972
 20
152.631516
 30
0.0
 10
52.533573
 20
153.913052
 30
0.0
 10
53.131359
 20
155.045562
 30
0.0
 10
54.055269
 20
155.895736
 30
0.0
 10
55.201408
 20
156.351493
 30
0.0
 10
56.424377
 20
156.351493
 30
0.0
 10
57.571949
 20
155.895736
 30
0.0
 10
58.489935
 20
155.045562
 30
0.0
 10
59.110546
 20
153.913052
 30
0.0
 10
59.189859
 20
153.063086
 30
0.0
 10
59.230131
 20
152.631516
 30
0.0
 11
59.230131
 21
152.631516
 31
0.0
 11
59.022117
 21
151.359498
 31
0.0
 11
58.434424
 21
150.256756
 31
0.0
 11
57.521569
 21
149.425590
 31
0.0
 11
56.400701
 21
148.984739
 31
0.0
 11
55.225314
 21
148.984739
 31
0.0
 11
54.104446
 21
149.425590
 31
0.0
 11
53.191591
 21
150.256756
 31
0.0
 11
52.603898
 21
151.359498
 31
0.0
 11
52.395884
 21
152.631516
 31
0.0
 11
52.603898
 21
153.903533
 31
0.0
 11
53.191591
 21
155.006275
 31
0.0
 11
54.104446
 21
155.837441
 31
0.0
 11
55.225314
 21
156.278293
 31
0.0
 11
56.400701
 21
156.278293
 31
0.0
 11
57.521569
 21
155.837441
 31
0.0
 11
58.434424
 21
155.006275
 31
0.0
 11
59.022117
 21
153.903533
 31
0.0
 11
59.230131
 21
152.631516
 31
0.0
  0
LWPOLYLINE
  5
1db
100
AcDbEntity
  8
0
 62
7
100
AcDbPolyline
 90
1
 70
1
 10
59.230131
 20
152.631516
 30
0.0
  0
SPLINE
  5
1dc
100
AcDbEntity
  8
0
 62
7
100
AcDbSpline
 70
0
 71
3
 72
25
 73
21
 74
19
 40
0.000000
 40
0.000000
 40
0.000000
 40
0.000000
 40
1.288914
 40
2.538483
 40
3.773044
 40
4.977492
 40
6.152879
 40
7.357327
 40
8.591888
 40
9.841457
 40
11.130371
 40
12.419285
 40
13.668854
 40
14.903415
 40
16.107863
 40
17.283250
 40
18.487698
 40
19.722259
 40
20.971828
 40
22.260742
 40
22.260742
 40
22.260742
 40
22.260742
 10
74.607212
 20
29.615082
 30
0.0
 10
74.566940
 20
29.183512
 30
0.0
 10
74.487626
 20
28.333546
 30
0.0
 10
73.867015
 20
27.201036
 30
0.0
 10
72.949030
 20
26.350862
 30
0.0
 10
71.801457
 20
25.895105
 30
0.0
 10
70.578489
 20
25.895105
 30
0.0
 10
69.432350
 20
26.350862
 30
0.0
 10
68.508440
 20
27.201036
 30
0.0
 10
67.910654
 20
28.333546
 30
0.0
 10
67.703053
 20
29.615082
 30
0.0
 10
67.910654
 20
30.896619
 30
0.0
 10
68.508440
 20
32.029128
 30
0.0
 10
69.432350
 20
32.879303
 30
0.0
 10
70.578489
 20
33.335060
 30
0.0
 10
71.801457
 20
33.335060
 30
0.0
 10
72.949030
 20
32.879303
 30
0.0
 10
73.867015
 20
32.029128
 30
0.0
 10
74.487626
 20
30.896619
 30
0.0
 10
74.566940
 20
30.046652
 30
0.0
 10
74.607212
 20
29.615082
 30
0.0
 11
74.607212
 21
29.615082
 31
0.0
 11
74.399198
 21
28.343065
 31
0.0
 11
73.811504
 21
27.240323
 31
0.0
 11
72.898650
 21
26.409157
 31
0.0
 11
71.777782
 21
25.968305
 31
0.0
 11
70.602394
 21
25.968305
 31
0.0
 11
69.481526
 21
26.409157
 31
0.0
 11
68.568672
 21
27.240323
 31
0.0
 11
67.980978
 21
28.343065
 31
0.0
 11
67.772965
 21
29.615082
 31
0.0
 11
67.980978
 21
30.887100
 31
0.0
 11
68.568672
 21
31.989842
 31
0.0
 11
69.481526
 21
32.821008
 31
0.0
 11
70.602394
 21
33.261859
 31
0.0
 11
71.777782
 21
33.261859
 31
0.0
 11
72.898650
 21
32.821008
 31
0.0
 11
73.811504
 21
31.989842
 31
0.0
 11
74.399198
 21
30.887100
 31
0.0
 11
74.607212
 21
29.615082
 31
0.0
  0
LWPOLYLINE
  5
1dd
100
AcDbEntity
  8
0
 62
7
100
AcDbPolyline
 90
1
 70
1
 10
74.607212
 20
29.615082
 30
0.0
  0
SPLINE
  5
1de
100
AcDbEntity
  8
0
 62
7
100
AcDbSpline
 70
0
 71
3
 72
25
 73
21
 74
19
 40
0.000000
 40
0.000000
 40
0.000000
 40
0.000000
 40
1.288914
 40
2.538483
 40
3.773044
 40
4.977492
 40
6.152879
 40
7.357327
 40
8.591888
 40
9.841457
 40
11.130371
 40
12.419285
 40
13.668854
 40
14.903415
 40
16.107863
 40
17.283250
 40
18.487698
 40
19.722259
 40
20.971828
 40
22.260742
 40
22.260742
 40
22.260742
 40
22.260742
 10
148.647823
 20
110.251113
 30
0.0
 10
148.607551
 20
109.819543
 30
0.0
 10
148.528237
 20
108.969577
 30
0.0
 10
147.907626
 20
107.837067
 30
0.0
 10
146.989641
 20
106.986893
 30
0.0
 10
145.842068
 20
106.531136
 30
0.0
 10
144.619100
 20
106.531136
 30
0.0
 10
143.472961
 20
106.986893
 30
0.0
 10
142.549051
 20
107.837067
 30
0.0
 10
141.951265
 20
108.969577
 30
0.0
 10
141.743664
 20
110.251113
 30
0.0
 10
141.951265
 20
111.532649
 30
0.0
 10
142.549051
 20
112.665159
 30
0.0
 10
143.472961
 20
113.515333
 30
0.0
 10
144.619100
 20
113.971090
 30
0.0
 10
145.842068
 20
113.971090
 30
0.0
 10
146.989641
 20
113.515333
 30
0.0
 10
147.907626
 20
112.665159
 30
0.0
 10
148.528237
 20
111.532649
 30
0.0
 10
148.607551
 20
110.682683
 30
0.0
 10
148.647823
 20
110.251113
 30
0.0
 11
148.647823
 21
110.251113
 31
0.0
 11
148.439809
 21
108.979095
 31
0.0
 11
147.852115
 21
107.876354
 31
0.0
 11
146.939261
 21
107.045188
 31
0.0
 11
145.818393
 21
106.604336
 31
0.0
 11
144.643005
 21
106.604336
 31
0.0
 11
143.522137
 21
107.045188
 31
0.0
 11
142.609283
 21
107.876354
 31
0.0
 11
142.021589
 21
108.979095
 31
0.0
 11
141.813576
 21
110.251113
 31
0.0
 11
142.021589
 21
111.523131
 31
0.0
 11
142.609283
 21
112.625872
 31
0.0
 11
143.522137
 21
113.457038
 31
0.0
 11
144.643005
 21
113.897890
 31
0.0
 11
145.818393
 21
113.897890
 31
0.0
 11
146.939261
 21
113.457038
 31
0.0
 11
147.852115
 21
112.625872
 31
0.0
 11
148.439809
 21
111.523131
 31
0.0
 11
148.647823
 21
110.251113
 31
0.0
  0
LWPOLYLINE
  5
1df
100
AcDbEntity
  8
0
 62
7
100
AcDbPolyline
 90
1
 70
1
 10
148.647823
 20
110.251113
 30
0.0
  0
SPLINE
  5
1e0
100
AcDbEntity
  8
0
 62
7
100
AcDbSpline
 70
0
 71
3
 72
25
 73
21
 74
19
 40
0.000000
 40
0.000000
 40
0.000000
 40
0.000000
 40
1.288914
 40
2.538483
 40
3.773044
 40
4.977492
 40
6.152879
 40
7.357327
 40
8.591888
 40
9.841457
 40
11.130371
 40
12.419285
 40
13.668854
 40
14.903415
 40
16.107863
 40
17.283250
 40
18.487698
 40
19.722259
 40
20.971828
 40
22.260742
 40
22.260742
 40
22.260742
 40
22.260742
 10
100.103361
 20
91.928717
 30
0.0
 10
100.063090
 20
91.497147
 30
0.0
 10
99.983776
 20
90.647181
 30
0.0
 10
99.363165
 20
89.514671
 30
0.0
 10
98.445179
 20
88.664497
 30
0.0
 10
97.297607
 20
88.208740
 30
0.0
 10
96.074638
 20
88.208740
 30
0.0
 10
94.928499
 20
88.664497
 30
0.0
 10
94.004589
 20
89.514671
 30
0.0
 10
93.406804
 20
90.647181
 30
0.0
 10
93.199203
 20
91.928717
 30
0.0
 10
93.406804
 20
93.210253
 30
0.0
 10
94.004589
 20
94.342763
 30
0.0
 10
94.928499
 20
95.192937
 30
0.0
 10
96.074638
 20
95.648695
 30
0.0
 10
97.297607
 20
95.648695
 30
0.0
 10
98.445179
 20
95.192937
 30
0.0
 10
99.363165
 20
94.342763
 30
0.0
 10
99.983776
 20
93.210253
 30
0.0
 10
100.063090
 20
92.360287
 30
0.0
 10
100.103361
 20
91.928717
 30
0.0
 11
100.103361
 21
91.928717
 31
0.0
 11
99.895348
 21
90.656699
 31
0.0
 11
99.307654
 21
89.553958
 31
0.0
 11
98.394799
 21
88.722792
 31
0.0
 11
97.273931
 21
88.281940
 31
0.0
 11
96.098544
 21
88.281940
 31
0.0
 11
94.977676
 21
88.722792
 31
0.0
 11
94.064822
 21
89.553958
 31
0.0
 11
93.477128
 21
90.656699
 31
0.0
 11
93.269114
 21
91.928717
 31
0.0
 11
93.477128
 21
93.200735
 31
0.0
 11
94.064822
 21
94.303477
 31
0.0
 11
94.977676
 21
95.134642
 31
0.0
 11
96.098544
 21
95.575494
 31
0.0
 11
97.273931
 21
95.575494
 31
0.0
 11
98.394799
 21
95.134642
 31
0.0
 11
99.307654
 21
94.303477
 31
0.0
 11
99.895348
 21
93.200735
 31
0.0
 11
100.103361
 21
91.928717
 31
0.0
  0
LWPOLYLINE
  5
1e1
100
AcDbEntity
  8
0
 62
7
100
AcDbPolyline
 90
1
 70
1
 10
100.103361
 20
91.928717
 30
0.0
  0
SPLINE
  5
1e2
100
AcDbEntity
  8
0
 62
7
100
AcDbSpline
 70
0
 71
3
 72
25
 73
21
 74
19
 40
0.000000
 40
0.000000
 40
0.000000
 40
0.000000
 40
1.288914
 40
2.538483
 40
3.773044
 40
4.977492
 40
6.152879
 40
7.357327
 40
8.591888
 40
9.841457
 40
11.130371
 40
12.419285
 40
13.668854
 40
14.903415
 40
16.107863
 40
17.283250
 40
18.487698
 40
19.722259
 40
20.971828
 40
22.260742
 40
22.260742
 40
22.260742
 40
22.260742
 10
160.604796
 20
45.561652
 30
0.0
 10
160.564524
 20
45.130082
 30
0.0
 10
160.485211
 20
44.280116
 30
0.0
 10
159.864600
 20
43.147606
 30
0.0
 10
158.946614
 20
42.297432
 30
0.0
 10
157.799041
 20
41.841675
 30
0.0
 10
156.576073
 20
41.841675
 30
0.0
 10
155.429934
 20
42.297432
 30
0.0
 10
154.506024
 20
43.147606
 30
0.0
 10
153.908238
 20
44.280116
 30
0.0
 10
153.700637
 20
45.561652
 30
0.0
 10
153.908238
 20
46.843188
 30
0.0
 10
154.506024
 20
47.975698
 30
0.0
 10
155.429934
 20
48.825872
 30
0.0
 10
156.576073
 20
49.281630
 30
0.0
 10
157.799041
 20
49.281630
 30
0.0
 10
158.946614
 20
48.825872
 30
0.0
 10
159.864600
 20
47.975698
 30
0.0
 10
160.485211
 20
46.843188
 30
0.0
 10
160.564524
 20
45.993222
 30
0.0
 10
160.604796
 20
45.561652
 30
0.0
 11
160.604796
 21
45.561652
 31
0.0
 11
160.396782
 21
44.289634
 31
0.0
 11
159.809089
 21
43.186893
 31
0.0
 11
158.896234
 21
42.355727
 31
0.0
 11
157.775366
 21
41.914875
 31
0.0
 11
156.599979
 21
41.914875
 31
0.0
 11
155.479111
 21
42.355727
 31
0.0
 11
154.566256
 21
43.186893
 31
0.0
 11
153.978562
 21
44.289634
 31
0.0
 11
153.770549
 21
45.561652
 31
0.0
 11
153.978562
 21
46.833670
 31
0.0
 11
154.566256
 21
47.936412
 31
0.0
 11
155.479111
 21
48.767577
 31
0.0
 11
156.599979
 21
49.208429
 31
0.0
 11
157.775366
 21
49.208429
 31
0.0
 11
158.896234
 21
48.767577
 31
0.0
 11
159.809089
 21
47.936412
 31
0.0
 11
160.396782
 21
46.833670
 31
0.0
 11
160.604796
 21
45.561652
 31
0.0
  0
LWPOLYLINE
  5
1e3
100
AcDbEntity
  8
0
 62
7
100
AcDbPolyline
 90
1
 70
1
 10
160.604796
 20
45.561652
 30
0.0
  0
SPLINE
  5
1e4
100
AcDbEntity
  8
0
 62
7
100
AcDbSpline
 70
0
 71
3
 72
25
 73
21
 74
19
 40
0.000000
 40
0.000000
 40
0.000000
 40
0.000000
 40
1.288914
 40
2.538483
 40
3.773044
 40
4.977492
 40
6.152879
 40
7.357327
 40
8.591888
 40
9.841457
 40
11.130371
 40
12.419285
 40
13.668854
 40
14.903415
 40
16.107863
 40
17.283250
 40
18.487698
 40
19.722259
 40
20.971828
 40
22.260742
 40
22.260742
 40
22.260742
 40
22.260742
 10
210.722602
 20
76.885303
 30
0.0
 10
210.682331
 20
76.453733
 30
0.0
 10
210.603017
 20
75.603766
 30
0.0
 10
209.982406
 20
74.471256
 30
0.0
 10
209.064420
 20
73.621082
 30
0.0
 10
207.916848
 20
73.165325
 30
0.0
 10
206.693879
 20
73.165325
 30
0.0
 10
205.547740
 20
73.621082
 30
0.0
 10
204.623830
 20
74.471256
 30
0.0
 10
204.026045
 20
75.603766
 30
0.0
 10
203.818444
 20
76.885303
 30
0.0
 10
204.026045
 20
78.166839
 30
0.0
 10
204.623830
 20
79.299349
 30
0.0
 10
205.547740
 20
80.149523
 30
0.0
 10
206.693879
 20
80.605280
 30
0.0
 10
207.916848
 20
80.605280
 30
0.0
 10
209.064420
 20
80.149523
 30
0.0
 10
209.982406
 20
79.299349
 30
0.0
 10
210.603017
 20
78.166839
 30
0.0
 10
210.682331
 20
77.316873
 30
0.0
 10
210.722602
 20
76.885303
 30
0.0
 11
210.722602
 21
76.885303
 31
0.0
 11
210.514589
 21
75.613285
 31
0.0
 11
209.926895
 21
74.510543
 31
0.0
 11
209.014040
 21
73.679377
 31
0.0
 11
207.893173
 21
73.238525
 31
0.0
 11
206.717785
 21
73.238525
 31
0.0
 11
205.596917
 21
73.679377
 31
0.0
 11
204.684063
 21
74.510543
 31
0.0
 11
204.096369
 21
75.613285
 31
0.0
 11
203.888355
 21
76.885303
 31
0.0
 11
204.096369
 21
78.157320
 31
0.0
 11
204.684063
 21
79.260062
 31
0.0
 11
205.596917
 21
80.091228
 31
0.0
 11
206.717785
 21
80.532080
 31
0.0
 11
207.893173
 21
80.532080
 31
0.0
 11
209.014040
 21
80.091228
 31
0.0
 11
209.926895
 21
79.260062
 31
0.0
 11
210.514589
 21
78.157320
 31
0.0
 11
210.722602
 21
76.885303
 31
0.0
  0
LWPOLYLINE
  5
1e5
100
AcDbEntity
  8
0
 62
7
100
AcDbPolyline
 90
1
 70
1
 10
210.722602
 20
76.885303
 30
0.0
  0
SPLINE
  5
1e6
100
AcDbEntity
  8
0
 62
7
100
AcDbSpline
 70
0
 71
3
 72
22
 73
18
 74
16
 40
0.000000
 40
0.000000
 40
0.000000
 40
0.000000
 40
1.288914
 40
2.538483
 40
3.773044
 40
4.977492
 40
6.152879
 40
7.357327
 40
8.591888
 40
9.841457
 40
11.130371
 40
13.056148
 40
14.863511
 40
16.660729
 40
18.457947
 40
20.265309
 40
22.191087
 40
22.191087
 40
22.191087
 40
22.191087
 10
246.032883
 20
134.976399
 30
0.0
 10
245.992612
 20
134.544829
 30
0.0
 10
245.913298
 20
133.694863
 30
0.0
 10
245.292687
 20
132.562353
 30
0.0
 10
244.374701
 20
131.712178
 30
0.0
 10
243.227130
 20
131.256424
 30
0.0
 10
242.004157
 20
131.256413
 30
0.0
 10
240.858033
 20
131.712211
 30
0.0
 10
239.934067
 20
132.562229
 30
0.0
 10
239.336494
 20
133.695337
 30
0.0
 10
239.093393
 20
135.187427
 30
0.0
 10
239.505639
 20
136.883742
 30
0.0
 10
240.793616
 20
138.312358
 30
0.0
 10
242.618482
 20
138.860668
 30
0.0
 10
244.426983
 20
138.312603
 30
0.0
 10
245.765413
 20
136.882726
 30
0.0
 10
245.941861
 20
135.625138
 30
0.0
 10
246.032883
 20
134.976399
 30
0.0
 11
246.032883
 21
134.976399
 31
0.0
 11
245.824870
 21
133.704381
 31
0.0
 11
245.237176
 21
132.601640
 31
0.0
 11
244.324321
 21
131.770474
 31
0.0
 11
243.203453
 21
131.329622
 31
0.0
 11
242.028066
 21
131.329622
 31
0.0
 11
240.907198
 21
131.770474
 31
0.0
 11
239.994343
 21
132.601640
 31
0.0
 11
239.406650
 21
133.704381
 31
0.0
 11
239.198636
 21
134.976399
 31
0.0
 11
239.665174
 21
136.844810
 31
0.0
 11
240.891072
 21
138.172867
 31
0.0
 11
242.615760
 21
138.678282
 31
0.0
 11
244.340447
 21
138.172867
 31
0.0
 11
245.566345
 21
136.844810
 31
0.0
 11
246.032883
 21
134.976399
 31
0.0
  0
LWPOLYLINE
  5
1e7
100
AcDbEntity
  8
0
 62
7
100
AcDbPolyline
 90
1
 70
1
 10
246.032883
 20
134.976399
 30
0.0
  0
SPLINE
  5
1e8
100
AcDbEntity
  8
0
 62
7
100
AcDbSpline
 70
0
 71
3
 72
25
 73
21
 74
19
 40
0.000000
 40
0.000000
 40
0.000000
 40
0.000000
 40
1.288914
 40
2.538483
 40
3.773044
 40
4.977492
 40
6.152879
 40
7.357327
 40
8.591888
 40
9.841457
 40
11.130371
 40
12.419285
 40
13.668854
 40
14.903415
 40
16.107863
 40
17.283250
 40
18.487698
 40
19.722259
 40
20.971828
 40
22.260742
 40
22.260742
 40
22.260742
 40
22.260742
 10
235.211999
 20
306.971597
 30
0.0
 10
235.171727
 20
306.540027
 30
0.0
 10
235.092414
 20
305.690061
 30
0.0
 10
234.471803
 20
304.557551
 30
0.0
 10
233.553817
 20
303.707377
 30
0.0
 10
232.406245
 20
303.251619
 30
0.0
 10
231.183276
 20
303.251619
 30
0.0
 10
230.037137
 20
303.707377
 30
0.0
 10
229.113227
 20
304.557551
 30
0.0
 10
228.515441
 20
305.690061
 30
0.0
 10
228.307840
 20
306.971597
 30
0.0
 10
228.515441
 20
308.253133
 30
0.0
 10
229.113227
 20
309.385643
 30
0.0
 10
230.037137
 20
310.235817
 30
0.0
 10
231.183276
 20
310.691574
 30
0.0
 10
232.406245
 20
310.691574
 30
0.0
 10
233.553817
 20
310.235817
 30
0.0
 10
234.471803
 20
309.385643
 30
0.0
 10
235.092414
 20
308.253133
 30
0.0
 10
235.171727
 20
307.403167
 30
0.0
 10
235.211999
 20
306.971597
 30
0.0
 11
235.211999
 21
306.971597
 31
0.0
 11
235.003985
 21
305.699579
 31
0.0
 11
234.416292
 21
304.596837
 31
0.0
 11
233.503437
 21
303.765672
 31
0.0
 11
232.382569
 21
303.324820
 31
0.0
 11
231.207182
 21
303.324820
 31
0.0
 11
230.086314
 21
303.765672
 31
0.0
 11
229.173459
 21
304.596837
 31
0.0
 11
228.585766
 21
305.699579
 31
0.0
 11
228.377752
 21
306.971597
 31
0.0
 11
228.585766
 21
308.243614
 31
0.0
 11
229.173459
 21
309.346356
 31
0.0
 11
230.086314
 21
310.177522
 31
0.0
 11
231.207182
 21
310.618374
 31
0.0
 11
232.382569
 21
310.618374
 31
0.0
 11
233.503437
 21
310.177522
 31
0.0
 11
234.416292
 21
309.346356
 31
0.0
 11
235.003985
 21
308.243614
 31
0.0
 11
235.211999
 21
306.971597
 31
0.0
  0
LWPOLYLINE
  5
1e9
100
AcDbEntity
  8
0
 62
7
100
AcDbPolyline
 90
1
 70
1
 10
235.211999
 20
306.971597
 30
0.0
  0
SPLINE
  5
1ea
100
AcDbEntity
  8
0
 62
7
100
AcDbSpline
 70
0
 71
3
 72
22
 73
18
 74
16
 40
0.000000
 40
0.000000
 40
0.000000
 40
0.000000
 40
1.288914
 40
2.538483
 40
3.773044
 40
4.977492
 40
6.152879
 40
7.357327
 40
8.591888
 40
9.841457
 40
11.130371
 40
13.056148
 40
14.863511
 40
16.660729
 40
18.457947
 40
20.265309
 40
22.191087
 40
22.191087
 40
22.191087
 40
22.191087
 10
223.252054
 20
326.335297
 30
0.0
 10
223.211783
 20
325.903727
 30
0.0
 10
223.132469
 20
325.053761
 30
0.0
 10
222.511858
 20
323.921251
 30
0.0
 10
221.593872
 20
323.071077
 30
0.0
 10
220.446301
 20
322.615322
 30
0.0
 10
219.223329
 20
322.615312
 30
0.0
 10
218.077204
 20
323.071109
 30
0.0
 10
217.153239
 20
323.921127
 30
0.0
 10
216.555665
 20
325.054235
 30
0.0
 10
216.312565
 20
326.546325
 30
0.0
 10
216.724810
 20
328.242640
 30
0.0
 10
218.012788
 20
329.671256
 30
0.0
 10
219.837653
 20
330.219567
 30
0.0
 10
221.646154
 20
329.671502
 30
0.0
 10
222.984584
 20
328.241625
 30
0.0
 10
223.161032
 20
326.984037
 30
0.0
 10
223.252054
 20
326.335297
 30
0.0
 11
223.252054
 21
326.335297
 31
0.0
 11
223.044041
 21
325.063280
 31
0.0
 11
222.456347
 21
323.960538
 31
0.0
 11
221.543493
 21
323.129372
 31
0.0
 11
220.422625
 21
322.688520
 31
0.0
 11
219.247237
 21
322.688520
 31
0.0
 11
218.126369
 21
323.129372
 31
0.0
 11
217.213515
 21
323.960538
 31
0.0
 11
216.625821
 21
325.063280
 31
0.0
 11
216.417808
 21
326.335297
 31
0.0
 11
216.884345
 21
328.203709
 31
0.0
 11
218.110243
 21
329.531765
 31
0.0
 11
219.834931
 21
330.037181
 31
0.0
 11
221.559618
 21
329.531765
 31
0.0
 11
222.785517
 21
328.203709
 31
0.0
 11
223.252054
 21
326.335297
 31
0.0
  0
LWPOLYLINE
  5
1eb
100
AcDbEntity
  8
0
 62
7
100
AcDbPolyline
 90
1
 70
1
 10
223.252054
 20
326.335297
 30
0.0
  0
SPLINE
  5
1ec
100
AcDbEntity
  8
0
 62
7
100
AcDbSpline
 70
0
 71
3
 72
25
 73
21
 74
19
 40
0.000000
 40
0.000000
 40
0.000000
 40
0.000000
 40
1.288914
 40
2.538483
 40
3.773044
 40
4.977492
 40
6.152879
 40
7.357327
 40
8.591888
 40
9.841457
 40
11.130371
 40
12.419285
 40
13.668854
 40
14.903415
 40
16.107863
 40
17.283250
 40
18.487698
 40
19.722259
 40
20.971828
 40
22.260742
 40
22.260742
 40
22.260742
 40
22.260742
 10
270.807032
 20
232.933925
 30
0.0
 10
270.766761
 20
232.502355
 30
0.0
 10
270.687447
 20
231.652389
 30
0.0
 10
270.066836
 20
230.519879
 30
0.0
 10
269.148851
 20
229.669705
 30
0.0
 10
268.001278
 20
229.213948
 30
0.0
 10
266.778310
 20
229.213948
 30
0.0
 10
265.632171
 20
229.669705
 30
0.0
 10
264.708261
 20
230.519879
 30
0.0
 10
264.110475
 20
231.652389
 30
0.0
 10
263.902874
 20
232.933925
 30
0.0
 10
264.110475
 20
234.215462
 30
0.0
 10
264.708261
 20
235.347971
 30
0.0
 10
265.632171
 20
236.198145
 30
0.0
 10
266.778310
 20
236.653903
 30
0.0
 10
268.001278
 20
236.653903
 30
0.0
 10
269.148851
 20
236.198145
 30
0.0
 10
270.066836
 20
235.347971
 30
0.0
 10
270.687447
 20
234.215462
 30
0.0
 10
270.766761
 20
233.365495
 30
0.0
 10
270.807032
 20
232.933925
 30
0.0
 11
270.807032
 21
232.933925
 31
0.0
 11
270.599019
 21
231.661908
 31
0.0
 11
270.011325
 21
230.559166
 31
0.0
 11
269.098471
 21
229.728000
 31
0.0
 11
267.977603
 21
229.287148
 31
0.0
 11
266.802215
 21
229.287148
 31
0.0
 11
265.681347
 21
229.728000
 31
0.0
 11
264.768493
 21
230.559166
 31
0.0
 11
264.180799
 21
231.661908
 31
0.0
 11
263.972786
 21
232.933925
 31
0.0
 11
264.180799
 21
234.205943
 31
0.0
 11
264.768493
 21
235.308685
 31
0.0
 11
265.681347
 21
236.139850
 31
0.0
 11
266.802215
 21
236.580702
 31
0.0
 11
267.977603
 21
236.580702
 31
0.0
 11
269.098471
 21
236.139850
 31
0.0
 11
270.011325
 21
235.308685
 31
0.0
 11
270.599019
 21
234.205943
 31
0.0
 11
270.807032
 21
232.933925
 31
0.0
  0
LWPOLYLINE
  5
1ed
100
AcDbEntity
  8
0
 62
7
100
AcDbPolyline
 90
1
 70
1
 10
270.807032
 20
232.933925
 30
0.0
  0
SPLINE
  5
1ee
100
AcDbEntity
  8
0
 62
7
100
AcDbSpline
 70
0
 71
3
 72
22
 73
18
 74
16
 40
0.000000
 40
0.000000
 40
0.000000
 40
0.000000
 40
1.288914
 40
2.538483
 40
3.773044
 40
4.977492
 40
6.152879
 40
7.357327
 40
8.591888
 40
9.841457
 40
11.130371
 40
13.056148
 40
14.863511
 40
16.660729
 40
18.457947
 40
20.265309
 40
22.191087
 40
22.191087
 40
22.191087
 40
22.191087
 10
258.847072
 20
252.297615
 30
0.0
 10
258.806800
 20
251.866045
 30
0.0
 10
258.727487
 20
251.016079
 30
0.0
 10
258.106876
 20
249.883569
 30
0.0
 10
257.188890
 20
249.033394
 30
0.0
 10
256.041318
 20
248.577640
 30
0.0
 10
254.818346
 20
248.577630
 30
0.0
 10
253.672222
 20
249.033427
 30
0.0
 10
252.748256
 20
249.883445
 30
0.0
 10
252.150683
 20
251.016553
 30
0.0
 10
251.907582
 20
252.508643
 30
0.0
 10
252.319828
 20
254.204958
 30
0.0
 10
253.607805
 20
255.633574
 30
0.0
 10
255.432671
 20
256.181885
 30
0.0
 10
257.241172
 20
255.633820
 30
0.0
 10
258.579602
 20
254.203943
 30
0.0
 10
258.756050
 20
252.946355
 30
0.0
 10
258.847072
 20
252.297615
 30
0.0
 11
258.847072
 21
252.297615
 31
0.0
 11
258.639059
 21
251.025598
 31
0.0
 11
258.051365
 21
249.922856
 31
0.0
 11
257.138510
 21
249.091690
 31
0.0
 11
256.017642
 21
248.650838
 31
0.0
 11
254.842255
 21
248.650838
 31
0.0
 11
253.721387
 21
249.091690
 31
0.0
 11
252.808532
 21
249.922856
 31
0.0
 11
252.220839
 21
251.025598
 31
0.0
 11
252.012825
 21
252.297615
 31
0.0
 11
252.479363
 21
254.166027
 31
0.0
 11
253.705261
 21
255.494083
 31
0.0
 11
255.429949
 21
255.999499
 31
0.0
 11
257.154636
 21
255.494083
 31
0.0
 11
258.380534
 21
254.166027
 31
0.0
 11
258.847072
 21
252.297615
 31
0.0
  0
LWPOLYLINE
  5
1ef
100
AcDbEntity
  8
0
 62
7
100
AcDbPolyline
 90
1
 70
1
 10
258.847072
 20
252.297615
 30
0.0
  0
ENDSEC
  0
SECTION
  2
OBJECTS
  0
DICTIONARY
  5
C
330
0
100
AcDbDictionary
  3
ACAD_GROUP
350
D
  3
ACAD_MLINESTYLE
350
17
  0
DICTIONARY
  5
D
330
C
100
AcDbDictionary
  0
DICTIONARY
  5
1A
330
C
100
AcDbDictionary
  0
DICTIONARY
  5
17
330
C
100
AcDbDictionary
  3
STANDARD
350
18
  0
DICTIONARY
  5
19
330
C
100
AcDbDictionary
  0
ENDSEC
  0
EOF
