  0
SECTION
  2
HEADER
  9
$ACADVER
  1
AC1014
  9
$HANDSEED
  5
FFFF
  9
$MEASUREMENT
 70
     1
  0
ENDSEC
  0
SECTION
  2
TABLES
  0
TABLE
  2
VPORT
  5
8
330
0
100
AcDbSymbolTable
 70
     4
  0
VPORT
  5
2E
330
8
100
AcDbSymbolTableRecord
100
AcDbViewportTableRecord
  2
*ACTIVE
 70
     0
 10
0.0
 20
0.0
 11
1.0
 21
1.0
 12
210.0
 22
148.5
 13
0.0
 23
0.0
 14
10.0
 24
10.0
 15
10.0
 25
10.0
 16
0.0
 26
0.0
 36
1.0
 17
0.0
 27
0.0
 37
0.0
 40
341.0
 41
1.24
 42
50.0
 43
0.0
 44
0.0
 50
0.0
 51
0.0
 71
     0
 72
   100
 73
     1
 74
     3
 75
     0
 76
     0
 77
     0
 78
     0
  0
ENDTAB
  0
TABLE
  2
LTYPE
  5
5
330
0
100
AcDbSymbolTable
 70
     1
  0
LTYPE
  5
14
330
5
100
AcDbSymbolTableRecord
100
AcDbLinetypeTableRecord
  2
BYBLOCK
 70
     0
  3

 72
    65
 73
     0
 40
0.0
  0
LTYPE
  5
15
330
5
100
AcDbSymbolTableRecord
100
AcDbLinetypeTableRecord
  2
BYLAYER
 70
     0
  3

 72
    65
 73
     0
 40
0.0
  0
LTYPE
  5
16
330
5
100
AcDbSymbolTableRecord
100
AcDbLinetypeTableRecord
  2
CONTINUOUS
 70
     0
  3
Solid line
 72
    65
 73
     0
 40
0.0
  0
ENDTAB
  0
TABLE
  2
LAYER
  5
2
100
AcDbSymbolTable
 70
1
  0
LAYER
  5
50
100
AcDbSymbolTableRecord
100
AcDbLayerTableRecord
  2
0
 70
0
  6
CONTINUOUS
  0
ENDTAB
  0
TABLE
  2
STYLE
  5
3
330
0
100
AcDbSymbolTable
 70
     1
  0
STYLE
  5
11
330
3
100
AcDbSymbolTableRecord
100
AcDbTextStyleTableRecord
  2
STANDARD
 70
     0
 40
0.0
 41
1.0
 50
0.0
 71
     0
 42
2.5
  3
txt
  4

  0
ENDTAB
  0
TABLE
  2
VIEW
  5
6
330
0
100
AcDbSymbolTable
 70
     0
  0
ENDTAB
  0
TABLE
  2
UCS
  5
7
330
0
100
AcDbSymbolTable
 70
     0
  0
ENDTAB
  0
TABLE
  2
APPID
  5
9
330
0
100
AcDbSymbolTable
 70
     2
  0
APPID
  5
12
330
9
100
AcDbSymbolTableRecord
100
AcDbRegAppTableRecord
  2
ACAD
 70
     0
  0
ENDTAB
  0
TABLE
  2
DIMSTYLE
  5
A
330
0
100
AcDbSymbolTable
 70
     1
  0
DIMSTYLE
105
27
330
A
100
AcDbSymbolTableRecord
100
AcDbDimStyleTableRecord
  2
ISO-25
 70
     0
  3

  4

  5

  6

  7

 40
1.0
 41
2.5
 42
0.625
 43
3.75
 44
1.25
 45
0.0
 46
0.0
 47
0.0
 48
0.0
140
2.5
141
2.5
142
0.0
143
0.03937007874016
144
1.0
145
0.0
146
1.0
147
0.625
 71
     0
 72
     0
 73
     0
 74
     0
 75
     0
 76
     0
 77
     1
 78
     8
170
     0
171
     3
172
     1
173
     0
174
     0
175
     0
176
     0
177
     0
178
     0
270
     2
271
     2
272
     2
273
     2
274
     3
340
11
275
     0
280
     0
281
     0
282
     0
283
     0
284
     8
285
     0
286
     0
287
     3
288
     0
  0
ENDTAB
  0
TABLE
  2
BLOCK_RECORD
  5
1
330
0
100
AcDbSymbolTable
 70
     1
  0
BLOCK_RECORD
  5
1F
330
1
100
AcDbSymbolTableRecord
100
AcDbBlockTableRecord
  2
*MODEL_SPACE
  0
BLOCK_RECORD
  5
1B
330
1
100
AcDbSymbolTableRecord
100
AcDbBlockTableRecord
  2
*PAPER_SPACE
  0
ENDTAB
  0
ENDSEC
  0
SECTION
  2
BLOCKS
  0
BLOCK
  5
20
330
1F
100
AcDbEntity
  8
0
100
AcDbBlockBegin
  2
*MODEL_SPACE
 70
     0
 10
0.0
 20
0.0
 30
0.0
  3
*MODEL_SPACE
  1

  0
ENDBLK
  5
21
330
1F
100
AcDbEntity
  8
0
100
AcDbBlockEnd
  0
BLOCK
  5
1C
330
1B
100
AcDbEntity
 67
     1
  8
0
100
AcDbBlockBegin
  2
*PAPER_SPACE
  1

  0
ENDBLK
  5
1D
330
1B
100
AcDbEntity
 67
     1
  8
0
100
AcDbBlockEnd
  0
ENDSEC
  0
SECTION
  2
ENTITIES
  0
LWPOLYLINE
  5
100
100
AcDbEntity
  8
0
 62
7
100
AcDbPolyline
 90
25
 70
1
 10
-154.000000
 20
169.000000
 30
0.0
 10
-154.000000
 20
153.996994
 30
0.0
 10
-154.000000
 20
153.000000
 30
0.0
 10
-154.000000
 20
152.000000
 30
0.0
 10
-154.000000
 20
145.001999
 30
0.0
 10
-157.003006
 20
145.001999
 30
0.0
 10
-160.000000
 20
145.001999
 30
0.0
 10
-167.003006
 20
145.001999
 30
0.0
 10
-167.003006
 20
142.000000
 30
0.0
 10
-167.003006
 20
141.996994
 30
0.0
 10
-160.000000
 20
141.996994
 30
0.0
 10
-157.003006
 20
141.996994
 30
0.0
 10
-157.003006
 20
139.000000
 30
0.0
 10
-160.000000
 20
139.000000
 30
0.0
 10
-167.003006
 20
139.000000
 30
0.0
 10
-173.000000
 20
139.000000
 30
0.0
 10
-173.000000
 20
142.000000
 30
0.0
 10
-173.000000
 20
152.000000
 30
0.0
 10
-173.000000
 20
153.000000
 30
0.0
 10
-173.000000
 20
156.000000
 30
0.0
 10
-164.000000
 20
165.000000
 30
0.0
 10
-160.000000
 20
169.000000
 30
0.0
 10
-160.000000
 20
153.996994
 30
0.0
 10
-156.998001
 20
153.996994
 30
0.0
 10
-156.998001
 20
169.000000
 30
0.0
  0
LWPOLYLINE
  5
101
100
AcDbEntity
  8
0
 62
7
100
AcDbPolyline
 90
23
 70
1
 10
-164.000000
 20
183.000000
 30
0.0
 10
-164.000000
 20
170.000000
 30
0.0
 10
-164.000000
 20
169.000000
 30
0.0
 10
-164.000000
 20
166.000000
 30
0.0
 10
-173.000000
 20
157.000000
 30
0.0
 10
-177.000000
 20
153.000000
 30
0.0
 10
-177.000000
 20
168.001999
 30
0.0
 10
-180.003006
 20
168.001999
 30
0.0
 10
-180.003006
 20
153.000000
 30
0.0
 10
-183.000000
 20
153.000000
 30
0.0
 10
-183.000000
 20
168.001999
 30
0.0
 10
-183.000000
 20
170.000000
 30
0.0
 10
-183.000000
 20
176.998001
 30
0.0
 10
-179.998001
 20
176.998001
 30
0.0
 10
-177.000000
 20
176.998001
 30
0.0
 10
-177.000000
 20
176.997002
 30
0.0
 10
-169.998001
 20
176.997002
 30
0.0
 10
-169.998001
 20
180.001999
 30
0.0
 10
-177.000000
 20
180.001999
 30
0.0
 10
-179.998001
 20
180.001999
 30
0.0
 10
-179.998001
 20
183.000000
 30
0.0
 10
-177.000000
 20
183.000000
 30
0.0
 10
-169.998001
 20
183.000000
 30
0.0
  0
LWPOLYLINE
  5
102
100
AcDbEntity
  8
0
 62
7
100
AcDbPolyline
 90
10
 70
1
 10
-163.000000
 20
170.000000
 30
0.0
 10
-163.000000
 20
176.001999
 30
0.0
 10
-163.000000
 20
183.000000
 30
0.0
 10
-154.000000
 20
183.000000
 30
0.0
 10
-154.000000
 20
176.001999
 30
0.0
 10
-154.000000
 20
170.000000
 30
0.0
 10
-156.998001
 20
170.000000
 30
0.0
 10
-156.998001
 20
176.001999
 30
0.0
 10
-160.003006
 20
176.001999
 30
0.0
 10
-160.003006
 20
170.000000
 30
0.0
  0
LWPOLYLINE
  5
103
100
AcDbEntity
  8
0
 62
7
100
AcDbPolyline
 90
14
 70
1
 10
-183.000000
 20
152.000000
 30
0.0
 10
-174.000000
 20
152.000000
 30
0.0
 10
-174.000000
 20
145.001999
 30
0.0
 10
-174.000000
 20
142.000000
 30
0.0
 10
-174.000000
 20
139.000000
 30
0.0
 10
-176.998001
 20
139.000000
 30
0.0
 10
-176.998001
 20
142.000000
 30
0.0
 10
-176.998001
 20
145.001999
 30
0.0
 10
-180.003006
 20
145.001999
 30
0.0
 10
-180.003006
 20
142.000000
 30
0.0
 10
-180.003006
 20
139.000000
 30
0.0
 10
-183.000000
 20
139.000000
 30
0.0
 10
-183.000000
 20
142.000000
 30
0.0
 10
-183.000000
 20
145.001999
 30
0.0
  0
LWPOLYLINE
  5
104
100
AcDbEntity
  8
0
 62
7
100
AcDbPolyline
 90
23
 70
1
 10
-173.000000
 20
184.000000
 30
0.0
 10
-173.000000
 20
197.000000
 30
0.0
 10
-173.000000
 20
198.000000
 30
0.0
 10
-173.000000
 20
201.000000
 30
0.0
 10
-164.000000
 20
210.000000
 30
0.0
 10
-160.000000
 20
214.000000
 30
0.0
 10
-160.000000
 20
198.997002
 30
0.0
 10
-156.998001
 20
198.997002
 30
0.0
 10
-156.998001
 20
214.000000
 30
0.0
 10
-154.000000
 20
214.000000
 30
0.0
 10
-154.000000
 20
198.997002
 30
0.0
 10
-154.000000
 20
198.000000
 30
0.0
 10
-154.000000
 20
197.000000
 30
0.0
 10
-154.000000
 20
190.001999
 30
0.0
 10
-157.003006
 20
190.001999
 30
0.0
 10
-160.000000
 20
190.001999
 30
0.0
 10
-167.003006
 20
190.001999
 30
0.0
 10
-167.003006
 20
186.997002
 30
0.0
 10
-160.000000
 20
186.997002
 30
0.0
 10
-157.003006
 20
186.997002
 30
0.0
 10
-157.003006
 20
184.000000
 30
0.0
 10
-160.000000
 20
184.000000
 30
0.0
 10
-167.003006
 20
184.000000
 30
0.0
  0
LWPOLYLINE
  5
105
100
AcDbEntity
  8
0
 62
7
100
AcDbPolyline
 90
104
 70
1
 10
-241.723007
 20
183.856003
 30
0.0
 10
-241.000000
 20
182.326843
 30
0.0
 10
-240.500000
 20
181.269333
 30
0.0
 10
-240.044998
 20
180.306999
 30
0.0
 10
-238.722000
 20
176.611000
 30
0.0
 10
-237.768997
 20
172.804001
 30
0.0
 10
-237.192993
 20
168.920998
 30
0.0
 10
-237.000000
 20
165.000000
 30
0.0
 10
-237.192993
 20
161.079002
 30
0.0
 10
-237.768997
 20
157.195999
 30
0.0
 10
-238.722000
 20
153.389008
 30
0.0
 10
-238.887024
 20
152.927994
 30
0.0
 10
-240.044998
 20
149.692993
 30
0.0
 10
-240.500000
 20
148.730667
 30
0.0
 10
-241.000000
 20
147.673157
 30
0.0
 10
-241.723007
 20
146.143997
 30
0.0
 10
-243.740997
 20
142.776993
 30
0.0
 10
-246.080002
 20
139.623993
 30
0.0
 10
-248.716003
 20
136.716003
 30
0.0
 10
-251.623993
 20
134.080002
 30
0.0
 10
-251.731842
 20
134.000000
 30
0.0
 10
-254.776993
 20
131.740997
 30
0.0
 10
-255.000000
 20
131.607346
 30
0.0
 10
-258.144012
 20
129.723007
 30
0.0
 10
-261.692993
 20
128.044998
 30
0.0
 10
-262.144012
 20
127.883560
 30
0.0
 10
-265.389008
 20
126.722000
 30
0.0
 10
-269.196014
 20
125.768997
 30
0.0
 10
-271.997986
 20
125.353348
 30
0.0
 10
-273.079010
 20
125.192993
 30
0.0
 10
-277.000000
 20
125.000000
 30
0.0
 10
-280.920990
 20
125.192993
 30
0.0
 10
-282.002991
 20
125.353500
 30
0.0
 10
-284.803986
 20
125.768997
 30
0.0
 10
-288.610992
 20
126.722000
 30
0.0
 10
-292.307007
 20
128.044998
 30
0.0
 10
-294.911987
 20
129.276672
 30
0.0
 10
-295.000000
 20
129.318268
 30
0.0
 10
-295.855988
 20
129.723007
 30
0.0
 10
-298.000000
 20
131.007996
 30
0.0
 10
-298.404083
 20
131.250183
 30
0.0
 10
-299.196625
 20
131.725189
 30
0.0
 10
-299.222992
 20
131.740997
 30
0.0
 10
-300.050812
 20
132.355087
 30
0.0
 10
-300.920136
 20
133.000000
 30
0.0
 10
-302.376007
 20
134.080002
 30
0.0
 10
-303.000000
 20
134.645630
 30
0.0
 10
-305.283997
 20
136.716003
 30
0.0
 10
-307.920013
 20
139.623993
 30
0.0
 10
-310.259003
 20
142.776993
 30
0.0
 10
-312.277008
 20
146.143997
 30
0.0
 10
-313.000000
 20
147.673157
 30
0.0
 10
-313.954987
 20
149.692993
 30
0.0
 10
-315.112976
 20
152.927994
 30
0.0
 10
-315.278015
 20
153.389008
 30
0.0
 10
-316.000000
 20
156.273209
 30
0.0
 10
-316.230988
 20
157.195999
 30
0.0
 10
-316.807007
 20
161.079002
 30
0.0
 10
-317.000000
 20
165.000000
 30
0.0
 10
-316.807007
 20
168.920998
 30
0.0
 10
-316.230988
 20
172.804001
 30
0.0
 10
-316.000000
 20
173.726791
 30
0.0
 10
-315.278015
 20
176.611000
 30
0.0
 10
-313.954987
 20
180.306999
 30
0.0
 10
-313.000000
 20
182.326843
 30
0.0
 10
-312.277008
 20
183.856003
 30
0.0
 10
-310.259003
 20
187.223000
 30
0.0
 10
-307.920013
 20
190.375999
 30
0.0
 10
-306.447907
 20
192.000000
 30
0.0
 10
-305.283997
 20
193.283997
 30
0.0
 10
-303.000000
 20
195.354362
 30
0.0
 10
-302.376007
 20
195.919998
 30
0.0
 10
-299.572144
 20
198.000000
 30
0.0
 10
-299.222992
 20
198.259003
 30
0.0
 10
-295.855988
 20
200.277000
 30
0.0
 10
-294.911987
 20
200.723335
 30
0.0
 10
-294.326843
 20
201.000000
 30
0.0
 10
-292.307007
 20
201.955002
 30
0.0
 10
-289.387634
 20
203.000000
 30
0.0
 10
-288.610992
 20
203.278000
 30
0.0
 10
-284.803986
 20
204.231003
 30
0.0
 10
-280.920990
 20
204.806999
 30
0.0
 10
-277.000000
 20
205.000000
 30
0.0
 10
-273.079010
 20
204.806999
 30
0.0
 10
-272.000000
 20
204.646942
 30
0.0
 10
-270.335999
 20
204.400108
 30
0.0
 10
-269.474670
 20
204.272339
 30
0.0
 10
-269.196014
 20
204.231003
 30
0.0
 10
-268.273224
 20
204.000000
 30
0.0
 10
-265.389008
 20
203.278000
 30
0.0
 10
-264.612366
 20
203.000000
 30
0.0
 10
-262.144012
 20
202.116440
 30
0.0
 10
-261.692993
 20
201.955002
 30
0.0
 10
-259.673157
 20
201.000000
 30
0.0
 10
-258.144012
 20
200.277000
 30
0.0
 10
-254.776993
 20
198.259003
 30
0.0
 10
-254.427872
 20
198.000000
 30
0.0
 10
-251.623993
 20
195.919998
 30
0.0
 10
-248.716003
 20
193.283997
 30
0.0
 10
-248.000000
 20
192.494118
 30
0.0
 10
-246.080002
 20
190.375999
 30
0.0
 10
-243.740997
 20
187.223000
 30
0.0
 10
-243.607346
 20
187.000000
 30
0.0
 10
-242.825790
 20
185.695999
 30
0.0
  0
LWPOLYLINE
  5
106
100
AcDbEntity
  8
0
 62
7
100
AcDbPolyline
 90
90
 70
1
 10
-297.424988
 20
350.797997
 30
0.0
 10
-297.152435
 20
351.000000
 30
0.0
 10
-296.834015
 20
351.236000
 30
0.0
 10
-296.201996
 20
351.613998
 30
0.0
 10
-295.536987
 20
351.929001
 30
0.0
 10
-294.911987
 20
352.152664
 30
0.0
 10
-294.843994
 20
352.177002
 30
0.0
 10
-294.130005
 20
352.356003
 30
0.0
 10
-293.402008
 20
352.463997
 30
0.0
 10
-292.666992
 20
352.500000
 30
0.0
 10
-291.932007
 20
352.463997
 30
0.0
 10
-291.204010
 20
352.356003
 30
0.0
 10
-290.489990
 20
352.177002
 30
0.0
 10
-289.796997
 20
351.929001
 30
0.0
 10
-289.131989
 20
351.613998
 30
0.0
 10
-288.500000
 20
351.236000
 30
0.0
 10
-288.181549
 20
351.000000
 30
0.0
 10
-287.908997
 20
350.797997
 30
0.0
 10
-287.364014
 20
350.303001
 30
0.0
 10
-286.868988
 20
349.758003
 30
0.0
 10
-286.704468
 20
349.536003
 30
0.0
 10
-286.431000
 20
349.167000
 30
0.0
 10
-286.053009
 20
348.535004
 30
0.0
 10
-285.799591
 20
348.000000
 30
0.0
 10
-285.733002
 20
348.000000
 30
0.0
 10
-285.566132
 20
348.000000
 30
0.0
 10
-285.166992
 20
348.000000
 30
0.0
 10
-283.415009
 20
348.000000
 30
0.0
 10
-281.915009
 20
348.000000
 30
0.0
 10
-277.590485
 20
348.000000
 30
0.0
 10
-276.666992
 20
348.000000
 30
0.0
 10
-276.666992
 20
347.850948
 30
0.0
 10
-276.666992
 20
347.847050
 30
0.0
 10
-271.356659
 20
337.500000
 30
0.0
 10
-270.065155
 20
334.983532
 30
0.0
 10
-269.565002
 20
334.008999
 30
0.0
 10
-269.569611
 20
334.000000
 30
0.0
 10
-269.000000
 20
334.000000
 30
0.0
 10
-269.000000
 20
331.000000
 30
0.0
 10
-273.500000
 20
331.000000
 30
0.0
 10
-273.500000
 20
328.000000
 30
0.0
 10
-281.500000
 20
328.000000
 30
0.0
 10
-281.500000
 20
331.000000
 30
0.0
 10
-287.666992
 20
331.000000
 30
0.0
 10
-289.997986
 20
331.000000
 30
0.0
 10
-291.498993
 20
331.000000
 30
0.0
 10
-291.498993
 20
334.000000
 30
0.0
 10
-289.997986
 20
334.000000
 30
0.0
 10
-289.997986
 20
336.000999
 30
0.0
 10
-291.498993
 20
336.000999
 30
0.0
 10
-291.498993
 20
337.500000
 30
0.0
 10
-291.498993
 20
337.570042
 30
0.0
 10
-291.498993
 20
337.600235
 30
0.0
 10
-291.498993
 20
338.002998
 30
0.0
 10
-293.501007
 20
338.002998
 30
0.0
 10
-293.501007
 20
337.550686
 30
0.0
 10
-293.501007
 20
337.540848
 30
0.0
 10
-293.501007
 20
337.500000
 30
0.0
 10
-293.501007
 20
336.000999
 30
0.0
 10
-295.002991
 20
336.000999
 30
0.0
 10
-295.002991
 20
334.000000
 30
0.0
 10
-293.501007
 20
334.000000
 30
0.0
 10
-293.501007
 20
331.000000
 30
0.0
 10
-295.002991
 20
331.000000
 30
0.0
 10
-297.666992
 20
331.000000
 30
0.0
 10
-300.166992
 20
331.000000
 30
0.0
 10
-303.500000
 20
331.000000
 30
0.0
 10
-303.500000
 20
328.000000
 30
0.0
 10
-311.500000
 20
328.000000
 30
0.0
 10
-311.500000
 20
331.000000
 30
0.0
 10
-316.000000
 20
331.000000
 30
0.0
 10
-316.000000
 20
334.000000
 30
0.0
 10
-315.795380
 20
334.000000
 30
0.0
 10
-315.799988
 20
334.008999
 30
0.0
 10
-308.696014
 20
347.848999
 30
0.0
 10
-308.666992
 20
347.792461
 30
0.0
 10
-308.666992
 20
348.000000
 30
0.0
 10
-303.420013
 20
348.000000
 30
0.0
 10
-301.919006
 20
348.000000
 30
0.0
 10
-300.166992
 20
348.000000
 30
0.0
 10
-300.020050
 20
348.000000
 30
0.0
 10
-299.794983
 20
348.000000
 30
0.0
 10
-299.637665
 20
348.000000
 30
0.0
 10
-299.549469
 20
348.000000
 30
0.0
 10
-299.534424
 20
348.000000
 30
0.0
 10
-299.281006
 20
348.535004
 30
0.0
 10
-298.903015
 20
349.167000
 30
0.0
 10
-298.629517
 20
349.536003
 30
0.0
 10
-298.464996
 20
349.758003
 30
0.0
 10
-297.970001
 20
350.303001
 30
0.0
  0
LWPOLYLINE
  5
107
100
AcDbEntity
  8
0
 62
7
100
AcDbPolyline
 90
12
 70
1
 10
-200.645920
 20
338.000000
 30
0.0
 10
-198.000000
 20
338.000000
 30
0.0
 10
-193.000000
 20
338.000000
 30
0.0
 10
-193.000000
 20
333.584255
 30
0.0
 10
-193.000000
 20
332.000000
 30
0.0
 10
-198.000000
 20
332.000000
 30
0.0
 10
-198.000000
 20
328.000000
 30
0.0
 10
-208.000000
 20
328.000000
 30
0.0
 10
-208.000000
 20
332.000000
 30
0.0
 10
-213.000000
 20
332.000000
 30
0.0
 10
-213.000000
 20
338.000000
 30
0.0
 10
-208.000000
 20
338.000000
 30
0.0
  0
LWPOLYLINE
  5
108
100
AcDbEntity
  8
0
 62
7
100
AcDbPolyline
 90
10
 70
1
 10
-183.000000
 20
184.000000
 30
0.0
 10
-183.000000
 20
190.001999
 30
0.0
 10
-183.000000
 20
197.000000
 30
0.0
 10
-174.000000
 20
197.000000
 30
0.0
 10
-174.000000
 20
190.001999
 30
0.0
 10
-174.000000
 20
184.000000
 30
0.0
 10
-176.998001
 20
184.000000
 30
0.0
 10
-176.998001
 20
190.001999
 30
0.0
 10
-180.003006
 20
190.001999
 30
0.0
 10
-180.003006
 20
184.000000
 30
0.0
  0
LWPOLYLINE
  5
109
100
AcDbEntity
  8
0
 62
7
100
AcDbPolyline
 90
46
 70
1
 10
-152.000000
 20
232.000000
 30
0.0
 10
-154.998001
 20
232.000000
 30
0.0
 10
-154.998001
 20
247.001999
 30
0.0
 10
-158.003006
 20
247.001999
 30
0.0
 10
-158.003006
 20
232.000000
 30
0.0
 10
-193.000000
 20
232.000000
 30
0.0
 10
-198.000000
 20
232.000000
 30
0.0
 10
-208.000000
 20
232.000000
 30
0.0
 10
-213.000000
 20
232.000000
 30
0.0
 10
-234.003006
 20
232.000000
 30
0.0
 10
-258.997986
 20
232.000000
 30
0.0
 10
-258.997986
 20
247.001999
 30
0.0
 10
-262.002991
 20
247.001999
 30
0.0
 10
-262.002991
 20
232.000000
 30
0.0
 10
-265.000000
 20
232.000000
 30
0.0
 10
-265.000000
 20
235.000000
 30
0.0
 10
-265.000000
 20
247.001999
 30
0.0
 10
-265.000000
 20
256.997000
 30
0.0
 10
-265.000000
 20
267.002001
 30
0.0
 10
-265.000000
 20
290.851272
 30
0.0
 10
-265.000000
 20
309.328003
 30
0.0
 10
-265.000000
 20
351.000000
 30
0.0
 10
-265.000000
 20
357.000000
 30
0.0
 10
-265.000000
 20
358.998001
 30
0.0
 10
-265.000000
 20
374.000000
 30
0.0
 10
-262.002991
 20
374.000000
 30
0.0
 10
-262.002991
 20
358.998001
 30
0.0
 10
-258.997986
 20
358.998001
 30
0.0
 10
-258.997986
 20
374.000000
 30
0.0
 10
-216.003006
 20
374.000000
 30
0.0
 10
-213.000000
 20
374.000000
 30
0.0
 10
-208.000000
 20
374.000000
 30
0.0
 10
-199.998001
 20
374.000000
 30
0.0
 10
-198.000000
 20
374.000000
 30
0.0
 10
-193.000000
 20
374.000000
 30
0.0
 10
-158.003006
 20
374.000000
 30
0.0
 10
-158.003006
 20
358.998001
 30
0.0
 10
-154.998001
 20
358.998001
 30
0.0
 10
-154.998001
 20
374.000000
 30
0.0
 10
-152.000000
 20
374.000000
 30
0.0
 10
-152.000000
 20
358.998001
 30
0.0
 10
-152.000000
 20
326.896999
 30
0.0
 10
-152.000000
 20
309.905533
 30
0.0
 10
-152.000000
 20
291.428580
 30
0.0
 10
-152.000000
 20
286.022000
 30
0.0
 10
-152.000000
 20
247.001999
 30
0.0
  0
LWPOLYLINE
  5
10a
100
AcDbEntity
  8
0
 62
7
100
AcDbPolyline
 90
43
 70
1
 10
-184.000000
 20
170.000000
 30
0.0
 10
-184.000000
 20
153.000000
 30
0.0
 10
-184.000000
 20
152.000000
 30
0.0
 10
-184.000000
 20
148.001999
 30
0.0
 10
-184.000000
 20
145.496994
 30
0.0
 10
-184.000000
 20
144.996994
 30
0.0
 10
-184.000000
 20
142.000000
 30
0.0
 10
-210.003006
 20
142.000000
 30
0.0
 10
-220.000000
 20
142.000000
 30
0.0
 10
-234.000000
 20
142.000000
 30
0.0
 10
-234.000000
 20
144.996994
 30
0.0
 10
-234.000000
 20
148.001999
 30
0.0
 10
-234.000000
 20
183.497002
 30
0.0
 10
-234.000000
 20
186.501999
 30
0.0
 10
-234.000000
 20
198.000000
 30
0.0
 10
-234.000000
 20
201.000000
 30
0.0
 10
-234.000000
 20
203.000000
 30
0.0
 10
-234.000000
 20
206.000000
 30
0.0
 10
-234.000000
 20
211.000000
 30
0.0
 10
-234.000000
 20
211.997002
 30
0.0
 10
-234.000000
 20
215.000000
 30
0.0
 10
-234.000000
 20
215.001999
 30
0.0
 10
-234.000000
 20
221.000000
 30
0.0
 10
-234.000000
 20
228.000000
 30
0.0
 10
-213.000000
 20
228.000000
 30
0.0
 10
-208.000000
 20
228.000000
 30
0.0
 10
-198.000000
 20
228.000000
 30
0.0
 10
-193.000000
 20
228.000000
 30
0.0
 10
-184.000000
 20
228.000000
 30
0.0
 10
-184.000000
 20
221.000000
 30
0.0
 10
-184.000000
 20
215.001999
 30
0.0
 10
-184.000000
 20
215.000000
 30
0.0
 10
-184.000000
 20
211.997002
 30
0.0
 10
-184.000000
 20
211.000000
 30
0.0
 10
-184.000000
 20
206.000000
 30
0.0
 10
-184.000000
 20
203.000000
 30
0.0
 10
-184.000000
 20
198.000000
 30
0.0
 10
-184.000000
 20
197.000000
 30
0.0
 10
-184.000000
 20
186.501999
 30
0.0
 10
-184.000000
 20
184.000000
 30
0.0
 10
-184.000000
 20
183.497002
 30
0.0
 10
-184.000000
 20
183.000000
 30
0.0
 10
-184.000000
 20
175.385002
 30
0.0
  0
LWPOLYLINE
  5
10b
100
AcDbEntity
  8
0
 62
7
100
AcDbPolyline
 90
63
 70
1
 10
-307.000000
 20
229.000000
 30
0.0
 10
-307.000000
 20
228.000000
 30
0.0
 10
-307.000000
 20
226.000000
 30
0.0
 10
-294.000000
 20
226.000000
 30
0.0
 10
-286.720001
 20
226.000000
 30
0.0
 10
-284.000000
 20
226.000000
 30
0.0
 10
-283.019989
 20
225.952000
 30
0.0
 10
-282.049011
 20
225.807999
 30
0.0
 10
-281.096985
 20
225.569000
 30
0.0
 10
-280.173004
 20
225.238998
 30
0.0
 10
-279.286011
 20
224.819000
 30
0.0
 10
-278.528015
 20
224.365280
 30
0.0
 10
-278.444000
 20
224.314999
 30
0.0
 10
-277.656006
 20
223.730000
 30
0.0
 10
-276.928986
 20
223.070999
 30
0.0
 10
-276.269989
 20
222.344002
 30
0.0
 10
-275.684998
 20
221.556000
 30
0.0
 10
-275.352203
 20
221.000000
 30
0.0
 10
-275.181000
 20
220.714001
 30
0.0
 10
-274.760986
 20
219.827003
 30
0.0
 10
-274.431000
 20
218.903000
 30
0.0
 10
-274.320801
 20
218.463997
 30
0.0
 10
-274.191986
 20
217.950996
 30
0.0
 10
-274.048004
 20
216.980003
 30
0.0
 10
-274.000000
 20
216.000000
 30
0.0
 10
-274.048004
 20
215.019997
 30
0.0
 10
-274.050964
 20
215.000000
 30
0.0
 10
-274.191986
 20
214.049004
 30
0.0
 10
-274.431000
 20
213.097000
 30
0.0
 10
-274.760986
 20
212.172997
 30
0.0
 10
-275.181000
 20
211.286003
 30
0.0
 10
-275.352203
 20
211.000000
 30
0.0
 10
-275.684998
 20
210.444000
 30
0.0
 10
-276.269989
 20
209.655998
 30
0.0
 10
-276.928986
 20
208.929001
 30
0.0
 10
-277.656006
 20
208.269997
 30
0.0
 10
-278.444000
 20
207.684998
 30
0.0
 10
-278.528015
 20
207.634720
 30
0.0
 10
-279.286011
 20
207.181000
 30
0.0
 10
-280.173004
 20
206.761002
 30
0.0
 10
-281.096985
 20
206.431000
 30
0.0
 10
-282.049011
 20
206.192001
 30
0.0
 10
-283.019989
 20
206.047997
 30
0.0
 10
-284.000000
 20
206.000000
 30
0.0
 10
-284.656342
 20
206.000000
 30
0.0
 10
-285.186218
 20
206.000000
 30
0.0
 10
-286.720001
 20
206.000000
 30
0.0
 10
-286.740967
 20
206.000000
 30
0.0
 10
-287.286285
 20
206.000000
 30
0.0
 10
-287.839752
 20
206.000000
 30
0.0
 10
-288.415955
 20
206.000000
 30
0.0
 10
-289.015839
 20
206.000000
 30
0.0
 10
-294.000000
 20
206.000000
 30
0.0
 10
-307.000000
 20
206.000000
 30
0.0
 10
-307.000000
 20
203.000000
 30
0.0
 10
-312.000000
 20
203.000000
 30
0.0
 10
-312.000000
 20
211.000000
 30
0.0
 10
-315.000000
 20
211.000000
 30
0.0
 10
-315.000000
 20
215.000000
 30
0.0
 10
-315.000000
 20
221.000000
 30
0.0
 10
-312.000000
 20
221.000000
 30
0.0
 10
-312.000000
 20
228.000000
 30
0.0
 10
-312.000000
 20
229.000000
 30
0.0
  0
LWPOLYLINE
  5
10c
100
AcDbEntity
  8
0
 62
7
100
AcDbPolyline
 90
10
 70
1
 10
-154.000000
 20
228.000000
 30
0.0
 10
-154.000000
 20
221.001999
 30
0.0
 10
-154.000000
 20
215.000000
 30
0.0
 10
-156.998001
 20
215.000000
 30
0.0
 10
-156.998001
 20
221.001999
 30
0.0
 10
-160.003006
 20
221.001999
 30
0.0
 10
-160.003006
 20
215.000000
 30
0.0
 10
-163.000000
 20
215.000000
 30
0.0
 10
-163.000000
 20
221.001999
 30
0.0
 10
-163.000000
 20
228.000000
 30
0.0
  0
LWPOLYLINE
  5
10d
100
AcDbEntity
  8
0
 62
7
100
AcDbPolyline
 90
26
 70
1
 10
-179.998001
 20
225.001999
 30
0.0
 10
-179.998001
 20
228.000000
 30
0.0
 10
-177.000000
 20
228.000000
 30
0.0
 10
-169.998001
 20
228.000000
 30
0.0
 10
-164.000000
 20
228.000000
 30
0.0
 10
-164.000000
 20
215.000000
 30
0.0
 10
-164.000000
 20
214.000000
 30
0.0
 10
-164.000000
 20
211.000000
 30
0.0
 10
-173.000000
 20
202.000000
 30
0.0
 10
-177.000000
 20
198.000000
 30
0.0
 10
-177.000000
 20
213.001999
 30
0.0
 10
-180.003006
 20
213.001999
 30
0.0
 10
-180.003006
 20
198.000000
 30
0.0
 10
-183.000000
 20
198.000000
 30
0.0
 10
-183.000000
 20
203.000000
 30
0.0
 10
-183.000000
 20
206.000000
 30
0.0
 10
-183.000000
 20
211.000000
 30
0.0
 10
-183.000000
 20
213.001999
 30
0.0
 10
-183.000000
 20
215.000000
 30
0.0
 10
-183.000000
 20
221.000000
 30
0.0
 10
-183.000000
 20
221.997002
 30
0.0
 10
-179.998001
 20
221.997002
 30
0.0
 10
-177.000000
 20
221.997002
 30
0.0
 10
-169.998001
 20
221.997002
 30
0.0
 10
-169.998001
 20
225.001999
 30
0.0
 10
-177.000000
 20
225.001999
 30
0.0
  0
LWPOLYLINE
  5
10e
100
AcDbEntity
  8
0
 62
7
100
AcDbPolyline
 90
52
 70
1
 10
-252.074997
 20
205.816002
 30
0.0
 10
-252.278198
 20
206.000000
 30
0.0
 10
-252.656998
 20
206.343002
 30
0.0
 10
-253.184006
 20
206.925003
 30
0.0
 10
-253.651993
 20
207.555000
 30
0.0
 10
-254.054993
 20
208.228996
 30
0.0
 10
-254.391006
 20
208.939003
 30
0.0
 10
-254.656006
 20
209.678001
 30
0.0
 10
-254.804306
 20
210.272003
 30
0.0
 10
-254.845993
 20
210.439003
 30
0.0
 10
-254.929031
 20
211.000000
 30
0.0
 10
-254.960999
 20
211.216003
 30
0.0
 10
-255.000000
 20
212.000000
 30
0.0
 10
-255.000000
 20
215.000000
 30
0.0
 10
-255.000000
 20
221.000000
 30
0.0
 10
-255.000000
 20
224.000000
 30
0.0
 10
-248.503006
 20
224.000000
 30
0.0
 10
-248.503006
 20
221.000000
 30
0.0
 10
-248.503006
 20
215.997002
 30
0.0
 10
-245.498001
 20
215.997002
 30
0.0
 10
-245.498001
 20
221.000000
 30
0.0
 10
-245.498001
 20
224.000000
 30
0.0
 10
-239.000000
 20
224.000000
 30
0.0
 10
-239.000000
 20
221.000000
 30
0.0
 10
-239.000000
 20
215.000000
 30
0.0
 10
-239.000000
 20
212.000000
 30
0.0
 10
-239.039001
 20
211.216003
 30
0.0
 10
-239.070969
 20
211.000000
 30
0.0
 10
-239.154007
 20
210.439003
 30
0.0
 10
-239.195694
 20
210.272003
 30
0.0
 10
-239.343994
 20
209.678001
 30
0.0
 10
-239.608994
 20
208.939003
 30
0.0
 10
-239.945007
 20
208.228996
 30
0.0
 10
-240.348007
 20
207.555000
 30
0.0
 10
-240.815994
 20
206.925003
 30
0.0
 10
-241.343002
 20
206.343002
 30
0.0
 10
-241.721802
 20
206.000000
 30
0.0
 10
-241.925003
 20
205.816002
 30
0.0
 10
-242.554993
 20
205.348000
 30
0.0
 10
-243.229004
 20
204.945000
 30
0.0
 10
-243.938995
 20
204.609001
 30
0.0
 10
-244.677994
 20
204.344002
 30
0.0
 10
-245.438995
 20
204.153999
 30
0.0
 10
-245.759995
 20
204.106491
 30
0.0
 10
-246.216003
 20
204.039001
 30
0.0
 10
-247.000000
 20
204.000000
 30
0.0
 10
-247.783997
 20
204.039001
 30
0.0
 10
-248.561005
 20
204.153999
 30
0.0
 10
-249.322006
 20
204.344002
 30
0.0
 10
-250.061005
 20
204.609001
 30
0.0
 10
-250.770996
 20
204.945000
 30
0.0
 10
-251.445007
 20
205.348000
 30
0.0
  0
LWPOLYLINE
  5
10f
100
AcDbEntity
  8
0
 62
7
100
AcDbPolyline
 90
53
 70
1
 10
-258.342987
 20
206.343002
 30
0.0
 10
-258.721802
 20
206.000000
 30
0.0
 10
-258.924988
 20
205.816002
 30
0.0
 10
-259.554993
 20
205.348000
 30
0.0
 10
-260.229004
 20
204.945000
 30
0.0
 10
-260.938995
 20
204.609001
 30
0.0
 10
-261.678009
 20
204.344002
 30
0.0
 10
-262.144012
 20
204.227654
 30
0.0
 10
-262.438995
 20
204.153999
 30
0.0
 10
-263.216003
 20
204.039001
 30
0.0
 10
-264.000000
 20
204.000000
 30
0.0
 10
-264.783997
 20
204.039001
 30
0.0
 10
-265.561005
 20
204.153999
 30
0.0
 10
-266.321991
 20
204.344002
 30
0.0
 10
-267.061005
 20
204.609001
 30
0.0
 10
-267.770996
 20
204.945000
 30
0.0
 10
-268.445007
 20
205.348000
 30
0.0
 10
-269.075012
 20
205.816002
 30
0.0
 10
-269.278198
 20
206.000000
 30
0.0
 10
-269.657013
 20
206.343002
 30
0.0
 10
-270.183990
 20
206.925003
 30
0.0
 10
-270.335999
 20
207.129616
 30
0.0
 10
-270.652008
 20
207.555000
 30
0.0
 10
-271.054993
 20
208.228996
 30
0.0
 10
-271.390991
 20
208.939003
 30
0.0
 10
-271.656006
 20
209.678001
 30
0.0
 10
-271.804291
 20
210.272003
 30
0.0
 10
-271.846008
 20
210.439003
 30
0.0
 10
-271.929749
 20
211.000000
 30
0.0
 10
-271.962006
 20
211.216003
 30
0.0
 10
-272.000000
 20
212.000000
 30
0.0
 10
-272.000000
 20
215.000000
 30
0.0
 10
-272.000000
 20
221.000000
 30
0.0
 10
-272.000000
 20
224.000000
 30
0.0
 10
-265.502991
 20
224.000000
 30
0.0
 10
-265.502991
 20
221.000000
 30
0.0
 10
-265.502991
 20
215.997002
 30
0.0
 10
-262.497986
 20
215.997002
 30
0.0
 10
-262.497986
 20
221.000000
 30
0.0
 10
-262.497986
 20
224.000000
 30
0.0
 10
-256.000000
 20
224.000000
 30
0.0
 10
-256.000000
 20
221.000000
 30
0.0
 10
-256.000000
 20
215.000000
 30
0.0
 10
-256.000000
 20
212.000000
 30
0.0
 10
-256.039001
 20
211.216003
 30
0.0
 10
-256.070984
 20
211.000000
 30
0.0
 10
-256.153992
 20
210.439003
 30
0.0
 10
-256.195709
 20
210.272003
 30
0.0
 10
-256.343994
 20
209.678001
 30
0.0
 10
-256.609009
 20
208.939003
 30
0.0
 10
-256.945007
 20
208.228996
 30
0.0
 10
-257.347992
 20
207.555000
 30
0.0
 10
-257.816010
 20
206.925003
 30
0.0
  0
LWPOLYLINE
  5
110
100
AcDbEntity
  8
0
 62
7
100
AcDbPolyline
 90
14
 70
1
 10
-302.000000
 20
200.000000
 30
0.0
 10
-304.000000
 20
198.000000
 30
0.0
 10
-306.984802
 20
195.015198
 30
0.0
 10
-309.997986
 20
192.001999
 30
0.0
 10
-309.997986
 20
196.001999
 30
0.0
 10
-313.000000
 20
196.001999
 30
0.0
 10
-313.002991
 20
196.001999
 30
0.0
 10
-313.002991
 20
192.000000
 30
0.0
 10
-313.362000
 20
192.000000
 30
0.0
 10
-316.000000
 20
192.000000
 30
0.0
 10
-316.000000
 20
198.000000
 30
0.0
 10
-316.000000
 20
200.000000
 30
0.0
 10
-313.002991
 20
200.000000
 30
0.0
 10
-309.997986
 20
200.000000
 30
0.0
  0
LWPOLYLINE
  5
111
100
AcDbEntity
  8
0
 62
7
100
AcDbPolyline
 90
14
 70
1
 10
-248.000000
 20
198.001999
 30
0.0
 10
-248.000000
 20
201.000000
 30
0.0
 10
-240.000000
 20
201.000000
 30
0.0
 10
-240.000000
 20
198.001999
 30
0.0
 10
-240.000000
 20
198.000000
 30
0.0
 10
-240.000000
 20
194.997002
 30
0.0
 10
-240.000000
 20
187.000000
 30
0.0
 10
-240.001007
 20
187.000000
 30
0.0
 10
-240.500000
 20
187.499001
 30
0.0
 10
-241.000000
 20
187.999001
 30
0.0
 10
-247.998001
 20
194.997002
 30
0.0
 10
-243.998001
 20
194.997002
 30
0.0
 10
-243.998001
 20
198.000000
 30
0.0
 10
-243.998001
 20
198.001999
 30
0.0
  0
LWPOLYLINE
  5
112
100
AcDbEntity
  8
0
 62
7
100
AcDbPolyline
 90
10
 70
1
 10
-308.666992
 20
357.000000
 30
0.0
 10
-303.500000
 20
357.000000
 30
0.0
 10
-300.592712
 20
357.000000
 30
0.0
 10
-297.666992
 20
357.000000
 30
0.0
 10
-297.666992
 20
365.000000
 30
0.0
 10
-304.695984
 20
365.000000
 30
0.0
 10
-308.035034
 20
365.000000
 30
0.0
 10
-308.666992
 20
363.768616
 30
0.0
 10
-312.140808
 20
357.000000
 30
0.0
 10
-311.500000
 20
357.000000
 30
0.0
  0
LWPOLYLINE
  5
113
100
AcDbEntity
  8
0
 62
7
100
AcDbPolyline
 90
10
 70
1
 10
-276.666992
 20
357.000000
 30
0.0
 10
-273.500000
 20
357.000000
 30
0.0
 10
-273.223389
 20
357.000000
 30
0.0
 10
-276.666992
 20
363.708855
 30
0.0
 10
-277.329742
 20
365.000000
 30
0.0
 10
-280.670258
 20
365.000000
 30
0.0
 10
-287.666992
 20
365.000000
 30
0.0
 10
-287.666992
 20
357.000000
 30
0.0
 10
-284.776611
 20
357.000000
 30
0.0
 10
-281.500000
 20
357.000000
 30
0.0
  0
LWPOLYLINE
  5
114
100
AcDbEntity
  8
0
 62
7
100
AcDbPolyline
 90
42
 70
1
 10
-236.000000
 20
118.000000
 30
0.0
 10
-236.000000
 20
125.000000
 30
0.0
 10
-236.000000
 20
130.000000
 30
0.0
 10
-235.960999
 20
130.783997
 30
0.0
 10
-235.845993
 20
131.561005
 30
0.0
 10
-235.656006
 20
132.322006
 30
0.0
 10
-235.391006
 20
133.061005
 30
0.0
 10
-235.054993
 20
133.770996
 30
0.0
 10
-234.651993
 20
134.445007
 30
0.0
 10
-234.184006
 20
135.074997
 30
0.0
 10
-233.656998
 20
135.656998
 30
0.0
 10
-233.074997
 20
136.184006
 30
0.0
 10
-232.590378
 20
136.544006
 30
0.0
 10
-232.445007
 20
136.651993
 30
0.0
 10
-231.770996
 20
137.054993
 30
0.0
 10
-231.061005
 20
137.391006
 30
0.0
 10
-230.322006
 20
137.656006
 30
0.0
 10
-229.561005
 20
137.845993
 30
0.0
 10
-228.783997
 20
137.960999
 30
0.0
 10
-228.000000
 20
138.000000
 30
0.0
 10
-227.216003
 20
137.960999
 30
0.0
 10
-226.438995
 20
137.845993
 30
0.0
 10
-225.677994
 20
137.656006
 30
0.0
 10
-224.938995
 20
137.391006
 30
0.0
 10
-224.229004
 20
137.054993
 30
0.0
 10
-223.554993
 20
136.651993
 30
0.0
 10
-223.409622
 20
136.544006
 30
0.0
 10
-222.925003
 20
136.184006
 30
0.0
 10
-222.343002
 20
135.656998
 30
0.0
 10
-221.815994
 20
135.074997
 30
0.0
 10
-221.348007
 20
134.445007
 30
0.0
 10
-220.945007
 20
133.770996
 30
0.0
 10
-220.608994
 20
133.061005
 30
0.0
 10
-220.343994
 20
132.322006
 30
0.0
 10
-220.154007
 20
131.561005
 30
0.0
 10
-220.039001
 20
130.783997
 30
0.0
 10
-220.000000
 20
130.000000
 30
0.0
 10
-220.000000
 20
118.000000
 30
0.0
 10
-226.498001
 20
118.000000
 30
0.0
 10
-226.498001
 20
126.001999
 30
0.0
 10
-229.503006
 20
126.001999
 30
0.0
 10
-229.503006
 20
118.000000
 30
0.0
  0
LWPOLYLINE
  5
115
100
AcDbEntity
  8
0
 62
7
100
AcDbPolyline
 90
49
 70
1
 10
-293.667999
 20
357.000000
 30
0.0
 10
-293.667999
 20
354.000000
 30
0.0
 10
-295.170013
 20
354.000000
 30
0.0
 10
-297.666992
 20
354.000000
 30
0.0
 10
-303.500000
 20
354.000000
 30
0.0
 10
-303.500000
 20
351.000000
 30
0.0
 10
-308.666992
 20
351.000000
 30
0.0
 10
-310.312164
 20
351.000000
 30
0.0
 10
-311.500000
 20
351.000000
 30
0.0
 10
-311.500000
 20
354.000000
 30
0.0
 10
-316.000000
 20
354.000000
 30
0.0
 10
-316.000000
 20
357.000000
 30
0.0
 10
-315.795380
 20
357.000000
 30
0.0
 10
-315.799988
 20
357.009003
 30
0.0
 10
-308.696014
 20
370.848999
 30
0.0
 10
-308.666992
 20
370.792458
 30
0.0
 10
-308.666992
 20
371.000000
 30
0.0
 10
-297.666992
 20
371.000000
 30
0.0
 10
-293.670013
 20
371.000000
 30
0.0
 10
-291.665009
 20
371.000000
 30
0.0
 10
-287.666992
 20
371.000000
 30
0.0
 10
-277.590485
 20
371.000000
 30
0.0
 10
-276.666992
 20
371.000000
 30
0.0
 10
-276.666992
 20
370.850945
 30
0.0
 10
-276.666992
 20
370.847054
 30
0.0
 10
-270.065155
 20
357.983536
 30
0.0
 10
-269.565002
 20
357.009003
 30
0.0
 10
-269.569611
 20
357.000000
 30
0.0
 10
-269.000000
 20
357.000000
 30
0.0
 10
-269.000000
 20
354.000000
 30
0.0
 10
-273.500000
 20
354.000000
 30
0.0
 10
-273.500000
 20
351.000000
 30
0.0
 10
-275.050598
 20
351.000000
 30
0.0
 10
-276.050598
 20
351.000000
 30
0.0
 10
-276.666992
 20
351.000000
 30
0.0
 10
-281.500000
 20
351.000000
 30
0.0
 10
-281.500000
 20
354.000000
 30
0.0
 10
-287.666992
 20
354.000000
 30
0.0
 10
-290.165009
 20
354.000000
 30
0.0
 10
-291.665985
 20
354.000000
 30
0.0
 10
-291.665985
 20
357.000000
 30
0.0
 10
-290.165009
 20
357.000000
 30
0.0
 10
-290.165009
 20
359.000999
 30
0.0
 10
-291.665985
 20
359.000999
 30
0.0
 10
-291.665985
 20
361.001999
 30
0.0
 10
-293.667999
 20
361.001999
 30
0.0
 10
-293.667999
 20
359.000999
 30
0.0
 10
-295.170013
 20
359.000999
 30
0.0
 10
-295.170013
 20
357.000000
 30
0.0
  0
LWPOLYLINE
  5
116
100
AcDbEntity
  8
0
 62
7
100
AcDbPolyline
 90
30
 70
1
 10
-269.001007
 20
118.998993
 30
0.0
 10
-269.001007
 20
118.996994
 30
0.0
 10
-269.001007
 20
116.996994
 30
0.0
 10
-266.998993
 20
116.996994
 30
0.0
 10
-266.998993
 20
118.996994
 30
0.0
 10
-266.998993
 20
118.998993
 30
0.0
 10
-265.497986
 20
118.998993
 30
0.0
 10
-265.497986
 20
121.000000
 30
0.0
 10
-266.998993
 20
121.000000
 30
0.0
 10
-266.998993
 20
124.000000
 30
0.0
 10
-265.497986
 20
124.000000
 30
0.0
 10
-255.000000
 20
124.000000
 30
0.0
 10
-243.503006
 20
124.000000
 30
0.0
 10
-243.503006
 20
118.996994
 30
0.0
 10
-241.000000
 20
118.996994
 30
0.0
 10
-240.500000
 20
118.996994
 30
0.0
 10
-240.500000
 20
114.000000
 30
0.0
 10
-241.000000
 20
114.000000
 30
0.0
 10
-255.000000
 20
114.000000
 30
0.0
 10
-265.497986
 20
114.000000
 30
0.0
 10
-270.502991
 20
114.000000
 30
0.0
 10
-295.000000
 20
114.000000
 30
0.0
 10
-295.000000
 20
118.996994
 30
0.0
 10
-291.997986
 20
118.996994
 30
0.0
 10
-291.997986
 20
124.000000
 30
0.0
 10
-270.502991
 20
124.000000
 30
0.0
 10
-269.001007
 20
124.000000
 30
0.0
 10
-269.001007
 20
121.000000
 30
0.0
 10
-270.502991
 20
121.000000
 30
0.0
 10
-270.502991
 20
118.998993
 30
0.0
  0
LWPOLYLINE
  5
117
100
AcDbEntity
  8
0
 62
7
100
AcDbPolyline
 90
58
 70
1
 10
-322.000000
 20
290.000000
 30
0.0
 10
-319.000000
 20
290.000000
 30
0.0
 10
-319.000000
 20
294.499000
 30
0.0
 10
-316.000000
 20
294.499000
 30
0.0
 10
-316.000000
 20
292.997000
 30
0.0
 10
-313.998993
 20
292.997000
 30
0.0
 10
-313.998993
 20
294.499000
 30
0.0
 10
-311.997986
 20
294.499000
 30
0.0
 10
-311.997986
 20
296.501000
 30
0.0
 10
-313.998993
 20
296.501000
 30
0.0
 10
-313.998993
 20
298.002000
 30
0.0
 10
-316.000000
 20
298.002000
 30
0.0
 10
-316.000000
 20
296.501000
 30
0.0
 10
-319.000000
 20
296.501000
 30
0.0
 10
-319.000000
 20
305.497999
 30
0.0
 10
-316.000000
 20
305.497999
 30
0.0
 10
-311.997986
 20
305.497999
 30
0.0
 10
-300.166992
 20
305.497999
 30
0.0
 10
-297.666992
 20
305.497999
 30
0.0
 10
-293.997986
 20
305.497999
 30
0.0
 10
-293.997986
 20
308.503000
 30
0.0
 10
-297.666992
 20
308.503000
 30
0.0
 10
-300.166992
 20
308.503000
 30
0.0
 10
-311.997986
 20
308.503000
 30
0.0
 10
-316.000000
 20
308.503000
 30
0.0
 10
-319.000000
 20
308.503000
 30
0.0
 10
-319.000000
 20
317.499001
 30
0.0
 10
-316.000000
 20
317.499001
 30
0.0
 10
-316.000000
 20
315.997000
 30
0.0
 10
-313.998993
 20
315.997000
 30
0.0
 10
-313.998993
 20
317.499001
 30
0.0
 10
-311.997986
 20
317.499001
 30
0.0
 10
-311.997986
 20
319.500999
 30
0.0
 10
-313.998993
 20
319.500999
 30
0.0
 10
-313.998993
 20
321.001999
 30
0.0
 10
-316.000000
 20
321.001999
 30
0.0
 10
-316.000000
 20
319.500999
 30
0.0
 10
-319.000000
 20
319.500999
 30
0.0
 10
-319.000000
 20
324.000000
 30
0.0
 10
-322.000000
 20
324.000000
 30
0.0
 10
-322.000000
 20
327.000000
 30
0.0
 10
-319.000000
 20
327.000000
 30
0.0
 10
-316.000000
 20
327.000000
 30
0.0
 10
-311.997986
 20
327.000000
 30
0.0
 10
-300.166992
 20
327.000000
 30
0.0
 10
-297.666992
 20
327.000000
 30
0.0
 10
-293.997986
 20
327.000000
 30
0.0
 10
-287.666992
 20
327.000000
 30
0.0
 10
-269.000000
 20
327.000000
 30
0.0
 10
-269.000000
 20
287.000000
 30
0.0
 10
-287.666992
 20
287.000000
 30
0.0
 10
-293.997986
 20
287.000000
 30
0.0
 10
-297.666992
 20
287.000000
 30
0.0
 10
-300.166992
 20
287.000000
 30
0.0
 10
-311.997986
 20
287.000000
 30
0.0
 10
-316.000000
 20
287.000000
 30
0.0
 10
-319.000000
 20
287.000000
 30
0.0
 10
-322.000000
 20
287.000000
 30
0.0
  0
LWPOLYLINE
  5
118
100
AcDbEntity
  8
0
 62
7
100
AcDbPolyline
 90
30
 70
1
 10
-243.503006
 20
112.000000
 30
0.0
 10
-243.503006
 20
106.996994
 30
0.0
 10
-241.000000
 20
106.996994
 30
0.0
 10
-240.500000
 20
106.996994
 30
0.0
 10
-240.500000
 20
102.000000
 30
0.0
 10
-241.000000
 20
102.000000
 30
0.0
 10
-255.000000
 20
102.000000
 30
0.0
 10
-265.497986
 20
102.000000
 30
0.0
 10
-270.502991
 20
102.000000
 30
0.0
 10
-295.000000
 20
102.000000
 30
0.0
 10
-295.000000
 20
106.996994
 30
0.0
 10
-291.997986
 20
106.996994
 30
0.0
 10
-291.997986
 20
112.000000
 30
0.0
 10
-270.502991
 20
112.000000
 30
0.0
 10
-269.001007
 20
112.000000
 30
0.0
 10
-269.001007
 20
109.000000
 30
0.0
 10
-270.502991
 20
109.000000
 30
0.0
 10
-270.502991
 20
106.998993
 30
0.0
 10
-269.001007
 20
106.998993
 30
0.0
 10
-269.001007
 20
106.996994
 30
0.0
 10
-269.001007
 20
104.996994
 30
0.0
 10
-266.998993
 20
104.996994
 30
0.0
 10
-266.998993
 20
106.996994
 30
0.0
 10
-266.998993
 20
106.998993
 30
0.0
 10
-265.497986
 20
106.998993
 30
0.0
 10
-265.497986
 20
109.000000
 30
0.0
 10
-266.998993
 20
109.000000
 30
0.0
 10
-266.998993
 20
112.000000
 30
0.0
 10
-265.497986
 20
112.000000
 30
0.0
 10
-255.000000
 20
112.000000
 30
0.0
  0
LWPOLYLINE
  5
119
100
AcDbEntity
  8
0
 62
7
100
AcDbPolyline
 90
10
 70
1
 10
-241.000000
 20
126.000000
 30
0.0
 10
-243.998001
 20
126.000000
 30
0.0
 10
-247.003006
 20
126.000000
 30
0.0
 10
-255.000000
 20
126.000000
 30
0.0
 10
-248.083374
 20
132.916626
 30
0.0
 10
-247.003006
 20
133.996994
 30
0.0
 10
-247.003006
 20
129.996994
 30
0.0
 10
-243.998001
 20
129.996994
 30
0.0
 10
-243.998001
 20
134.000000
 30
0.0
 10
-241.000000
 20
134.000000
 30
0.0
  0
LWPOLYLINE
  5
11a
100
AcDbEntity
  8
0
 62
7
100
AcDbPolyline
 90
20
 70
1
 10
-319.000000
 20
232.000000
 30
0.0
 10
-319.000000
 20
235.000000
 30
0.0
 10
-319.000000
 20
285.000000
 30
0.0
 10
-316.000000
 20
285.000000
 30
0.0
 10
-300.166992
 20
285.000000
 30
0.0
 10
-297.666992
 20
285.000000
 30
0.0
 10
-295.502991
 20
285.000000
 30
0.0
 10
-295.502991
 20
259.997000
 30
0.0
 10
-292.497986
 20
259.997000
 30
0.0
 10
-292.497986
 20
285.000000
 30
0.0
 10
-287.666992
 20
285.000000
 30
0.0
 10
-269.000000
 20
285.000000
 30
0.0
 10
-269.000000
 20
235.000000
 30
0.0
 10
-269.000000
 20
232.000000
 30
0.0
 10
-277.000000
 20
232.000000
 30
0.0
 10
-277.000000
 20
235.000000
 30
0.0
 10
-292.497986
 20
235.000000
 30
0.0
 10
-295.502991
 20
235.000000
 30
0.0
 10
-311.000000
 20
235.000000
 30
0.0
 10
-311.000000
 20
232.000000
 30
0.0
  0
LWPOLYLINE
  5
11b
100
AcDbEntity
  8
0
 62
7
100
AcDbPolyline
 90
53
 70
1
 10
-321.000000
 20
95.000000
 30
0.0
 10
-321.000000
 20
100.000000
 30
0.0
 10
-318.000000
 20
100.000000
 30
0.0
 10
-318.000000
 20
124.000000
 30
0.0
 10
-317.949036
 20
124.000000
 30
0.0
 10
-317.808014
 20
124.951004
 30
0.0
 10
-317.569000
 20
125.903000
 30
0.0
 10
-317.239014
 20
126.826996
 30
0.0
 10
-316.819000
 20
127.714005
 30
0.0
 10
-316.315002
 20
128.556000
 30
0.0
 10
-315.730011
 20
129.343994
 30
0.0
 10
-315.071014
 20
130.070999
 30
0.0
 10
-314.343994
 20
130.729996
 30
0.0
 10
-314.102997
 20
130.908920
 30
0.0
 10
-313.556000
 20
131.315002
 30
0.0
 10
-313.000000
 20
131.647812
 30
0.0
 10
-312.713989
 20
131.819000
 30
0.0
 10
-311.826996
 20
132.238998
 30
0.0
 10
-311.295990
 20
132.428650
 30
0.0
 10
-310.903015
 20
132.569000
 30
0.0
 10
-309.950989
 20
132.807999
 30
0.0
 10
-308.980011
 20
132.951996
 30
0.0
 10
-308.000000
 20
133.000000
 30
0.0
 10
-307.019989
 20
132.951996
 30
0.0
 10
-306.049011
 20
132.807999
 30
0.0
 10
-305.096985
 20
132.569000
 30
0.0
 10
-304.173004
 20
132.238998
 30
0.0
 10
-303.286011
 20
131.819000
 30
0.0
 10
-303.104004
 20
131.710052
 30
0.0
 10
-303.000000
 20
131.647812
 30
0.0
 10
-302.444000
 20
131.315002
 30
0.0
 10
-301.997986
 20
130.983902
 30
0.0
 10
-301.656006
 20
130.729996
 30
0.0
 10
-300.928986
 20
130.070999
 30
0.0
 10
-300.269989
 20
129.343994
 30
0.0
 10
-299.684998
 20
128.556000
 30
0.0
 10
-299.181000
 20
127.714005
 30
0.0
 10
-298.760986
 20
126.826996
 30
0.0
 10
-298.431000
 20
125.903000
 30
0.0
 10
-298.204315
 20
125.000000
 30
0.0
 10
-298.191986
 20
124.951004
 30
0.0
 10
-298.050964
 20
124.000000
 30
0.0
 10
-298.048981
 20
124.000000
 30
0.0
 10
-298.000000
 20
124.000000
 30
0.0
 10
-298.000000
 20
100.000000
 30
0.0
 10
-295.000000
 20
100.000000
 30
0.0
 10
-295.000000
 20
98.955994
 30
0.0
 10
-295.000000
 20
95.000000
 30
0.0
 10
-303.000000
 20
95.000000
 30
0.0
 10
-303.000000
 20
92.000000
 30
0.0
 10
-313.000000
 20
92.000000
 30
0.0
 10
-313.000000
 20
95.000000
 30
0.0
 10
-314.102997
 20
95.000000
 30
0.0
  0
LWPOLYLINE
  5
11c
100
AcDbEntity
  8
0
 62
7
100
AcDbPolyline
 90
23
 70
1
 10
-304.695984
 20
342.000000
 30
0.0
 10
-308.035034
 20
342.000000
 30
0.0
 10
-308.666992
 20
340.768616
 30
0.0
 10
-312.140808
 20
334.000000
 30
0.0
 10
-308.666992
 20
334.000000
 30
0.0
 10
-300.592712
 20
334.000000
 30
0.0
 10
-300.166992
 20
334.000000
 30
0.0
 10
-297.666992
 20
334.000000
 30
0.0
 10
-297.666992
 20
337.500000
 30
0.0
 10
-297.666992
 20
338.833252
 30
0.0
 10
-297.666992
 20
339.079948
 30
0.0
 10
-297.666992
 20
339.262218
 30
0.0
 10
-297.666992
 20
339.381351
 30
0.0
 10
-297.666992
 20
339.421799
 30
0.0
 10
-297.970001
 20
339.696999
 30
0.0
 10
-298.464996
 20
340.242001
 30
0.0
 10
-298.903015
 20
340.833000
 30
0.0
 10
-299.208618
 20
341.344002
 30
0.0
 10
-299.281006
 20
341.465000
 30
0.0
 10
-299.534424
 20
342.000000
 30
0.0
 10
-299.600983
 20
342.000000
 30
0.0
 10
-300.166992
 20
342.000000
 30
0.0
 10
-303.420013
 20
342.000000
 30
0.0
  0
LWPOLYLINE
  5
11d
100
AcDbEntity
  8
0
 62
7
100
AcDbPolyline
 90
24
 70
1
 10
-286.053009
 20
341.465000
 30
0.0
 10
-286.125366
 20
341.344002
 30
0.0
 10
-286.431000
 20
340.833000
 30
0.0
 10
-286.868988
 20
340.242001
 30
0.0
 10
-287.364014
 20
339.696999
 30
0.0
 10
-287.666992
 20
339.421799
 30
0.0
 10
-287.666992
 20
339.363396
 30
0.0
 10
-287.666992
 20
339.165245
 30
0.0
 10
-287.666992
 20
338.766460
 30
0.0
 10
-287.666992
 20
337.500000
 30
0.0
 10
-287.666992
 20
334.000000
 30
0.0
 10
-284.776611
 20
334.000000
 30
0.0
 10
-273.223389
 20
334.000000
 30
0.0
 10
-275.019897
 20
337.500000
 30
0.0
 10
-276.666992
 20
340.708855
 30
0.0
 10
-277.329742
 20
342.000000
 30
0.0
 10
-280.670258
 20
342.000000
 30
0.0
 10
-285.166992
 20
342.000000
 30
0.0
 10
-285.313934
 20
342.000000
 30
0.0
 10
-285.539001
 20
342.000000
 30
0.0
 10
-285.696320
 20
342.000000
 30
0.0
 10
-285.784515
 20
342.000000
 30
0.0
 10
-285.799591
 20
342.000000
 30
0.0
 10
-286.037354
 20
341.498001
 30
0.0
  0
LWPOLYLINE
  5
11e
100
AcDbEntity
  8
0
 62
7
100
AcDbPolyline
 90
24
 70
1
 10
-203.690002
 20
177.367996
 30
0.0
 10
-204.000000
 20
177.417999
 30
0.0
 10
-204.309998
 20
177.367996
 30
0.0
 10
-204.589005
 20
177.223999
 30
0.0
 10
-204.800003
 20
177.010147
 30
0.0
 10
-204.811005
 20
176.999001
 30
0.0
 10
-204.953003
 20
176.716003
 30
0.0
 10
-205.003006
 20
176.401001
 30
0.0
 10
-204.953003
 20
176.086998
 30
0.0
 10
-204.811005
 20
175.804001
 30
0.0
 10
-204.800003
 20
175.792854
 30
0.0
 10
-204.589005
 20
175.579002
 30
0.0
 10
-204.350693
 20
175.456001
 30
0.0
 10
-204.309998
 20
175.434998
 30
0.0
 10
-204.000000
 20
175.385002
 30
0.0
 10
-203.690002
 20
175.434998
 30
0.0
 10
-203.649307
 20
175.456001
 30
0.0
 10
-203.410995
 20
175.579002
 30
0.0
 10
-203.188995
 20
175.804001
 30
0.0
 10
-203.046997
 20
176.086998
 30
0.0
 10
-202.998001
 20
176.401001
 30
0.0
 10
-203.046997
 20
176.716003
 30
0.0
 10
-203.188995
 20
176.999001
 30
0.0
 10
-203.410995
 20
177.223999
 30
0.0
  0
LWPOLYLINE
  5
11f
100
AcDbEntity
  8
0
 62
7
100
AcDbPolyline
 90
24
 70
1
 10
-196.688995
 20
184.411003
 30
0.0
 10
-196.608002
 20
184.570145
 30
0.0
 10
-196.546997
 20
184.690002
 30
0.0
 10
-196.498001
 20
185.000000
 30
0.0
 10
-196.546997
 20
185.309998
 30
0.0
 10
-196.608002
 20
185.429855
 30
0.0
 10
-196.688995
 20
185.588997
 30
0.0
 10
-196.796005
 20
185.695999
 30
0.0
 10
-196.910995
 20
185.810997
 30
0.0
 10
-197.190002
 20
185.953003
 30
0.0
 10
-197.500000
 20
186.001999
 30
0.0
 10
-197.809998
 20
185.953003
 30
0.0
 10
-198.089005
 20
185.810997
 30
0.0
 10
-198.203995
 20
185.695999
 30
0.0
 10
-198.311005
 20
185.588997
 30
0.0
 10
-198.453003
 20
185.309998
 30
0.0
 10
-198.503006
 20
185.000000
 30
0.0
 10
-198.453003
 20
184.690002
 30
0.0
 10
-198.311005
 20
184.411003
 30
0.0
 10
-198.089005
 20
184.189003
 30
0.0
 10
-197.809998
 20
184.046997
 30
0.0
 10
-197.500000
 20
183.997002
 30
0.0
 10
-197.190002
 20
184.046997
 30
0.0
 10
-196.910995
 20
184.189003
 30
0.0
  0
LWPOLYLINE
  5
120
100
AcDbEntity
  8
0
 62
7
100
AcDbPolyline
 90
22
 70
1
 10
-224.690002
 20
176.953003
 30
0.0
 10
-225.000000
 20
177.001999
 30
0.0
 10
-225.309998
 20
176.953003
 30
0.0
 10
-225.589005
 20
176.810997
 30
0.0
 10
-225.811005
 20
176.588997
 30
0.0
 10
-225.953003
 20
176.309998
 30
0.0
 10
-226.003006
 20
176.000000
 30
0.0
 10
-225.953003
 20
175.690002
 30
0.0
 10
-225.833908
 20
175.456001
 30
0.0
 10
-225.811005
 20
175.411003
 30
0.0
 10
-225.589005
 20
175.189003
 30
0.0
 10
-225.309998
 20
175.046997
 30
0.0
 10
-225.000000
 20
174.997002
 30
0.0
 10
-224.690002
 20
175.046997
 30
0.0
 10
-224.410995
 20
175.189003
 30
0.0
 10
-224.188995
 20
175.411003
 30
0.0
 10
-224.166092
 20
175.456001
 30
0.0
 10
-224.046997
 20
175.690002
 30
0.0
 10
-223.998001
 20
176.000000
 30
0.0
 10
-224.046997
 20
176.309998
 30
0.0
 10
-224.188995
 20
176.588997
 30
0.0
 10
-224.410995
 20
176.810997
 30
0.0
  0
LWPOLYLINE
  5
121
100
AcDbEntity
  8
0
 62
7
100
AcDbPolyline
 90
27
 70
1
 10
-220.474701
 20
185.998001
 30
0.0
 10
-220.500000
 20
186.001999
 30
0.0
 10
-220.525299
 20
185.998001
 30
0.0
 10
-220.809998
 20
185.953003
 30
0.0
 10
-221.089005
 20
185.810997
 30
0.0
 10
-221.203995
 20
185.695999
 30
0.0
 10
-221.311005
 20
185.588997
 30
0.0
 10
-221.453003
 20
185.309998
 30
0.0
 10
-221.503006
 20
185.000000
 30
0.0
 10
-221.453003
 20
184.690002
 30
0.0
 10
-221.311005
 20
184.411003
 30
0.0
 10
-221.184006
 20
184.283997
 30
0.0
 10
-221.089005
 20
184.189003
 30
0.0
 10
-220.809998
 20
184.046997
 30
0.0
 10
-220.500000
 20
183.997002
 30
0.0
 10
-220.190002
 20
184.046997
 30
0.0
 10
-220.000000
 20
184.143700
 30
0.0
 10
-219.910995
 20
184.189003
 30
0.0
 10
-219.688995
 20
184.411003
 30
0.0
 10
-219.546997
 20
184.690002
 30
0.0
 10
-219.498001
 20
185.000000
 30
0.0
 10
-219.546997
 20
185.309998
 30
0.0
 10
-219.688995
 20
185.588997
 30
0.0
 10
-219.796005
 20
185.695999
 30
0.0
 10
-219.910995
 20
185.810997
 30
0.0
 10
-220.000000
 20
185.856300
 30
0.0
 10
-220.190002
 20
185.953003
 30
0.0
  0
LWPOLYLINE
  5
122
100
AcDbEntity
  8
0
 62
7
100
AcDbPolyline
 90
22
 70
1
 10
-204.953003
 20
193.809998
 30
0.0
 10
-205.003006
 20
193.500000
 30
0.0
 10
-204.953003
 20
193.190002
 30
0.0
 10
-204.811005
 20
192.911003
 30
0.0
 10
-204.589005
 20
192.689003
 30
0.0
 10
-204.309998
 20
192.546997
 30
0.0
 10
-204.000000
 20
192.497002
 30
0.0
 10
-203.690002
 20
192.546997
 30
0.0
 10
-203.410995
 20
192.689003
 30
0.0
 10
-203.188995
 20
192.911003
 30
0.0
 10
-203.046997
 20
193.190002
 30
0.0
 10
-202.998001
 20
193.500000
 30
0.0
 10
-203.046997
 20
193.809998
 30
0.0
 10
-203.086700
 20
193.888000
 30
0.0
 10
-203.188995
 20
194.088997
 30
0.0
 10
-203.410995
 20
194.310997
 30
0.0
 10
-203.690002
 20
194.453003
 30
0.0
 10
-204.000000
 20
194.501999
 30
0.0
 10
-204.309998
 20
194.453003
 30
0.0
 10
-204.589005
 20
194.310997
 30
0.0
 10
-204.811005
 20
194.088997
 30
0.0
 10
-204.913300
 20
193.888000
 30
0.0
  0
LWPOLYLINE
  5
123
100
AcDbEntity
  8
0
 62
7
100
AcDbPolyline
 90
22
 70
1
 10
-193.811005
 20
194.088997
 30
0.0
 10
-193.913300
 20
193.888000
 30
0.0
 10
-193.953003
 20
193.809998
 30
0.0
 10
-194.003006
 20
193.500000
 30
0.0
 10
-193.953003
 20
193.190002
 30
0.0
 10
-193.811005
 20
192.911003
 30
0.0
 10
-193.589005
 20
192.689003
 30
0.0
 10
-193.309998
 20
192.546997
 30
0.0
 10
-193.000000
 20
192.497002
 30
0.0
 10
-192.690002
 20
192.546997
 30
0.0
 10
-192.410995
 20
192.689003
 30
0.0
 10
-192.188995
 20
192.911003
 30
0.0
 10
-192.046997
 20
193.190002
 30
0.0
 10
-191.998001
 20
193.500000
 30
0.0
 10
-192.046997
 20
193.809998
 30
0.0
 10
-192.086700
 20
193.888000
 30
0.0
 10
-192.188995
 20
194.088997
 30
0.0
 10
-192.410995
 20
194.310997
 30
0.0
 10
-192.690002
 20
194.453003
 30
0.0
 10
-193.000000
 20
194.501999
 30
0.0
 10
-193.309998
 20
194.453003
 30
0.0
 10
-193.589005
 20
194.310997
 30
0.0
  0
LWPOLYLINE
  5
124
100
AcDbEntity
  8
0
 62
7
100
AcDbPolyline
 90
23
 70
1
 10
-224.188995
 20
193.695999
 30
0.0
 10
-224.378433
 20
193.888000
 30
0.0
 10
-224.410995
 20
193.920998
 30
0.0
 10
-224.690002
 20
194.065002
 30
0.0
 10
-225.000000
 20
194.114998
 30
0.0
 10
-225.309998
 20
194.065002
 30
0.0
 10
-225.589005
 20
193.920998
 30
0.0
 10
-225.621567
 20
193.888000
 30
0.0
 10
-225.811005
 20
193.695999
 30
0.0
 10
-225.953003
 20
193.413002
 30
0.0
 10
-226.003006
 20
193.098999
 30
0.0
 10
-225.953003
 20
192.783997
 30
0.0
 10
-225.811005
 20
192.500999
 30
0.0
 10
-225.589005
 20
192.276001
 30
0.0
 10
-225.309998
 20
192.132004
 30
0.0
 10
-225.279999
 20
192.127159
 30
0.0
 10
-225.000000
 20
192.082001
 30
0.0
 10
-224.690002
 20
192.132004
 30
0.0
 10
-224.410995
 20
192.276001
 30
0.0
 10
-224.188995
 20
192.500999
 30
0.0
 10
-224.046997
 20
192.783997
 30
0.0
 10
-223.998001
 20
193.098999
 30
0.0
 10
-224.046997
 20
193.413002
 30
0.0
  0
LWPOLYLINE
  5
125
100
AcDbEntity
  8
0
 62
7
100
AcDbPolyline
 90
24
 70
1
 10
-307.821991
 20
99.742004
 30
0.0
 10
-307.571014
 20
99.869995
 30
0.0
 10
-307.441010
 20
100.000000
 30
0.0
 10
-307.372009
 20
100.069000
 30
0.0
 10
-307.243988
 20
100.320007
 30
0.0
 10
-307.200012
 20
100.598007
 30
0.0
 10
-307.216766
 20
100.703995
 30
0.0
 10
-307.243988
 20
100.876007
 30
0.0
 10
-307.372009
 20
101.126999
 30
0.0
 10
-307.571014
 20
101.326004
 30
0.0
 10
-307.821991
 20
101.453995
 30
0.0
 10
-308.100006
 20
101.498001
 30
0.0
 10
-308.377991
 20
101.453995
 30
0.0
 10
-308.628998
 20
101.326004
 30
0.0
 10
-308.828003
 20
101.126999
 30
0.0
 10
-308.955994
 20
100.876007
 30
0.0
 10
-308.983215
 20
100.703995
 30
0.0
 10
-309.000000
 20
100.598007
 30
0.0
 10
-308.955994
 20
100.320007
 30
0.0
 10
-308.828003
 20
100.069000
 30
0.0
 10
-308.759003
 20
100.000000
 30
0.0
 10
-308.628998
 20
99.869995
 30
0.0
 10
-308.377991
 20
99.742004
 30
0.0
 10
-308.100006
 20
99.697998
 30
0.0
  0
LWPOLYLINE
  5
126
100
AcDbEntity
  8
0
 62
7
100
AcDbPolyline
 90
24
 70
1
 10
-192.046997
 20
176.086998
 30
0.0
 10
-191.998001
 20
176.401001
 30
0.0
 10
-192.046997
 20
176.716003
 30
0.0
 10
-192.188995
 20
176.999001
 30
0.0
 10
-192.410995
 20
177.223999
 30
0.0
 10
-192.511993
 20
177.276131
 30
0.0
 10
-192.690002
 20
177.367996
 30
0.0
 10
-193.000000
 20
177.417999
 30
0.0
 10
-193.309998
 20
177.367996
 30
0.0
 10
-193.589005
 20
177.223999
 30
0.0
 10
-193.811005
 20
176.999001
 30
0.0
 10
-193.953003
 20
176.716003
 30
0.0
 10
-194.003006
 20
176.401001
 30
0.0
 10
-193.953003
 20
176.086998
 30
0.0
 10
-193.811005
 20
175.804001
 30
0.0
 10
-193.589005
 20
175.579002
 30
0.0
 10
-193.350693
 20
175.456001
 30
0.0
 10
-193.309998
 20
175.434998
 30
0.0
 10
-193.000000
 20
175.385002
 30
0.0
 10
-192.690002
 20
175.434998
 30
0.0
 10
-192.649307
 20
175.456001
 30
0.0
 10
-192.511993
 20
175.526871
 30
0.0
 10
-192.410995
 20
175.579002
 30
0.0
 10
-192.188995
 20
175.804001
 30
0.0
  0
LWPOLYLINE
  5
127
100
AcDbEntity
  8
0
 62
7
100
AcDbPolyline
 90
23
 70
1
 10
-214.953003
 20
193.413002
 30
0.0
 10
-215.003006
 20
193.098999
 30
0.0
 10
-214.953003
 20
192.783997
 30
0.0
 10
-214.811005
 20
192.500999
 30
0.0
 10
-214.589005
 20
192.276001
 30
0.0
 10
-214.309998
 20
192.132004
 30
0.0
 10
-214.016006
 20
192.084579
 30
0.0
 10
-214.000000
 20
192.082001
 30
0.0
 10
-213.690002
 20
192.132004
 30
0.0
 10
-213.410995
 20
192.276001
 30
0.0
 10
-213.188995
 20
192.500999
 30
0.0
 10
-213.046997
 20
192.783997
 30
0.0
 10
-212.998001
 20
193.098999
 30
0.0
 10
-213.046997
 20
193.413002
 30
0.0
 10
-213.188995
 20
193.695999
 30
0.0
 10
-213.378433
 20
193.888000
 30
0.0
 10
-213.410995
 20
193.920998
 30
0.0
 10
-213.690002
 20
194.065002
 30
0.0
 10
-214.000000
 20
194.114998
 30
0.0
 10
-214.309998
 20
194.065002
 30
0.0
 10
-214.589005
 20
193.920998
 30
0.0
 10
-214.621567
 20
193.888000
 30
0.0
 10
-214.811005
 20
193.695999
 30
0.0
  0
LWPOLYLINE
  5
128
100
AcDbEntity
  8
0
 62
7
100
AcDbPolyline
 90
71
 70
1
 10
-208.901993
 20
147.498001
 30
0.0
 10
-209.000000
 20
147.501999
 30
0.0
 10
-209.098007
 20
147.498001
 30
0.0
 10
-209.195999
 20
147.483002
 30
0.0
 10
-209.291000
 20
147.459000
 30
0.0
 10
-209.384003
 20
147.425995
 30
0.0
 10
-209.473007
 20
147.384003
 30
0.0
 10
-209.557007
 20
147.334000
 30
0.0
 10
-209.636002
 20
147.274994
 30
0.0
 10
-209.709000
 20
147.209000
 30
0.0
 10
-209.774994
 20
147.136002
 30
0.0
 10
-209.834000
 20
147.057007
 30
0.0
 10
-209.884003
 20
146.973007
 30
0.0
 10
-209.919998
 20
146.896713
 30
0.0
 10
-209.925995
 20
146.884003
 30
0.0
 10
-209.959000
 20
146.791000
 30
0.0
 10
-209.960770
 20
146.783997
 30
0.0
 10
-209.983002
 20
146.695999
 30
0.0
 10
-209.998001
 20
146.598007
 30
0.0
 10
-210.003006
 20
146.500000
 30
0.0
 10
-209.998001
 20
146.401993
 30
0.0
 10
-209.983002
 20
146.304001
 30
0.0
 10
-209.959000
 20
146.209000
 30
0.0
 10
-209.925995
 20
146.115997
 30
0.0
 10
-209.884003
 20
146.026993
 30
0.0
 10
-209.834000
 20
145.942993
 30
0.0
 10
-209.774994
 20
145.863998
 30
0.0
 10
-209.709000
 20
145.791000
 30
0.0
 10
-209.674713
 20
145.759995
 30
0.0
 10
-209.636002
 20
145.725006
 30
0.0
 10
-209.557007
 20
145.666000
 30
0.0
 10
-209.473007
 20
145.615997
 30
0.0
 10
-209.384003
 20
145.574005
 30
0.0
 10
-209.291000
 20
145.541000
 30
0.0
 10
-209.195999
 20
145.516998
 30
0.0
 10
-209.098007
 20
145.501999
 30
0.0
 10
-209.000000
 20
145.496994
 30
0.0
 10
-208.901993
 20
145.501999
 30
0.0
 10
-208.895996
 20
145.502914
 30
0.0
 10
-208.804001
 20
145.516998
 30
0.0
 10
-208.709000
 20
145.541000
 30
0.0
 10
-208.615997
 20
145.574005
 30
0.0
 10
-208.526993
 20
145.615997
 30
0.0
 10
-208.442993
 20
145.666000
 30
0.0
 10
-208.363998
 20
145.725006
 30
0.0
 10
-208.325287
 20
145.759995
 30
0.0
 10
-208.291000
 20
145.791000
 30
0.0
 10
-208.225006
 20
145.863998
 30
0.0
 10
-208.166000
 20
145.942993
 30
0.0
 10
-208.115997
 20
146.026993
 30
0.0
 10
-208.074005
 20
146.115997
 30
0.0
 10
-208.041000
 20
146.209000
 30
0.0
 10
-208.016998
 20
146.304001
 30
0.0
 10
-208.001999
 20
146.401993
 30
0.0
 10
-207.998001
 20
146.500000
 30
0.0
 10
-208.001999
 20
146.598007
 30
0.0
 10
-208.016998
 20
146.695999
 30
0.0
 10
-208.039230
 20
146.783997
 30
0.0
 10
-208.041000
 20
146.791000
 30
0.0
 10
-208.074005
 20
146.884003
 30
0.0
 10
-208.115997
 20
146.973007
 30
0.0
 10
-208.166000
 20
147.057007
 30
0.0
 10
-208.225006
 20
147.136002
 30
0.0
 10
-208.291000
 20
147.209000
 30
0.0
 10
-208.363998
 20
147.274994
 30
0.0
 10
-208.442993
 20
147.334000
 30
0.0
 10
-208.526993
 20
147.384003
 30
0.0
 10
-208.615997
 20
147.425995
 30
0.0
 10
-208.709000
 20
147.459000
 30
0.0
 10
-208.804001
 20
147.483002
 30
0.0
 10
-208.895996
 20
147.497086
 30
0.0
  0
LWPOLYLINE
  5
129
100
AcDbEntity
  8
0
 62
7
100
AcDbPolyline
 90
22
 70
1
 10
-214.953003
 20
176.309998
 30
0.0
 10
-215.003006
 20
176.000000
 30
0.0
 10
-214.953003
 20
175.690002
 30
0.0
 10
-214.833908
 20
175.456001
 30
0.0
 10
-214.811005
 20
175.411003
 30
0.0
 10
-214.589005
 20
175.189003
 30
0.0
 10
-214.309998
 20
175.046997
 30
0.0
 10
-214.000000
 20
174.997002
 30
0.0
 10
-213.690002
 20
175.046997
 30
0.0
 10
-213.410995
 20
175.189003
 30
0.0
 10
-213.188995
 20
175.411003
 30
0.0
 10
-213.166092
 20
175.456001
 30
0.0
 10
-213.046997
 20
175.690002
 30
0.0
 10
-212.998001
 20
176.000000
 30
0.0
 10
-213.046997
 20
176.309998
 30
0.0
 10
-213.188995
 20
176.588997
 30
0.0
 10
-213.410995
 20
176.810997
 30
0.0
 10
-213.690002
 20
176.953003
 30
0.0
 10
-214.000000
 20
177.001999
 30
0.0
 10
-214.309998
 20
176.953003
 30
0.0
 10
-214.589005
 20
176.810997
 30
0.0
 10
-214.811005
 20
176.588997
 30
0.0
  0
LWPOLYLINE
  5
12a
100
AcDbEntity
  8
0
 62
7
100
AcDbPolyline
 90
8
 70
1
 10
-210.503006
 20
159.997002
 30
0.0
 10
-210.003006
 20
159.997002
 30
0.0
 10
-207.998001
 20
159.997002
 30
0.0
 10
-207.498001
 20
159.997002
 30
0.0
 10
-207.498001
 20
168.001999
 30
0.0
 10
-207.998001
 20
168.001999
 30
0.0
 10
-210.003006
 20
168.001999
 30
0.0
 10
-210.503006
 20
168.001999
 30
0.0
  0
LWPOLYLINE
  5
12b
100
AcDbEntity
  8
0
 62
7
100
AcDbPolyline
 90
72
 70
1
 10
-277.531006
 20
154.466995
 30
0.0
 10
-277.503998
 20
154.442947
 30
0.0
 10
-277.476013
 20
154.417999
 30
0.0
 10
-277.416992
 20
154.373993
 30
0.0
 10
-277.354004
 20
154.335999
 30
0.0
 10
-277.286987
 20
154.304993
 30
0.0
 10
-277.217987
 20
154.279999
 30
0.0
 10
-277.145996
 20
154.261993
 30
0.0
 10
-277.074005
 20
154.251007
 30
0.0
 10
-277.000000
 20
154.248001
 30
0.0
 10
-276.992004
 20
154.248322
 30
0.0
 10
-276.925995
 20
154.251007
 30
0.0
 10
-276.854004
 20
154.261993
 30
0.0
 10
-276.782013
 20
154.279999
 30
0.0
 10
-276.713013
 20
154.304993
 30
0.0
 10
-276.645996
 20
154.335999
 30
0.0
 10
-276.583008
 20
154.373993
 30
0.0
 10
-276.523987
 20
154.417999
 30
0.0
 10
-276.480011
 20
154.457199
 30
0.0
 10
-276.468994
 20
154.466995
 30
0.0
 10
-276.420013
 20
154.522003
 30
0.0
 10
-276.376007
 20
154.580994
 30
0.0
 10
-276.338013
 20
154.643997
 30
0.0
 10
-276.307007
 20
154.710999
 30
0.0
 10
-276.282013
 20
154.779999
 30
0.0
 10
-276.264008
 20
154.850998
 30
0.0
 10
-276.252991
 20
154.923996
 30
0.0
 10
-276.250183
 20
154.975998
 30
0.0
 10
-276.248993
 20
154.998001
 30
0.0
 10
-276.252991
 20
155.070999
 30
0.0
 10
-276.264008
 20
155.143997
 30
0.0
 10
-276.282013
 20
155.214996
 30
0.0
 10
-276.307007
 20
155.285004
 30
0.0
 10
-276.338013
 20
155.350998
 30
0.0
 10
-276.376007
 20
155.414001
 30
0.0
 10
-276.420013
 20
155.473999
 30
0.0
 10
-276.468994
 20
155.528000
 30
0.0
 10
-276.480011
 20
155.537994
 30
0.0
 10
-276.523987
 20
155.578003
 30
0.0
 10
-276.583008
 20
155.621002
 30
0.0
 10
-276.645996
 20
155.658997
 30
0.0
 10
-276.713013
 20
155.690994
 30
0.0
 10
-276.782013
 20
155.716003
 30
0.0
 10
-276.854004
 20
155.733002
 30
0.0
 10
-276.925995
 20
155.744003
 30
0.0
 10
-276.992004
 20
155.747574
 30
0.0
 10
-277.000000
 20
155.748001
 30
0.0
 10
-277.074005
 20
155.744003
 30
0.0
 10
-277.145996
 20
155.733002
 30
0.0
 10
-277.217987
 20
155.716003
 30
0.0
 10
-277.286987
 20
155.690994
 30
0.0
 10
-277.354004
 20
155.658997
 30
0.0
 10
-277.416992
 20
155.621002
 30
0.0
 10
-277.476013
 20
155.578003
 30
0.0
 10
-277.503998
 20
155.552551
 30
0.0
 10
-277.531006
 20
155.528000
 30
0.0
 10
-277.579987
 20
155.473999
 30
0.0
 10
-277.623993
 20
155.414001
 30
0.0
 10
-277.661987
 20
155.350998
 30
0.0
 10
-277.692993
 20
155.285004
 30
0.0
 10
-277.717987
 20
155.214996
 30
0.0
 10
-277.735992
 20
155.143997
 30
0.0
 10
-277.747009
 20
155.070999
 30
0.0
 10
-277.751007
 20
154.998001
 30
0.0
 10
-277.749817
 20
154.975998
 30
0.0
 10
-277.747009
 20
154.923996
 30
0.0
 10
-277.735992
 20
154.850998
 30
0.0
 10
-277.717987
 20
154.779999
 30
0.0
 10
-277.692993
 20
154.710999
 30
0.0
 10
-277.661987
 20
154.643997
 30
0.0
 10
-277.623993
 20
154.580994
 30
0.0
 10
-277.579987
 20
154.522003
 30
0.0
  0
LWPOLYLINE
  5
12c
100
AcDbEntity
  8
0
 62
7
100
AcDbPolyline
 90
30
 70
1
 10
-191.598007
 20
334.432117
 30
0.0
 10
-191.598007
 20
335.541397
 30
0.0
 10
-191.598007
 20
339.001999
 30
0.0
 10
-193.000000
 20
339.001999
 30
0.0
 10
-198.000000
 20
339.001999
 30
0.0
 10
-202.380890
 20
339.001999
 30
0.0
 10
-208.000000
 20
339.001999
 30
0.0
 10
-213.000000
 20
339.001999
 30
0.0
 10
-214.201996
 20
339.001999
 30
0.0
 10
-214.201996
 20
337.248001
 30
0.0
 10
-214.201996
 20
333.152000
 30
0.0
 10
-214.201996
 20
332.904053
 30
0.0
 10
-214.201996
 20
332.300453
 30
0.0
 10
-214.201996
 20
332.225872
 30
0.0
 10
-214.201996
 20
331.720829
 30
0.0
 10
-214.201996
 20
331.499817
 30
0.0
 10
-214.201996
 20
329.056000
 30
0.0
 10
-214.201996
 20
327.338272
 30
0.0
 10
-214.201996
 20
326.896999
 30
0.0
 10
-213.437637
 20
326.896999
 30
0.0
 10
-213.000000
 20
326.896999
 30
0.0
 10
-208.000000
 20
326.896999
 30
0.0
 10
-198.000000
 20
326.896999
 30
0.0
 10
-193.000000
 20
326.896999
 30
0.0
 10
-191.598007
 20
326.896999
 30
0.0
 10
-191.598007
 20
332.774559
 30
0.0
 10
-191.598007
 20
333.152000
 30
0.0
 10
-191.598007
 20
333.573017
 30
0.0
 10
-191.598007
 20
333.654037
 30
0.0
 10
-191.598007
 20
334.196659
 30
0.0
  0
LWPOLYLINE
  5
12d
100
AcDbEntity
  8
0
 62
7
100
AcDbPolyline
 90
74
 70
1
 10
-276.248993
 20
161.583099
 30
0.0
 10
-275.983002
 20
161.650002
 30
0.0
 10
-275.660004
 20
161.765999
 30
0.0
 10
-275.348999
 20
161.913002
 30
0.0
 10
-275.053986
 20
162.088997
 30
0.0
 10
-274.778015
 20
162.293999
 30
0.0
 10
-274.523010
 20
162.525002
 30
0.0
 10
-274.432007
 20
162.625496
 30
0.0
 10
-274.292999
 20
162.778999
 30
0.0
 10
-274.088013
 20
163.055000
 30
0.0
 10
-273.911011
 20
163.349998
 30
0.0
 10
-273.764008
 20
163.660004
 30
0.0
 10
-273.648010
 20
163.984001
 30
0.0
 10
-273.565002
 20
164.317001
 30
0.0
 10
-273.514008
 20
164.656998
 30
0.0
 10
-273.497986
 20
165.000000
 30
0.0
 10
-273.508087
 20
165.216003
 30
0.0
 10
-273.514008
 20
165.343002
 30
0.0
 10
-273.565002
 20
165.682999
 30
0.0
 10
-273.648010
 20
166.015999
 30
0.0
 10
-273.764008
 20
166.339996
 30
0.0
 10
-273.911011
 20
166.650002
 30
0.0
 10
-274.088013
 20
166.945000
 30
0.0
 10
-274.292999
 20
167.221001
 30
0.0
 10
-274.432007
 20
167.374504
 30
0.0
 10
-274.523010
 20
167.474998
 30
0.0
 10
-274.778015
 20
167.706001
 30
0.0
 10
-275.053986
 20
167.911003
 30
0.0
 10
-275.348999
 20
168.086998
 30
0.0
 10
-275.660004
 20
168.234001
 30
0.0
 10
-275.983002
 20
168.349998
 30
0.0
 10
-276.248993
 20
168.416901
 30
0.0
 10
-276.316986
 20
168.433998
 30
0.0
 10
-276.657013
 20
168.484001
 30
0.0
 10
-277.000000
 20
168.500999
 30
0.0
 10
-277.342987
 20
168.484001
 30
0.0
 10
-277.683014
 20
168.433998
 30
0.0
 10
-277.751007
 20
168.416901
 30
0.0
 10
-278.016998
 20
168.349998
 30
0.0
 10
-278.339996
 20
168.234001
 30
0.0
 10
-278.528015
 20
168.145142
 30
0.0
 10
-278.651001
 20
168.086998
 30
0.0
 10
-278.946014
 20
167.911003
 30
0.0
 10
-279.221985
 20
167.706001
 30
0.0
 10
-279.476990
 20
167.474998
 30
0.0
 10
-279.707001
 20
167.221001
 30
0.0
 10
-279.911987
 20
166.945000
 30
0.0
 10
-280.088989
 20
166.650002
 30
0.0
 10
-280.235992
 20
166.339996
 30
0.0
 10
-280.351990
 20
166.015999
 30
0.0
 10
-280.434998
 20
165.682999
 30
0.0
 10
-280.485992
 20
165.343002
 30
0.0
 10
-280.492310
 20
165.216003
 30
0.0
 10
-280.502991
 20
165.000000
 30
0.0
 10
-280.485992
 20
164.656998
 30
0.0
 10
-280.434998
 20
164.317001
 30
0.0
 10
-280.351990
 20
163.984001
 30
0.0
 10
-280.235992
 20
163.660004
 30
0.0
 10
-280.088989
 20
163.349998
 30
0.0
 10
-279.911987
 20
163.055000
 30
0.0
 10
-279.707001
 20
162.778999
 30
0.0
 10
-279.476990
 20
162.525002
 30
0.0
 10
-279.221985
 20
162.293999
 30
0.0
 10
-278.946014
 20
162.088997
 30
0.0
 10
-278.651001
 20
161.913002
 30
0.0
 10
-278.528015
 20
161.854858
 30
0.0
 10
-278.339996
 20
161.765999
 30
0.0
 10
-278.016998
 20
161.650002
 30
0.0
 10
-277.751007
 20
161.583099
 30
0.0
 10
-277.683014
 20
161.566002
 30
0.0
 10
-277.342987
 20
161.515999
 30
0.0
 10
-277.000000
 20
161.499001
 30
0.0
 10
-276.657013
 20
161.515999
 30
0.0
 10
-276.316986
 20
161.566002
 30
0.0
  0
LWPOLYLINE
  5
12e
100
AcDbEntity
  8
0
 62
7
100
AcDbPolyline
 90
27
 70
1
 10
-188.416000
 20
332.028805
 30
0.0
 10
-188.320007
 20
332.043999
 30
0.0
 10
-188.098022
 20
332.157200
 30
0.0
 10
-188.069000
 20
332.172001
 30
0.0
 10
-187.914063
 20
332.326935
 30
0.0
 10
-187.869995
 20
332.370998
 30
0.0
 10
-187.753220
 20
332.599998
 30
0.0
 10
-187.742004
 20
332.622002
 30
0.0
 10
-187.697998
 20
332.900002
 30
0.0
 10
-187.737885
 20
333.152000
 30
0.0
 10
-187.742004
 20
333.178001
 30
0.0
 10
-187.869995
 20
333.429001
 30
0.0
 10
-188.069000
 20
333.627998
 30
0.0
 10
-188.320007
 20
333.756001
 30
0.0
 10
-188.416000
 20
333.771194
 30
0.0
 10
-188.598007
 20
333.799999
 30
0.0
 10
-188.876007
 20
333.756001
 30
0.0
 10
-189.126999
 20
333.627998
 30
0.0
 10
-189.326004
 20
333.429001
 30
0.0
 10
-189.453995
 20
333.178001
 30
0.0
 10
-189.458115
 20
333.152000
 30
0.0
 10
-189.498001
 20
332.900002
 30
0.0
 10
-189.453995
 20
332.622002
 30
0.0
 10
-189.326004
 20
332.370998
 30
0.0
 10
-189.126999
 20
332.172001
 30
0.0
 10
-188.876007
 20
332.043999
 30
0.0
 10
-188.598007
 20
332.000000
 30
0.0
  0
LWPOLYLINE
  5
12f
100
AcDbEntity
  8
0
 62
7
100
AcDbPolyline
 90
32
 70
1
 10
-216.723999
 20
332.043999
 30
0.0
 10
-216.473007
 20
332.172001
 30
0.0
 10
-216.274002
 20
332.370998
 30
0.0
 10
-216.145996
 20
332.622002
 30
0.0
 10
-216.102005
 20
332.900002
 30
0.0
 10
-216.141891
 20
333.152000
 30
0.0
 10
-216.145996
 20
333.178001
 30
0.0
 10
-216.274002
 20
333.429001
 30
0.0
 10
-216.473007
 20
333.627998
 30
0.0
 10
-216.723999
 20
333.756001
 30
0.0
 10
-217.001999
 20
333.799999
 30
0.0
 10
-217.087997
 20
333.786388
 30
0.0
 10
-217.279999
 20
333.756001
 30
0.0
 10
-217.531006
 20
333.627998
 30
0.0
 10
-217.729996
 20
333.429001
 30
0.0
 10
-217.795792
 20
333.299999
 30
0.0
 10
-217.858002
 20
333.178001
 30
0.0
 10
-217.862122
 20
333.152000
 30
0.0
 10
-217.901993
 20
332.900002
 30
0.0
 10
-217.858002
 20
332.622002
 30
0.0
 10
-217.846787
 20
332.599998
 30
0.0
 10
-217.729996
 20
332.370998
 30
0.0
 10
-217.717636
 20
332.358635
 30
0.0
 10
-217.695541
 20
332.336548
 30
0.0
 10
-217.612564
 20
332.253563
 30
0.0
 10
-217.611404
 20
332.252399
 30
0.0
 10
-217.531006
 20
332.172001
 30
0.0
 10
-217.279999
 20
332.043999
 30
0.0
 10
-217.189484
 20
332.029675
 30
0.0
 10
-217.184464
 20
332.028877
 30
0.0
 10
-217.087997
 20
332.013611
 30
0.0
 10
-217.001999
 20
332.000000
 30
0.0
  0
LWPOLYLINE
  5
130
100
AcDbEntity
  8
0
 62
7
100
AcDbPolyline
 90
70
 70
1
 10
-208.442993
 20
214.334000
 30
0.0
 10
-208.500122
 20
214.367996
 30
0.0
 10
-208.526993
 20
214.384003
 30
0.0
 10
-208.615997
 20
214.426003
 30
0.0
 10
-208.709000
 20
214.459000
 30
0.0
 10
-208.804001
 20
214.483002
 30
0.0
 10
-208.901993
 20
214.498001
 30
0.0
 10
-209.000000
 20
214.501999
 30
0.0
 10
-209.098007
 20
214.498001
 30
0.0
 10
-209.195999
 20
214.483002
 30
0.0
 10
-209.291000
 20
214.459000
 30
0.0
 10
-209.384003
 20
214.426003
 30
0.0
 10
-209.473007
 20
214.384003
 30
0.0
 10
-209.499878
 20
214.367996
 30
0.0
 10
-209.557007
 20
214.334000
 30
0.0
 10
-209.636002
 20
214.275002
 30
0.0
 10
-209.709000
 20
214.209000
 30
0.0
 10
-209.774994
 20
214.136002
 30
0.0
 10
-209.834000
 20
214.056999
 30
0.0
 10
-209.884003
 20
213.973000
 30
0.0
 10
-209.925995
 20
213.884003
 30
0.0
 10
-209.959000
 20
213.791000
 30
0.0
 10
-209.983002
 20
213.695999
 30
0.0
 10
-209.998001
 20
213.598000
 30
0.0
 10
-210.003006
 20
213.500000
 30
0.0
 10
-209.998001
 20
213.402000
 30
0.0
 10
-209.989120
 20
213.344002
 30
0.0
 10
-209.983002
 20
213.304001
 30
0.0
 10
-209.959000
 20
213.209000
 30
0.0
 10
-209.925995
 20
213.115997
 30
0.0
 10
-209.919998
 20
213.103287
 30
0.0
 10
-209.884003
 20
213.027000
 30
0.0
 10
-209.834000
 20
212.943001
 30
0.0
 10
-209.774994
 20
212.863998
 30
0.0
 10
-209.709000
 20
212.791000
 30
0.0
 10
-209.636002
 20
212.724998
 30
0.0
 10
-209.557007
 20
212.666000
 30
0.0
 10
-209.473007
 20
212.615997
 30
0.0
 10
-209.384003
 20
212.573998
 30
0.0
 10
-209.291000
 20
212.541000
 30
0.0
 10
-209.195999
 20
212.516998
 30
0.0
 10
-209.098007
 20
212.501999
 30
0.0
 10
-209.000000
 20
212.497002
 30
0.0
 10
-208.901993
 20
212.501999
 30
0.0
 10
-208.895996
 20
212.502922
 30
0.0
 10
-208.804001
 20
212.516998
 30
0.0
 10
-208.709000
 20
212.541000
 30
0.0
 10
-208.615997
 20
212.573998
 30
0.0
 10
-208.526993
 20
212.615997
 30
0.0
 10
-208.442993
 20
212.666000
 30
0.0
 10
-208.363998
 20
212.724998
 30
0.0
 10
-208.291000
 20
212.791000
 30
0.0
 10
-208.225006
 20
212.863998
 30
0.0
 10
-208.166000
 20
212.943001
 30
0.0
 10
-208.115997
 20
213.027000
 30
0.0
 10
-208.074005
 20
213.115997
 30
0.0
 10
-208.041000
 20
213.209000
 30
0.0
 10
-208.016998
 20
213.304001
 30
0.0
 10
-208.010880
 20
213.344002
 30
0.0
 10
-208.001999
 20
213.402000
 30
0.0
 10
-207.998001
 20
213.500000
 30
0.0
 10
-208.001999
 20
213.598000
 30
0.0
 10
-208.016998
 20
213.695999
 30
0.0
 10
-208.041000
 20
213.791000
 30
0.0
 10
-208.074005
 20
213.884003
 30
0.0
 10
-208.115997
 20
213.973000
 30
0.0
 10
-208.166000
 20
214.056999
 30
0.0
 10
-208.225006
 20
214.136002
 30
0.0
 10
-208.291000
 20
214.209000
 30
0.0
 10
-208.363998
 20
214.275002
 30
0.0
  0
LWPOLYLINE
  5
131
100
AcDbEntity
  8
0
 62
7
100
AcDbPolyline
 90
24
 70
1
 10
-233.309998
 20
286.071000
 30
0.0
 10
-233.164490
 20
286.048000
 30
0.0
 10
-233.000000
 20
286.022000
 30
0.0
 10
-232.835510
 20
286.048000
 30
0.0
 10
-232.690002
 20
286.071000
 30
0.0
 10
-232.410995
 20
286.214000
 30
0.0
 10
-232.188995
 20
286.436000
 30
0.0
 10
-232.046997
 20
286.715000
 30
0.0
 10
-231.998001
 20
287.025000
 30
0.0
 10
-232.046997
 20
287.335000
 30
0.0
 10
-232.188995
 20
287.614000
 30
0.0
 10
-232.410995
 20
287.836000
 30
0.0
 10
-232.690002
 20
287.978000
 30
0.0
 10
-233.000000
 20
288.027000
 30
0.0
 10
-233.309998
 20
287.978000
 30
0.0
 10
-233.472000
 20
287.895548
 30
0.0
 10
-233.589005
 20
287.836000
 30
0.0
 10
-233.811005
 20
287.614000
 30
0.0
 10
-233.953003
 20
287.335000
 30
0.0
 10
-234.003006
 20
287.025000
 30
0.0
 10
-233.953003
 20
286.715000
 30
0.0
 10
-233.811005
 20
286.436000
 30
0.0
 10
-233.589005
 20
286.214000
 30
0.0
 10
-233.472000
 20
286.154032
 30
0.0
  0
LWPOLYLINE
  5
132
100
AcDbEntity
  8
0
 62
7
100
AcDbPolyline
 90
26
 70
1
 10
-308.955994
 20
128.723999
 30
0.0
 10
-308.828003
 20
128.473007
 30
0.0
 10
-308.707001
 20
128.352005
 30
0.0
 10
-308.628998
 20
128.274002
 30
0.0
 10
-308.534332
 20
128.225723
 30
0.0
 10
-308.377991
 20
128.145996
 30
0.0
 10
-308.286926
 20
128.131577
 30
0.0
 10
-308.100006
 20
128.102005
 30
0.0
 10
-308.051147
 20
128.109726
 30
0.0
 10
-307.821991
 20
128.145996
 30
0.0
 10
-307.571014
 20
128.274002
 30
0.0
 10
-307.493011
 20
128.352005
 30
0.0
 10
-307.372009
 20
128.473007
 30
0.0
 10
-307.243988
 20
128.723999
 30
0.0
 10
-307.200012
 20
129.001999
 30
0.0
 10
-307.243988
 20
129.279999
 30
0.0
 10
-307.372009
 20
129.531006
 30
0.0
 10
-307.571014
 20
129.729996
 30
0.0
 10
-307.821991
 20
129.858002
 30
0.0
 10
-308.100006
 20
129.901993
 30
0.0
 10
-308.223999
 20
129.882370
 30
0.0
 10
-308.377991
 20
129.858002
 30
0.0
 10
-308.628998
 20
129.729996
 30
0.0
 10
-308.828003
 20
129.531006
 30
0.0
 10
-308.955994
 20
129.279999
 30
0.0
 10
-309.000000
 20
129.001999
 30
0.0
  0
LWPOLYLINE
  5
133
100
AcDbEntity
  8
0
 62
7
100
AcDbPolyline
 90
24
 70
1
 10
-301.997986
 20
103.776001
 30
0.0
 10
-301.997986
 20
120.160004
 30
0.0
 10
-301.997986
 20
124.000000
 30
0.0
 10
-301.997986
 20
124.960480
 30
0.0
 10
-301.997986
 20
126.201996
 30
0.0
 10
-303.000000
 20
126.201996
 30
0.0
 10
-303.104004
 20
126.201996
 30
0.0
 10
-304.460175
 20
126.201996
 30
0.0
 10
-306.294586
 20
126.201996
 30
0.0
 10
-309.000000
 20
126.201996
 30
0.0
 10
-311.295990
 20
126.201996
 30
0.0
 10
-313.000000
 20
126.201996
 30
0.0
 10
-314.102997
 20
126.201996
 30
0.0
 10
-314.102997
 20
124.000000
 30
0.0
 10
-314.102997
 20
120.160004
 30
0.0
 10
-314.102997
 20
103.776001
 30
0.0
 10
-314.102997
 20
103.598007
 30
0.0
 10
-313.000000
 20
103.598007
 30
0.0
 10
-311.295990
 20
103.598007
 30
0.0
 10
-309.000000
 20
103.598007
 30
0.0
 10
-307.200012
 20
103.598007
 30
0.0
 10
-303.104004
 20
103.598007
 30
0.0
 10
-303.000000
 20
103.598007
 30
0.0
 10
-301.997986
 20
103.598007
 30
0.0
  0
LWPOLYLINE
  5
134
100
AcDbEntity
  8
0
 62
7
100
AcDbPolyline
 90
24
 70
1
 10
-232.046997
 20
235.715000
 30
0.0
 10
-231.998001
 20
236.025002
 30
0.0
 10
-232.046997
 20
236.334999
 30
0.0
 10
-232.188995
 20
236.613998
 30
0.0
 10
-232.410995
 20
236.835999
 30
0.0
 10
-232.528885
 20
236.896000
 30
0.0
 10
-232.690002
 20
236.978001
 30
0.0
 10
-233.000000
 20
237.027000
 30
0.0
 10
-233.309998
 20
236.978001
 30
0.0
 10
-233.471115
 20
236.896000
 30
0.0
 10
-233.472000
 20
236.895550
 30
0.0
 10
-233.589005
 20
236.835999
 30
0.0
 10
-233.811005
 20
236.613998
 30
0.0
 10
-233.953003
 20
236.334999
 30
0.0
 10
-234.003006
 20
236.025002
 30
0.0
 10
-233.953003
 20
235.715000
 30
0.0
 10
-233.811005
 20
235.436001
 30
0.0
 10
-233.589005
 20
235.214001
 30
0.0
 10
-233.472000
 20
235.154034
 30
0.0
 10
-233.309998
 20
235.070999
 30
0.0
 10
-233.000000
 20
235.021999
 30
0.0
 10
-232.690002
 20
235.070999
 30
0.0
 10
-232.410995
 20
235.214001
 30
0.0
 10
-232.188995
 20
235.436001
 30
0.0
  0
LWPOLYLINE
  5
135
100
AcDbEntity
  8
0
 62
7
100
AcDbPolyline
 90
4
 70
1
 10
-271.997986
 20
140.501999
 30
0.0
 10
-282.002991
 20
140.501999
 30
0.0
 10
-282.002991
 20
137.496994
 30
0.0
 10
-271.997986
 20
137.496994
 30
0.0
  0
LWPOLYLINE
  5
136
100
AcDbEntity
  8
0
 62
7
100
AcDbPolyline
 90
8
 70
1
 10
-216.003006
 20
367.998001
 30
0.0
 10
-213.000000
 20
367.998001
 30
0.0
 10
-208.000000
 20
367.998001
 30
0.0
 10
-199.998001
 20
367.998001
 30
0.0
 10
-199.998001
 20
371.002998
 30
0.0
 10
-208.000000
 20
371.002998
 30
0.0
 10
-213.000000
 20
371.002998
 30
0.0
 10
-216.003006
 20
371.002998
 30
0.0
  0
LWPOLYLINE
  5
137
100
AcDbEntity
  8
0
 62
7
100
AcDbPolyline
 90
71
 70
1
 10
-287.725006
 20
165.636002
 30
0.0
 10
-287.743988
 20
165.657013
 30
0.0
 10
-287.790985
 20
165.709000
 30
0.0
 10
-287.864014
 20
165.775002
 30
0.0
 10
-287.942993
 20
165.834000
 30
0.0
 10
-288.027008
 20
165.884003
 30
0.0
 10
-288.115997
 20
165.926003
 30
0.0
 10
-288.209015
 20
165.959000
 30
0.0
 10
-288.303986
 20
165.983002
 30
0.0
 10
-288.402008
 20
165.998001
 30
0.0
 10
-288.500000
 20
166.001999
 30
0.0
 10
-288.597992
 20
165.998001
 30
0.0
 10
-288.696014
 20
165.983002
 30
0.0
 10
-288.768005
 20
165.964813
 30
0.0
 10
-288.790985
 20
165.959000
 30
0.0
 10
-288.884003
 20
165.926003
 30
0.0
 10
-288.972992
 20
165.884003
 30
0.0
 10
-289.057007
 20
165.834000
 30
0.0
 10
-289.135986
 20
165.775002
 30
0.0
 10
-289.209015
 20
165.709000
 30
0.0
 10
-289.274994
 20
165.636002
 30
0.0
 10
-289.334015
 20
165.556999
 30
0.0
 10
-289.384003
 20
165.473000
 30
0.0
 10
-289.425995
 20
165.384003
 30
0.0
 10
-289.459015
 20
165.291000
 30
0.0
 10
-289.477936
 20
165.216003
 30
0.0
 10
-289.483002
 20
165.195999
 30
0.0
 10
-289.497986
 20
165.098000
 30
0.0
 10
-289.502991
 20
165.000000
 30
0.0
 10
-289.497986
 20
164.902000
 30
0.0
 10
-289.483002
 20
164.804001
 30
0.0
 10
-289.459015
 20
164.709000
 30
0.0
 10
-289.425995
 20
164.615997
 30
0.0
 10
-289.384003
 20
164.527000
 30
0.0
 10
-289.334015
 20
164.443001
 30
0.0
 10
-289.274994
 20
164.363998
 30
0.0
 10
-289.209015
 20
164.291000
 30
0.0
 10
-289.135986
 20
164.224998
 30
0.0
 10
-289.091827
 20
164.192001
 30
0.0
 10
-289.057007
 20
164.166000
 30
0.0
 10
-288.972992
 20
164.115997
 30
0.0
 10
-288.884003
 20
164.073998
 30
0.0
 10
-288.790985
 20
164.041000
 30
0.0
 10
-288.768005
 20
164.035187
 30
0.0
 10
-288.696014
 20
164.016998
 30
0.0
 10
-288.597992
 20
164.001999
 30
0.0
 10
-288.500000
 20
163.997002
 30
0.0
 10
-288.402008
 20
164.001999
 30
0.0
 10
-288.303986
 20
164.016998
 30
0.0
 10
-288.209015
 20
164.041000
 30
0.0
 10
-288.115997
 20
164.073998
 30
0.0
 10
-288.027008
 20
164.115997
 30
0.0
 10
-287.942993
 20
164.166000
 30
0.0
 10
-287.864014
 20
164.224998
 30
0.0
 10
-287.790985
 20
164.291000
 30
0.0
 10
-287.743988
 20
164.342987
 30
0.0
 10
-287.725006
 20
164.363998
 30
0.0
 10
-287.665985
 20
164.443001
 30
0.0
 10
-287.615997
 20
164.527000
 30
0.0
 10
-287.574005
 20
164.615997
 30
0.0
 10
-287.540985
 20
164.709000
 30
0.0
 10
-287.516998
 20
164.804001
 30
0.0
 10
-287.502014
 20
164.902000
 30
0.0
 10
-287.497986
 20
165.000000
 30
0.0
 10
-287.502014
 20
165.098000
 30
0.0
 10
-287.516998
 20
165.195999
 30
0.0
 10
-287.522064
 20
165.216003
 30
0.0
 10
-287.540985
 20
165.291000
 30
0.0
 10
-287.574005
 20
165.384003
 30
0.0
 10
-287.615997
 20
165.473000
 30
0.0
 10
-287.665985
 20
165.556999
 30
0.0
  0
LWPOLYLINE
  5
138
100
AcDbEntity
  8
0
 62
7
100
AcDbPolyline
 90
6
 70
1
 10
-189.998001
 20
211.997002
 30
0.0
 10
-189.998001
 20
215.000000
 30
0.0
 10
-189.998001
 20
215.001999
 30
0.0
 10
-198.003006
 20
215.001999
 30
0.0
 10
-198.003006
 20
215.000000
 30
0.0
 10
-198.003006
 20
211.997002
 30
0.0
  0
LWPOLYLINE
  5
139
100
AcDbEntity
  8
0
 62
7
100
AcDbPolyline
 90
72
 70
1
 10
-296.151001
 20
344.657002
 30
0.0
 10
-296.101013
 20
344.317001
 30
0.0
 10
-296.083893
 20
344.249001
 30
0.0
 10
-296.016998
 20
343.983002
 30
0.0
 10
-295.901001
 20
343.660000
 30
0.0
 10
-295.753998
 20
343.348999
 30
0.0
 10
-295.578003
 20
343.054001
 30
0.0
 10
-295.372986
 20
342.778000
 30
0.0
 10
-295.141998
 20
342.522999
 30
0.0
 10
-294.911987
 20
342.314732
 30
0.0
 10
-294.888000
 20
342.292999
 30
0.0
 10
-294.612000
 20
342.088001
 30
0.0
 10
-294.316986
 20
341.910999
 30
0.0
 10
-294.006989
 20
341.764000
 30
0.0
 10
-293.683014
 20
341.647999
 30
0.0
 10
-293.350006
 20
341.564999
 30
0.0
 10
-293.010010
 20
341.514000
 30
0.0
 10
-292.666992
 20
341.498001
 30
0.0
 10
-292.324005
 20
341.514000
 30
0.0
 10
-291.984009
 20
341.564999
 30
0.0
 10
-291.651001
 20
341.647999
 30
0.0
 10
-291.326996
 20
341.764000
 30
0.0
 10
-291.016998
 20
341.910999
 30
0.0
 10
-290.816010
 20
342.031601
 30
0.0
 10
-290.721985
 20
342.088001
 30
0.0
 10
-290.446014
 20
342.292999
 30
0.0
 10
-290.191986
 20
342.522999
 30
0.0
 10
-289.960999
 20
342.778000
 30
0.0
 10
-289.756012
 20
343.054001
 30
0.0
 10
-289.579987
 20
343.348999
 30
0.0
 10
-289.433014
 20
343.660000
 30
0.0
 10
-289.316986
 20
343.983002
 30
0.0
 10
-289.250092
 20
344.249001
 30
0.0
 10
-289.233002
 20
344.317001
 30
0.0
 10
-289.183014
 20
344.657002
 30
0.0
 10
-289.165985
 20
345.000000
 30
0.0
 10
-289.183014
 20
345.342999
 30
0.0
 10
-289.197266
 20
345.439999
 30
0.0
 10
-289.233002
 20
345.682999
 30
0.0
 10
-289.316986
 20
346.016998
 30
0.0
 10
-289.433014
 20
346.340000
 30
0.0
 10
-289.579987
 20
346.651001
 30
0.0
 10
-289.756012
 20
346.945999
 30
0.0
 10
-289.960999
 20
347.222000
 30
0.0
 10
-290.191986
 20
347.477001
 30
0.0
 10
-290.446014
 20
347.707001
 30
0.0
 10
-290.721985
 20
347.911999
 30
0.0
 10
-290.816010
 20
347.968399
 30
0.0
 10
-291.016998
 20
348.088997
 30
0.0
 10
-291.326996
 20
348.236000
 30
0.0
 10
-291.651001
 20
348.351997
 30
0.0
 10
-291.984009
 20
348.434998
 30
0.0
 10
-292.324005
 20
348.486000
 30
0.0
 10
-292.666992
 20
348.502998
 30
0.0
 10
-293.010010
 20
348.486000
 30
0.0
 10
-293.350006
 20
348.434998
 30
0.0
 10
-293.683014
 20
348.351997
 30
0.0
 10
-294.006989
 20
348.236000
 30
0.0
 10
-294.316986
 20
348.088997
 30
0.0
 10
-294.612000
 20
347.911999
 30
0.0
 10
-294.888000
 20
347.707001
 30
0.0
 10
-294.911987
 20
347.685268
 30
0.0
 10
-295.141998
 20
347.477001
 30
0.0
 10
-295.372986
 20
347.222000
 30
0.0
 10
-295.578003
 20
346.945999
 30
0.0
 10
-295.753998
 20
346.651001
 30
0.0
 10
-295.901001
 20
346.340000
 30
0.0
 10
-296.016998
 20
346.016998
 30
0.0
 10
-296.101013
 20
345.682999
 30
0.0
 10
-296.136749
 20
345.439999
 30
0.0
 10
-296.151001
 20
345.342999
 30
0.0
 10
-296.167999
 20
345.000000
 30
0.0
  0
LWPOLYLINE
  5
13a
100
AcDbEntity
  8
0
 62
7
100
AcDbPolyline
 90
76
 70
1
 10
-277.503998
 20
174.447456
 30
0.0
 10
-277.487000
 20
174.431999
 30
0.0
 10
-277.476013
 20
174.421997
 30
0.0
 10
-277.416992
 20
174.378998
 30
0.0
 10
-277.354004
 20
174.341003
 30
0.0
 10
-277.286987
 20
174.308998
 30
0.0
 10
-277.217987
 20
174.283997
 30
0.0
 10
-277.145996
 20
174.266998
 30
0.0
 10
-277.074005
 20
174.255997
 30
0.0
 10
-277.000000
 20
174.251999
 30
0.0
 10
-276.992004
 20
174.252434
 30
0.0
 10
-276.925995
 20
174.255997
 30
0.0
 10
-276.854004
 20
174.266998
 30
0.0
 10
-276.782013
 20
174.283997
 30
0.0
 10
-276.713013
 20
174.308998
 30
0.0
 10
-276.645996
 20
174.341003
 30
0.0
 10
-276.583008
 20
174.378998
 30
0.0
 10
-276.523987
 20
174.421997
 30
0.0
 10
-276.513000
 20
174.431999
 30
0.0
 10
-276.480011
 20
174.461998
 30
0.0
 10
-276.468994
 20
174.472000
 30
0.0
 10
-276.420013
 20
174.526001
 30
0.0
 10
-276.376007
 20
174.585999
 30
0.0
 10
-276.338013
 20
174.649002
 30
0.0
 10
-276.307007
 20
174.714996
 30
0.0
 10
-276.282013
 20
174.785004
 30
0.0
 10
-276.264008
 20
174.856003
 30
0.0
 10
-276.252991
 20
174.929001
 30
0.0
 10
-276.252167
 20
174.944000
 30
0.0
 10
-276.248993
 20
175.001999
 30
0.0
 10
-276.252991
 20
175.075996
 30
0.0
 10
-276.264008
 20
175.149002
 30
0.0
 10
-276.282013
 20
175.220001
 30
0.0
 10
-276.307007
 20
175.289001
 30
0.0
 10
-276.338013
 20
175.356003
 30
0.0
 10
-276.376007
 20
175.418999
 30
0.0
 10
-276.403595
 20
175.456001
 30
0.0
 10
-276.420013
 20
175.477997
 30
0.0
 10
-276.468994
 20
175.532997
 30
0.0
 10
-276.480011
 20
175.542801
 30
0.0
 10
-276.523987
 20
175.582001
 30
0.0
 10
-276.583008
 20
175.625999
 30
0.0
 10
-276.645996
 20
175.664001
 30
0.0
 10
-276.713013
 20
175.695000
 30
0.0
 10
-276.782013
 20
175.720001
 30
0.0
 10
-276.854004
 20
175.737999
 30
0.0
 10
-276.925995
 20
175.749001
 30
0.0
 10
-276.992004
 20
175.751678
 30
0.0
 10
-277.000000
 20
175.751999
 30
0.0
 10
-277.074005
 20
175.749001
 30
0.0
 10
-277.145996
 20
175.737999
 30
0.0
 10
-277.217987
 20
175.720001
 30
0.0
 10
-277.286987
 20
175.695000
 30
0.0
 10
-277.354004
 20
175.664001
 30
0.0
 10
-277.416992
 20
175.625999
 30
0.0
 10
-277.476013
 20
175.582001
 30
0.0
 10
-277.503998
 20
175.557053
 30
0.0
 10
-277.531006
 20
175.532997
 30
0.0
 10
-277.579987
 20
175.477997
 30
0.0
 10
-277.596405
 20
175.456001
 30
0.0
 10
-277.623993
 20
175.418999
 30
0.0
 10
-277.661987
 20
175.356003
 30
0.0
 10
-277.692993
 20
175.289001
 30
0.0
 10
-277.717987
 20
175.220001
 30
0.0
 10
-277.735992
 20
175.149002
 30
0.0
 10
-277.747009
 20
175.075996
 30
0.0
 10
-277.751007
 20
175.001999
 30
0.0
 10
-277.747833
 20
174.944000
 30
0.0
 10
-277.747009
 20
174.929001
 30
0.0
 10
-277.735992
 20
174.856003
 30
0.0
 10
-277.717987
 20
174.785004
 30
0.0
 10
-277.692993
 20
174.714996
 30
0.0
 10
-277.661987
 20
174.649002
 30
0.0
 10
-277.623993
 20
174.585999
 30
0.0
 10
-277.579987
 20
174.526001
 30
0.0
 10
-277.531006
 20
174.472000
 30
0.0
  0
LWPOLYLINE
  5
13b
100
AcDbEntity
  8
0
 62
7
100
AcDbPolyline
 90
24
 70
1
 10
-286.046997
 20
216.309998
 30
0.0
 10
-286.100952
 20
216.416000
 30
0.0
 10
-286.188995
 20
216.588997
 30
0.0
 10
-286.411011
 20
216.810997
 30
0.0
 10
-286.690002
 20
216.953003
 30
0.0
 10
-287.000000
 20
217.001999
 30
0.0
 10
-287.309998
 20
216.953003
 30
0.0
 10
-287.588989
 20
216.810997
 30
0.0
 10
-287.811005
 20
216.588997
 30
0.0
 10
-287.899048
 20
216.416000
 30
0.0
 10
-287.953003
 20
216.309998
 30
0.0
 10
-288.002014
 20
216.000000
 30
0.0
 10
-287.953003
 20
215.690002
 30
0.0
 10
-287.811005
 20
215.411003
 30
0.0
 10
-287.588989
 20
215.189003
 30
0.0
 10
-287.309998
 20
215.046997
 30
0.0
 10
-287.018585
 20
215.000000
 30
0.0
 10
-287.000000
 20
214.997002
 30
0.0
 10
-286.981415
 20
215.000000
 30
0.0
 10
-286.690002
 20
215.046997
 30
0.0
 10
-286.411011
 20
215.189003
 30
0.0
 10
-286.188995
 20
215.411003
 30
0.0
 10
-286.046997
 20
215.690002
 30
0.0
 10
-285.997009
 20
216.000000
 30
0.0
  0
LWPOLYLINE
  5
13c
100
AcDbEntity
  8
0
 62
7
100
AcDbPolyline
 90
22
 70
1
 10
-292.976990
 20
367.046997
 30
0.0
 10
-292.666992
 20
366.997002
 30
0.0
 10
-292.356995
 20
367.046997
 30
0.0
 10
-292.078003
 20
367.189003
 30
0.0
 10
-291.855988
 20
367.411003
 30
0.0
 10
-291.713989
 20
367.690002
 30
0.0
 10
-291.670044
 20
367.968002
 30
0.0
 10
-291.665009
 20
368.000000
 30
0.0
 10
-291.713989
 20
368.309998
 30
0.0
 10
-291.855988
 20
368.588997
 30
0.0
 10
-292.078003
 20
368.810997
 30
0.0
 10
-292.356995
 20
368.953003
 30
0.0
 10
-292.666992
 20
369.001999
 30
0.0
 10
-292.976990
 20
368.953003
 30
0.0
 10
-293.256012
 20
368.810997
 30
0.0
 10
-293.477997
 20
368.588997
 30
0.0
 10
-293.619995
 20
368.309998
 30
0.0
 10
-293.670013
 20
368.000000
 30
0.0
 10
-293.664825
 20
367.968002
 30
0.0
 10
-293.619995
 20
367.690002
 30
0.0
 10
-293.477997
 20
367.411003
 30
0.0
 10
-293.256012
 20
367.189003
 30
0.0
  0
LWPOLYLINE
  5
13d
100
AcDbEntity
  8
0
 62
7
100
AcDbPolyline
 90
72
 70
1
 10
-282.623993
 20
345.748783
 30
0.0
 10
-282.665009
 20
345.750999
 30
0.0
 10
-282.738007
 20
345.747002
 30
0.0
 10
-282.811005
 20
345.736000
 30
0.0
 10
-282.881989
 20
345.717999
 30
0.0
 10
-282.951996
 20
345.693001
 30
0.0
 10
-283.018005
 20
345.661999
 30
0.0
 10
-283.080994
 20
345.624001
 30
0.0
 10
-283.140991
 20
345.580002
 30
0.0
 10
-283.195007
 20
345.530998
 30
0.0
 10
-283.244995
 20
345.476002
 30
0.0
 10
-283.271240
 20
345.439999
 30
0.0
 10
-283.287994
 20
345.417000
 30
0.0
 10
-283.325989
 20
345.354000
 30
0.0
 10
-283.358002
 20
345.286999
 30
0.0
 10
-283.382996
 20
345.217999
 30
0.0
 10
-283.399994
 20
345.146000
 30
0.0
 10
-283.411011
 20
345.074001
 30
0.0
 10
-283.415009
 20
345.000000
 30
0.0
 10
-283.411102
 20
344.928001
 30
0.0
 10
-283.411011
 20
344.925999
 30
0.0
 10
-283.399994
 20
344.854000
 30
0.0
 10
-283.382996
 20
344.782002
 30
0.0
 10
-283.358002
 20
344.713001
 30
0.0
 10
-283.325989
 20
344.646000
 30
0.0
 10
-283.287994
 20
344.583000
 30
0.0
 10
-283.244995
 20
344.523998
 30
0.0
 10
-283.195007
 20
344.469002
 30
0.0
 10
-283.140991
 20
344.419998
 30
0.0
 10
-283.135559
 20
344.416000
 30
0.0
 10
-283.080994
 20
344.375999
 30
0.0
 10
-283.018005
 20
344.338001
 30
0.0
 10
-282.951996
 20
344.306999
 30
0.0
 10
-282.881989
 20
344.282002
 30
0.0
 10
-282.811005
 20
344.264000
 30
0.0
 10
-282.738007
 20
344.252998
 30
0.0
 10
-282.665009
 20
344.249001
 30
0.0
 10
-282.623993
 20
344.251217
 30
0.0
 10
-282.591003
 20
344.252998
 30
0.0
 10
-282.518005
 20
344.264000
 30
0.0
 10
-282.446991
 20
344.282002
 30
0.0
 10
-282.377991
 20
344.306999
 30
0.0
 10
-282.311005
 20
344.338001
 30
0.0
 10
-282.247986
 20
344.375999
 30
0.0
 10
-282.194366
 20
344.416000
 30
0.0
 10
-282.188995
 20
344.419998
 30
0.0
 10
-282.134003
 20
344.469002
 30
0.0
 10
-282.084991
 20
344.523998
 30
0.0
 10
-282.040985
 20
344.583000
 30
0.0
 10
-282.002991
 20
344.646000
 30
0.0
 10
-281.971985
 20
344.713001
 30
0.0
 10
-281.946991
 20
344.782002
 30
0.0
 10
-281.928986
 20
344.854000
 30
0.0
 10
-281.917999
 20
344.925999
 30
0.0
 10
-281.917908
 20
344.928001
 30
0.0
 10
-281.915009
 20
345.000000
 30
0.0
 10
-281.917999
 20
345.074001
 30
0.0
 10
-281.928986
 20
345.146000
 30
0.0
 10
-281.946991
 20
345.217999
 30
0.0
 10
-281.971985
 20
345.286999
 30
0.0
 10
-282.002991
 20
345.354000
 30
0.0
 10
-282.040985
 20
345.417000
 30
0.0
 10
-282.058167
 20
345.439999
 30
0.0
 10
-282.084991
 20
345.476002
 30
0.0
 10
-282.134003
 20
345.530998
 30
0.0
 10
-282.188995
 20
345.580002
 30
0.0
 10
-282.247986
 20
345.624001
 30
0.0
 10
-282.311005
 20
345.661999
 30
0.0
 10
-282.377991
 20
345.693001
 30
0.0
 10
-282.446991
 20
345.717999
 30
0.0
 10
-282.518005
 20
345.736000
 30
0.0
 10
-282.591003
 20
345.747002
 30
0.0
  0
LWPOLYLINE
  5
13e
100
AcDbEntity
  8
0
 62
7
100
AcDbPolyline
 90
71
 70
1
 10
-265.402008
 20
165.998001
 30
0.0
 10
-265.500000
 20
166.001999
 30
0.0
 10
-265.597992
 20
165.998001
 30
0.0
 10
-265.696014
 20
165.983002
 30
0.0
 10
-265.790985
 20
165.959000
 30
0.0
 10
-265.884003
 20
165.926003
 30
0.0
 10
-265.972992
 20
165.884003
 30
0.0
 10
-266.057007
 20
165.834000
 30
0.0
 10
-266.135986
 20
165.775002
 30
0.0
 10
-266.209015
 20
165.709000
 30
0.0
 10
-266.239990
 20
165.674713
 30
0.0
 10
-266.274994
 20
165.636002
 30
0.0
 10
-266.334015
 20
165.556999
 30
0.0
 10
-266.384003
 20
165.473000
 30
0.0
 10
-266.425995
 20
165.384003
 30
0.0
 10
-266.459015
 20
165.291000
 30
0.0
 10
-266.477936
 20
165.216003
 30
0.0
 10
-266.483002
 20
165.195999
 30
0.0
 10
-266.497986
 20
165.098000
 30
0.0
 10
-266.502991
 20
165.000000
 30
0.0
 10
-266.497986
 20
164.902000
 30
0.0
 10
-266.483002
 20
164.804001
 30
0.0
 10
-266.459015
 20
164.709000
 30
0.0
 10
-266.425995
 20
164.615997
 30
0.0
 10
-266.384003
 20
164.527000
 30
0.0
 10
-266.334015
 20
164.443001
 30
0.0
 10
-266.274994
 20
164.363998
 30
0.0
 10
-266.239990
 20
164.325287
 30
0.0
 10
-266.209015
 20
164.291000
 30
0.0
 10
-266.135986
 20
164.224998
 30
0.0
 10
-266.057007
 20
164.166000
 30
0.0
 10
-265.972992
 20
164.115997
 30
0.0
 10
-265.884003
 20
164.073998
 30
0.0
 10
-265.790985
 20
164.041000
 30
0.0
 10
-265.696014
 20
164.016998
 30
0.0
 10
-265.597992
 20
164.001999
 30
0.0
 10
-265.500000
 20
163.997002
 30
0.0
 10
-265.402008
 20
164.001999
 30
0.0
 10
-265.303986
 20
164.016998
 30
0.0
 10
-265.216003
 20
164.039230
 30
0.0
 10
-265.209015
 20
164.041000
 30
0.0
 10
-265.115997
 20
164.073998
 30
0.0
 10
-265.027008
 20
164.115997
 30
0.0
 10
-264.942993
 20
164.166000
 30
0.0
 10
-264.908173
 20
164.192001
 30
0.0
 10
-264.864014
 20
164.224998
 30
0.0
 10
-264.790985
 20
164.291000
 30
0.0
 10
-264.725006
 20
164.363998
 30
0.0
 10
-264.665985
 20
164.443001
 30
0.0
 10
-264.615997
 20
164.527000
 30
0.0
 10
-264.574005
 20
164.615997
 30
0.0
 10
-264.540985
 20
164.709000
 30
0.0
 10
-264.516998
 20
164.804001
 30
0.0
 10
-264.502014
 20
164.902000
 30
0.0
 10
-264.497986
 20
165.000000
 30
0.0
 10
-264.502014
 20
165.098000
 30
0.0
 10
-264.516998
 20
165.195999
 30
0.0
 10
-264.522064
 20
165.216003
 30
0.0
 10
-264.540985
 20
165.291000
 30
0.0
 10
-264.574005
 20
165.384003
 30
0.0
 10
-264.615997
 20
165.473000
 30
0.0
 10
-264.665985
 20
165.556999
 30
0.0
 10
-264.725006
 20
165.636002
 30
0.0
 10
-264.790985
 20
165.709000
 30
0.0
 10
-264.864014
 20
165.775002
 30
0.0
 10
-264.942993
 20
165.834000
 30
0.0
 10
-265.027008
 20
165.884003
 30
0.0
 10
-265.115997
 20
165.926003
 30
0.0
 10
-265.209015
 20
165.959000
 30
0.0
 10
-265.216003
 20
165.960770
 30
0.0
 10
-265.303986
 20
165.983002
 30
0.0
  0
LWPOLYLINE
  5
13f
100
AcDbEntity
  8
0
 62
7
100
AcDbPolyline
 90
6
 70
1
 10
-228.003006
 20
215.001999
 30
0.0
 10
-228.003006
 20
215.000000
 30
0.0
 10
-228.003006
 20
211.997002
 30
0.0
 10
-219.998001
 20
211.997002
 30
0.0
 10
-219.998001
 20
215.000000
 30
0.0
 10
-219.998001
 20
215.001999
 30
0.0
  0
LWPOLYLINE
  5
140
100
AcDbEntity
  8
0
 62
7
100
AcDbPolyline
 90
74
 70
1
 10
-303.415985
 20
345.074001
 30
0.0
 10
-303.420013
 20
345.000000
 30
0.0
 10
-303.416107
 20
344.928001
 30
0.0
 10
-303.415985
 20
344.925999
 30
0.0
 10
-303.404999
 20
344.854000
 30
0.0
 10
-303.386993
 20
344.782002
 30
0.0
 10
-303.362000
 20
344.713001
 30
0.0
 10
-303.330994
 20
344.646000
 30
0.0
 10
-303.292999
 20
344.583000
 30
0.0
 10
-303.248993
 20
344.523998
 30
0.0
 10
-303.200012
 20
344.469002
 30
0.0
 10
-303.144989
 20
344.419998
 30
0.0
 10
-303.139648
 20
344.416000
 30
0.0
 10
-303.104004
 20
344.389423
 30
0.0
 10
-303.085999
 20
344.375999
 30
0.0
 10
-303.023010
 20
344.338001
 30
0.0
 10
-302.955994
 20
344.306999
 30
0.0
 10
-302.886993
 20
344.282002
 30
0.0
 10
-302.816010
 20
344.264000
 30
0.0
 10
-302.743011
 20
344.252998
 30
0.0
 10
-302.669006
 20
344.249001
 30
0.0
 10
-302.596008
 20
344.252998
 30
0.0
 10
-302.523010
 20
344.264000
 30
0.0
 10
-302.451996
 20
344.282002
 30
0.0
 10
-302.381989
 20
344.306999
 30
0.0
 10
-302.316010
 20
344.338001
 30
0.0
 10
-302.252991
 20
344.375999
 30
0.0
 10
-302.198456
 20
344.416000
 30
0.0
 10
-302.192993
 20
344.419998
 30
0.0
 10
-302.139008
 20
344.469002
 30
0.0
 10
-302.088989
 20
344.523998
 30
0.0
 10
-302.079987
 20
344.536350
 30
0.0
 10
-302.045990
 20
344.583000
 30
0.0
 10
-302.007996
 20
344.646000
 30
0.0
 10
-301.976013
 20
344.713001
 30
0.0
 10
-301.950989
 20
344.782002
 30
0.0
 10
-301.933990
 20
344.854000
 30
0.0
 10
-301.923004
 20
344.925999
 30
0.0
 10
-301.919006
 20
345.000000
 30
0.0
 10
-301.923004
 20
345.074001
 30
0.0
 10
-301.933990
 20
345.146000
 30
0.0
 10
-301.950989
 20
345.217999
 30
0.0
 10
-301.976013
 20
345.286999
 30
0.0
 10
-302.007996
 20
345.354000
 30
0.0
 10
-302.045990
 20
345.417000
 30
0.0
 10
-302.062775
 20
345.439999
 30
0.0
 10
-302.079987
 20
345.463650
 30
0.0
 10
-302.088989
 20
345.476002
 30
0.0
 10
-302.139008
 20
345.530998
 30
0.0
 10
-302.192993
 20
345.580002
 30
0.0
 10
-302.252991
 20
345.624001
 30
0.0
 10
-302.316010
 20
345.661999
 30
0.0
 10
-302.381989
 20
345.693001
 30
0.0
 10
-302.451996
 20
345.717999
 30
0.0
 10
-302.523010
 20
345.736000
 30
0.0
 10
-302.592011
 20
345.746399
 30
0.0
 10
-302.596008
 20
345.747002
 30
0.0
 10
-302.669006
 20
345.750999
 30
0.0
 10
-302.743011
 20
345.747002
 30
0.0
 10
-302.816010
 20
345.736000
 30
0.0
 10
-302.886993
 20
345.717999
 30
0.0
 10
-302.955994
 20
345.693001
 30
0.0
 10
-303.023010
 20
345.661999
 30
0.0
 10
-303.085999
 20
345.624001
 30
0.0
 10
-303.104004
 20
345.610577
 30
0.0
 10
-303.144989
 20
345.580002
 30
0.0
 10
-303.200012
 20
345.530998
 30
0.0
 10
-303.248993
 20
345.476002
 30
0.0
 10
-303.275848
 20
345.439999
 30
0.0
 10
-303.292999
 20
345.417000
 30
0.0
 10
-303.330994
 20
345.354000
 30
0.0
 10
-303.362000
 20
345.286999
 30
0.0
 10
-303.386993
 20
345.217999
 30
0.0
 10
-303.404999
 20
345.146000
 30
0.0
  0
LWPOLYLINE
  5
141
100
AcDbEntity
  8
0
 62
7
100
AcDbPolyline
 90
7
 70
1
 10
-219.998001
 20
144.996994
 30
0.0
 10
-219.998001
 20
148.001999
 30
0.0
 10
-220.000000
 20
148.001999
 30
0.0
 10
-226.003006
 20
148.001999
 30
0.0
 10
-228.003006
 20
148.001999
 30
0.0
 10
-228.003006
 20
144.996994
 30
0.0
 10
-220.000000
 20
144.996994
 30
0.0
  0
LWPOLYLINE
  5
142
100
AcDbEntity
  8
0
 62
7
100
AcDbPolyline
 90
8
 70
1
 10
-207.003006
 20
183.501999
 30
0.0
 10
-207.003006
 20
180.455002
 30
0.0
 10
-205.003006
 20
180.455002
 30
0.0
 10
-202.998001
 20
180.455002
 30
0.0
 10
-198.998001
 20
180.455002
 30
0.0
 10
-198.998001
 20
183.501999
 30
0.0
 10
-202.998001
 20
183.501999
 30
0.0
 10
-205.003006
 20
183.501999
 30
0.0
  0
LWPOLYLINE
  5
143
100
AcDbEntity
  8
0
 62
7
100
AcDbPolyline
 90
8
 70
1
 10
-202.998001
 20
189.501999
 30
0.0
 10
-205.003006
 20
189.501999
 30
0.0
 10
-207.003006
 20
189.501999
 30
0.0
 10
-207.003006
 20
186.497002
 30
0.0
 10
-205.003006
 20
186.497002
 30
0.0
 10
-202.998001
 20
186.497002
 30
0.0
 10
-198.998001
 20
186.497002
 30
0.0
 10
-198.998001
 20
189.501999
 30
0.0
  0
LWPOLYLINE
  5
144
100
AcDbEntity
  8
0
 62
7
100
AcDbPolyline
 90
8
 70
1
 10
-212.998001
 20
183.001999
 30
0.0
 10
-215.003006
 20
183.001999
 30
0.0
 10
-219.003006
 20
183.001999
 30
0.0
 10
-219.003006
 20
179.997002
 30
0.0
 10
-215.003006
 20
179.997002
 30
0.0
 10
-212.998001
 20
179.997002
 30
0.0
 10
-210.998001
 20
179.997002
 30
0.0
 10
-210.998001
 20
183.001999
 30
0.0
  0
LWPOLYLINE
  5
145
100
AcDbEntity
  8
0
 62
7
100
AcDbPolyline
 90
8
 70
1
 10
-212.998001
 20
189.044998
 30
0.0
 10
-215.003006
 20
189.044998
 30
0.0
 10
-219.003006
 20
189.044998
 30
0.0
 10
-219.003006
 20
185.998001
 30
0.0
 10
-215.003006
 20
185.998001
 30
0.0
 10
-212.998001
 20
185.998001
 30
0.0
 10
-210.998001
 20
185.998001
 30
0.0
 10
-210.998001
 20
189.044998
 30
0.0
  0
LWPOLYLINE
  5
146
100
AcDbEntity
  8
0
 62
7
100
AcDbPolyline
 90
7
 70
1
 10
-194.003006
 20
148.001999
 30
0.0
 10
-198.003006
 20
148.001999
 30
0.0
 10
-198.003006
 20
145.496994
 30
0.0
 10
-198.003006
 20
144.996994
 30
0.0
 10
-189.998001
 20
144.996994
 30
0.0
 10
-189.998001
 20
145.496994
 30
0.0
 10
-189.998001
 20
148.001999
 30
0.0
  0
LWPOLYLINE
  5
147
100
AcDbEntity
  8
0
 62
7
100
AcDbPolyline
 90
8
 70
1
 10
-277.751007
 20
188.997002
 30
0.0
 10
-276.248993
 20
188.997002
 30
0.0
 10
-273.497986
 20
188.997002
 30
0.0
 10
-271.997986
 20
188.997002
 30
0.0
 10
-271.997986
 20
192.001999
 30
0.0
 10
-282.002991
 20
192.001999
 30
0.0
 10
-282.002991
 20
188.997002
 30
0.0
 10
-280.502991
 20
188.997002
 30
0.0
  0
LWPOLYLINE
  5
148
100
AcDbEntity
  8
0
 62
7
100
AcDbPolyline
 90
6
 70
1
 10
-191.998001
 20
186.501999
 30
0.0
 10
-192.003006
 20
186.501999
 30
0.0
 10
-192.003006
 20
183.497002
 30
0.0
 10
-191.998001
 20
183.497002
 30
0.0
 10
-188.998001
 20
183.497002
 30
0.0
 10
-188.998001
 20
186.501999
 30
0.0
  0
LWPOLYLINE
  5
149
100
AcDbEntity
  8
0
 62
7
100
AcDbPolyline
 90
4
 70
1
 10
-173.688004
 20
322.431000
 30
0.0
 10
-181.692001
 20
308.570000
 30
0.0
 10
-179.091995
 20
307.069000
 30
0.0
 10
-171.089005
 20
320.930000
 30
0.0
  0
LWPOLYLINE
  5
14a
100
AcDbEntity
  8
0
 62
7
100
AcDbPolyline
 90
6
 70
1
 10
-225.998001
 20
183.497002
 30
0.0
 10
-225.998001
 20
186.501999
 30
0.0
 10
-226.003006
 20
186.501999
 30
0.0
 10
-229.003006
 20
186.501999
 30
0.0
 10
-229.003006
 20
183.497002
 30
0.0
 10
-226.003006
 20
183.497002
 30
0.0
  0
LWPOLYLINE
  5
14b
100
AcDbEntity
  8
0
 62
7
100
AcDbPolyline
 90
6
 70
1
 10
-204.498001
 20
277.498000
 30
0.0
 10
-204.498001
 20
280.503000
 30
0.0
 10
-208.000000
 20
280.503000
 30
0.0
 10
-212.503006
 20
280.503000
 30
0.0
 10
-212.503006
 20
277.498000
 30
0.0
 10
-208.000000
 20
277.498000
 30
0.0
  0
LWPOLYLINE
  5
14c
100
AcDbEntity
  8
0
 62
7
100
AcDbPolyline
 90
12
 70
1
 10
-207.498001
 20
201.997002
 30
0.0
 10
-207.498001
 20
203.000000
 30
0.0
 10
-207.498001
 20
206.000000
 30
0.0
 10
-207.498001
 20
210.001999
 30
0.0
 10
-207.998001
 20
210.001999
 30
0.0
 10
-210.003006
 20
210.001999
 30
0.0
 10
-210.503006
 20
210.001999
 30
0.0
 10
-210.503006
 20
206.000000
 30
0.0
 10
-210.503006
 20
203.000000
 30
0.0
 10
-210.503006
 20
201.997002
 30
0.0
 10
-210.003006
 20
201.997002
 30
0.0
 10
-207.998001
 20
201.997002
 30
0.0
  0
LWPOLYLINE
  5
14d
100
AcDbEntity
  8
0
 62
7
100
AcDbPolyline
 90
4
 70
1
 10
-249.998001
 20
256.997000
 30
0.0
 10
-249.998001
 20
267.002001
 30
0.0
 10
-253.003006
 20
267.002001
 30
0.0
 10
-253.003006
 20
256.997000
 30
0.0
  0
LWPOLYLINE
  5
14e
100
AcDbEntity
  8
0
 62
7
100
AcDbPolyline
 90
5
 70
1
 10
-236.908005
 20
307.069000
 30
0.0
 10
-234.307999
 20
308.570000
 30
0.0
 10
-242.311996
 20
322.431000
 30
0.0
 10
-244.910995
 20
320.930000
 30
0.0
 10
-236.908005
 20
307.069000
 30
0.0
  0
ENDSEC
  0
SECTION
  2
OBJECTS
  0
DICTIONARY
  5
C
330
0
100
AcDbDictionary
  3
ACAD_GROUP
350
D
  3
ACAD_MLINESTYLE
350
17
  0
DICTIONARY
  5
D
330
C
100
AcDbDictionary
  0
DICTIONARY
  5
1A
330
C
100
AcDbDictionary
  0
DICTIONARY
  5
17
330
C
100
AcDbDictionary
  3
STANDARD
350
18
  0
DICTIONARY
  5
19
330
C
100
AcDbDictionary
  0
ENDSEC
  0
EOF
