0
SECTION
2
HEADER
9
$INSUNITS
70
1
9
$ACADVER
1
AC1014
9
$HANDSEED
5
FFFF
0
ENDSEC
0
SECTION
2
TABLES
0
TABLE
2
VPORT
5
8
100
AcDbSymbolTable
0
ENDTAB
0
TABLE
2
LTYPE
5
5
100
AcDbSymbolTable
0
LTYPE
5
14
100
AcDbSymbolTableRecord
100
AcDbLinetypeTableRecord
2
BYBLOCK
70
0
0
LTYPE
5
15
100
AcDbSymbolTableRecord
100
AcDbLinetypeTableRecord
2
BYLAYER
70
0
0
ENDTAB
0
TABLE
2
LAYER
5
2
100
AcDbSymbolTable
70
2
0
LAYER
5
50
100
AcDbSymbolTableRecord
100
AcDbLayerTableRecord
2
0
70
0
6
CONTINUOUS
0
ENDTAB
0
TABLE
2
STYLE
5
3
100
AcDbSymbolTable
70
1
0
STYLE
5
11
100
AcDbSymbolTableRecord
100
AcDbTextStyleTableRecord
2
STANDARD
70
0
0
ENDTAB
0
TABLE
2
VIEW
5
6
100
AcDbSymbolTable
70
0
0
ENDTAB
0
TABLE
2
UCS
5
7
100
AcDbSymbolTable
70
0
0
ENDTAB
0
TABLE
2
APPID
5
9
100
AcDbSymbolTable
70
2
0
APPID
5
12
100
AcDbSymbolTableRecord
100
AcDbRegAppTableRecord
2
ACAD
70
0
0
ENDTAB
0
TABLE
2
DIMSTYLE
5
A
100
AcDbSymbolTable
70
1
0
ENDTAB
0
TABLE
2
BLOCK_RECORD
5
1
100
AcDbSymbolTable
70
1
0
BLOCK_RECORD
5
1F
100
AcDbSymbolTableRecord
100
AcDbBlockTableRecord
2
*MODEL_SPACE
0
BLOCK_RECORD
5
1B
100
AcDbSymbolTableRecord
100
AcDbBlockTableRecord
2
*PAPER_SPACE
0
ENDTAB
0
ENDSEC
0
SECTION
2
BLOCKS
0
BLOCK
5
20
100
AcDbEntity
100
AcDbBlockBegin
2
*MODEL_SPACE
0
ENDBLK
5
21
100
AcDbEntity
100
AcDbBlockEnd
0
BLOCK
5
1C
100
AcDbEntity
100
AcDbBlockBegin
2
*PAPER_SPACE
0
ENDBLK
5
1D
100
AcDbEntity
100
AcDbBlockEnd
0
ENDSEC
0
SECTION
2
ENTITIES
0
LWPOLYLINE
5
100
100
AcDbEntity
8
0
100
AcDbPolyline
90
4
70
1
43
0.0
10
96
20
3.1057515953583139e-31
10
0
20
0
10
0
20
-47.999999999999993
10
96
20
-47.999999999999993
0
LWPOLYLINE
5
101
100
AcDbEntity
8
0
100
AcDbPolyline
90
20
70
1
43
0.0
10
94.869062237105936
20
-0.54853673484955157
42
-0.49277345681094725
10
95.49789356238611
20
-1.0316542046501718
10
95.49789356238611
20
-29.605042558232832
42
-0.49277345681095319
10
94.869062237105936
20
-30.08816002803346
10
81.09068573106606
20
-26.413926293089499
42
-0.33978802401305075
10
80.99789356238611
20
-26.293146925639334
10
80.99789356238611
20
-23.338348381441502
10
88.24789356238611
20
-23.338348381441502
10
88.24789356238611
20
-22.603348381441503
10
80.99789356238611
20
-22.603348381441503
10
80.99789356238611
20
-15.685848381441502
10
88.24789356238611
20
-15.685848381441499
10
88.24789356238611
20
-14.950848381441499
10
80.99789356238611
20
-14.950848381441501
10
80.99789356238611
20
-8.0333483814415025
10
88.24789356238611
20
-8.033348381441499
10
88.24789356238611
20
-7.2983483814414987
10
80.99789356238611
20
-7.2983483814415013
10
80.997893562386096
20
-4.3435498372436658
42
-0.33978802401320979
10
81.090685731066074
20
-4.2227704697935096
0
LWPOLYLINE
5
102
100
AcDbEntity
8
0
100
AcDbPolyline
90
10
70
1
43
0.0
10
80.407370950719397
20
-44.902851375303648
10
80.407370950719397
20
-37.652851375303641
10
79.672370950719397
20
-37.652851375303641
10
79.672370950719397
20
-44.902851375303648
10
72.766370950719391
20
-44.902851375303648
10
72.766370950719391
20
-37.652851375303641
10
72.031370950719406
20
-37.652851375303641
10
72.031370950719406
20
-30.402851375303648
10
87.313370950719403
20
-30.402851375303648
10
87.313370950719403
20
-44.902851375303648
0
LWPOLYLINE
5
103
100
AcDbEntity
8
0
100
AcDbPolyline
90
14
70
1
43
0.0
10
61.503918657497003
20
-42.268493889513287
42
-0.1721889519326926
10
61.188719036551859
20
-42.380358347523078
10
57.034785405905687
20
-42.380358347523078
42
-0.41421356237314749
10
56.909785405905687
20
-42.255358347523078
10
56.909785405905687
20
-36.380358347523085
10
53.286121347820156
20
-35.414047932033618
42
-0.33978802401305075
10
53.193329179140207
20
-35.293268564583457
10
53.1933291791402
20
-7.5924481304627154
42
-0.3397880240131857
10
53.286121347820156
20
-7.4716687630125591
10
56.909785405905673
20
-6.5053583475230861
10
56.909785405905673
20
-0.63035834752309206
42
-0.41421356237313933
10
57.034785405905673
20
-0.50535834752309372
10
61.188719036551824
20
-0.50535834752306896
42
-0.17218895193266048
10
61.503918657496961
20
-0.61722280553285891
42
-0.47612331019020671
0
LWPOLYLINE
5
104
100
AcDbEntity
8
0
100
AcDbPolyline
90
4
70
1
43
0.0
10
56.909785405905673
20
-14.161608347523082
10
62.655744107543271
20
-14.161608347523082
10
62.655744107543271
20
-13.411608347523082
10
56.909785405905673
20
-13.411608347523082
0
LWPOLYLINE
5
105
100
AcDbEntity
8
0
100
AcDbPolyline
90
4
70
1
43
0.0
10
62.655744107543271
20
-29.474108347523075
10
62.655744107543271
20
-28.724108347523078
10
56.909785405905687
20
-28.724108347523078
10
56.909785405905687
20
-29.474108347523078
0
SPLINE
5
106
100
AcDbEntity
8
0
100
AcDbSpline
70
1064
71
3
72
18
73
14
74
0
42
0.000000001
43
0.0000000001
44
0.0000000001
40
0
40
0
40
0
40
0
40
0.12402962030034619
40
0.12402962030034619
40
0.24805924060069681
40
0.24805924060069681
40
0.37208886090104359
40
0.37208886090104359
40
0.49611848120139695
40
0.49611848120139695
40
0.6094316448447874
40
0.6094316448447874
40
0.72274480848817457
40
0.72274480848817457
40
0.72274480848817457
40
0.72274480848817457
10
11.794956006068908
20
-23.27112941737915
30
0
10
11.7844852800464
20
-23.258667481653653
30
0
10
11.776548753031088
20
-23.244279523199449
30
0
10
11.766637543629745
20
-23.213271270909743
30
0
10
11.764757617807611
20
-23.196947432866935
30
0
10
11.767360754695304
20
-23.164497972775841
30
0
10
11.771818929997655
20
-23.148682585252352
30
0
10
11.786546619680168
20
-23.119650896729723
30
0
10
11.796675329319756
20
-23.106712154496353
30
0
10
11.820257472330177
20
-23.086364187655168
30
0
10
11.833159881611449
20
-23.078736134171084
30
0
10
11.861036530274461
20
-23.068371829245216
30
0
10
11.875788407555921
20
-23.065718250173383
30
0
10
11.890658901472374
20
-23.065718250173383
30
0
0
SPLINE
5
107
100
AcDbEntity
8
0
100
AcDbSpline
70
1064
71
5
72
16
73
10
74
0
42
0.000000001
43
0.0000000001
44
0.0000000001
40
0.5385708908969995
40
0.5385708908969995
40
0.5385708908969995
40
0.5385708908969995
40
0.5385708908969995
40
0.5385708908969995
40
0.59999999999999998
40
0.69999999999999996
40
0.79999999999999993
40
0.89999999999999991
40
0.94762941399925094
40
0.94762941399925094
40
0.94762941399925094
40
0.94762941399925094
40
0.94762941399925094
40
0.94762941399925094
10
21.882535163360174
20
-27.794675110661036
30
0
10
21.529133480336991
20
-27.814219748300307
30
0
10
20.598038720881192
20
-27.828285074785128
30
0
10
19.093098215228181
20
-27.696820914124313
30
0
10
17.099145858126434
20
-27.208534501215635
30
0
10
15.047085157702789
20
-26.219630737597939
30
0
10
13.511185020807719
20
-25.071281430557871
30
0
10
12.522002768101949
20
-24.105721833498652
30
0
10
11.9693882092599
20
-23.478733254968837
30
0
10
11.794956006068908
20
-23.27112941737915
30
0
0
SPLINE
5
108
100
AcDbEntity
8
0
100
AcDbSpline
70
1064
71
5
72
17
73
11
74
0
42
0.000000001
43
0.0000000001
44
0.0000000001
40
0
40
0
40
0
40
0
40
0
40
0
40
0.10000000000000001
40
0.20000000000000001
40
0.30000000000000004
40
0.40000000000000002
40
0.5
40
0.53857089089699928
40
0.53857089089699928
40
0.53857089089699928
40
0.53857089089699928
40
0.53857089089699928
40
0.53857089089699928
10
35.882535403656071
20
-22.065718250173383
30
0
10
35.257683789318541
20
-22.065718250173383
30
0
10
34.060109708920841
20
-22.165588750714754
30
0
10
32.419971112692728
20
-22.61486221373471
30
0
10
30.489454926214972
20
-23.722163573527734
30
0
10
28.213886775210483
20
-25.464814797972849
30
0
10
26.089768369439998
20
-26.821955980876314
30
0
10
24.256188390734692
20
-27.48116010398698
30
0
10
22.900342073916843
20
-27.718212792462143
30
0
10
22.104433510214722
20
-27.782403174814757
30
0
10
21.882535163360181
20
-27.794675110661029
30
0
0
LINE
5
109
100
AcDbEntity
8
0
100
AcDbLine
10
35.882535403656071
20
-22.065718250173383
30
0
11
36.600535163360185
21
-22.065718250173383
31
0
0
LINE
5
110
100
AcDbEntity
8
0
100
AcDbLine
10
36.600535163360185
20
-22.065718250173383
30
0
11
36.600535163360185
21
-14.815718250173383
31
0
0
LINE
5
111
100
AcDbEntity
8
0
100
AcDbLine
10
36.600535163360185
20
-14.815718250173383
30
0
11
37.335535163360177
21
-14.815718250173383
31
0
0
LINE
5
112
100
AcDbEntity
8
0
100
AcDbLine
10
37.335535163360177
20
-14.815718250173383
30
0
11
37.335535163360177
21
-22.065718250173383
31
0
0
LINE
5
113
100
AcDbEntity
8
0
100
AcDbLine
10
37.335535163360177
20
-22.065718250173383
30
0
11
44.241535163360176
21
-22.065718250173383
31
0
0
LINE
5
114
100
AcDbEntity
8
0
100
AcDbLine
10
44.241535163360176
20
-22.065718250173383
30
0
11
44.241535163360176
21
-14.815718250173383
31
0
0
LINE
5
115
100
AcDbEntity
8
0
100
AcDbLine
10
44.241535163360176
20
-14.815718250173383
30
0
11
44.976535163360175
21
-14.815718250173383
31
0
0
LINE
5
116
100
AcDbEntity
8
0
100
AcDbLine
10
44.976535163360175
20
-14.815718250173383
30
0
11
44.976535163360175
21
-22.065718250173383
31
0
0
LINE
5
117
100
AcDbEntity
8
0
100
AcDbLine
10
44.976535163360175
20
-22.065718250173383
30
0
11
51.882535163360181
21
-22.065718250173383
31
0
0
LINE
5
118
100
AcDbEntity
8
0
100
AcDbLine
10
51.882535163360181
20
-22.065718250173383
30
0
11
51.882535163360181
21
-7.5657182501733846
31
0
0
LINE
5
119
100
AcDbEntity
8
0
100
AcDbLine
10
51.882535163360181
20
-7.5657182501733846
30
0
11
33.747795259414971
21
-7.5657182501733846
31
0
0
ARC
5
120
100
AcDbEntity
8
0
100
AcDbCircle
10
33.747795259414971
20
-8.065718250173374
30
0
40
0.49999999999999001
100
AcDbArc
50
90
51
134.66639100874849
0
LINE
5
121
100
AcDbEntity
8
0
100
AcDbLine
10
33.39630644156761
20
-7.710112273102891
30
0
11
22.632535163360181
21
-18.349262023407903
31
0
0
LINE
5
122
100
AcDbEntity
8
0
100
AcDbLine
10
22.632535163360181
20
-18.349262023407903
30
0
11
22.632535163360181
21
-22.065718250173383
31
0
0
LINE
5
123
100
AcDbEntity
8
0
100
AcDbLine
10
22.632535163360181
20
-22.065718250173383
30
0
11
21.882535163360181
21
-22.065718250173383
31
0
0
LINE
5
124
100
AcDbEntity
8
0
100
AcDbLine
10
21.882535163360181
20
-22.065718250173383
30
0
11
21.882535163360181
21
-23.065718250173383
31
0
0
LINE
5
125
100
AcDbEntity
8
0
100
AcDbLine
10
21.882535163360181
20
-23.065718250173383
30
0
11
21.028982252461066
21
-22.212164941882644
31
0
0
ARC
5
126
100
AcDbEntity
8
0
100
AcDbCircle
10
20.675428779565262
20
-22.565718250173401
30
0
40
0.50000000000002021
100
AcDbArc
50
44.999986662305076
51
89.999999999998778
0
LINE
5
127
100
AcDbEntity
8
0
100
AcDbLine
10
20.675428779565273
20
-22.065718250173383
30
0
11
17.132535163360174
21
-22.065718250173383
31
0
0
ARC
5
128
100
AcDbEntity
8
0
100
AcDbCircle
10
17.132535163360174
20
-22.190718250173386
30
0
40
0.1250000000000038
100
AcDbArc
50
90
51
180
0
LINE
5
129
100
AcDbEntity
8
0
100
AcDbLine
10
17.007535163360171
20
-22.190718250173383
30
0
11
17.007535163360171
21
-23.065718250173383
31
0
0
LINE
5
130
100
AcDbEntity
8
0
100
AcDbLine
10
17.007535163360171
20
-23.065718250173383
30
0
11
11.890658901472374
21
-23.065718250173383
31
0
0
LWPOLYLINE
5
131
100
AcDbEntity
8
0
100
AcDbPolyline
90
20
70
1
43
0.0
10
4.9163107682709724
20
-44.186410973284104
42
-0.49277345681095758
10
4.433193298470349
20
-43.557579648003937
10
8.1074270334143144
20
-29.779203141964064
42
-0.33978802401314301
10
8.2282064008644724
20
-29.686410973284104
10
11.183004945062306
20
-29.686410973284104
10
11.183004945062306
20
-36.936410973284104
10
11.918004945062307
20
-36.936410973284104
10
11.918004945062307
20
-29.686410973284104
10
18.835504945062308
20
-29.686410973284104
10
18.835504945062308
20
-36.936410973284104
10
19.570504945062307
20
-36.936410973284104
10
19.570504945062307
20
-29.686410973284104
10
26.488004945062308
20
-29.686410973284104
10
26.488004945062308
20
-36.936410973284104
10
27.223004945062307
20
-36.936410973284104
10
27.223004945062307
20
-29.686410973284104
10
30.177803489260139
20
-29.686410973284111
42
-0.33978802401314767
10
30.298582856710297
20
-29.779203141964064
10
33.972816591654251
20
-43.557579648003937
42
-0.49277345681095414
10
33.489699121853633
20
-44.186410973284104
0
SPLINE
5
132
100
AcDbEntity
8
0
100
AcDbSpline
70
1064
71
3
72
18
73
14
74
0
42
0.000000001
43
0.0000000001
44
0.0000000001
40
0
40
0
40
0
40
0
40
0.12402962030034795
40
0.12402962030034795
40
0.24805924060070192
40
0.24805924060070192
40
0.37208886090105475
40
0.37208886090105475
40
0.49611848120140961
40
0.49611848120140961
40
0.60943164484480017
40
0.60943164484480017
40
0.72274480848818723
40
0.72274480848818723
40
0.72274480848818723
40
0.72274480848818723
10
40.784703077140705
20
-5.5309390635402087
30
0
10
40.795173803163209
20
-5.543400999265705
30
0
10
40.803110330178527
20
-5.5577889577199091
30
0
10
40.813021539579871
20
-5.5887972100096137
30
0
10
40.814901465402009
20
-5.6051210480524238
30
0
10
40.812298328514316
20
-5.6375705081435177
30
0
10
40.807840153211956
20
-5.6533858956670047
30
0
10
40.79311246352944
20
-5.6824175841896327
30
0
10
40.782983753889852
20
-5.6953563264230063
30
0
10
40.759401610879429
20
-5.7157042932641904
30
0
10
40.746499201598162
20
-5.7233323467482773
30
0
10
40.718622552935152
20
-5.733696651674145
30
0
10
40.70387067565369
20
-5.7363502307459786
30
0
10
40.689000181737242
20
-5.7363502307459786
30
0
0
SPLINE
5
133
100
AcDbEntity
8
0
100
AcDbSpline
70
1064
71
5
72
16
73
10
74
0
42
0.000000001
43
0.0000000001
44
0.0000000001
40
-0.94762941399925094
40
-0.94762941399925094
40
-0.94762941399925094
40
-0.94762941399925094
40
-0.94762941399925094
40
-0.94762941399925094
40
-0.89999999999999991
40
-0.79999999999999993
40
-0.69999999999999996
40
-0.59999999999999998
40
-0.5385708908969995
40
-0.5385708908969995
40
-0.5385708908969995
40
-0.5385708908969995
40
-0.5385708908969995
40
-0.5385708908969995
10
40.784703077140705
20
-5.5309390635402087
30
0
10
40.610270873949716
20
-5.3233352259505216
30
0
10
40.057656315107664
20
-4.6963466474207038
30
0
10
39.068474062401897
20
-3.7307870503614868
30
0
10
37.532573925506817
20
-2.582437743321417
30
0
10
35.480513225083179
20
-1.5935339797037253
30
0
10
33.486560867981431
20
-1.1052475667950488
30
0
10
31.981620362328414
20
-0.97378340613422454
30
0
10
31.050525602872618
20
-0.98784873261905848
30
0
10
30.697123919849435
20
-1.0073933702583289
30
0
0
SPLINE
5
134
100
AcDbEntity
8
0
100
AcDbSpline
70
1064
71
5
72
17
73
11
74
0
42
0.000000001
43
0.0000000001
44
0.0000000001
40
-0.53857089089699928
40
-0.53857089089699928
40
-0.53857089089699928
40
-0.53857089089699928
40
-0.53857089089699928
40
-0.53857089089699928
40
-0.5
40
-0.40000000000000002
40
-0.30000000000000004
40
-0.20000000000000001
40
-0.10000000000000001
40
0
40
0
40
0
40
0
40
0
40
0
10
30.697123919849428
20
-1.0073933702583293
30
0
10
30.475225572994887
20
-1.0196653061046017
30
0
10
29.67931700929277
20
-1.0838556884572113
30
0
10
28.323470692474924
20
-1.3209083769323735
30
0
10
26.489890713769611
20
-1.980112500043042
30
0
10
24.36577230799913
20
-3.3372536829465118
30
0
10
22.090204156994634
20
-5.079904907391624
30
0
10
20.159687970516874
20
-6.1872062671846475
30
0
10
18.519549374288765
20
-6.6364797302046048
30
0
10
17.321975293891061
20
-6.7363502307459751
30
0
10
16.697123679553535
20
-6.7363502307459751
30
0
0
LINE
5
135
100
AcDbEntity
8
0
100
AcDbLine
10
16.697123679553535
20
-6.7363502307459751
30
0
11
15.97912391984943
21
-6.7363502307459751
31
0
0
LINE
5
136
100
AcDbEntity
8
0
100
AcDbLine
10
15.97912391984943
20
-6.7363502307459751
30
0
11
15.97912391984943
21
-13.986350230745973
31
0
0
LINE
5
137
100
AcDbEntity
8
0
100
AcDbLine
10
15.97912391984943
20
-13.986350230745973
30
0
11
15.244123919849429
21
-13.986350230745973
31
0
0
LINE
5
138
100
AcDbEntity
8
0
100
AcDbLine
10
15.244123919849429
20
-13.986350230745973
30
0
11
15.244123919849429
21
-6.7363502307459751
31
0
0
LINE
5
139
100
AcDbEntity
8
0
100
AcDbLine
10
15.244123919849429
20
-6.7363502307459751
30
0
11
8.3381239198494317
21
-6.7363502307459751
31
0
0
LINE
5
140
100
AcDbEntity
8
0
100
AcDbLine
10
8.3381239198494317
20
-6.7363502307459751
30
0
11
8.3381239198494317
21
-13.986350230745973
31
0
0
LINE
5
141
100
AcDbEntity
8
0
100
AcDbLine
10
8.3381239198494317
20
-13.986350230745973
30
0
11
7.6031239198494314
21
-13.986350230745973
31
0
0
LINE
5
142
100
AcDbEntity
8
0
100
AcDbLine
10
7.6031239198494314
20
-13.986350230745973
30
0
11
7.6031239198494314
21
-6.7363502307459751
31
0
0
LINE
5
143
100
AcDbEntity
8
0
100
AcDbLine
10
7.6031239198494314
20
-6.7363502307459751
30
0
11
0.69712391984943101
21
-6.7363502307459751
31
0
0
LINE
5
144
100
AcDbEntity
8
0
100
AcDbLine
10
0.69712391984943101
20
-6.7363502307459751
30
0
11
0.69712391984943101
21
-21.236350230745973
31
0
0
LINE
5
145
100
AcDbEntity
8
0
100
AcDbLine
10
0.69712391984943101
20
-21.236350230745973
30
0
11
18.831863823794635
21
-21.236350230745973
31
0
0
ARC
5
146
100
AcDbEntity
8
0
100
AcDbCircle
10
18.831863823794631
20
-20.736350230745956
30
0
40
0.50000000000001799
100
AcDbArc
50
270.0000000000004
51
314.66639100874687
0
LINE
5
147
100
AcDbEntity
8
0
100
AcDbLine
10
19.183352641641999
20
-21.091956207816466
30
0
11
29.947123919849435
21
-10.452806457511453
31
0
0
LINE
5
148
100
AcDbEntity
8
0
100
AcDbLine
10
29.947123919849435
20
-10.452806457511453
30
0
11
29.947123919849435
21
-6.7363502307459751
31
0
0
LINE
5
149
100
AcDbEntity
8
0
100
AcDbLine
10
29.947123919849435
20
-6.7363502307459751
30
0
11
30.697123919849435
21
-6.7363502307459751
31
0
0
LINE
5
150
100
AcDbEntity
8
0
100
AcDbLine
10
30.697123919849435
20
-6.7363502307459751
30
0
11
30.697123919849435
21
-5.7363502307459759
31
0
0
LINE
5
151
100
AcDbEntity
8
0
100
AcDbLine
10
30.697123919849435
20
-5.7363502307459759
30
0
11
31.550676830748543
21
-6.5899035390367127
31
0
0
ARC
5
152
100
AcDbEntity
8
0
100
AcDbCircle
10
31.904230303644336
20
-6.2363502307459857
30
0
40
0.499999999999994
100
AcDbArc
50
224.99998666230354
51
270.0000000000008
0
LINE
5
153
100
AcDbEntity
8
0
100
AcDbLine
10
31.904230303644344
20
-6.7363502307459751
30
0
11
35.447123919849446
21
-6.7363502307459751
31
0
0
ARC
5
154
100
AcDbEntity
8
0
100
AcDbCircle
10
35.447123919849453
20
-6.6113502307459813
30
0
40
0.124999999999994
100
AcDbArc
50
-90.000000000003254
51
0
0
LINE
5
155
100
AcDbEntity
8
0
100
AcDbLine
10
35.572123919849446
20
-6.6113502307459724
30
0
11
35.572123919849432
21
-5.7363502307459759
31
0
0
LINE
5
156
100
AcDbEntity
8
0
100
AcDbLine
10
35.572123919849432
20
-5.7363502307459759
30
0
11
40.689000181737249
21
-5.7363502307459786
31
0
0
ENDSEC
0
SECTION
2
OBJECTS
0
DICTIONARY
5
C
100
AcDbDictionary
3
ACAD_GROUP
350
D
3
ACAD_MLINESTYLE
350
17
0
DICTIONARY
5
D
100
AcDbDictionary
0
DICTIONARY
5
1A
330
C
100
AcDbDictionary
0
DICTIONARY
5
17
100
AcDbDictionary
0
ENDSEC
0
EOF
