  0
SECTION
  2
HEADER
  9
$ACADVER
  1
AC1014
  9
$HANDSEED
  5
FFFF
  9
$MEASUREMENT
 70
     1
  0
ENDSEC
  0
SECTION
  2
TABLES
  0
TABLE
  2
VPORT
  5
8
330
0
100
AcDbSymbolTable
 70
     4
  0
VPORT
  5
2E
330
8
100
AcDbSymbolTableRecord
100
AcDbViewportTableRecord
  2
*ACTIVE
 70
     0
 10
0.0
 20
0.0
 11
1.0
 21
1.0
 12
210.0
 22
148.5
 13
0.0
 23
0.0
 14
10.0
 24
10.0
 15
10.0
 25
10.0
 16
0.0
 26
0.0
 36
1.0
 17
0.0
 27
0.0
 37
0.0
 40
341.0
 41
1.24
 42
50.0
 43
0.0
 44
0.0
 50
0.0
 51
0.0
 71
     0
 72
   100
 73
     1
 74
     3
 75
     0
 76
     0
 77
     0
 78
     0
  0
ENDTAB
  0
TABLE
  2
LTYPE
  5
5
330
0
100
AcDbSymbolTable
 70
     1
  0
LTYPE
  5
14
330
5
100
AcDbSymbolTableRecord
100
AcDbLinetypeTableRecord
  2
BYBLOCK
 70
     0
  3

 72
    65
 73
     0
 40
0.0
  0
LTYPE
  5
15
330
5
100
AcDbSymbolTableRecord
100
AcDbLinetypeTableRecord
  2
BYLAYER
 70
     0
  3

 72
    65
 73
     0
 40
0.0
  0
LTYPE
  5
16
330
5
100
AcDbSymbolTableRecord
100
AcDbLinetypeTableRecord
  2
CONTINUOUS
 70
     0
  3
Solid line
 72
    65
 73
     0
 40
0.0
  0
ENDTAB
  0
TABLE
  2
LAYER
  5
2
100
AcDbSymbolTable
 70
2
  0
LAYER
  5
50
100
AcDbSymbolTableRecord
100
AcDbLayerTableRecord
  2
0
 70
0
  6
CONTINUOUS
  0
LAYER
  5
51
100
AcDbSymbolTableRecord
100
AcDbLayerTableRecord
  2
Layer_1
 70
0
  6
CONTINUOUS
  0
ENDTAB
  0
TABLE
  2
STYLE
  5
3
330
0
100
AcDbSymbolTable
 70
     1
  0
STYLE
  5
11
330
3
100
AcDbSymbolTableRecord
100
AcDbTextStyleTableRecord
  2
STANDARD
 70
     0
 40
0.0
 41
1.0
 50
0.0
 71
     0
 42
2.5
  3
txt
  4

  0
ENDTAB
  0
TABLE
  2
VIEW
  5
6
330
0
100
AcDbSymbolTable
 70
     0
  0
ENDTAB
  0
TABLE
  2
UCS
  5
7
330
0
100
AcDbSymbolTable
 70
     0
  0
ENDTAB
  0
TABLE
  2
APPID
  5
9
330
0
100
AcDbSymbolTable
 70
     2
  0
APPID
  5
12
330
9
100
AcDbSymbolTableRecord
100
AcDbRegAppTableRecord
  2
ACAD
 70
     0
  0
ENDTAB
  0
TABLE
  2
DIMSTYLE
  5
A
330
0
100
AcDbSymbolTable
 70
     1
  0
DIMSTYLE
105
27
330
A
100
AcDbSymbolTableRecord
100
AcDbDimStyleTableRecord
  2
ISO-25
 70
     0
  3

  4

  5

  6

  7

 40
1.0
 41
2.5
 42
0.625
 43
3.75
 44
1.25
 45
0.0
 46
0.0
 47
0.0
 48
0.0
140
2.5
141
2.5
142
0.0
143
0.03937007874016
144
1.0
145
0.0
146
1.0
147
0.625
 71
     0
 72
     0
 73
     0
 74
     0
 75
     0
 76
     0
 77
     1
 78
     8
170
     0
171
     3
172
     1
173
     0
174
     0
175
     0
176
     0
177
     0
178
     0
270
     2
271
     2
272
     2
273
     2
274
     3
340
11
275
     0
280
     0
281
     0
282
     0
283
     0
284
     8
285
     0
286
     0
287
     3
288
     0
  0
ENDTAB
  0
TABLE
  2
BLOCK_RECORD
  5
1
330
0
100
AcDbSymbolTable
 70
     1
  0
BLOCK_RECORD
  5
1F
330
1
100
AcDbSymbolTableRecord
100
AcDbBlockTableRecord
  2
*MODEL_SPACE
  0
BLOCK_RECORD
  5
1B
330
1
100
AcDbSymbolTableRecord
100
AcDbBlockTableRecord
  2
*PAPER_SPACE
  0
ENDTAB
  0
ENDSEC
  0
SECTION
  2
BLOCKS
  0
BLOCK
  5
20
330
1F
100
AcDbEntity
  8
0
100
AcDbBlockBegin
  2
*MODEL_SPACE
 70
     0
 10
0.0
 20
0.0
 30
0.0
  3
*MODEL_SPACE
  1

  0
ENDBLK
  5
21
330
1F
100
AcDbEntity
  8
0
100
AcDbBlockEnd
  0
BLOCK
  5
1C
330
1B
100
AcDbEntity
 67
     1
  8
0
100
AcDbBlockBegin
  2
*PAPER_SPACE
  1

  0
ENDBLK
  5
1D
330
1B
100
AcDbEntity
 67
     1
  8
0
100
AcDbBlockEnd
  0
ENDSEC
  0
SECTION
  2
ENTITIES
  0
LINE
  5
100
100
AcDbEntity
  8
Layer_1
 62
1
100
AcDbLine
 10
322.657050
 20
363.707750
 30
0.0
 11
337.657050
 21
363.707750
 31
0.0
  0
LINE
  5
101
100
AcDbEntity
  8
Layer_1
 62
1
100
AcDbLine
 10
337.657050
 20
363.707750
 30
0.0
 11
337.657050
 21
347.207750
 31
0.0
  0
LINE
  5
102
100
AcDbEntity
  8
Layer_1
 62
1
100
AcDbLine
 10
337.657050
 20
347.207750
 30
0.0
 11
322.657050
 21
347.207750
 31
0.0
  0
LINE
  5
103
100
AcDbEntity
  8
Layer_1
 62
1
100
AcDbLine
 10
322.657050
 20
347.207750
 30
0.0
 11
322.657050
 21
363.707750
 31
0.0
  0
LINE
  5
104
100
AcDbEntity
  8
Layer_1
 62
1
100
AcDbLine
 10
340.648740
 20
363.707750
 30
0.0
 11
355.648740
 21
363.707750
 31
0.0
  0
LINE
  5
105
100
AcDbEntity
  8
Layer_1
 62
1
100
AcDbLine
 10
355.648740
 20
363.707750
 30
0.0
 11
355.648740
 21
347.207750
 31
0.0
  0
LINE
  5
106
100
AcDbEntity
  8
Layer_1
 62
1
100
AcDbLine
 10
355.648740
 20
347.207750
 30
0.0
 11
340.648740
 21
347.207750
 31
0.0
  0
LINE
  5
107
100
AcDbEntity
  8
Layer_1
 62
1
100
AcDbLine
 10
340.648740
 20
347.207750
 30
0.0
 11
340.648740
 21
363.707750
 31
0.0
  0
LINE
  5
108
100
AcDbEntity
  8
Layer_1
 62
1
100
AcDbLine
 10
303.413940
 20
360.707750
 30
0.0
 11
319.413940
 21
360.707750
 31
0.0
  0
LINE
  5
109
100
AcDbEntity
  8
Layer_1
 62
1
100
AcDbLine
 10
319.413940
 20
360.707750
 30
0.0
 11
319.413940
 21
347.207750
 31
0.0
  0
LINE
  5
10a
100
AcDbEntity
  8
Layer_1
 62
1
100
AcDbLine
 10
319.413940
 20
347.207750
 30
0.0
 11
303.413940
 21
347.207750
 31
0.0
  0
LINE
  5
10b
100
AcDbEntity
  8
Layer_1
 62
1
100
AcDbLine
 10
303.413940
 20
347.207750
 30
0.0
 11
303.413940
 21
360.707750
 31
0.0
  0
SPLINE
  5
10c
100
AcDbEntity
  8
Layer_1
 62
1
100
AcDbSpline
 70
8
 71
3
 72
8
 73
4
 74
0
 40
0
 40
0
 40
0
 40
0
 40
1
 40
1
 40
1
 40
1
 10
325.914380
 20
358.535098
 30
0.0
 10
325.914380
 20
359.104868
 30
0.0
 10
326.386480
 20
359.576948
 30
0.0
 10
326.956230
 20
359.576948
 30
0.0
  0
LINE
  5
10d
100
AcDbEntity
  8
Layer_1
 62
1
100
AcDbLine
 10
326.956230
 20
359.576948
 30
0.0
 11
326.972530
 21
359.576948
 31
0.0
  0
SPLINE
  5
10e
100
AcDbEntity
  8
Layer_1
 62
1
100
AcDbSpline
 70
8
 71
3
 72
8
 73
4
 74
0
 40
0
 40
0
 40
0
 40
0
 40
1
 40
1
 40
1
 40
1
 10
326.972530
 20
359.576948
 30
0.0
 10
327.558570
 20
359.576948
 30
0.0
 10
328.014390
 20
359.121168
 30
0.0
 10
328.014390
 20
358.535098
 30
0.0
  0
LINE
  5
10f
100
AcDbEntity
  8
Layer_1
 62
1
100
AcDbLine
 10
328.014390
 20
358.535098
 30
0.0
 11
328.014390
 21
358.518898
 31
0.0
  0
SPLINE
  5
110
100
AcDbEntity
  8
Layer_1
 62
1
100
AcDbSpline
 70
8
 71
3
 72
8
 73
4
 74
0
 40
0
 40
0
 40
0
 40
0
 40
1
 40
1
 40
1
 40
1
 10
328.014390
 20
358.518898
 30
0.0
 10
328.014390
 20
357.948978
 30
0.0
 10
327.542300
 20
357.476898
 30
0.0
 10
326.972530
 20
357.476898
 30
0.0
  0
LINE
  5
111
100
AcDbEntity
  8
Layer_1
 62
1
100
AcDbLine
 10
326.972530
 20
357.476898
 30
0.0
 11
326.956230
 21
357.476898
 31
0.0
  0
SPLINE
  5
112
100
AcDbEntity
  8
Layer_1
 62
1
100
AcDbSpline
 70
8
 71
3
 72
8
 73
4
 74
0
 40
0
 40
0
 40
0
 40
0
 40
1
 40
1
 40
1
 40
1
 10
326.956230
 20
357.476898
 30
0.0
 10
326.386480
 20
357.492898
 30
0.0
 10
325.930660
 20
357.948978
 30
0.0
 10
325.914380
 20
358.518898
 30
0.0
  0
LINE
  5
113
100
AcDbEntity
  8
Layer_1
 62
1
100
AcDbLine
 10
325.914380
 20
358.518898
 30
0.0
 11
325.914380
 21
358.535098
 31
0.0
  0
SPLINE
  5
114
100
AcDbEntity
  8
Layer_1
 62
1
100
AcDbSpline
 70
8
 71
3
 72
8
 73
4
 74
0
 40
0
 40
0
 40
0
 40
0
 40
1
 40
1
 40
1
 40
1
 10
332.299680
 20
358.534978
 30
0.0
 10
332.299680
 20
359.104778
 30
0.0
 10
332.771780
 20
359.576878
 30
0.0
 10
333.341530
 20
359.576878
 30
0.0
  0
LINE
  5
115
100
AcDbEntity
  8
Layer_1
 62
1
100
AcDbLine
 10
333.341530
 20
359.576878
 30
0.0
 11
333.357830
 21
359.576878
 31
0.0
  0
SPLINE
  5
116
100
AcDbEntity
  8
Layer_1
 62
1
100
AcDbSpline
 70
8
 71
3
 72
8
 73
4
 74
0
 40
0
 40
0
 40
0
 40
0
 40
1
 40
1
 40
1
 40
1
 10
333.357830
 20
359.576878
 30
0.0
 10
333.943870
 20
359.576878
 30
0.0
 10
334.399690
 20
359.121078
 30
0.0
 10
334.399690
 20
358.534978
 30
0.0
  0
LINE
  5
117
100
AcDbEntity
  8
Layer_1
 62
1
100
AcDbLine
 10
334.399690
 20
358.534978
 30
0.0
 11
334.399690
 21
358.518978
 31
0.0
  0
SPLINE
  5
118
100
AcDbEntity
  8
Layer_1
 62
1
100
AcDbSpline
 70
8
 71
3
 72
8
 73
4
 74
0
 40
0
 40
0
 40
0
 40
0
 40
1
 40
1
 40
1
 40
1
 10
334.399690
 20
358.518978
 30
0.0
 10
334.399690
 20
357.949078
 30
0.0
 10
333.927600
 20
357.476978
 30
0.0
 10
333.357830
 20
357.476978
 30
0.0
  0
LINE
  5
119
100
AcDbEntity
  8
Layer_1
 62
1
100
AcDbLine
 10
333.357830
 20
357.476978
 30
0.0
 11
333.341530
 21
357.476978
 31
0.0
  0
SPLINE
  5
11a
100
AcDbEntity
  8
Layer_1
 62
1
100
AcDbSpline
 70
8
 71
3
 72
8
 73
4
 74
0
 40
0
 40
0
 40
0
 40
0
 40
1
 40
1
 40
1
 40
1
 10
333.341530
 20
357.476978
 30
0.0
 10
332.771780
 20
357.492978
 30
0.0
 10
332.315960
 20
357.949078
 30
0.0
 10
332.299680
 20
358.518978
 30
0.0
  0
LINE
  5
11b
100
AcDbEntity
  8
Layer_1
 62
1
100
AcDbLine
 10
332.299680
 20
358.518978
 30
0.0
 11
332.299680
 21
358.534978
 31
0.0
  0
SPLINE
  5
11c
100
AcDbEntity
  8
Layer_1
 62
1
100
AcDbSpline
 70
8
 71
3
 72
8
 73
4
 74
0
 40
0
 40
0
 40
0
 40
0
 40
1
 40
1
 40
1
 40
1
 10
332.299680
 20
352.396738
 30
0.0
 10
332.299680
 20
352.966538
 30
0.0
 10
332.771780
 20
353.438638
 30
0.0
 10
333.341530
 20
353.438638
 30
0.0
  0
LINE
  5
11d
100
AcDbEntity
  8
Layer_1
 62
1
100
AcDbLine
 10
333.341530
 20
353.438638
 30
0.0
 11
333.357830
 21
353.438638
 31
0.0
  0
SPLINE
  5
11e
100
AcDbEntity
  8
Layer_1
 62
1
100
AcDbSpline
 70
8
 71
3
 72
8
 73
4
 74
0
 40
0
 40
0
 40
0
 40
0
 40
1
 40
1
 40
1
 40
1
 10
333.357830
 20
353.438638
 30
0.0
 10
333.943870
 20
353.438638
 30
0.0
 10
334.399690
 20
352.982838
 30
0.0
 10
334.399690
 20
352.396738
 30
0.0
  0
LINE
  5
11f
100
AcDbEntity
  8
Layer_1
 62
1
100
AcDbLine
 10
334.399690
 20
352.396738
 30
0.0
 11
334.399690
 21
352.380738
 31
0.0
  0
SPLINE
  5
120
100
AcDbEntity
  8
Layer_1
 62
1
100
AcDbSpline
 70
8
 71
3
 72
8
 73
4
 74
0
 40
0
 40
0
 40
0
 40
0
 40
1
 40
1
 40
1
 40
1
 10
334.399690
 20
352.380738
 30
0.0
 10
334.399690
 20
351.810838
 30
0.0
 10
333.927600
 20
351.338738
 30
0.0
 10
333.357830
 20
351.338738
 30
0.0
  0
LINE
  5
121
100
AcDbEntity
  8
Layer_1
 62
1
100
AcDbLine
 10
333.357830
 20
351.338738
 30
0.0
 11
333.341530
 21
351.338738
 31
0.0
  0
SPLINE
  5
122
100
AcDbEntity
  8
Layer_1
 62
1
100
AcDbSpline
 70
8
 71
3
 72
8
 73
4
 74
0
 40
0
 40
0
 40
0
 40
0
 40
1
 40
1
 40
1
 40
1
 10
333.341530
 20
351.338738
 30
0.0
 10
332.771780
 20
351.354738
 30
0.0
 10
332.315960
 20
351.810838
 30
0.0
 10
332.299680
 20
352.380738
 30
0.0
  0
LINE
  5
123
100
AcDbEntity
  8
Layer_1
 62
1
100
AcDbLine
 10
332.299680
 20
352.380738
 30
0.0
 11
332.299680
 21
352.396738
 31
0.0
  0
SPLINE
  5
124
100
AcDbEntity
  8
Layer_1
 62
1
100
AcDbSpline
 70
8
 71
3
 72
8
 73
4
 74
0
 40
0
 40
0
 40
0
 40
0
 40
1
 40
1
 40
1
 40
1
 10
325.914380
 20
352.396738
 30
0.0
 10
325.914380
 20
352.966538
 30
0.0
 10
326.386480
 20
353.438638
 30
0.0
 10
326.956230
 20
353.438638
 30
0.0
  0
LINE
  5
125
100
AcDbEntity
  8
Layer_1
 62
1
100
AcDbLine
 10
326.956230
 20
353.438638
 30
0.0
 11
326.972530
 21
353.438638
 31
0.0
  0
SPLINE
  5
126
100
AcDbEntity
  8
Layer_1
 62
1
100
AcDbSpline
 70
8
 71
3
 72
8
 73
4
 74
0
 40
0
 40
0
 40
0
 40
0
 40
1
 40
1
 40
1
 40
1
 10
326.972530
 20
353.438638
 30
0.0
 10
327.558570
 20
353.438638
 30
0.0
 10
328.014390
 20
352.982838
 30
0.0
 10
328.014390
 20
352.396738
 30
0.0
  0
LINE
  5
127
100
AcDbEntity
  8
Layer_1
 62
1
100
AcDbLine
 10
328.014390
 20
352.396738
 30
0.0
 11
328.014390
 21
352.380738
 31
0.0
  0
SPLINE
  5
128
100
AcDbEntity
  8
Layer_1
 62
1
100
AcDbSpline
 70
8
 71
3
 72
8
 73
4
 74
0
 40
0
 40
0
 40
0
 40
0
 40
1
 40
1
 40
1
 40
1
 10
328.014390
 20
352.380738
 30
0.0
 10
328.014390
 20
351.810838
 30
0.0
 10
327.542300
 20
351.338738
 30
0.0
 10
326.972530
 20
351.338738
 30
0.0
  0
LINE
  5
129
100
AcDbEntity
  8
Layer_1
 62
1
100
AcDbLine
 10
326.972530
 20
351.338738
 30
0.0
 11
326.956230
 21
351.338738
 31
0.0
  0
SPLINE
  5
12a
100
AcDbEntity
  8
Layer_1
 62
1
100
AcDbSpline
 70
8
 71
3
 72
8
 73
4
 74
0
 40
0
 40
0
 40
0
 40
0
 40
1
 40
1
 40
1
 40
1
 10
326.956230
 20
351.338738
 30
0.0
 10
326.386480
 20
351.354738
 30
0.0
 10
325.930660
 20
351.810838
 30
0.0
 10
325.914380
 20
352.380738
 30
0.0
  0
LINE
  5
12b
100
AcDbEntity
  8
Layer_1
 62
1
100
AcDbLine
 10
325.914380
 20
352.380738
 30
0.0
 11
325.914380
 21
352.396738
 31
0.0
  0
SPLINE
  5
12c
100
AcDbEntity
  8
Layer_1
 62
6
100
AcDbSpline
 70
8
 71
3
 72
8
 73
4
 74
0
 40
0
 40
0
 40
0
 40
0
 40
1
 40
1
 40
1
 40
1
 10
300.606670
 20
361.407948
 30
0.0
 10
300.606670
 20
364.177948
 30
0.0
 10
302.836670
 20
366.407948
 30
0.0
 10
305.606670
 20
366.407948
 30
0.0
  0
LINE
  5
12d
100
AcDbEntity
  8
Layer_1
 62
6
100
AcDbLine
 10
305.606670
 20
366.407948
 30
0.0
 11
309.736880
 21
366.407908
 31
0.0
  0
LINE
  5
12e
100
AcDbEntity
  8
Layer_1
 62
6
100
AcDbLine
 10
309.736880
 20
366.407908
 30
0.0
 11
309.736880
 21
369.007428
 31
0.0
  0
LINE
  5
12f
100
AcDbEntity
  8
Layer_1
 62
6
100
AcDbLine
 10
309.736880
 20
369.007428
 30
0.0
 11
319.737030
 21
369.007428
 31
0.0
  0
LINE
  5
130
100
AcDbEntity
  8
Layer_1
 62
6
100
AcDbLine
 10
319.737030
 20
369.007428
 30
0.0
 11
319.737030
 21
366.407908
 31
0.0
  0
LINE
  5
131
100
AcDbEntity
  8
Layer_1
 62
6
100
AcDbLine
 10
319.737030
 20
366.407908
 30
0.0
 11
338.607880
 21
366.407908
 31
0.0
  0
LINE
  5
132
100
AcDbEntity
  8
Layer_1
 62
6
100
AcDbLine
 10
338.607880
 20
366.407908
 30
0.0
 11
338.607880
 21
369.007428
 31
0.0
  0
LINE
  5
133
100
AcDbEntity
  8
Layer_1
 62
6
100
AcDbLine
 10
338.607880
 20
369.007428
 30
0.0
 11
348.608030
 21
369.007428
 31
0.0
  0
LINE
  5
134
100
AcDbEntity
  8
Layer_1
 62
6
100
AcDbLine
 10
348.608030
 20
369.007428
 30
0.0
 11
348.608030
 21
366.407908
 31
0.0
  0
LINE
  5
135
100
AcDbEntity
  8
Layer_1
 62
6
100
AcDbLine
 10
348.608030
 20
366.407908
 30
0.0
 11
352.737260
 21
366.407908
 31
0.0
  0
SPLINE
  5
136
100
AcDbEntity
  8
Layer_1
 62
6
100
AcDbSpline
 70
8
 71
3
 72
8
 73
4
 74
0
 40
0
 40
0
 40
0
 40
0
 40
1
 40
1
 40
1
 40
1
 10
352.737260
 20
366.407908
 30
0.0
 10
355.507260
 20
366.407908
 30
0.0
 10
357.737260
 20
364.177908
 30
0.0
 10
357.737260
 20
361.407908
 30
0.0
  0
LINE
  5
137
100
AcDbEntity
  8
Layer_1
 62
6
100
AcDbLine
 10
357.737260
 20
361.407948
 30
0.0
 11
357.738260
 21
359.407748
 31
0.0
  0
LINE
  5
138
100
AcDbEntity
  8
Layer_1
 62
6
100
AcDbLine
 10
357.738260
 20
359.407748
 30
0.0
 11
360.339010
 21
359.407748
 31
0.0
  0
LINE
  5
139
100
AcDbEntity
  8
Layer_1
 62
6
100
AcDbLine
 10
360.339010
 20
359.407748
 30
0.0
 11
360.339010
 21
349.408168
 31
0.0
  0
LINE
  5
13a
100
AcDbEntity
  8
Layer_1
 62
6
100
AcDbLine
 10
360.339010
 20
349.408168
 30
0.0
 11
357.737260
 21
349.408168
 31
0.0
  0
LINE
  5
13b
100
AcDbEntity
  8
Layer_1
 62
6
100
AcDbLine
 10
357.737260
 20
349.408168
 30
0.0
 11
357.739260
 21
347.407968
 31
0.0
  0
LINE
  5
13c
100
AcDbEntity
  8
Layer_1
 62
6
100
AcDbLine
 10
300.608720
 20
340.751858
 30
0.0
 11
297.444210
 21
340.751858
 31
0.0
  0
LINE
  5
13d
100
AcDbEntity
  8
Layer_1
 62
6
100
AcDbLine
 10
297.444210
 20
340.751858
 30
0.0
 11
297.444210
 21
331.483928
 31
0.0
  0
LINE
  5
13e
100
AcDbEntity
  8
Layer_1
 62
6
100
AcDbLine
 10
297.444210
 20
331.483928
 30
0.0
 11
300.608730
 21
330.919488
 31
0.0
  0
LINE
  5
13f
100
AcDbEntity
  8
Layer_1
 62
6
100
AcDbLine
 10
300.608730
 20
330.919488
 30
0.0
 11
300.608730
 21
307.929748
 31
0.0
  0
LINE
  5
140
100
AcDbEntity
  8
Layer_1
 62
6
100
AcDbLine
 10
300.608730
 20
307.929748
 30
0.0
 11
297.444210
 21
307.365308
 31
0.0
  0
LINE
  5
141
100
AcDbEntity
  8
Layer_1
 62
6
100
AcDbLine
 10
297.444210
 20
307.365308
 30
0.0
 11
297.444210
 21
298.097378
 31
0.0
  0
LINE
  5
142
100
AcDbEntity
  8
Layer_1
 62
6
100
AcDbLine
 10
297.444210
 20
298.097378
 30
0.0
 11
300.608730
 21
297.532938
 31
0.0
  0
LINE
  5
143
100
AcDbEntity
  8
Layer_1
 62
6
100
AcDbLine
 10
300.608730
 20
297.532938
 30
0.0
 11
300.608730
 21
274.543158
 31
0.0
  0
LINE
  5
144
100
AcDbEntity
  8
Layer_1
 62
6
100
AcDbLine
 10
300.608730
 20
274.543158
 30
0.0
 11
297.444210
 21
273.978718
 31
0.0
  0
LINE
  5
145
100
AcDbEntity
  8
Layer_1
 62
6
100
AcDbLine
 10
297.444210
 20
273.978718
 30
0.0
 11
297.444100
 21
264.710788
 31
0.0
  0
LINE
  5
146
100
AcDbEntity
  8
Layer_1
 62
6
100
AcDbLine
 10
297.444100
 20
264.710788
 30
0.0
 11
300.608480
 21
264.146388
 31
0.0
  0
LINE
  5
147
100
AcDbEntity
  8
Layer_1
 62
6
100
AcDbLine
 10
300.608480
 20
264.146388
 30
0.0
 11
300.607480
 21
261.242408
 31
0.0
  0
LINE
  5
148
100
AcDbEntity
  8
Layer_1
 62
6
100
AcDbLine
 10
357.737260
 20
340.751858
 30
0.0
 11
360.901770
 21
340.751858
 31
0.0
  0
LINE
  5
149
100
AcDbEntity
  8
Layer_1
 62
6
100
AcDbLine
 10
360.901770
 20
340.751858
 30
0.0
 11
360.901770
 21
331.483928
 31
0.0
  0
LINE
  5
14a
100
AcDbEntity
  8
Layer_1
 62
6
100
AcDbLine
 10
360.901770
 20
331.483928
 30
0.0
 11
357.737250
 21
330.919488
 31
0.0
  0
LINE
  5
14b
100
AcDbEntity
  8
Layer_1
 62
6
100
AcDbLine
 10
357.737250
 20
330.919488
 30
0.0
 11
357.737250
 21
307.929748
 31
0.0
  0
LINE
  5
14c
100
AcDbEntity
  8
Layer_1
 62
6
100
AcDbLine
 10
357.737250
 20
307.929748
 30
0.0
 11
360.901770
 21
307.365308
 31
0.0
  0
LINE
  5
14d
100
AcDbEntity
  8
Layer_1
 62
6
100
AcDbLine
 10
360.901770
 20
307.365308
 30
0.0
 11
360.901770
 21
298.097378
 31
0.0
  0
LINE
  5
14e
100
AcDbEntity
  8
Layer_1
 62
6
100
AcDbLine
 10
360.901770
 20
298.097378
 30
0.0
 11
357.737250
 21
297.532938
 31
0.0
  0
LINE
  5
14f
100
AcDbEntity
  8
Layer_1
 62
6
100
AcDbLine
 10
357.737250
 20
297.532938
 30
0.0
 11
357.737250
 21
274.543158
 31
0.0
  0
LINE
  5
150
100
AcDbEntity
  8
Layer_1
 62
6
100
AcDbLine
 10
357.737250
 20
274.543158
 30
0.0
 11
360.901770
 21
273.978718
 31
0.0
  0
LINE
  5
151
100
AcDbEntity
  8
Layer_1
 62
6
100
AcDbLine
 10
360.901770
 20
273.978718
 30
0.0
 11
360.901880
 21
264.710788
 31
0.0
  0
LINE
  5
152
100
AcDbEntity
  8
Layer_1
 62
6
100
AcDbLine
 10
360.901880
 20
264.710788
 30
0.0
 11
357.737500
 21
264.146388
 31
0.0
  0
LINE
  5
153
100
AcDbEntity
  8
Layer_1
 62
6
100
AcDbLine
 10
357.737500
 20
264.146388
 30
0.0
 11
357.738500
 21
261.242408
 31
0.0
  0
LINE
  5
154
100
AcDbEntity
  8
Layer_1
 62
1
100
AcDbLine
 10
326.964528
 20
361.026967
 30
0.0
 11
326.460705
 21
360.976251
 31
0.0
  0
LINE
  5
155
100
AcDbEntity
  8
Layer_1
 62
1
100
AcDbLine
 10
326.460705
 20
360.976251
 30
0.0
 11
325.991623
 21
360.830201
 31
0.0
  0
LINE
  5
156
100
AcDbEntity
  8
Layer_1
 62
1
100
AcDbLine
 10
325.991623
 20
360.830201
 30
0.0
 11
325.566653
 21
360.599767
 31
0.0
  0
LINE
  5
157
100
AcDbEntity
  8
Layer_1
 62
1
100
AcDbLine
 10
325.566653
 20
360.599767
 30
0.0
 11
325.197337
 21
360.294402
 31
0.0
  0
LINE
  5
158
100
AcDbEntity
  8
Layer_1
 62
1
100
AcDbLine
 10
325.197337
 20
360.294402
 30
0.0
 11
324.891408
 21
359.924550
 31
0.0
  0
LINE
  5
159
100
AcDbEntity
  8
Layer_1
 62
1
100
AcDbLine
 10
324.891408
 20
359.924550
 30
0.0
 11
324.661002
 21
359.499552
 31
0.0
  0
LINE
  5
15a
100
AcDbEntity
  8
Layer_1
 62
1
100
AcDbLine
 10
324.661002
 20
359.499552
 30
0.0
 11
324.515488
 21
359.030470
 31
0.0
  0
LINE
  5
15b
100
AcDbEntity
  8
Layer_1
 62
1
100
AcDbLine
 10
324.515488
 20
359.030470
 30
0.0
 11
324.464208
 21
358.527211
 31
0.0
  0
LINE
  5
15c
100
AcDbEntity
  8
Layer_1
 62
1
100
AcDbLine
 10
324.464208
 20
358.527211
 30
0.0
 11
324.515488
 21
358.023388
 31
0.0
  0
LINE
  5
15d
100
AcDbEntity
  8
Layer_1
 62
1
100
AcDbLine
 10
324.515488
 20
358.023388
 30
0.0
 11
324.661002
 21
357.553771
 31
0.0
  0
LINE
  5
15e
100
AcDbEntity
  8
Layer_1
 62
1
100
AcDbLine
 10
324.661002
 20
357.553771
 30
0.0
 11
324.891408
 21
357.129337
 31
0.0
  0
LINE
  5
15f
100
AcDbEntity
  8
Layer_1
 62
1
100
AcDbLine
 10
324.891408
 20
357.129337
 30
0.0
 11
325.197337
 21
356.758920
 31
0.0
  0
LINE
  5
160
100
AcDbEntity
  8
Layer_1
 62
1
100
AcDbLine
 10
325.197337
 20
356.758920
 30
0.0
 11
325.566653
 21
356.454092
 31
0.0
  0
LINE
  5
161
100
AcDbEntity
  8
Layer_1
 62
1
100
AcDbLine
 10
325.566653
 20
356.454092
 30
0.0
 11
325.991623
 21
356.223685
 31
0.0
  0
LINE
  5
162
100
AcDbEntity
  8
Layer_1
 62
1
100
AcDbLine
 10
325.991623
 20
356.223685
 30
0.0
 11
326.460705
 21
356.077607
 31
0.0
  0
LINE
  5
163
100
AcDbEntity
  8
Layer_1
 62
1
100
AcDbLine
 10
326.460705
 20
356.077607
 30
0.0
 11
326.964528
 21
356.026892
 31
0.0
  0
LINE
  5
164
100
AcDbEntity
  8
Layer_1
 62
1
100
AcDbLine
 10
326.964528
 20
356.026892
 30
0.0
 11
327.468323
 21
356.077607
 31
0.0
  0
LINE
  5
165
100
AcDbEntity
  8
Layer_1
 62
1
100
AcDbLine
 10
327.468323
 20
356.077607
 30
0.0
 11
327.937969
 21
356.223685
 31
0.0
  0
LINE
  5
166
100
AcDbEntity
  8
Layer_1
 62
1
100
AcDbLine
 10
327.937969
 20
356.223685
 30
0.0
 11
328.362403
 21
356.454092
 31
0.0
  0
LINE
  5
167
100
AcDbEntity
  8
Layer_1
 62
1
100
AcDbLine
 10
328.362403
 20
356.454092
 30
0.0
 11
328.428556
 21
356.508673
 31
0.0
  0
LINE
  5
168
100
AcDbEntity
  8
Layer_1
 62
1
100
AcDbLine
 10
328.428556
 20
356.508673
 30
0.0
 11
328.515029
 21
356.597884
 31
0.0
  0
SPLINE
  5
169
100
AcDbEntity
  8
Layer_1
 62
1
100
AcDbSpline
 70
8
 71
3
 72
8
 73
4
 74
0
 40
0
 40
0
 40
0
 40
0
 40
1
 40
1
 40
1
 40
1
 10
328.515029
 20
356.597884
 30
0.0
 10
328.280841
 20
356.272877
 30
0.0
 10
328.162307
 20
355.898650
 30
0.0
 10
328.162307
 20
355.472918
 30
0.0
  0
LINE
  5
16a
100
AcDbEntity
  8
Layer_1
 62
1
100
AcDbLine
 10
328.162307
 20
355.472918
 30
0.0
 11
328.162307
 21
355.442607
 31
0.0
  0
SPLINE
  5
16b
100
AcDbEntity
  8
Layer_1
 62
1
100
AcDbSpline
 70
8
 71
3
 72
8
 73
4
 74
0
 40
0
 40
0
 40
0
 40
0
 40
1
 40
1
 40
1
 40
1
 10
328.162307
 20
355.442607
 30
0.0
 10
328.175854
 20
354.972735
 30
0.0
 10
328.346288
 20
354.543983
 30
0.0
 10
328.623684
 20
354.206248
 30
0.0
  0
LINE
  5
16c
100
AcDbEntity
  8
Layer_1
 62
1
100
AcDbLine
 10
328.623684
 20
354.206248
 30
0.0
 11
328.428556
 21
354.406880
 31
0.0
  0
LINE
  5
16d
100
AcDbEntity
  8
Layer_1
 62
1
100
AcDbLine
 10
328.428556
 20
354.406880
 30
0.0
 11
328.362403
 21
354.461433
 31
0.0
  0
LINE
  5
16e
100
AcDbEntity
  8
Layer_1
 62
1
100
AcDbLine
 10
328.362403
 20
354.461433
 30
0.0
 11
327.937969
 21
354.691868
 31
0.0
  0
LINE
  5
16f
100
AcDbEntity
  8
Layer_1
 62
1
100
AcDbLine
 10
327.937969
 20
354.691868
 30
0.0
 11
327.468323
 21
354.837918
 31
0.0
  0
LINE
  5
170
100
AcDbEntity
  8
Layer_1
 62
1
100
AcDbLine
 10
327.468323
 20
354.837918
 30
0.0
 11
326.964528
 21
354.888633
 31
0.0
  0
LINE
  5
171
100
AcDbEntity
  8
Layer_1
 62
1
100
AcDbLine
 10
326.964528
 20
354.888633
 30
0.0
 11
326.460705
 21
354.837918
 31
0.0
  0
LINE
  5
172
100
AcDbEntity
  8
Layer_1
 62
1
100
AcDbLine
 10
326.460705
 20
354.837918
 30
0.0
 11
325.991623
 21
354.691868
 31
0.0
  0
LINE
  5
173
100
AcDbEntity
  8
Layer_1
 62
1
100
AcDbLine
 10
325.991623
 20
354.691868
 30
0.0
 11
325.566653
 21
354.461433
 31
0.0
  0
LINE
  5
174
100
AcDbEntity
  8
Layer_1
 62
1
100
AcDbLine
 10
325.566653
 20
354.461433
 30
0.0
 11
325.197337
 21
354.156633
 31
0.0
  0
LINE
  5
175
100
AcDbEntity
  8
Layer_1
 62
1
100
AcDbLine
 10
325.197337
 20
354.156633
 30
0.0
 11
324.891408
 21
353.786217
 31
0.0
  0
LINE
  5
176
100
AcDbEntity
  8
Layer_1
 62
1
100
AcDbLine
 10
324.891408
 20
353.786217
 30
0.0
 11
324.661002
 21
353.361782
 31
0.0
  0
LINE
  5
177
100
AcDbEntity
  8
Layer_1
 62
1
100
AcDbLine
 10
324.661002
 20
353.361782
 30
0.0
 11
324.515488
 21
352.892136
 31
0.0
  0
LINE
  5
178
100
AcDbEntity
  8
Layer_1
 62
1
100
AcDbLine
 10
324.515488
 20
352.892136
 30
0.0
 11
324.464208
 21
352.388878
 31
0.0
  0
LINE
  5
179
100
AcDbEntity
  8
Layer_1
 62
1
100
AcDbLine
 10
324.464208
 20
352.388878
 30
0.0
 11
324.515488
 21
351.885055
 31
0.0
  0
LINE
  5
17a
100
AcDbEntity
  8
Layer_1
 62
1
100
AcDbLine
 10
324.515488
 20
351.885055
 30
0.0
 11
324.661002
 21
351.415973
 31
0.0
  0
LINE
  5
17b
100
AcDbEntity
  8
Layer_1
 62
1
100
AcDbLine
 10
324.661002
 20
351.415973
 30
0.0
 11
324.891408
 21
350.991003
 31
0.0
  0
LINE
  5
17c
100
AcDbEntity
  8
Layer_1
 62
1
100
AcDbLine
 10
324.891408
 20
350.991003
 30
0.0
 11
325.197337
 21
350.621122
 31
0.0
  0
LINE
  5
17d
100
AcDbEntity
  8
Layer_1
 62
1
100
AcDbLine
 10
325.197337
 20
350.621122
 30
0.0
 11
325.566653
 21
350.315758
 31
0.0
  0
LINE
  5
17e
100
AcDbEntity
  8
Layer_1
 62
1
100
AcDbLine
 10
325.566653
 20
350.315758
 30
0.0
 11
325.991623
 21
350.085352
 31
0.0
  0
LINE
  5
17f
100
AcDbEntity
  8
Layer_1
 62
1
100
AcDbLine
 10
325.991623
 20
350.085352
 30
0.0
 11
326.460705
 21
349.939273
 31
0.0
  0
LINE
  5
180
100
AcDbEntity
  8
Layer_1
 62
1
100
AcDbLine
 10
326.460705
 20
349.939273
 30
0.0
 11
326.964528
 21
349.888558
 31
0.0
  0
LINE
  5
181
100
AcDbEntity
  8
Layer_1
 62
1
100
AcDbLine
 10
326.964528
 20
349.888558
 30
0.0
 11
327.468323
 21
349.939273
 31
0.0
  0
LINE
  5
182
100
AcDbEntity
  8
Layer_1
 62
1
100
AcDbLine
 10
327.468323
 20
349.939273
 30
0.0
 11
327.937969
 21
350.084787
 31
0.0
  0
LINE
  5
183
100
AcDbEntity
  8
Layer_1
 62
1
100
AcDbLine
 10
327.937969
 20
350.084787
 30
0.0
 11
328.362403
 21
350.315758
 31
0.0
  0
LINE
  5
184
100
AcDbEntity
  8
Layer_1
 62
1
100
AcDbLine
 10
328.362403
 20
350.315758
 30
0.0
 11
328.732283
 21
350.621122
 31
0.0
  0
LINE
  5
185
100
AcDbEntity
  8
Layer_1
 62
1
100
AcDbLine
 10
328.732283
 20
350.621122
 30
0.0
 11
329.037083
 21
350.991003
 31
0.0
  0
LINE
  5
186
100
AcDbEntity
  8
Layer_1
 62
1
100
AcDbLine
 10
329.037083
 20
350.991003
 30
0.0
 11
329.268054
 21
351.415973
 31
0.0
  0
LINE
  5
187
100
AcDbEntity
  8
Layer_1
 62
1
100
AcDbLine
 10
329.268054
 20
351.415973
 30
0.0
 11
329.414132
 21
351.885055
 31
0.0
  0
LINE
  5
188
100
AcDbEntity
  8
Layer_1
 62
1
100
AcDbLine
 10
329.414132
 20
351.885055
 30
0.0
 11
329.464283
 21
352.388878
 31
0.0
  0
LINE
  5
189
100
AcDbEntity
  8
Layer_1
 62
1
100
AcDbLine
 10
329.464283
 20
352.388878
 30
0.0
 11
329.414132
 21
352.892136
 31
0.0
  0
LINE
  5
18a
100
AcDbEntity
  8
Layer_1
 62
1
100
AcDbLine
 10
329.414132
 20
352.892136
 30
0.0
 11
329.268054
 21
353.361782
 31
0.0
  0
LINE
  5
18b
100
AcDbEntity
  8
Layer_1
 62
1
100
AcDbLine
 10
329.268054
 20
353.361782
 30
0.0
 11
329.042615
 21
353.776847
 31
0.0
  0
LINE
  5
18c
100
AcDbEntity
  8
Layer_1
 62
1
100
AcDbLine
 10
329.042615
 20
353.776847
 30
0.0
 11
328.852425
 21
353.971975
 31
0.0
  0
SPLINE
  5
18d
100
AcDbEntity
  8
Layer_1
 62
1
100
AcDbSpline
 70
8
 71
3
 72
8
 73
4
 74
0
 40
0
 40
0
 40
0
 40
0
 40
1
 40
1
 40
1
 40
1
 10
328.852425
 20
353.971975
 30
0.0
 10
329.197781
 20
353.667401
 30
0.0
 10
329.646542
 20
353.477099
 30
0.0
 10
330.141729
 20
353.463185
 30
0.0
  0
LINE
  5
18e
100
AcDbEntity
  8
Layer_1
 62
1
100
AcDbLine
 10
330.141729
 20
353.463185
 30
0.0
 11
330.172604
 21
353.463185
 31
0.0
  0
SPLINE
  5
18f
100
AcDbEntity
  8
Layer_1
 62
1
100
AcDbSpline
 70
8
 71
3
 72
8
 73
4
 74
0
 40
0
 40
0
 40
0
 40
0
 40
1
 40
1
 40
1
 40
1
 10
330.172604
 20
353.463185
 30
0.0
 10
330.617415
 20
353.463185
 30
0.0
 10
331.007785
 20
353.594870
 30
0.0
 10
331.340553
 20
353.848418
 30
0.0
  0
LINE
  5
190
100
AcDbEntity
  8
Layer_1
 62
1
100
AcDbLine
 10
331.340553
 20
353.848418
 30
0.0
 11
331.271719
 21
353.776847
 31
0.0
  0
LINE
  5
191
100
AcDbEntity
  8
Layer_1
 62
1
100
AcDbLine
 10
331.271719
 20
353.776847
 30
0.0
 11
331.046280
 21
353.361782
 31
0.0
  0
LINE
  5
192
100
AcDbEntity
  8
Layer_1
 62
1
100
AcDbLine
 10
331.046280
 20
353.361782
 30
0.0
 11
330.900201
 21
352.892136
 31
0.0
  0
LINE
  5
193
100
AcDbEntity
  8
Layer_1
 62
1
100
AcDbLine
 10
330.900201
 20
352.892136
 30
0.0
 11
330.849486
 21
352.388878
 31
0.0
  0
LINE
  5
194
100
AcDbEntity
  8
Layer_1
 62
1
100
AcDbLine
 10
330.849486
 20
352.388878
 30
0.0
 11
330.900201
 21
351.885055
 31
0.0
  0
LINE
  5
195
100
AcDbEntity
  8
Layer_1
 62
1
100
AcDbLine
 10
330.900201
 20
351.885055
 30
0.0
 11
331.046280
 21
351.415973
 31
0.0
  0
LINE
  5
196
100
AcDbEntity
  8
Layer_1
 62
1
100
AcDbLine
 10
331.046280
 20
351.415973
 30
0.0
 11
331.276686
 21
350.991003
 31
0.0
  0
LINE
  5
197
100
AcDbEntity
  8
Layer_1
 62
1
100
AcDbLine
 10
331.276686
 20
350.991003
 30
0.0
 11
331.582050
 21
350.621122
 31
0.0
  0
LINE
  5
198
100
AcDbEntity
  8
Layer_1
 62
1
100
AcDbLine
 10
331.582050
 20
350.621122
 30
0.0
 11
331.951931
 21
350.315758
 31
0.0
  0
LINE
  5
199
100
AcDbEntity
  8
Layer_1
 62
1
100
AcDbLine
 10
331.951931
 20
350.315758
 30
0.0
 11
332.376365
 21
350.084787
 31
0.0
  0
LINE
  5
19a
100
AcDbEntity
  8
Layer_1
 62
1
100
AcDbLine
 10
332.376365
 20
350.084787
 30
0.0
 11
332.845446
 21
349.939273
 31
0.0
  0
LINE
  5
19b
100
AcDbEntity
  8
Layer_1
 62
1
100
AcDbLine
 10
332.845446
 20
349.939273
 30
0.0
 11
333.349806
 21
349.888558
 31
0.0
  0
LINE
  5
19c
100
AcDbEntity
  8
Layer_1
 62
1
100
AcDbLine
 10
333.349806
 20
349.888558
 30
0.0
 11
333.853601
 21
349.939273
 31
0.0
  0
LINE
  5
19d
100
AcDbEntity
  8
Layer_1
 62
1
100
AcDbLine
 10
333.853601
 20
349.939273
 30
0.0
 11
334.322146
 21
350.085352
 31
0.0
  0
LINE
  5
19e
100
AcDbEntity
  8
Layer_1
 62
1
100
AcDbLine
 10
334.322146
 20
350.085352
 30
0.0
 11
334.747144
 21
350.315758
 31
0.0
  0
LINE
  5
19f
100
AcDbEntity
  8
Layer_1
 62
1
100
AcDbLine
 10
334.747144
 20
350.315758
 30
0.0
 11
335.116997
 21
350.621122
 31
0.0
  0
LINE
  5
1a0
100
AcDbEntity
  8
Layer_1
 62
1
100
AcDbLine
 10
335.116997
 20
350.621122
 30
0.0
 11
335.422925
 21
350.991003
 31
0.0
  0
LINE
  5
1a1
100
AcDbEntity
  8
Layer_1
 62
1
100
AcDbLine
 10
335.422925
 20
350.991003
 30
0.0
 11
335.652767
 21
351.415973
 31
0.0
  0
LINE
  5
1a2
100
AcDbEntity
  8
Layer_1
 62
1
100
AcDbLine
 10
335.652767
 20
351.415973
 30
0.0
 11
335.798309
 21
351.885055
 31
0.0
  0
LINE
  5
1a3
100
AcDbEntity
  8
Layer_1
 62
1
100
AcDbLine
 10
335.798309
 20
351.885055
 30
0.0
 11
335.849561
 21
352.388878
 31
0.0
  0
LINE
  5
1a4
100
AcDbEntity
  8
Layer_1
 62
1
100
AcDbLine
 10
335.849561
 20
352.388878
 30
0.0
 11
335.798309
 21
352.892136
 31
0.0
  0
LINE
  5
1a5
100
AcDbEntity
  8
Layer_1
 62
1
100
AcDbLine
 10
335.798309
 20
352.892136
 30
0.0
 11
335.652767
 21
353.361782
 31
0.0
  0
LINE
  5
1a6
100
AcDbEntity
  8
Layer_1
 62
1
100
AcDbLine
 10
335.652767
 20
353.361782
 30
0.0
 11
335.422925
 21
353.786217
 31
0.0
  0
LINE
  5
1a7
100
AcDbEntity
  8
Layer_1
 62
1
100
AcDbLine
 10
335.422925
 20
353.786217
 30
0.0
 11
335.116997
 21
354.156633
 31
0.0
  0
LINE
  5
1a8
100
AcDbEntity
  8
Layer_1
 62
1
100
AcDbLine
 10
335.116997
 20
354.156633
 30
0.0
 11
334.747144
 21
354.461433
 31
0.0
  0
LINE
  5
1a9
100
AcDbEntity
  8
Layer_1
 62
1
100
AcDbLine
 10
334.747144
 20
354.461433
 30
0.0
 11
334.322146
 21
354.691868
 31
0.0
  0
LINE
  5
1aa
100
AcDbEntity
  8
Layer_1
 62
1
100
AcDbLine
 10
334.322146
 20
354.691868
 30
0.0
 11
333.853601
 21
354.837918
 31
0.0
  0
LINE
  5
1ab
100
AcDbEntity
  8
Layer_1
 62
1
100
AcDbLine
 10
333.853601
 20
354.837918
 30
0.0
 11
333.349806
 21
354.888633
 31
0.0
  0
LINE
  5
1ac
100
AcDbEntity
  8
Layer_1
 62
1
100
AcDbLine
 10
333.349806
 20
354.888633
 30
0.0
 11
332.845446
 21
354.837918
 31
0.0
  0
LINE
  5
1ad
100
AcDbEntity
  8
Layer_1
 62
1
100
AcDbLine
 10
332.845446
 20
354.837918
 30
0.0
 11
332.376365
 21
354.691868
 31
0.0
  0
LINE
  5
1ae
100
AcDbEntity
  8
Layer_1
 62
1
100
AcDbLine
 10
332.376365
 20
354.691868
 30
0.0
 11
331.951931
 21
354.461433
 31
0.0
  0
LINE
  5
1af
100
AcDbEntity
  8
Layer_1
 62
1
100
AcDbLine
 10
331.951931
 20
354.461433
 30
0.0
 11
331.885778
 21
354.406880
 31
0.0
  0
LINE
  5
1b0
100
AcDbEntity
  8
Layer_1
 62
1
100
AcDbLine
 10
331.885778
 20
354.406880
 30
0.0
 11
331.797104
 21
354.315440
 31
0.0
  0
SPLINE
  5
1b1
100
AcDbEntity
  8
Layer_1
 62
1
100
AcDbSpline
 70
8
 71
3
 72
8
 73
4
 74
0
 40
0
 40
0
 40
0
 40
0
 40
1
 40
1
 40
1
 40
1
 10
331.797104
 20
354.315440
 30
0.0
 10
332.032251
 20
354.640927
 30
0.0
 10
332.151462
 20
355.015831
 30
0.0
 10
332.151462
 20
355.442607
 30
0.0
  0
LINE
  5
1b2
100
AcDbEntity
  8
Layer_1
 62
1
100
AcDbLine
 10
332.151462
 20
355.442607
 30
0.0
 11
332.151462
 21
355.472918
 31
0.0
  0
SPLINE
  5
1b3
100
AcDbEntity
  8
Layer_1
 62
1
100
AcDbSpline
 70
8
 71
3
 72
8
 73
4
 74
0
 40
0
 40
0
 40
0
 40
0
 40
1
 40
1
 40
1
 40
1
 10
332.151462
 20
355.472918
 30
0.0
 10
332.151462
 20
355.877794
 30
0.0
 10
332.035977
 20
356.249170
 30
0.0
 10
331.836728
 20
356.558824
 30
0.0
  0
LINE
  5
1b4
100
AcDbEntity
  8
Layer_1
 62
1
100
AcDbLine
 10
331.836728
 20
356.558824
 30
0.0
 11
331.885778
 21
356.508673
 31
0.0
  0
LINE
  5
1b5
100
AcDbEntity
  8
Layer_1
 62
1
100
AcDbLine
 10
331.885778
 20
356.508673
 30
0.0
 11
331.951931
 21
356.454092
 31
0.0
  0
LINE
  5
1b6
100
AcDbEntity
  8
Layer_1
 62
1
100
AcDbLine
 10
331.951931
 20
356.454092
 30
0.0
 11
332.376365
 21
356.223685
 31
0.0
  0
LINE
  5
1b7
100
AcDbEntity
  8
Layer_1
 62
1
100
AcDbLine
 10
332.376365
 20
356.223685
 30
0.0
 11
332.845446
 21
356.077607
 31
0.0
  0
LINE
  5
1b8
100
AcDbEntity
  8
Layer_1
 62
1
100
AcDbLine
 10
332.845446
 20
356.077607
 30
0.0
 11
333.349806
 21
356.026892
 31
0.0
  0
LINE
  5
1b9
100
AcDbEntity
  8
Layer_1
 62
1
100
AcDbLine
 10
333.349806
 20
356.026892
 30
0.0
 11
333.853601
 21
356.077607
 31
0.0
  0
LINE
  5
1ba
100
AcDbEntity
  8
Layer_1
 62
1
100
AcDbLine
 10
333.853601
 20
356.077607
 30
0.0
 11
334.322146
 21
356.223685
 31
0.0
  0
LINE
  5
1bb
100
AcDbEntity
  8
Layer_1
 62
1
100
AcDbLine
 10
334.322146
 20
356.223685
 30
0.0
 11
334.747144
 21
356.454092
 31
0.0
  0
LINE
  5
1bc
100
AcDbEntity
  8
Layer_1
 62
1
100
AcDbLine
 10
334.747144
 20
356.454092
 30
0.0
 11
335.116997
 21
356.758920
 31
0.0
  0
LINE
  5
1bd
100
AcDbEntity
  8
Layer_1
 62
1
100
AcDbLine
 10
335.116997
 20
356.758920
 30
0.0
 11
335.422925
 21
357.129337
 31
0.0
  0
LINE
  5
1be
100
AcDbEntity
  8
Layer_1
 62
1
100
AcDbLine
 10
335.422925
 20
357.129337
 30
0.0
 11
335.652767
 21
357.553771
 31
0.0
  0
LINE
  5
1bf
100
AcDbEntity
  8
Layer_1
 62
1
100
AcDbLine
 10
335.652767
 20
357.553771
 30
0.0
 11
335.798309
 21
358.023388
 31
0.0
  0
LINE
  5
1c0
100
AcDbEntity
  8
Layer_1
 62
1
100
AcDbLine
 10
335.798309
 20
358.023388
 30
0.0
 11
335.849561
 21
358.527211
 31
0.0
  0
LINE
  5
1c1
100
AcDbEntity
  8
Layer_1
 62
1
100
AcDbLine
 10
335.849561
 20
358.527211
 30
0.0
 11
335.798309
 21
359.030470
 31
0.0
  0
LINE
  5
1c2
100
AcDbEntity
  8
Layer_1
 62
1
100
AcDbLine
 10
335.798309
 20
359.030470
 30
0.0
 11
335.652767
 21
359.499552
 31
0.0
  0
LINE
  5
1c3
100
AcDbEntity
  8
Layer_1
 62
1
100
AcDbLine
 10
335.652767
 20
359.499552
 30
0.0
 11
335.422925
 21
359.924550
 31
0.0
  0
LINE
  5
1c4
100
AcDbEntity
  8
Layer_1
 62
1
100
AcDbLine
 10
335.422925
 20
359.924550
 30
0.0
 11
335.116997
 21
360.294402
 31
0.0
  0
LINE
  5
1c5
100
AcDbEntity
  8
Layer_1
 62
1
100
AcDbLine
 10
335.116997
 20
360.294402
 30
0.0
 11
334.747144
 21
360.599767
 31
0.0
  0
LINE
  5
1c6
100
AcDbEntity
  8
Layer_1
 62
1
100
AcDbLine
 10
334.747144
 20
360.599767
 30
0.0
 11
334.322146
 21
360.830201
 31
0.0
  0
LINE
  5
1c7
100
AcDbEntity
  8
Layer_1
 62
1
100
AcDbLine
 10
334.322146
 20
360.830201
 30
0.0
 11
333.853601
 21
360.976251
 31
0.0
  0
LINE
  5
1c8
100
AcDbEntity
  8
Layer_1
 62
1
100
AcDbLine
 10
333.853601
 20
360.976251
 30
0.0
 11
333.349806
 21
361.026967
 31
0.0
  0
LINE
  5
1c9
100
AcDbEntity
  8
Layer_1
 62
1
100
AcDbLine
 10
333.349806
 20
361.026967
 30
0.0
 11
332.845446
 21
360.976251
 31
0.0
  0
LINE
  5
1ca
100
AcDbEntity
  8
Layer_1
 62
1
100
AcDbLine
 10
332.845446
 20
360.976251
 30
0.0
 11
332.376365
 21
360.830738
 31
0.0
  0
LINE
  5
1cb
100
AcDbEntity
  8
Layer_1
 62
1
100
AcDbLine
 10
332.376365
 20
360.830738
 30
0.0
 11
331.951931
 21
360.599767
 31
0.0
  0
LINE
  5
1cc
100
AcDbEntity
  8
Layer_1
 62
1
100
AcDbLine
 10
331.951931
 20
360.599767
 30
0.0
 11
331.582050
 21
360.294402
 31
0.0
  0
LINE
  5
1cd
100
AcDbEntity
  8
Layer_1
 62
1
100
AcDbLine
 10
331.582050
 20
360.294402
 30
0.0
 11
331.276686
 21
359.924550
 31
0.0
  0
LINE
  5
1ce
100
AcDbEntity
  8
Layer_1
 62
1
100
AcDbLine
 10
331.276686
 20
359.924550
 30
0.0
 11
331.046280
 21
359.499552
 31
0.0
  0
LINE
  5
1cf
100
AcDbEntity
  8
Layer_1
 62
1
100
AcDbLine
 10
331.046280
 20
359.499552
 30
0.0
 11
330.900201
 21
359.030470
 31
0.0
  0
LINE
  5
1d0
100
AcDbEntity
  8
Layer_1
 62
1
100
AcDbLine
 10
330.900201
 20
359.030470
 30
0.0
 11
330.849486
 21
358.527211
 31
0.0
  0
LINE
  5
1d1
100
AcDbEntity
  8
Layer_1
 62
1
100
AcDbLine
 10
330.849486
 20
358.527211
 30
0.0
 11
330.900201
 21
358.023388
 31
0.0
  0
LINE
  5
1d2
100
AcDbEntity
  8
Layer_1
 62
1
100
AcDbLine
 10
330.900201
 20
358.023388
 30
0.0
 11
331.046280
 21
357.553771
 31
0.0
  0
LINE
  5
1d3
100
AcDbEntity
  8
Layer_1
 62
1
100
AcDbLine
 10
331.046280
 20
357.553771
 30
0.0
 11
331.271719
 21
357.138706
 31
0.0
  0
LINE
  5
1d4
100
AcDbEntity
  8
Layer_1
 62
1
100
AcDbLine
 10
331.271719
 20
357.138706
 30
0.0
 11
331.297683
 21
357.111613
 31
0.0
  0
SPLINE
  5
1d5
100
AcDbEntity
  8
Layer_1
 62
1
100
AcDbSpline
 70
8
 71
3
 72
8
 73
4
 74
0
 40
0
 40
0
 40
0
 40
0
 40
1
 40
1
 40
1
 40
1
 10
331.297683
 20
357.111613
 30
0.0
 10
330.980409
 20
357.326836
 30
0.0
 10
330.594781
 20
357.452255
 30
0.0
 10
330.172661
 20
357.452255
 30
0.0
  0
LINE
  5
1d6
100
AcDbEntity
  8
Layer_1
 62
1
100
AcDbLine
 10
330.172661
 20
357.452255
 30
0.0
 11
330.141729
 21
357.452255
 31
0.0
  0
SPLINE
  5
1d7
100
AcDbEntity
  8
Layer_1
 62
1
100
AcDbSpline
 70
8
 71
3
 72
8
 73
4
 74
0
 40
0
 40
0
 40
0
 40
0
 40
1
 40
1
 40
1
 40
1
 10
330.141729
 20
357.452255
 30
0.0
 10
329.696947
 20
357.452255
 30
0.0
 10
329.306549
 20
357.320542
 30
0.0
 10
328.973781
 20
357.067022
 30
0.0
  0
LINE
  5
1d8
100
AcDbEntity
  8
Layer_1
 62
1
100
AcDbLine
 10
328.973781
 20
357.067022
 30
0.0
 11
329.042615
 21
357.138622
 31
0.0
  0
LINE
  5
1d9
100
AcDbEntity
  8
Layer_1
 62
1
100
AcDbLine
 10
329.042615
 20
357.138622
 30
0.0
 11
329.268054
 21
357.553686
 31
0.0
  0
LINE
  5
1da
100
AcDbEntity
  8
Layer_1
 62
1
100
AcDbLine
 10
329.268054
 20
357.553686
 30
0.0
 11
329.414132
 21
358.023304
 31
0.0
  0
LINE
  5
1db
100
AcDbEntity
  8
Layer_1
 62
1
100
AcDbLine
 10
329.414132
 20
358.023304
 30
0.0
 11
329.464283
 21
358.527127
 31
0.0
  0
LINE
  5
1dc
100
AcDbEntity
  8
Layer_1
 62
1
100
AcDbLine
 10
329.464283
 20
358.527127
 30
0.0
 11
329.414132
 21
359.030386
 31
0.0
  0
LINE
  5
1dd
100
AcDbEntity
  8
Layer_1
 62
1
100
AcDbLine
 10
329.414132
 20
359.030386
 30
0.0
 11
329.268054
 21
359.499467
 31
0.0
  0
LINE
  5
1de
100
AcDbEntity
  8
Layer_1
 62
1
100
AcDbLine
 10
329.268054
 20
359.499467
 30
0.0
 11
329.037083
 21
359.924466
 31
0.0
  0
LINE
  5
1df
100
AcDbEntity
  8
Layer_1
 62
1
100
AcDbLine
 10
329.037083
 20
359.924466
 30
0.0
 11
328.732283
 21
360.294318
 31
0.0
  0
LINE
  5
1e0
100
AcDbEntity
  8
Layer_1
 62
1
100
AcDbLine
 10
328.732283
 20
360.294318
 30
0.0
 11
328.362403
 21
360.599682
 31
0.0
  0
LINE
  5
1e1
100
AcDbEntity
  8
Layer_1
 62
1
100
AcDbLine
 10
328.362403
 20
360.599682
 30
0.0
 11
327.937969
 21
360.830653
 31
0.0
  0
LINE
  5
1e2
100
AcDbEntity
  8
Layer_1
 62
1
100
AcDbLine
 10
327.937969
 20
360.830653
 30
0.0
 11
327.468323
 21
360.976167
 31
0.0
  0
LINE
  5
1e3
100
AcDbEntity
  8
Layer_1
 62
1
100
AcDbLine
 10
327.468323
 20
360.976167
 30
0.0
 11
326.964528
 21
361.026967
 31
0.0
  0
SPLINE
  5
1e4
100
AcDbEntity
  8
Layer_1
 62
6
100
AcDbSpline
 70
8
 71
3
 72
8
 73
4
 74
0
 40
0
 40
0
 40
0
 40
0
 40
1
 40
1
 40
1
 40
1
 10
300.606674
 20
240.952348
 30
0.0
 10
300.606674
 20
238.182348
 30
0.0
 10
302.836674
 20
235.952348
 30
0.0
 10
305.606674
 20
235.952348
 30
0.0
  0
LINE
  5
1e5
100
AcDbEntity
  8
Layer_1
 62
6
100
AcDbLine
 10
305.606674
 20
235.952348
 30
0.0
 11
309.736884
 21
235.952388
 31
0.0
  0
LINE
  5
1e6
100
AcDbEntity
  8
Layer_1
 62
6
100
AcDbLine
 10
309.736884
 20
235.952388
 30
0.0
 11
309.736884
 21
233.352868
 31
0.0
  0
LINE
  5
1e7
100
AcDbEntity
  8
Layer_1
 62
6
100
AcDbLine
 10
309.736884
 20
233.352868
 30
0.0
 11
319.737034
 21
233.352868
 31
0.0
  0
LINE
  5
1e8
100
AcDbEntity
  8
Layer_1
 62
6
100
AcDbLine
 10
319.737034
 20
233.352868
 30
0.0
 11
319.737034
 21
235.952388
 31
0.0
  0
LINE
  5
1e9
100
AcDbEntity
  8
Layer_1
 62
6
100
AcDbLine
 10
319.737034
 20
235.952388
 30
0.0
 11
338.607884
 21
235.952388
 31
0.0
  0
LINE
  5
1ea
100
AcDbEntity
  8
Layer_1
 62
6
100
AcDbLine
 10
338.607884
 20
235.952388
 30
0.0
 11
338.607884
 21
233.352868
 31
0.0
  0
LINE
  5
1eb
100
AcDbEntity
  8
Layer_1
 62
6
100
AcDbLine
 10
338.607884
 20
233.352868
 30
0.0
 11
348.608034
 21
233.352868
 31
0.0
  0
LINE
  5
1ec
100
AcDbEntity
  8
Layer_1
 62
6
100
AcDbLine
 10
348.608034
 20
233.352868
 30
0.0
 11
348.608034
 21
235.952388
 31
0.0
  0
LINE
  5
1ed
100
AcDbEntity
  8
Layer_1
 62
6
100
AcDbLine
 10
348.608034
 20
235.952388
 30
0.0
 11
352.737264
 21
235.952388
 31
0.0
  0
SPLINE
  5
1ee
100
AcDbEntity
  8
Layer_1
 62
6
100
AcDbSpline
 70
8
 71
3
 72
8
 73
4
 74
0
 40
0
 40
0
 40
0
 40
0
 40
1
 40
1
 40
1
 40
1
 10
352.737264
 20
235.952388
 30
0.0
 10
355.507264
 20
235.952388
 30
0.0
 10
357.737264
 20
238.182388
 30
0.0
 10
357.737264
 20
240.952388
 30
0.0
  0
LINE
  5
1ef
100
AcDbEntity
  8
Layer_1
 62
6
100
AcDbLine
 10
300.608674
 20
240.952348
 30
0.0
 11
300.607674
 21
242.952548
 31
0.0
  0
LINE
  5
1f0
100
AcDbEntity
  8
Layer_1
 62
6
100
AcDbLine
 10
300.607674
 20
242.952548
 30
0.0
 11
298.006924
 21
242.952548
 31
0.0
  0
LINE
  5
1f1
100
AcDbEntity
  8
Layer_1
 62
6
100
AcDbLine
 10
298.006924
 20
242.952548
 30
0.0
 11
298.006924
 21
252.952128
 31
0.0
  0
LINE
  5
1f2
100
AcDbEntity
  8
Layer_1
 62
6
100
AcDbLine
 10
298.006924
 20
252.952128
 30
0.0
 11
300.608674
 21
252.952128
 31
0.0
  0
LINE
  5
1f3
100
AcDbEntity
  8
Layer_1
 62
6
100
AcDbLine
 10
300.608674
 20
252.952128
 30
0.0
 11
300.606674
 21
254.952328
 31
0.0
  0
LINE
  5
1f4
100
AcDbEntity
  8
Layer_1
 62
6
100
AcDbLine
 10
357.737264
 20
240.952348
 30
0.0
 11
357.738264
 21
242.952548
 31
0.0
  0
LINE
  5
1f5
100
AcDbEntity
  8
Layer_1
 62
6
100
AcDbLine
 10
357.738264
 20
242.952548
 30
0.0
 11
360.339014
 21
242.952548
 31
0.0
  0
LINE
  5
1f6
100
AcDbEntity
  8
Layer_1
 62
6
100
AcDbLine
 10
360.339014
 20
242.952548
 30
0.0
 11
360.339014
 21
252.952128
 31
0.0
  0
LINE
  5
1f7
100
AcDbEntity
  8
Layer_1
 62
6
100
AcDbLine
 10
360.339014
 20
252.952128
 30
0.0
 11
357.737264
 21
252.952128
 31
0.0
  0
LINE
  5
1f8
100
AcDbEntity
  8
Layer_1
 62
6
100
AcDbLine
 10
357.737264
 20
252.952128
 30
0.0
 11
357.739264
 21
254.952328
 31
0.0
  0
LINE
  5
1f9
100
AcDbEntity
  8
Layer_1
 62
1
100
AcDbLine
 10
303.191107
 20
260.194048
 30
0.0
 11
321.625174
 21
260.194048
 31
0.0
  0
LINE
  5
1fa
100
AcDbEntity
  8
Layer_1
 62
1
100
AcDbLine
 10
336.651764
 20
260.194048
 30
0.0
 11
355.146356
 21
260.194048
 31
0.0
  0
LINE
  5
1fb
100
AcDbEntity
  8
Layer_1
 62
1
100
AcDbLine
 10
300.607472
 20
259.145714
 30
0.0
 11
319.041538
 21
259.145714
 31
0.0
  0
LINE
  5
1fc
100
AcDbEntity
  8
Layer_1
 62
1
100
AcDbLine
 10
339.243856
 20
259.145714
 30
0.0
 11
357.738472
 21
259.145714
 31
0.0
  0
LINE
  5
1fd
100
AcDbEntity
  8
Layer_1
 62
1
100
AcDbLine
 10
303.191107
 20
256.000710
 30
0.0
 11
321.625174
 21
256.000710
 31
0.0
  0
LINE
  5
1fe
100
AcDbEntity
  8
Layer_1
 62
1
100
AcDbLine
 10
336.651764
 20
256.000710
 30
0.0
 11
355.146356
 21
256.000710
 31
0.0
  0
LINE
  5
1ff
100
AcDbEntity
  8
Layer_1
 62
1
100
AcDbLine
 10
300.607472
 20
254.952376
 30
0.0
 11
319.041538
 21
254.952376
 31
0.0
  0
LINE
  5
200
100
AcDbEntity
  8
Layer_1
 62
1
100
AcDbLine
 10
339.243856
 20
254.952376
 30
0.0
 11
357.738472
 21
254.952376
 31
0.0
  0
LINE
  5
201
100
AcDbEntity
  8
Layer_1
 62
1
100
AcDbLine
 10
303.191107
 20
258.097379
 30
0.0
 11
321.625174
 21
258.097379
 31
0.0
  0
LINE
  5
202
100
AcDbEntity
  8
Layer_1
 62
1
100
AcDbLine
 10
336.651764
 20
258.097379
 30
0.0
 11
355.146356
 21
258.097379
 31
0.0
  0
LINE
  5
203
100
AcDbEntity
  8
Layer_1
 62
1
100
AcDbLine
 10
300.607472
 20
257.049045
 30
0.0
 11
319.041538
 21
257.049045
 31
0.0
  0
LINE
  5
204
100
AcDbEntity
  8
Layer_1
 62
1
100
AcDbLine
 10
339.243856
 20
257.049045
 30
0.0
 11
357.738472
 21
257.049045
 31
0.0
  0
SPLINE
  5
205
100
AcDbEntity
  8
Layer_1
 62
1
100
AcDbSpline
 70
8
 71
3
 72
8
 73
4
 74
0
 40
0
 40
0
 40
0
 40
0
 40
1
 40
1
 40
1
 40
1
 10
304.675005
 20
264.792411
 30
0.0
 10
304.105205
 20
264.792411
 30
0.0
 10
303.633105
 20
264.320311
 30
0.0
 10
303.633105
 20
263.750561
 30
0.0
  0
LINE
  5
206
100
AcDbEntity
  8
Layer_1
 62
1
100
AcDbLine
 10
303.633105
 20
263.750561
 30
0.0
 11
303.633105
 21
263.734261
 31
0.0
  0
SPLINE
  5
207
100
AcDbEntity
  8
Layer_1
 62
1
100
AcDbSpline
 70
8
 71
3
 72
8
 73
4
 74
0
 40
0
 40
0
 40
0
 40
0
 40
1
 40
1
 40
1
 40
1
 10
303.633105
 20
263.734261
 30
0.0
 10
303.633105
 20
263.148221
 30
0.0
 10
304.088905
 20
262.692401
 30
0.0
 10
304.675005
 20
262.692401
 30
0.0
  0
LINE
  5
208
100
AcDbEntity
  8
Layer_1
 62
1
100
AcDbLine
 10
304.675005
 20
262.692401
 30
0.0
 11
304.691005
 21
262.692401
 31
0.0
  0
SPLINE
  5
209
100
AcDbEntity
  8
Layer_1
 62
1
100
AcDbSpline
 70
8
 71
3
 72
8
 73
4
 74
0
 40
0
 40
0
 40
0
 40
0
 40
1
 40
1
 40
1
 40
1
 10
304.691005
 20
262.692401
 30
0.0
 10
305.260905
 20
262.692401
 30
0.0
 10
305.733005
 20
263.164491
 30
0.0
 10
305.733005
 20
263.734261
 30
0.0
  0
LINE
  5
20a
100
AcDbEntity
  8
Layer_1
 62
1
100
AcDbLine
 10
305.733005
 20
263.734261
 30
0.0
 11
305.733005
 21
263.750561
 31
0.0
  0
SPLINE
  5
20b
100
AcDbEntity
  8
Layer_1
 62
1
100
AcDbSpline
 70
8
 71
3
 72
8
 73
4
 74
0
 40
0
 40
0
 40
0
 40
0
 40
1
 40
1
 40
1
 40
1
 10
305.733005
 20
263.750561
 30
0.0
 10
305.717005
 20
264.320311
 30
0.0
 10
305.260905
 20
264.776131
 30
0.0
 10
304.691005
 20
264.792411
 30
0.0
  0
LINE
  5
20c
100
AcDbEntity
  8
Layer_1
 62
1
100
AcDbLine
 10
304.691005
 20
264.792411
 30
0.0
 11
304.675005
 21
264.792411
 31
0.0
  0
SPLINE
  5
20d
100
AcDbEntity
  8
Layer_1
 62
1
100
AcDbSpline
 70
8
 71
3
 72
8
 73
4
 74
0
 40
0
 40
0
 40
0
 40
0
 40
1
 40
1
 40
1
 40
1
 10
353.654852
 20
264.792431
 30
0.0
 10
353.085052
 20
264.792431
 30
0.0
 10
352.612952
 20
264.320331
 30
0.0
 10
352.612952
 20
263.750581
 30
0.0
  0
LINE
  5
20e
100
AcDbEntity
  8
Layer_1
 62
1
100
AcDbLine
 10
352.612952
 20
263.750581
 30
0.0
 11
352.612952
 21
263.734281
 31
0.0
  0
SPLINE
  5
20f
100
AcDbEntity
  8
Layer_1
 62
1
100
AcDbSpline
 70
8
 71
3
 72
8
 73
4
 74
0
 40
0
 40
0
 40
0
 40
0
 40
1
 40
1
 40
1
 40
1
 10
352.612952
 20
263.734281
 30
0.0
 10
352.612952
 20
263.148241
 30
0.0
 10
353.068752
 20
262.692421
 30
0.0
 10
353.654852
 20
262.692421
 30
0.0
  0
LINE
  5
210
100
AcDbEntity
  8
Layer_1
 62
1
100
AcDbLine
 10
353.654852
 20
262.692421
 30
0.0
 11
353.670852
 21
262.692421
 31
0.0
  0
SPLINE
  5
211
100
AcDbEntity
  8
Layer_1
 62
1
100
AcDbSpline
 70
8
 71
3
 72
8
 73
4
 74
0
 40
0
 40
0
 40
0
 40
0
 40
1
 40
1
 40
1
 40
1
 10
353.670852
 20
262.692421
 30
0.0
 10
354.240752
 20
262.692421
 30
0.0
 10
354.712852
 20
263.164511
 30
0.0
 10
354.712852
 20
263.734281
 30
0.0
  0
LINE
  5
212
100
AcDbEntity
  8
Layer_1
 62
1
100
AcDbLine
 10
354.712852
 20
263.734281
 30
0.0
 11
354.712852
 21
263.750581
 31
0.0
  0
SPLINE
  5
213
100
AcDbEntity
  8
Layer_1
 62
1
100
AcDbSpline
 70
8
 71
3
 72
8
 73
4
 74
0
 40
0
 40
0
 40
0
 40
0
 40
1
 40
1
 40
1
 40
1
 10
354.712852
 20
263.750581
 30
0.0
 10
354.696852
 20
264.320331
 30
0.0
 10
354.240752
 20
264.776151
 30
0.0
 10
353.670852
 20
264.792431
 30
0.0
  0
LINE
  5
214
100
AcDbEntity
  8
Layer_1
 62
1
100
AcDbLine
 10
353.670852
 20
264.792431
 30
0.0
 11
353.654852
 21
264.792431
 31
0.0
  0
SPLINE
  5
215
100
AcDbEntity
  8
Layer_1
 62
1
100
AcDbSpline
 70
8
 71
3
 72
8
 73
4
 74
0
 40
0
 40
0
 40
0
 40
0
 40
1
 40
1
 40
1
 40
1
 10
353.654852
 20
322.767937
 30
0.0
 10
353.085052
 20
322.767937
 30
0.0
 10
352.612952
 20
322.295837
 30
0.0
 10
352.612952
 20
321.726087
 30
0.0
  0
LINE
  5
216
100
AcDbEntity
  8
Layer_1
 62
1
100
AcDbLine
 10
352.612952
 20
321.726087
 30
0.0
 11
352.612952
 21
321.709787
 31
0.0
  0
SPLINE
  5
217
100
AcDbEntity
  8
Layer_1
 62
1
100
AcDbSpline
 70
8
 71
3
 72
8
 73
4
 74
0
 40
0
 40
0
 40
0
 40
0
 40
1
 40
1
 40
1
 40
1
 10
352.612952
 20
321.709787
 30
0.0
 10
352.612952
 20
321.123747
 30
0.0
 10
353.068752
 20
320.667927
 30
0.0
 10
353.654852
 20
320.667927
 30
0.0
  0
LINE
  5
218
100
AcDbEntity
  8
Layer_1
 62
1
100
AcDbLine
 10
353.654852
 20
320.667927
 30
0.0
 11
353.670852
 21
320.667927
 31
0.0
  0
SPLINE
  5
219
100
AcDbEntity
  8
Layer_1
 62
1
100
AcDbSpline
 70
8
 71
3
 72
8
 73
4
 74
0
 40
0
 40
0
 40
0
 40
0
 40
1
 40
1
 40
1
 40
1
 10
353.670852
 20
320.667927
 30
0.0
 10
354.240752
 20
320.667927
 30
0.0
 10
354.712852
 20
321.140017
 30
0.0
 10
354.712852
 20
321.709787
 30
0.0
  0
LINE
  5
21a
100
AcDbEntity
  8
Layer_1
 62
1
100
AcDbLine
 10
354.712852
 20
321.709787
 30
0.0
 11
354.712852
 21
321.726087
 31
0.0
  0
SPLINE
  5
21b
100
AcDbEntity
  8
Layer_1
 62
1
100
AcDbSpline
 70
8
 71
3
 72
8
 73
4
 74
0
 40
0
 40
0
 40
0
 40
0
 40
1
 40
1
 40
1
 40
1
 10
354.712852
 20
321.726087
 30
0.0
 10
354.696852
 20
322.295837
 30
0.0
 10
354.240752
 20
322.751657
 30
0.0
 10
353.670852
 20
322.767937
 30
0.0
  0
LINE
  5
21c
100
AcDbEntity
  8
Layer_1
 62
1
100
AcDbLine
 10
353.670852
 20
322.767937
 30
0.0
 11
353.654852
 21
322.767937
 31
0.0
  0
SPLINE
  5
21d
100
AcDbEntity
  8
Layer_1
 62
1
100
AcDbSpline
 70
8
 71
3
 72
8
 73
4
 74
0
 40
0
 40
0
 40
0
 40
0
 40
1
 40
1
 40
1
 40
1
 10
304.674955
 20
322.767927
 30
0.0
 10
304.105155
 20
322.767927
 30
0.0
 10
303.633055
 20
322.295827
 30
0.0
 10
303.633055
 20
321.726077
 30
0.0
  0
LINE
  5
21e
100
AcDbEntity
  8
Layer_1
 62
1
100
AcDbLine
 10
303.633055
 20
321.726077
 30
0.0
 11
303.633055
 21
321.709777
 31
0.0
  0
SPLINE
  5
21f
100
AcDbEntity
  8
Layer_1
 62
1
100
AcDbSpline
 70
8
 71
3
 72
8
 73
4
 74
0
 40
0
 40
0
 40
0
 40
0
 40
1
 40
1
 40
1
 40
1
 10
303.633055
 20
321.709777
 30
0.0
 10
303.633055
 20
321.123737
 30
0.0
 10
304.088855
 20
320.667917
 30
0.0
 10
304.674955
 20
320.667917
 30
0.0
  0
LINE
  5
220
100
AcDbEntity
  8
Layer_1
 62
1
100
AcDbLine
 10
304.674955
 20
320.667917
 30
0.0
 11
304.690955
 21
320.667917
 31
0.0
  0
SPLINE
  5
221
100
AcDbEntity
  8
Layer_1
 62
1
100
AcDbSpline
 70
8
 71
3
 72
8
 73
4
 74
0
 40
0
 40
0
 40
0
 40
0
 40
1
 40
1
 40
1
 40
1
 10
304.690955
 20
320.667917
 30
0.0
 10
305.260855
 20
320.667917
 30
0.0
 10
305.732955
 20
321.140007
 30
0.0
 10
305.732955
 20
321.709777
 30
0.0
  0
LINE
  5
222
100
AcDbEntity
  8
Layer_1
 62
1
100
AcDbLine
 10
305.732955
 20
321.709777
 30
0.0
 11
305.732955
 21
321.726077
 31
0.0
  0
SPLINE
  5
223
100
AcDbEntity
  8
Layer_1
 62
1
100
AcDbSpline
 70
8
 71
3
 72
8
 73
4
 74
0
 40
0
 40
0
 40
0
 40
0
 40
1
 40
1
 40
1
 40
1
 10
305.732955
 20
321.726077
 30
0.0
 10
305.716955
 20
322.295827
 30
0.0
 10
305.260855
 20
322.751647
 30
0.0
 10
304.690955
 20
322.767927
 30
0.0
  0
LINE
  5
224
100
AcDbEntity
  8
Layer_1
 62
1
100
AcDbLine
 10
304.690955
 20
322.767927
 30
0.0
 11
304.674955
 21
322.767927
 31
0.0
  0
LINE
  5
225
100
AcDbEntity
  8
Layer_1
 62
6
100
AcDbLine
 10
321.672940
 20
267.914638
 30
0.0
 11
336.672940
 21
267.914638
 31
0.0
  0
LINE
  5
226
100
AcDbEntity
  8
Layer_1
 62
6
100
AcDbLine
 10
336.672940
 20
267.914638
 30
0.0
 11
336.672940
 21
251.914638
 31
0.0
  0
LINE
  5
227
100
AcDbEntity
  8
Layer_1
 62
6
100
AcDbLine
 10
336.672940
 20
251.914638
 30
0.0
 11
321.672940
 21
251.914638
 31
0.0
  0
LINE
  5
228
100
AcDbEntity
  8
Layer_1
 62
6
100
AcDbLine
 10
321.672940
 20
251.914638
 30
0.0
 11
321.672940
 21
267.914638
 31
0.0
  0
LINE
  5
229
100
AcDbEntity
  8
Layer_1
 62
6
100
AcDbLine
 10
300.608730
 20
341.117938
 30
0.0
 11
300.606730
 21
347.407938
 31
0.0
  0
LINE
  5
22a
100
AcDbEntity
  8
Layer_1
 62
6
100
AcDbLine
 10
357.739260
 20
347.407938
 30
0.0
 11
357.737260
 21
341.117938
 31
0.0
  0
LINE
  5
22b
100
AcDbEntity
  8
Layer_1
 62
6
100
AcDbLine
 10
300.606730
 20
347.407938
 30
0.0
 11
300.608730
 21
349.408138
 31
0.0
  0
LINE
  5
22c
100
AcDbEntity
  8
Layer_1
 62
6
100
AcDbLine
 10
300.608730
 20
349.408138
 30
0.0
 11
298.006980
 21
349.408138
 31
0.0
  0
LINE
  5
22d
100
AcDbEntity
  8
Layer_1
 62
6
100
AcDbLine
 10
298.006980
 20
349.408138
 30
0.0
 11
298.006980
 21
359.407718
 31
0.0
  0
LINE
  5
22e
100
AcDbEntity
  8
Layer_1
 62
6
100
AcDbLine
 10
298.006980
 20
359.407718
 30
0.0
 11
300.607730
 21
359.407718
 31
0.0
  0
LINE
  5
22f
100
AcDbEntity
  8
Layer_1
 62
6
100
AcDbLine
 10
300.607730
 20
359.407718
 30
0.0
 11
300.608730
 21
361.407918
 31
0.0
  0
LINE
  5
230
100
AcDbEntity
  8
Layer_1
 62
1
100
AcDbLine
 10
300.607660
 20
261.242378
 30
0.0
 11
319.041730
 21
261.242378
 31
0.0
  0
LINE
  5
231
100
AcDbEntity
  8
Layer_1
 62
1
100
AcDbLine
 10
339.243880
 20
261.242378
 30
0.0
 11
357.738470
 21
261.242378
 31
0.0
  0
LINE
  5
232
100
AcDbEntity
  8
Layer_1
 62
6
100
AcDbLine
 10
300.608730
 20
254.952378
 30
0.0
 11
300.606730
 21
261.242378
 31
0.0
  0
LINE
  5
233
100
AcDbEntity
  8
Layer_1
 62
6
100
AcDbLine
 10
357.739260
 20
261.242378
 30
0.0
 11
357.737260
 21
254.952378
 31
0.0
  0
LINE
  5
234
100
AcDbEntity
  8
Layer_1
 62
1
100
AcDbLine
 10
304.118930
 20
346.359624
 30
0.0
 11
329.172984
 21
346.359624
 31
0.0
  0
LINE
  5
235
100
AcDbEntity
  8
Layer_1
 62
1
100
AcDbLine
 10
329.172984
 20
346.359624
 30
0.0
 11
354.227014
 21
346.359624
 31
0.0
  0
LINE
  5
236
100
AcDbEntity
  8
Layer_1
 62
1
100
AcDbLine
 10
300.607472
 20
345.311290
 30
0.0
 11
325.661525
 21
345.311290
 31
0.0
  0
LINE
  5
237
100
AcDbEntity
  8
Layer_1
 62
1
100
AcDbLine
 10
332.684418
 20
345.311290
 30
0.0
 11
357.738472
 21
345.311290
 31
0.0
  0
LINE
  5
238
100
AcDbEntity
  8
Layer_1
 62
1
100
AcDbLine
 10
304.118930
 20
342.166286
 30
0.0
 11
329.172984
 21
342.166286
 31
0.0
  0
LINE
  5
239
100
AcDbEntity
  8
Layer_1
 62
1
100
AcDbLine
 10
329.172984
 20
342.166286
 30
0.0
 11
354.227014
 21
342.166286
 31
0.0
  0
LINE
  5
23a
100
AcDbEntity
  8
Layer_1
 62
1
100
AcDbLine
 10
300.607472
 20
341.117952
 30
0.0
 11
325.661525
 21
341.117952
 31
0.0
  0
LINE
  5
23b
100
AcDbEntity
  8
Layer_1
 62
1
100
AcDbLine
 10
332.684418
 20
341.117952
 30
0.0
 11
357.738472
 21
341.117952
 31
0.0
  0
LINE
  5
23c
100
AcDbEntity
  8
Layer_1
 62
1
100
AcDbLine
 10
304.118930
 20
344.262955
 30
0.0
 11
329.172984
 21
344.262955
 31
0.0
  0
LINE
  5
23d
100
AcDbEntity
  8
Layer_1
 62
1
100
AcDbLine
 10
329.172984
 20
344.262955
 30
0.0
 11
354.227014
 21
344.262955
 31
0.0
  0
LINE
  5
23e
100
AcDbEntity
  8
Layer_1
 62
1
100
AcDbLine
 10
300.607472
 20
343.214621
 30
0.0
 11
325.661525
 21
343.214621
 31
0.0
  0
LINE
  5
23f
100
AcDbEntity
  8
Layer_1
 62
1
100
AcDbLine
 10
332.684418
 20
343.214621
 30
0.0
 11
357.738472
 21
343.214621
 31
0.0
  0
LINE
  5
240
100
AcDbEntity
  8
Layer_1
 62
1
100
AcDbLine
 10
200.623010
 20
345.097250
 30
0.0
 11
221.892051
 21
345.097250
 31
0.0
  0
LINE
  5
241
100
AcDbEntity
  8
Layer_1
 62
1
100
AcDbLine
 10
221.892051
 20
345.097250
 30
0.0
 11
243.161071
 21
345.097250
 31
0.0
  0
LINE
  5
242
100
AcDbEntity
  8
Layer_1
 62
1
100
AcDbLine
 10
249.123009
 20
345.097250
 30
0.0
 11
270.392029
 21
345.097250
 31
0.0
  0
LINE
  5
243
100
AcDbEntity
  8
Layer_1
 62
1
100
AcDbLine
 10
270.392029
 20
345.097250
 30
0.0
 11
291.661070
 21
345.097250
 31
0.0
  0
LINE
  5
244
100
AcDbEntity
  8
Layer_1
 62
1
100
AcDbLine
 10
197.642042
 20
343.787250
 30
0.0
 11
218.911082
 21
343.787250
 31
0.0
  0
LINE
  5
245
100
AcDbEntity
  8
Layer_1
 62
1
100
AcDbLine
 10
224.872999
 20
343.787250
 30
0.0
 11
246.142040
 21
343.787250
 31
0.0
  0
LINE
  5
246
100
AcDbEntity
  8
Layer_1
 62
1
100
AcDbLine
 10
246.142040
 20
343.787250
 30
0.0
 11
267.411060
 21
343.787250
 31
0.0
  0
LINE
  5
247
100
AcDbEntity
  8
Layer_1
 62
1
100
AcDbLine
 10
273.372998
 20
343.787250
 30
0.0
 11
294.642039
 21
343.787250
 31
0.0
  0
LINE
  5
248
100
AcDbEntity
  8
Layer_1
 62
1
100
AcDbLine
 10
200.623010
 20
339.857250
 30
0.0
 11
221.892051
 21
339.857250
 31
0.0
  0
LINE
  5
249
100
AcDbEntity
  8
Layer_1
 62
1
100
AcDbLine
 10
221.892051
 20
339.857250
 30
0.0
 11
243.161071
 21
339.857250
 31
0.0
  0
LINE
  5
24a
100
AcDbEntity
  8
Layer_1
 62
1
100
AcDbLine
 10
249.123009
 20
339.857250
 30
0.0
 11
270.392029
 21
339.857250
 31
0.0
  0
LINE
  5
24b
100
AcDbEntity
  8
Layer_1
 62
1
100
AcDbLine
 10
270.392029
 20
339.857250
 30
0.0
 11
291.661070
 21
339.857250
 31
0.0
  0
LINE
  5
24c
100
AcDbEntity
  8
Layer_1
 62
1
100
AcDbLine
 10
197.642042
 20
338.547250
 30
0.0
 11
218.911082
 21
338.547250
 31
0.0
  0
LINE
  5
24d
100
AcDbEntity
  8
Layer_1
 62
1
100
AcDbLine
 10
224.872999
 20
338.547250
 30
0.0
 11
246.142040
 21
338.547250
 31
0.0
  0
LINE
  5
24e
100
AcDbEntity
  8
Layer_1
 62
1
100
AcDbLine
 10
246.142040
 20
338.547250
 30
0.0
 11
267.411060
 21
338.547250
 31
0.0
  0
LINE
  5
24f
100
AcDbEntity
  8
Layer_1
 62
1
100
AcDbLine
 10
273.372998
 20
338.547250
 30
0.0
 11
294.642039
 21
338.547250
 31
0.0
  0
LINE
  5
250
100
AcDbEntity
  8
Layer_1
 62
1
100
AcDbLine
 10
197.642052
 20
346.407251
 30
0.0
 11
218.911082
 21
346.407251
 31
0.0
  0
LINE
  5
251
100
AcDbEntity
  8
Layer_1
 62
1
100
AcDbLine
 10
224.873020
 20
346.407251
 30
0.0
 11
246.142040
 21
346.407251
 31
0.0
  0
LINE
  5
252
100
AcDbEntity
  8
Layer_1
 62
1
100
AcDbLine
 10
246.142040
 20
346.407251
 30
0.0
 11
267.411081
 21
346.407251
 31
0.0
  0
LINE
  5
253
100
AcDbEntity
  8
Layer_1
 62
1
100
AcDbLine
 10
273.372998
 20
346.407251
 30
0.0
 11
294.642039
 21
346.407251
 31
0.0
  0
LINE
  5
254
100
AcDbEntity
  8
Layer_1
 62
1
100
AcDbLine
 10
200.623010
 20
342.477250
 30
0.0
 11
221.892051
 21
342.477250
 31
0.0
  0
LINE
  5
255
100
AcDbEntity
  8
Layer_1
 62
1
100
AcDbLine
 10
221.892051
 20
342.477250
 30
0.0
 11
243.161071
 21
342.477250
 31
0.0
  0
LINE
  5
256
100
AcDbEntity
  8
Layer_1
 62
1
100
AcDbLine
 10
249.123009
 20
342.477250
 30
0.0
 11
270.392029
 21
342.477250
 31
0.0
  0
LINE
  5
257
100
AcDbEntity
  8
Layer_1
 62
1
100
AcDbLine
 10
270.392029
 20
342.477250
 30
0.0
 11
291.661070
 21
342.477250
 31
0.0
  0
LINE
  5
258
100
AcDbEntity
  8
Layer_1
 62
1
100
AcDbLine
 10
197.642042
 20
341.167250
 30
0.0
 11
218.911082
 21
341.167250
 31
0.0
  0
LINE
  5
259
100
AcDbEntity
  8
Layer_1
 62
1
100
AcDbLine
 10
224.872999
 20
341.167250
 30
0.0
 11
246.142040
 21
341.167250
 31
0.0
  0
LINE
  5
25a
100
AcDbEntity
  8
Layer_1
 62
1
100
AcDbLine
 10
246.142040
 20
341.167250
 30
0.0
 11
267.411060
 21
341.167250
 31
0.0
  0
LINE
  5
25b
100
AcDbEntity
  8
Layer_1
 62
1
100
AcDbLine
 10
273.372998
 20
341.167250
 30
0.0
 11
294.642039
 21
341.167250
 31
0.0
  0
LINE
  5
25c
100
AcDbEntity
  8
Layer_1
 62
1
100
AcDbLine
 10
200.623010
 20
290.107247
 30
0.0
 11
221.892051
 21
290.107247
 31
0.0
  0
LINE
  5
25d
100
AcDbEntity
  8
Layer_1
 62
1
100
AcDbLine
 10
221.892051
 20
290.107247
 30
0.0
 11
243.161071
 21
290.107247
 31
0.0
  0
LINE
  5
25e
100
AcDbEntity
  8
Layer_1
 62
1
100
AcDbLine
 10
249.123009
 20
290.107247
 30
0.0
 11
270.392029
 21
290.107247
 31
0.0
  0
LINE
  5
25f
100
AcDbEntity
  8
Layer_1
 62
1
100
AcDbLine
 10
270.392029
 20
290.107247
 30
0.0
 11
291.661070
 21
290.107247
 31
0.0
  0
LINE
  5
260
100
AcDbEntity
  8
Layer_1
 62
1
100
AcDbLine
 10
197.642042
 20
288.797247
 30
0.0
 11
218.911082
 21
288.797247
 31
0.0
  0
LINE
  5
261
100
AcDbEntity
  8
Layer_1
 62
1
100
AcDbLine
 10
224.872999
 20
288.797247
 30
0.0
 11
246.142040
 21
288.797247
 31
0.0
  0
LINE
  5
262
100
AcDbEntity
  8
Layer_1
 62
1
100
AcDbLine
 10
246.142040
 20
288.797247
 30
0.0
 11
267.411060
 21
288.797247
 31
0.0
  0
LINE
  5
263
100
AcDbEntity
  8
Layer_1
 62
1
100
AcDbLine
 10
273.372998
 20
288.797247
 30
0.0
 11
294.642039
 21
288.797247
 31
0.0
  0
LINE
  5
264
100
AcDbEntity
  8
Layer_1
 62
1
100
AcDbLine
 10
200.623010
 20
284.867247
 30
0.0
 11
221.892051
 21
284.867247
 31
0.0
  0
LINE
  5
265
100
AcDbEntity
  8
Layer_1
 62
1
100
AcDbLine
 10
221.892051
 20
284.867247
 30
0.0
 11
243.161071
 21
284.867247
 31
0.0
  0
LINE
  5
266
100
AcDbEntity
  8
Layer_1
 62
1
100
AcDbLine
 10
249.123009
 20
284.867247
 30
0.0
 11
270.392029
 21
284.867247
 31
0.0
  0
LINE
  5
267
100
AcDbEntity
  8
Layer_1
 62
1
100
AcDbLine
 10
270.392029
 20
284.867247
 30
0.0
 11
291.661070
 21
284.867247
 31
0.0
  0
LINE
  5
268
100
AcDbEntity
  8
Layer_1
 62
1
100
AcDbLine
 10
197.642042
 20
283.557247
 30
0.0
 11
218.911082
 21
283.557247
 31
0.0
  0
LINE
  5
269
100
AcDbEntity
  8
Layer_1
 62
1
100
AcDbLine
 10
224.872999
 20
283.557247
 30
0.0
 11
246.142040
 21
283.557247
 31
0.0
  0
LINE
  5
26a
100
AcDbEntity
  8
Layer_1
 62
1
100
AcDbLine
 10
246.142040
 20
283.557247
 30
0.0
 11
267.411060
 21
283.557247
 31
0.0
  0
LINE
  5
26b
100
AcDbEntity
  8
Layer_1
 62
1
100
AcDbLine
 10
273.372998
 20
283.557247
 30
0.0
 11
294.642039
 21
283.557247
 31
0.0
  0
LINE
  5
26c
100
AcDbEntity
  8
Layer_1
 62
1
100
AcDbLine
 10
197.642052
 20
291.417248
 30
0.0
 11
218.911082
 21
291.417248
 31
0.0
  0
LINE
  5
26d
100
AcDbEntity
  8
Layer_1
 62
1
100
AcDbLine
 10
224.873020
 20
291.417248
 30
0.0
 11
246.142040
 21
291.417248
 31
0.0
  0
LINE
  5
26e
100
AcDbEntity
  8
Layer_1
 62
1
100
AcDbLine
 10
246.142040
 20
291.417248
 30
0.0
 11
267.411081
 21
291.417248
 31
0.0
  0
LINE
  5
26f
100
AcDbEntity
  8
Layer_1
 62
1
100
AcDbLine
 10
273.372998
 20
291.417248
 30
0.0
 11
294.642039
 21
291.417248
 31
0.0
  0
LINE
  5
270
100
AcDbEntity
  8
Layer_1
 62
1
100
AcDbLine
 10
200.623010
 20
287.487247
 30
0.0
 11
221.892051
 21
287.487247
 31
0.0
  0
LINE
  5
271
100
AcDbEntity
  8
Layer_1
 62
1
100
AcDbLine
 10
221.892051
 20
287.487247
 30
0.0
 11
243.161071
 21
287.487247
 31
0.0
  0
LINE
  5
272
100
AcDbEntity
  8
Layer_1
 62
1
100
AcDbLine
 10
249.123009
 20
287.487247
 30
0.0
 11
270.392029
 21
287.487247
 31
0.0
  0
LINE
  5
273
100
AcDbEntity
  8
Layer_1
 62
1
100
AcDbLine
 10
270.392029
 20
287.487247
 30
0.0
 11
291.661070
 21
287.487247
 31
0.0
  0
LINE
  5
274
100
AcDbEntity
  8
Layer_1
 62
1
100
AcDbLine
 10
197.642042
 20
286.177247
 30
0.0
 11
218.911082
 21
286.177247
 31
0.0
  0
LINE
  5
275
100
AcDbEntity
  8
Layer_1
 62
1
100
AcDbLine
 10
224.872999
 20
286.177247
 30
0.0
 11
246.142040
 21
286.177247
 31
0.0
  0
LINE
  5
276
100
AcDbEntity
  8
Layer_1
 62
1
100
AcDbLine
 10
246.142040
 20
286.177247
 30
0.0
 11
267.411060
 21
286.177247
 31
0.0
  0
LINE
  5
277
100
AcDbEntity
  8
Layer_1
 62
1
100
AcDbLine
 10
273.372998
 20
286.177247
 30
0.0
 11
294.642039
 21
286.177247
 31
0.0
  0
LINE
  5
278
100
AcDbEntity
  8
Layer_1
 62
6
100
AcDbLine
 10
294.642040
 20
338.547248
 30
0.0
 11
294.642040
 21
291.417248
 31
0.0
  0
LINE
  5
279
100
AcDbEntity
  8
Layer_1
 62
6
100
AcDbLine
 10
197.642040
 20
291.417248
 30
0.0
 11
197.642040
 21
338.547248
 31
0.0
  0
LINE
  5
27a
100
AcDbEntity
  8
Layer_1
 62
1
100
AcDbLine
 10
292.779810
 20
334.417818
 30
0.0
 11
290.079810
 21
334.417818
 31
0.0
  0
LINE
  5
27b
100
AcDbEntity
  8
Layer_1
 62
1
100
AcDbLine
 10
290.079810
 20
334.417818
 30
0.0
 11
290.079810
 21
324.417618
 31
0.0
  0
LINE
  5
27c
100
AcDbEntity
  8
Layer_1
 62
1
100
AcDbLine
 10
290.079810
 20
324.417618
 30
0.0
 11
292.779810
 21
324.417618
 31
0.0
  0
LINE
  5
27d
100
AcDbEntity
  8
Layer_1
 62
1
100
AcDbLine
 10
292.779810
 20
324.417618
 30
0.0
 11
292.779810
 21
334.417818
 31
0.0
  0
LINE
  5
27e
100
AcDbEntity
  8
Layer_1
 62
1
100
AcDbLine
 10
292.779810
 20
305.546778
 30
0.0
 11
290.079810
 21
305.546778
 31
0.0
  0
LINE
  5
27f
100
AcDbEntity
  8
Layer_1
 62
1
100
AcDbLine
 10
290.079810
 20
305.546778
 30
0.0
 11
290.079810
 21
295.546678
 31
0.0
  0
LINE
  5
280
100
AcDbEntity
  8
Layer_1
 62
1
100
AcDbLine
 10
290.079810
 20
295.546678
 30
0.0
 11
292.779810
 21
295.546678
 31
0.0
  0
LINE
  5
281
100
AcDbEntity
  8
Layer_1
 62
1
100
AcDbLine
 10
292.779810
 20
295.546678
 30
0.0
 11
292.779810
 21
305.546778
 31
0.0
  0
LINE
  5
282
100
AcDbEntity
  8
Layer_1
 62
1
100
AcDbLine
 10
202.204280
 20
334.417818
 30
0.0
 11
199.504280
 21
334.417818
 31
0.0
  0
LINE
  5
283
100
AcDbEntity
  8
Layer_1
 62
1
100
AcDbLine
 10
199.504280
 20
334.417818
 30
0.0
 11
199.504280
 21
324.417618
 31
0.0
  0
LINE
  5
284
100
AcDbEntity
  8
Layer_1
 62
1
100
AcDbLine
 10
199.504280
 20
324.417618
 30
0.0
 11
202.204280
 21
324.417618
 31
0.0
  0
LINE
  5
285
100
AcDbEntity
  8
Layer_1
 62
1
100
AcDbLine
 10
202.204280
 20
324.417618
 30
0.0
 11
202.204280
 21
334.417818
 31
0.0
  0
LINE
  5
286
100
AcDbEntity
  8
Layer_1
 62
1
100
AcDbLine
 10
202.204280
 20
305.546778
 30
0.0
 11
199.504280
 21
305.546778
 31
0.0
  0
LINE
  5
287
100
AcDbEntity
  8
Layer_1
 62
1
100
AcDbLine
 10
199.504280
 20
305.546778
 30
0.0
 11
199.504280
 21
295.546678
 31
0.0
  0
LINE
  5
288
100
AcDbEntity
  8
Layer_1
 62
1
100
AcDbLine
 10
199.504280
 20
295.546678
 30
0.0
 11
202.204280
 21
295.546678
 31
0.0
  0
LINE
  5
289
100
AcDbEntity
  8
Layer_1
 62
1
100
AcDbLine
 10
202.204280
 20
295.546678
 30
0.0
 11
202.204280
 21
305.546778
 31
0.0
  0
LINE
  5
28a
100
AcDbEntity
  8
Layer_1
 62
6
100
AcDbLine
 10
294.642040
 20
346.407248
 30
0.0
 11
294.642040
 21
338.547248
 31
0.0
  0
LINE
  5
28b
100
AcDbEntity
  8
Layer_1
 62
6
100
AcDbLine
 10
197.642040
 20
338.547248
 30
0.0
 11
197.642040
 21
346.407248
 31
0.0
  0
LINE
  5
28c
100
AcDbEntity
  8
Layer_1
 62
6
100
AcDbLine
 10
294.642040
 20
291.417248
 30
0.0
 11
294.642040
 21
283.557248
 31
0.0
  0
LINE
  5
28d
100
AcDbEntity
  8
Layer_1
 62
6
100
AcDbLine
 10
197.642040
 20
283.557248
 30
0.0
 11
197.642040
 21
291.417248
 31
0.0
  0
LINE
  5
28e
100
AcDbEntity
  8
Layer_1
 62
1
100
AcDbLine
 10
290.079900
 20
348.407248
 30
0.0
 11
292.779810
 21
348.407248
 31
0.0
  0
LINE
  5
28f
100
AcDbEntity
  8
Layer_1
 62
1
100
AcDbLine
 10
292.779810
 20
348.407248
 30
0.0
 11
292.779810
 21
358.407248
 31
0.0
  0
LINE
  5
290
100
AcDbEntity
  8
Layer_1
 62
1
100
AcDbLine
 10
292.779810
 20
358.407248
 30
0.0
 11
290.079900
 21
358.407248
 31
0.0
  0
LINE
  5
291
100
AcDbEntity
  8
Layer_1
 62
1
100
AcDbLine
 10
290.079900
 20
358.407248
 30
0.0
 11
290.079900
 21
348.407248
 31
0.0
  0
LINE
  5
292
100
AcDbEntity
  8
Layer_1
 62
1
100
AcDbLine
 10
199.504280
 20
348.407248
 30
0.0
 11
202.204280
 21
348.407248
 31
0.0
  0
LINE
  5
293
100
AcDbEntity
  8
Layer_1
 62
1
100
AcDbLine
 10
202.204280
 20
348.407248
 30
0.0
 11
202.204280
 21
358.407248
 31
0.0
  0
LINE
  5
294
100
AcDbEntity
  8
Layer_1
 62
1
100
AcDbLine
 10
202.204280
 20
358.407248
 30
0.0
 11
199.504280
 21
358.407248
 31
0.0
  0
LINE
  5
295
100
AcDbEntity
  8
Layer_1
 62
1
100
AcDbLine
 10
199.504280
 20
358.407248
 30
0.0
 11
199.504280
 21
348.407248
 31
0.0
  0
LINE
  5
296
100
AcDbEntity
  8
Layer_1
 62
1
100
AcDbLine
 10
282.977560
 20
364.407248
 30
0.0
 11
282.977560
 21
367.107248
 31
0.0
  0
LINE
  5
297
100
AcDbEntity
  8
Layer_1
 62
1
100
AcDbLine
 10
282.977560
 20
367.107248
 30
0.0
 11
272.977410
 21
367.107248
 31
0.0
  0
LINE
  5
298
100
AcDbEntity
  8
Layer_1
 62
1
100
AcDbLine
 10
272.977410
 20
367.107248
 30
0.0
 11
272.977410
 21
364.407248
 31
0.0
  0
LINE
  5
299
100
AcDbEntity
  8
Layer_1
 62
1
100
AcDbLine
 10
272.977410
 20
364.407248
 30
0.0
 11
282.977560
 21
364.407248
 31
0.0
  0
LINE
  5
29a
100
AcDbEntity
  8
Layer_1
 62
1
100
AcDbLine
 10
249.590980
 20
364.407248
 30
0.0
 11
249.590980
 21
367.107248
 31
0.0
  0
LINE
  5
29b
100
AcDbEntity
  8
Layer_1
 62
1
100
AcDbLine
 10
249.590980
 20
367.107248
 30
0.0
 11
239.590830
 21
367.107248
 31
0.0
  0
LINE
  5
29c
100
AcDbEntity
  8
Layer_1
 62
1
100
AcDbLine
 10
239.590830
 20
367.107248
 30
0.0
 11
239.590830
 21
364.407248
 31
0.0
  0
LINE
  5
29d
100
AcDbEntity
  8
Layer_1
 62
1
100
AcDbLine
 10
239.590830
 20
364.407248
 30
0.0
 11
249.590980
 21
364.407248
 31
0.0
  0
LINE
  5
29e
100
AcDbEntity
  8
Layer_1
 62
1
100
AcDbLine
 10
216.204430
 20
364.407248
 30
0.0
 11
216.204430
 21
367.107248
 31
0.0
  0
LINE
  5
29f
100
AcDbEntity
  8
Layer_1
 62
1
100
AcDbLine
 10
216.204430
 20
367.107248
 30
0.0
 11
206.204280
 21
367.107248
 31
0.0
  0
LINE
  5
2a0
100
AcDbEntity
  8
Layer_1
 62
1
100
AcDbLine
 10
206.204280
 20
367.107248
 30
0.0
 11
206.204280
 21
364.407248
 31
0.0
  0
LINE
  5
2a1
100
AcDbEntity
  8
Layer_1
 62
1
100
AcDbLine
 10
206.204280
 20
364.407248
 30
0.0
 11
216.204430
 21
364.407248
 31
0.0
  0
LINE
  5
2a2
100
AcDbEntity
  8
Layer_1
 62
6
100
AcDbLine
 10
294.642040
 20
364.007348
 30
0.0
 11
294.642040
 21
346.407348
 31
0.0
  0
LINE
  5
2a3
100
AcDbEntity
  8
Layer_1
 62
6
100
AcDbLine
 10
197.642040
 20
346.407348
 30
0.0
 11
197.642040
 21
364.007348
 31
0.0
  0
SPLINE
  5
2a4
100
AcDbEntity
  8
Layer_1
 62
6
100
AcDbSpline
 70
8
 71
3
 72
8
 73
4
 74
0
 40
0
 40
0
 40
0
 40
0
 40
1
 40
1
 40
1
 40
1
 10
294.642040
 20
364.007348
 30
0.0
 10
294.642040
 20
366.777348
 30
0.0
 10
292.412040
 20
369.007348
 30
0.0
 10
289.642040
 20
369.007348
 30
0.0
  0
LINE
  5
2a5
100
AcDbEntity
  8
Layer_1
 62
6
100
AcDbLine
 10
289.642040
 20
369.007348
 30
0.0
 11
202.642040
 21
369.007348
 31
0.0
  0
SPLINE
  5
2a6
100
AcDbEntity
  8
Layer_1
 62
6
100
AcDbSpline
 70
8
 71
3
 72
8
 73
4
 74
0
 40
0
 40
0
 40
0
 40
0
 40
1
 40
1
 40
1
 40
1
 10
202.642040
 20
369.007348
 30
0.0
 10
199.872040
 20
369.007348
 30
0.0
 10
197.642040
 20
366.777348
 30
0.0
 10
197.642040
 20
364.007348
 30
0.0
  0
LINE
  5
2a7
100
AcDbEntity
  8
Layer_1
 62
1
100
AcDbLine
 10
290.079900
 20
281.557308
 30
0.0
 11
292.779810
 21
281.557308
 31
0.0
  0
LINE
  5
2a8
100
AcDbEntity
  8
Layer_1
 62
1
100
AcDbLine
 10
292.779810
 20
281.557308
 30
0.0
 11
292.779810
 21
271.557308
 31
0.0
  0
LINE
  5
2a9
100
AcDbEntity
  8
Layer_1
 62
1
100
AcDbLine
 10
292.779810
 20
271.557308
 30
0.0
 11
290.079900
 21
271.557308
 31
0.0
  0
LINE
  5
2aa
100
AcDbEntity
  8
Layer_1
 62
1
100
AcDbLine
 10
290.079900
 20
271.557308
 30
0.0
 11
290.079900
 21
281.557308
 31
0.0
  0
LINE
  5
2ab
100
AcDbEntity
  8
Layer_1
 62
1
100
AcDbLine
 10
199.504280
 20
281.557308
 30
0.0
 11
202.204280
 21
281.557308
 31
0.0
  0
LINE
  5
2ac
100
AcDbEntity
  8
Layer_1
 62
1
100
AcDbLine
 10
202.204280
 20
281.557308
 30
0.0
 11
202.204280
 21
271.557308
 31
0.0
  0
LINE
  5
2ad
100
AcDbEntity
  8
Layer_1
 62
1
100
AcDbLine
 10
202.204280
 20
271.557308
 30
0.0
 11
199.504280
 21
271.557308
 31
0.0
  0
LINE
  5
2ae
100
AcDbEntity
  8
Layer_1
 62
1
100
AcDbLine
 10
199.504280
 20
271.557308
 30
0.0
 11
199.504280
 21
281.557308
 31
0.0
  0
LINE
  5
2af
100
AcDbEntity
  8
Layer_1
 62
1
100
AcDbLine
 10
282.977560
 20
265.557308
 30
0.0
 11
282.977560
 21
262.857308
 31
0.0
  0
LINE
  5
2b0
100
AcDbEntity
  8
Layer_1
 62
1
100
AcDbLine
 10
282.977560
 20
262.857308
 30
0.0
 11
272.977410
 21
262.857308
 31
0.0
  0
LINE
  5
2b1
100
AcDbEntity
  8
Layer_1
 62
1
100
AcDbLine
 10
272.977410
 20
262.857308
 30
0.0
 11
272.977410
 21
265.557308
 31
0.0
  0
LINE
  5
2b2
100
AcDbEntity
  8
Layer_1
 62
1
100
AcDbLine
 10
272.977410
 20
265.557308
 30
0.0
 11
282.977560
 21
265.557308
 31
0.0
  0
LINE
  5
2b3
100
AcDbEntity
  8
Layer_1
 62
1
100
AcDbLine
 10
249.590980
 20
265.557308
 30
0.0
 11
249.590980
 21
262.857308
 31
0.0
  0
LINE
  5
2b4
100
AcDbEntity
  8
Layer_1
 62
1
100
AcDbLine
 10
249.590980
 20
262.857308
 30
0.0
 11
239.590830
 21
262.857308
 31
0.0
  0
LINE
  5
2b5
100
AcDbEntity
  8
Layer_1
 62
1
100
AcDbLine
 10
239.590830
 20
262.857308
 30
0.0
 11
239.590830
 21
265.557308
 31
0.0
  0
LINE
  5
2b6
100
AcDbEntity
  8
Layer_1
 62
1
100
AcDbLine
 10
239.590830
 20
265.557308
 30
0.0
 11
249.590980
 21
265.557308
 31
0.0
  0
LINE
  5
2b7
100
AcDbEntity
  8
Layer_1
 62
1
100
AcDbLine
 10
216.204430
 20
265.557308
 30
0.0
 11
216.204430
 21
262.857308
 31
0.0
  0
LINE
  5
2b8
100
AcDbEntity
  8
Layer_1
 62
1
100
AcDbLine
 10
216.204430
 20
262.857308
 30
0.0
 11
206.204280
 21
262.857308
 31
0.0
  0
LINE
  5
2b9
100
AcDbEntity
  8
Layer_1
 62
1
100
AcDbLine
 10
206.204280
 20
262.857308
 30
0.0
 11
206.204280
 21
265.557308
 31
0.0
  0
LINE
  5
2ba
100
AcDbEntity
  8
Layer_1
 62
1
100
AcDbLine
 10
206.204280
 20
265.557308
 30
0.0
 11
216.204430
 21
265.557308
 31
0.0
  0
LINE
  5
2bb
100
AcDbEntity
  8
Layer_1
 62
6
100
AcDbLine
 10
294.642040
 20
265.957208
 30
0.0
 11
294.642040
 21
283.557208
 31
0.0
  0
LINE
  5
2bc
100
AcDbEntity
  8
Layer_1
 62
6
100
AcDbLine
 10
197.642040
 20
283.557208
 30
0.0
 11
197.642040
 21
265.957208
 31
0.0
  0
SPLINE
  5
2bd
100
AcDbEntity
  8
Layer_1
 62
6
100
AcDbSpline
 70
8
 71
3
 72
8
 73
4
 74
0
 40
0
 40
0
 40
0
 40
0
 40
1
 40
1
 40
1
 40
1
 10
294.642040
 20
265.957208
 30
0.0
 10
294.642040
 20
263.187208
 30
0.0
 10
292.412040
 20
260.957208
 30
0.0
 10
289.642040
 20
260.957208
 30
0.0
  0
LINE
  5
2be
100
AcDbEntity
  8
Layer_1
 62
6
100
AcDbLine
 10
289.642040
 20
260.957208
 30
0.0
 11
202.642040
 21
260.957208
 31
0.0
  0
SPLINE
  5
2bf
100
AcDbEntity
  8
Layer_1
 62
6
100
AcDbSpline
 70
8
 71
3
 72
8
 73
4
 74
0
 40
0
 40
0
 40
0
 40
0
 40
1
 40
1
 40
1
 40
1
 10
202.642040
 20
260.957208
 30
0.0
 10
199.872040
 20
260.957208
 30
0.0
 10
197.642040
 20
263.187208
 30
0.0
 10
197.642040
 20
265.957208
 30
0.0
  0
LINE
  5
2c0
100
AcDbEntity
  8
Layer_1
 62
3
100
AcDbLine
 10
220.439540
 20
318.142646
 30
0.0
 11
218.135337
 21
318.142646
 31
0.0
  0
LINE
  5
2c1
100
AcDbEntity
  8
Layer_1
 62
3
100
AcDbLine
 10
218.135337
 20
318.142646
 30
0.0
 11
216.991854
 21
314.275491
 31
0.0
  0
LINE
  5
2c2
100
AcDbEntity
  8
Layer_1
 62
3
100
AcDbLine
 10
216.991854
 20
314.275491
 30
0.0
 11
216.911407
 21
314.275491
 31
0.0
  0
LINE
  5
2c3
100
AcDbEntity
  8
Layer_1
 62
3
100
AcDbLine
 10
216.911407
 20
314.275491
 30
0.0
 11
215.767925
 21
318.142646
 31
0.0
  0
LINE
  5
2c4
100
AcDbEntity
  8
Layer_1
 62
3
100
AcDbLine
 10
215.767925
 20
318.142646
 30
0.0
 11
213.251114
 21
318.142646
 31
0.0
  0
LINE
  5
2c5
100
AcDbEntity
  8
Layer_1
 62
3
100
AcDbLine
 10
213.251114
 20
318.142646
 30
0.0
 11
215.607033
 21
311.931065
 31
0.0
  0
LINE
  5
2c6
100
AcDbEntity
  8
Layer_1
 62
3
100
AcDbLine
 10
215.607033
 20
311.931065
 30
0.0
 11
218.066383
 21
311.931065
 31
0.0
  0
LINE
  5
2c7
100
AcDbEntity
  8
Layer_1
 62
3
100
AcDbLine
 10
218.066383
 20
311.931065
 30
0.0
 11
220.439540
 21
318.142646
 31
0.0
  0
SPLINE
  5
2c8
100
AcDbEntity
  8
Layer_1
 62
3
100
AcDbSpline
 70
8
 71
3
 72
8
 73
4
 74
0
 40
0
 40
0
 40
0
 40
0
 40
1
 40
1
 40
1
 40
1
 10
224.220503
 20
318.286300
 30
0.0
 10
223.688027
 20
318.286300
 30
0.0
 10
223.218758
 20
318.240331
 30
0.0
 10
222.812698
 20
318.148392
 30
0.0
  0
SPLINE
  5
2c9
100
AcDbEntity
  8
Layer_1
 62
3
100
AcDbSpline
 70
8
 71
3
 72
8
 73
4
 74
0
 40
0
 40
0
 40
0
 40
0
 40
1
 40
1
 40
1
 40
1
 10
222.812698
 20
318.148392
 30
0.0
 10
222.410468
 20
318.056454
 30
0.0
 10
222.071445
 20
317.926208
 30
0.0
 10
221.795630
 20
317.757655
 30
0.0
  0
SPLINE
  5
2ca
100
AcDbEntity
  8
Layer_1
 62
3
100
AcDbSpline
 70
8
 71
3
 72
8
 73
4
 74
0
 40
0
 40
0
 40
0
 40
0
 40
1
 40
1
 40
1
 40
1
 10
221.795630
 20
317.757655
 30
0.0
 10
221.523646
 20
317.589101
 30
0.0
 10
221.318700
 20
317.386070
 30
0.0
 10
221.180793
 20
317.148563
 30
0.0
  0
SPLINE
  5
2cb
100
AcDbEntity
  8
Layer_1
 62
3
100
AcDbSpline
 70
8
 71
3
 72
8
 73
4
 74
0
 40
0
 40
0
 40
0
 40
0
 40
1
 40
1
 40
1
 40
1
 10
221.180793
 20
317.148563
 30
0.0
 10
221.042885
 20
316.914887
 30
0.0
 10
220.973932
 20
316.654395
 30
0.0
 10
220.973932
 20
316.367088
 30
0.0
  0
SPLINE
  5
2cc
100
AcDbEntity
  8
Layer_1
 62
3
100
AcDbSpline
 70
8
 71
3
 72
8
 73
4
 74
0
 40
0
 40
0
 40
0
 40
0
 40
1
 40
1
 40
1
 40
1
 10
220.973932
 20
316.367088
 30
0.0
 10
220.973932
 20
316.336441
 30
0.0
 10
220.973932
 20
316.307711
 30
0.0
 10
220.973932
 20
316.280896
 30
0.0
  0
SPLINE
  5
2cd
100
AcDbEntity
  8
Layer_1
 62
3
100
AcDbSpline
 70
8
 71
3
 72
8
 73
4
 74
0
 40
0
 40
0
 40
0
 40
0
 40
1
 40
1
 40
1
 40
1
 10
220.973932
 20
316.280896
 30
0.0
 10
220.973932
 20
316.257911
 30
0.0
 10
220.977763
 20
316.231096
 30
0.0
 10
220.985424
 20
316.200449
 30
0.0
  0
LINE
  5
2ce
100
AcDbEntity
  8
Layer_1
 62
3
100
AcDbLine
 10
220.985424
 20
316.200449
 30
0.0
 11
223.295374
 21
316.200449
 31
0.0
  0
LINE
  5
2cf
100
AcDbEntity
  8
Layer_1
 62
3
100
AcDbLine
 10
223.295374
 20
316.200449
 30
0.0
 11
223.295374
 21
316.252165
 31
0.0
  0
SPLINE
  5
2d0
100
AcDbEntity
  8
Layer_1
 62
3
100
AcDbSpline
 70
8
 71
3
 72
8
 73
4
 74
0
 40
0
 40
0
 40
0
 40
0
 40
1
 40
1
 40
1
 40
1
 10
223.295374
 20
316.252165
 30
0.0
 10
223.295374
 20
316.355595
 30
0.0
 10
223.322189
 20
316.441787
 30
0.0
 10
223.375820
 20
316.510741
 30
0.0
  0
SPLINE
  5
2d1
100
AcDbEntity
  8
Layer_1
 62
3
100
AcDbSpline
 70
8
 71
3
 72
8
 73
4
 74
0
 40
0
 40
0
 40
0
 40
0
 40
1
 40
1
 40
1
 40
1
 10
223.375820
 20
316.510741
 30
0.0
 10
223.429451
 20
316.579695
 30
0.0
 10
223.498404
 20
316.635241
 30
0.0
 10
223.582681
 20
316.677379
 30
0.0
  0
SPLINE
  5
2d2
100
AcDbEntity
  8
Layer_1
 62
3
100
AcDbSpline
 70
8
 71
3
 72
8
 73
4
 74
0
 40
0
 40
0
 40
0
 40
0
 40
1
 40
1
 40
1
 40
1
 10
223.582681
 20
316.677379
 30
0.0
 10
223.670788
 20
316.719518
 30
0.0
 10
223.766557
 20
316.748249
 30
0.0
 10
223.869988
 20
316.763572
 30
0.0
  0
SPLINE
  5
2d3
100
AcDbEntity
  8
Layer_1
 62
3
100
AcDbSpline
 70
8
 71
3
 72
8
 73
4
 74
0
 40
0
 40
0
 40
0
 40
0
 40
1
 40
1
 40
1
 40
1
 10
223.869988
 20
316.763572
 30
0.0
 10
223.977250
 20
316.782725
 30
0.0
 10
224.082596
 20
316.792302
 30
0.0
 10
224.186026
 20
316.792302
 30
0.0
  0
SPLINE
  5
2d4
100
AcDbEntity
  8
Layer_1
 62
3
100
AcDbSpline
 70
8
 71
3
 72
8
 73
4
 74
0
 40
0
 40
0
 40
0
 40
0
 40
1
 40
1
 40
1
 40
1
 10
224.186026
 20
316.792302
 30
0.0
 10
224.312442
 20
316.792302
 30
0.0
 10
224.431195
 20
316.776979
 30
0.0
 10
224.542287
 20
316.746333
 30
0.0
  0
SPLINE
  5
2d5
100
AcDbEntity
  8
Layer_1
 62
3
100
AcDbSpline
 70
8
 71
3
 72
8
 73
4
 74
0
 40
0
 40
0
 40
0
 40
0
 40
1
 40
1
 40
1
 40
1
 10
224.542287
 20
316.746333
 30
0.0
 10
224.653379
 20
316.715687
 30
0.0
 10
224.749148
 20
316.669718
 30
0.0
 10
224.829595
 20
316.608425
 30
0.0
  0
SPLINE
  5
2d6
100
AcDbEntity
  8
Layer_1
 62
3
100
AcDbSpline
 70
8
 71
3
 72
8
 73
4
 74
0
 40
0
 40
0
 40
0
 40
0
 40
1
 40
1
 40
1
 40
1
 10
224.829595
 20
316.608425
 30
0.0
 10
224.910040
 20
316.550964
 30
0.0
 10
224.973248
 20
316.474349
 30
0.0
 10
225.019217
 20
316.378580
 30
0.0
  0
SPLINE
  5
2d7
100
AcDbEntity
  8
Layer_1
 62
3
100
AcDbSpline
 70
8
 71
3
 72
8
 73
4
 74
0
 40
0
 40
0
 40
0
 40
0
 40
1
 40
1
 40
1
 40
1
 10
225.019217
 20
316.378580
 30
0.0
 10
225.069017
 20
316.286641
 30
0.0
 10
225.093917
 20
316.177465
 30
0.0
 10
225.093917
 20
316.051050
 30
0.0
  0
LINE
  5
2d8
100
AcDbEntity
  8
Layer_1
 62
3
100
AcDbLine
 10
225.093917
 20
316.051050
 30
0.0
 11
225.093917
 21
315.746504
 31
0.0
  0
SPLINE
  5
2d9
100
AcDbEntity
  8
Layer_1
 62
3
100
AcDbSpline
 70
8
 71
3
 72
8
 73
4
 74
0
 40
0
 40
0
 40
0
 40
0
 40
1
 40
1
 40
1
 40
1
 10
225.093917
 20
315.746504
 30
0.0
 10
224.415872
 20
315.746504
 30
0.0
 10
223.810611
 20
315.717773
 30
0.0
 10
223.278136
 20
315.660312
 30
0.0
  0
SPLINE
  5
2da
100
AcDbEntity
  8
Layer_1
 62
3
100
AcDbSpline
 70
8
 71
3
 72
8
 73
4
 74
0
 40
0
 40
0
 40
0
 40
0
 40
1
 40
1
 40
1
 40
1
 10
223.278136
 20
315.660312
 30
0.0
 10
222.745659
 20
315.606681
 30
0.0
 10
222.295545
 20
315.499420
 30
0.0
 10
221.927791
 20
315.338528
 30
0.0
  0
SPLINE
  5
2db
100
AcDbEntity
  8
Layer_1
 62
3
100
AcDbSpline
 70
8
 71
3
 72
8
 73
4
 74
0
 40
0
 40
0
 40
0
 40
0
 40
1
 40
1
 40
1
 40
1
 10
221.927791
 20
315.338528
 30
0.0
 10
221.560038
 20
315.177636
 30
0.0
 10
221.278477
 20
314.951621
 30
0.0
 10
221.083108
 20
314.660483
 30
0.0
  0
SPLINE
  5
2dc
100
AcDbEntity
  8
Layer_1
 62
3
100
AcDbSpline
 70
8
 71
3
 72
8
 73
4
 74
0
 40
0
 40
0
 40
0
 40
0
 40
1
 40
1
 40
1
 40
1
 10
221.083108
 20
314.660483
 30
0.0
 10
220.891570
 20
314.373176
 30
0.0
 10
220.795801
 20
313.997761
 30
0.0
 10
220.795801
 20
313.534239
 30
0.0
  0
SPLINE
  5
2dd
100
AcDbEntity
  8
Layer_1
 62
3
100
AcDbSpline
 70
8
 71
3
 72
8
 73
4
 74
0
 40
0
 40
0
 40
0
 40
0
 40
1
 40
1
 40
1
 40
1
 10
220.795801
 20
313.534239
 30
0.0
 10
220.795801
 20
313.208624
 30
0.0
 10
220.849432
 20
312.934724
 30
0.0
 10
220.956693
 20
312.712540
 30
0.0
  0
SPLINE
  5
2de
100
AcDbEntity
  8
Layer_1
 62
3
100
AcDbSpline
 70
8
 71
3
 72
8
 73
4
 74
0
 40
0
 40
0
 40
0
 40
0
 40
1
 40
1
 40
1
 40
1
 10
220.956693
 20
312.712540
 30
0.0
 10
221.063954
 20
312.490356
 30
0.0
 10
221.213354
 20
312.310310
 30
0.0
 10
221.404892
 20
312.172402
 30
0.0
  0
SPLINE
  5
2df
100
AcDbEntity
  8
Layer_1
 62
3
100
AcDbSpline
 70
8
 71
3
 72
8
 73
4
 74
0
 40
0
 40
0
 40
0
 40
0
 40
1
 40
1
 40
1
 40
1
 10
221.404892
 20
312.172402
 30
0.0
 10
221.596430
 20
312.034495
 30
0.0
 10
221.826276
 20
311.936811
 30
0.0
 10
222.094430
 20
311.879349
 30
0.0
  0
SPLINE
  5
2e0
100
AcDbEntity
  8
Layer_1
 62
3
100
AcDbSpline
 70
8
 71
3
 72
8
 73
4
 74
0
 40
0
 40
0
 40
0
 40
0
 40
1
 40
1
 40
1
 40
1
 10
222.094430
 20
311.879349
 30
0.0
 10
222.366414
 20
311.818057
 30
0.0
 10
222.663298
 20
311.787411
 30
0.0
 10
222.985082
 20
311.787411
 30
0.0
  0
SPLINE
  5
2e1
100
AcDbEntity
  8
Layer_1
 62
3
100
AcDbSpline
 70
8
 71
3
 72
8
 73
4
 74
0
 40
0
 40
0
 40
0
 40
0
 40
1
 40
1
 40
1
 40
1
 10
222.985082
 20
311.787411
 30
0.0
 10
223.257066
 20
311.787411
 30
0.0
 10
223.504150
 20
311.808480
 30
0.0
 10
223.726335
 20
311.850619
 30
0.0
  0
SPLINE
  5
2e2
100
AcDbEntity
  8
Layer_1
 62
3
100
AcDbSpline
 70
8
 71
3
 72
8
 73
4
 74
0
 40
0
 40
0
 40
0
 40
0
 40
1
 40
1
 40
1
 40
1
 10
223.726335
 20
311.850619
 30
0.0
 10
223.952350
 20
311.892757
 30
0.0
 10
224.159211
 20
311.950218
 30
0.0
 10
224.346918
 20
312.023003
 30
0.0
  0
SPLINE
  5
2e3
100
AcDbEntity
  8
Layer_1
 62
3
100
AcDbSpline
 70
8
 71
3
 72
8
 73
4
 74
0
 40
0
 40
0
 40
0
 40
0
 40
1
 40
1
 40
1
 40
1
 10
224.346918
 20
312.023003
 30
0.0
 10
224.534625
 20
312.095787
 30
0.0
 10
224.705094
 20
312.178149
 30
0.0
 10
224.858325
 20
312.270087
 30
0.0
  0
SPLINE
  5
2e4
100
AcDbEntity
  8
Layer_1
 62
3
100
AcDbSpline
 70
8
 71
3
 72
8
 73
4
 74
0
 40
0
 40
0
 40
0
 40
0
 40
1
 40
1
 40
1
 40
1
 10
224.858325
 20
312.270087
 30
0.0
 10
225.011555
 20
312.365856
 30
0.0
 10
225.153293
 20
312.465456
 30
0.0
 10
225.283539
 20
312.568887
 30
0.0
  0
SPLINE
  5
2e5
100
AcDbEntity
  8
Layer_1
 62
3
100
AcDbSpline
 70
8
 71
3
 72
8
 73
4
 74
0
 40
0
 40
0
 40
0
 40
0
 40
1
 40
1
 40
1
 40
1
 10
225.283539
 20
312.568887
 30
0.0
 10
225.390801
 20
312.331379
 30
0.0
 10
225.586170
 20
312.141757
 30
0.0
 10
225.869646
 20
312.000018
 30
0.0
  0
SPLINE
  5
2e6
100
AcDbEntity
  8
Layer_1
 62
3
100
AcDbSpline
 70
8
 71
3
 72
8
 73
4
 74
0
 40
0
 40
0
 40
0
 40
0
 40
1
 40
1
 40
1
 40
1
 10
225.869646
 20
312.000018
 30
0.0
 10
226.156954
 20
311.858280
 30
0.0
 10
226.538115
 20
311.787411
 30
0.0
 10
227.013129
 20
311.787411
 30
0.0
  0
SPLINE
  5
2e7
100
AcDbEntity
  8
Layer_1
 62
3
100
AcDbSpline
 70
8
 71
3
 72
8
 73
4
 74
0
 40
0
 40
0
 40
0
 40
0
 40
1
 40
1
 40
1
 40
1
 10
227.013129
 20
311.787411
 30
0.0
 10
227.208498
 20
311.787411
 30
0.0
 10
227.382797
 20
311.798903
 30
0.0
 10
227.536028
 20
311.821887
 30
0.0
  0
SPLINE
  5
2e8
100
AcDbEntity
  8
Layer_1
 62
3
100
AcDbSpline
 70
8
 71
3
 72
8
 73
4
 74
0
 40
0
 40
0
 40
0
 40
0
 40
1
 40
1
 40
1
 40
1
 10
227.536028
 20
311.821887
 30
0.0
 10
227.689258
 20
311.844872
 30
0.0
 10
227.817589
 20
311.871688
 30
0.0
 10
227.921020
 20
311.902334
 30
0.0
  0
SPLINE
  5
2e9
100
AcDbEntity
  8
Layer_1
 62
3
100
AcDbSpline
 70
8
 71
3
 72
8
 73
4
 74
0
 40
0
 40
0
 40
0
 40
0
 40
1
 40
1
 40
1
 40
1
 10
227.921020
 20
311.902334
 30
0.0
 10
228.043604
 20
311.936811
 30
0.0
 10
228.148950
 20
311.977034
 30
0.0
 10
228.237058
 20
312.023003
 30
0.0
  0
LINE
  5
2ea
100
AcDbEntity
  8
Layer_1
 62
3
100
AcDbLine
 10
228.237058
 20
312.023003
 30
0.0
 11
228.237058
 21
313.379093
 31
0.0
  0
LINE
  5
2eb
100
AcDbEntity
  8
Layer_1
 62
3
100
AcDbLine
 10
228.237058
 20
313.379093
 30
0.0
 11
227.811843
 21
313.379093
 31
0.0
  0
SPLINE
  5
2ec
100
AcDbEntity
  8
Layer_1
 62
3
100
AcDbSpline
 70
8
 71
3
 72
8
 73
4
 74
0
 40
0
 40
0
 40
0
 40
0
 40
1
 40
1
 40
1
 40
1
 10
227.811843
 20
313.379093
 30
0.0
 10
227.681597
 20
313.379093
 30
0.0
 10
227.585828
 20
313.423146
 30
0.0
 10
227.524536
 20
313.511254
 30
0.0
  0
SPLINE
  5
2ed
100
AcDbEntity
  8
Layer_1
 62
3
100
AcDbSpline
 70
8
 71
3
 72
8
 73
4
 74
0
 40
0
 40
0
 40
0
 40
0
 40
1
 40
1
 40
1
 40
1
 10
227.524536
 20
313.511254
 30
0.0
 10
227.467074
 20
313.599362
 30
0.0
 10
227.438344
 20
313.708538
 30
0.0
 10
227.438344
 20
313.838784
 30
0.0
  0
LINE
  5
2ee
100
AcDbEntity
  8
Layer_1
 62
3
100
AcDbLine
 10
227.438344
 20
313.838784
 30
0.0
 11
227.438344
 21
316.263657
 31
0.0
  0
SPLINE
  5
2ef
100
AcDbEntity
  8
Layer_1
 62
3
100
AcDbSpline
 70
8
 71
3
 72
8
 73
4
 74
0
 40
0
 40
0
 40
0
 40
0
 40
1
 40
1
 40
1
 40
1
 10
227.438344
 20
316.263657
 30
0.0
 10
227.438344
 20
316.646733
 30
0.0
 10
227.350236
 20
316.966602
 30
0.0
 10
227.174021
 20
317.223263
 30
0.0
  0
SPLINE
  5
2f0
100
AcDbEntity
  8
Layer_1
 62
3
100
AcDbSpline
 70
8
 71
3
 72
8
 73
4
 74
0
 40
0
 40
0
 40
0
 40
0
 40
1
 40
1
 40
1
 40
1
 10
227.174021
 20
317.223263
 30
0.0
 10
227.001637
 20
317.483755
 30
0.0
 10
226.766045
 20
317.692531
 30
0.0
 10
226.467245
 20
317.849593
 30
0.0
  0
SPLINE
  5
2f1
100
AcDbEntity
  8
Layer_1
 62
3
100
AcDbSpline
 70
8
 71
3
 72
8
 73
4
 74
0
 40
0
 40
0
 40
0
 40
0
 40
1
 40
1
 40
1
 40
1
 10
226.467245
 20
317.849593
 30
0.0
 10
226.172277
 20
318.006654
 30
0.0
 10
225.829423
 20
318.117747
 30
0.0
 10
225.438685
 20
318.182869
 30
0.0
  0
SPLINE
  5
2f2
100
AcDbEntity
  8
Layer_1
 62
3
100
AcDbSpline
 70
8
 71
3
 72
8
 73
4
 74
0
 40
0
 40
0
 40
0
 40
0
 40
1
 40
1
 40
1
 40
1
 10
225.438685
 20
318.182869
 30
0.0
 10
225.051778
 20
318.251823
 30
0.0
 10
224.645718
 20
318.286300
 30
0.0
 10
224.220503
 20
318.286300
 30
0.0
  0
LINE
  5
2f3
100
AcDbEntity
  8
Layer_1
 62
3
100
AcDbLine
 10
224.220503
 20
318.286300
 30
0.0
 11
224.220503
 21
318.286300
 31
0.0
  0
SPLINE
  5
2f4
100
AcDbEntity
  8
Layer_1
 62
3
100
AcDbSpline
 70
8
 71
3
 72
8
 73
4
 74
0
 40
0
 40
0
 40
0
 40
0
 40
1
 40
1
 40
1
 40
1
 10
225.093917
 20
314.108853
 30
0.0
 10
225.093917
 20
313.982438
 30
0.0
 10
225.061355
 20
313.865599
 30
0.0
 10
224.996232
 20
313.758338
 30
0.0
  0
SPLINE
  5
2f5
100
AcDbEntity
  8
Layer_1
 62
3
100
AcDbSpline
 70
8
 71
3
 72
8
 73
4
 74
0
 40
0
 40
0
 40
0
 40
0
 40
1
 40
1
 40
1
 40
1
 10
224.996232
 20
313.758338
 30
0.0
 10
224.934940
 20
313.654908
 30
0.0
 10
224.850663
 20
313.564885
 30
0.0
 10
224.743402
 20
313.488270
 30
0.0
  0
SPLINE
  5
2f6
100
AcDbEntity
  8
Layer_1
 62
3
100
AcDbSpline
 70
8
 71
3
 72
8
 73
4
 74
0
 40
0
 40
0
 40
0
 40
0
 40
1
 40
1
 40
1
 40
1
 10
224.743402
 20
313.488270
 30
0.0
 10
224.636141
 20
313.411654
 30
0.0
 10
224.511641
 20
313.352277
 30
0.0
 10
224.369903
 20
313.310139
 30
0.0
  0
SPLINE
  5
2f7
100
AcDbEntity
  8
Layer_1
 62
3
100
AcDbSpline
 70
8
 71
3
 72
8
 73
4
 74
0
 40
0
 40
0
 40
0
 40
0
 40
1
 40
1
 40
1
 40
1
 10
224.369903
 20
313.310139
 30
0.0
 10
224.231995
 20
313.268001
 30
0.0
 10
224.088342
 20
313.246932
 30
0.0
 10
223.938942
 20
313.246932
 30
0.0
  0
SPLINE
  5
2f8
100
AcDbEntity
  8
Layer_1
 62
3
100
AcDbSpline
 70
8
 71
3
 72
8
 73
4
 74
0
 40
0
 40
0
 40
0
 40
0
 40
1
 40
1
 40
1
 40
1
 10
223.938942
 20
313.246932
 30
0.0
 10
223.839342
 20
313.246932
 30
0.0
 10
223.741658
 20
313.254593
 30
0.0
 10
223.645889
 20
313.269916
 30
0.0
  0
SPLINE
  5
2f9
100
AcDbEntity
  8
Layer_1
 62
3
100
AcDbSpline
 70
8
 71
3
 72
8
 73
4
 74
0
 40
0
 40
0
 40
0
 40
0
 40
1
 40
1
 40
1
 40
1
 10
223.645889
 20
313.269916
 30
0.0
 10
223.550119
 20
313.289070
 30
0.0
 10
223.463927
 20
313.319716
 30
0.0
 10
223.387312
 20
313.361854
 30
0.0
  0
SPLINE
  5
2fa
100
AcDbEntity
  8
Layer_1
 62
3
100
AcDbSpline
 70
8
 71
3
 72
8
 73
4
 74
0
 40
0
 40
0
 40
0
 40
0
 40
1
 40
1
 40
1
 40
1
 10
223.387312
 20
313.361854
 30
0.0
 10
223.314528
 20
313.403993
 30
0.0
 10
223.255151
 20
313.463370
 30
0.0
 10
223.209182
 20
313.539985
 30
0.0
  0
SPLINE
  5
2fb
100
AcDbEntity
  8
Layer_1
 62
3
100
AcDbSpline
 70
8
 71
3
 72
8
 73
4
 74
0
 40
0
 40
0
 40
0
 40
0
 40
1
 40
1
 40
1
 40
1
 10
223.209182
 20
313.539985
 30
0.0
 10
223.163212
 20
313.616600
 30
0.0
 10
223.140228
 20
313.716200
 30
0.0
 10
223.140228
 20
313.838784
 30
0.0
  0
SPLINE
  5
2fc
100
AcDbEntity
  8
Layer_1
 62
3
100
AcDbSpline
 70
8
 71
3
 72
8
 73
4
 74
0
 40
0
 40
0
 40
0
 40
0
 40
1
 40
1
 40
1
 40
1
 10
223.140228
 20
313.838784
 30
0.0
 10
223.140228
 20
313.953707
 30
0.0
 10
223.176620
 20
314.059053
 30
0.0
 10
223.249404
 20
314.154822
 30
0.0
  0
SPLINE
  5
2fd
100
AcDbEntity
  8
Layer_1
 62
3
100
AcDbSpline
 70
8
 71
3
 72
8
 73
4
 74
0
 40
0
 40
0
 40
0
 40
0
 40
1
 40
1
 40
1
 40
1
 10
223.249404
 20
314.154822
 30
0.0
 10
223.322189
 20
314.254422
 30
0.0
 10
223.437112
 20
314.338699
 30
0.0
 10
223.594173
 20
314.407653
 30
0.0
  0
SPLINE
  5
2fe
100
AcDbEntity
  8
Layer_1
 62
3
100
AcDbSpline
 70
8
 71
3
 72
8
 73
4
 74
0
 40
0
 40
0
 40
0
 40
0
 40
1
 40
1
 40
1
 40
1
 10
223.594173
 20
314.407653
 30
0.0
 10
223.751235
 20
314.480437
 30
0.0
 10
223.952350
 20
314.535983
 30
0.0
 10
224.197519
 20
314.574291
 30
0.0
  0
SPLINE
  5
2ff
100
AcDbEntity
  8
Layer_1
 62
3
100
AcDbSpline
 70
8
 71
3
 72
8
 73
4
 74
0
 40
0
 40
0
 40
0
 40
0
 40
1
 40
1
 40
1
 40
1
 10
224.197519
 20
314.574291
 30
0.0
 10
224.446518
 20
314.616429
 30
0.0
 10
224.745317
 20
314.637498
 30
0.0
 10
225.093917
 20
314.637498
 30
0.0
  0
LINE
  5
300
100
AcDbEntity
  8
Layer_1
 62
3
100
AcDbLine
 10
225.093917
 20
314.637498
 30
0.0
 11
225.093917
 21
314.108853
 31
0.0
  0
SPLINE
  5
301
100
AcDbEntity
  8
Layer_1
 62
3
100
AcDbSpline
 70
8
 71
3
 72
8
 73
4
 74
0
 40
0
 40
0
 40
0
 40
0
 40
1
 40
1
 40
1
 40
1
 10
233.293665
 20
318.286300
 30
0.0
 10
233.075311
 20
318.286300
 30
0.0
 10
232.858873
 20
318.259485
 30
0.0
 10
232.644350
 20
318.205854
 30
0.0
  0
SPLINE
  5
302
100
AcDbEntity
  8
Layer_1
 62
3
100
AcDbSpline
 70
8
 71
3
 72
8
 73
4
 74
0
 40
0
 40
0
 40
0
 40
0
 40
1
 40
1
 40
1
 40
1
 10
232.644350
 20
318.205854
 30
0.0
 10
232.433658
 20
318.156054
 30
0.0
 10
232.232543
 20
318.083269
 30
0.0
 10
232.041005
 20
317.987500
 30
0.0
  0
SPLINE
  5
303
100
AcDbEntity
  8
Layer_1
 62
3
100
AcDbSpline
 70
8
 71
3
 72
8
 73
4
 74
0
 40
0
 40
0
 40
0
 40
0
 40
1
 40
1
 40
1
 40
1
 10
232.041005
 20
317.987500
 30
0.0
 10
231.849467
 20
317.895562
 30
0.0
 10
231.671336
 20
317.782555
 30
0.0
 10
231.506613
 20
317.648478
 30
0.0
  0
SPLINE
  5
304
100
AcDbEntity
  8
Layer_1
 62
3
100
AcDbSpline
 70
8
 71
3
 72
8
 73
4
 74
0
 40
0
 40
0
 40
0
 40
0
 40
1
 40
1
 40
1
 40
1
 10
231.506613
 20
317.648478
 30
0.0
 10
231.341891
 20
317.518232
 30
0.0
 10
231.200152
 20
317.370748
 30
0.0
 10
231.081399
 20
317.206025
 30
0.0
  0
LINE
  5
305
100
AcDbEntity
  8
Layer_1
 62
3
100
AcDbLine
 10
231.081399
 20
317.206025
 30
0.0
 11
230.931999
 21
318.142646
 31
0.0
  0
LINE
  5
306
100
AcDbEntity
  8
Layer_1
 62
3
100
AcDbLine
 10
230.931999
 20
318.142646
 30
0.0
 11
229.012787
 21
318.142646
 31
0.0
  0
LINE
  5
307
100
AcDbEntity
  8
Layer_1
 62
3
100
AcDbLine
 10
229.012787
 20
318.142646
 30
0.0
 11
229.012787
 21
311.931065
 31
0.0
  0
LINE
  5
308
100
AcDbEntity
  8
Layer_1
 62
3
100
AcDbLine
 10
229.012787
 20
311.931065
 30
0.0
 11
231.351467
 21
311.931065
 31
0.0
  0
LINE
  5
309
100
AcDbEntity
  8
Layer_1
 62
3
100
AcDbLine
 10
231.351467
 20
311.931065
 30
0.0
 11
231.351467
 21
315.579866
 31
0.0
  0
SPLINE
  5
30a
100
AcDbEntity
  8
Layer_1
 62
3
100
AcDbSpline
 70
8
 71
3
 72
8
 73
4
 74
0
 40
0
 40
0
 40
0
 40
0
 40
1
 40
1
 40
1
 40
1
 10
231.351467
 20
315.579866
 30
0.0
 10
231.351467
 20
315.710112
 30
0.0
 10
231.374452
 20
315.834611
 30
0.0
 10
231.420421
 20
315.953365
 30
0.0
  0
SPLINE
  5
30b
100
AcDbEntity
  8
Layer_1
 62
3
100
AcDbSpline
 70
8
 71
3
 72
8
 73
4
 74
0
 40
0
 40
0
 40
0
 40
0
 40
1
 40
1
 40
1
 40
1
 10
231.420421
 20
315.953365
 30
0.0
 10
231.466391
 20
316.072119
 30
0.0
 10
231.531513
 20
316.175549
 30
0.0
 10
231.615790
 20
316.263657
 30
0.0
  0
SPLINE
  5
30c
100
AcDbEntity
  8
Layer_1
 62
3
100
AcDbSpline
 70
8
 71
3
 72
8
 73
4
 74
0
 40
0
 40
0
 40
0
 40
0
 40
1
 40
1
 40
1
 40
1
 10
231.615790
 20
316.263657
 30
0.0
 10
231.703898
 20
316.355595
 30
0.0
 10
231.807329
 20
316.426464
 30
0.0
 10
231.926082
 20
316.476264
 30
0.0
  0
SPLINE
  5
30d
100
AcDbEntity
  8
Layer_1
 62
3
100
AcDbSpline
 70
8
 71
3
 72
8
 73
4
 74
0
 40
0
 40
0
 40
0
 40
0
 40
1
 40
1
 40
1
 40
1
 10
231.926082
 20
316.476264
 30
0.0
 10
232.048667
 20
316.529895
 30
0.0
 10
232.182743
 20
316.556711
 30
0.0
 10
232.328312
 20
316.556711
 30
0.0
  0
SPLINE
  5
30e
100
AcDbEntity
  8
Layer_1
 62
3
100
AcDbSpline
 70
8
 71
3
 72
8
 73
4
 74
0
 40
0
 40
0
 40
0
 40
0
 40
1
 40
1
 40
1
 40
1
 10
232.328312
 20
316.556711
 30
0.0
 10
232.592635
 20
316.556711
 30
0.0
 10
232.789919
 20
316.474349
 30
0.0
 10
232.920165
 20
316.309626
 30
0.0
  0
SPLINE
  5
30f
100
AcDbEntity
  8
Layer_1
 62
3
100
AcDbSpline
 70
8
 71
3
 72
8
 73
4
 74
0
 40
0
 40
0
 40
0
 40
0
 40
1
 40
1
 40
1
 40
1
 10
232.920165
 20
316.309626
 30
0.0
 10
233.054242
 20
316.144904
 30
0.0
 10
233.121280
 20
315.932296
 30
0.0
 10
233.121280
 20
315.671804
 30
0.0
  0
LINE
  5
310
100
AcDbEntity
  8
Layer_1
 62
3
100
AcDbLine
 10
233.121280
 20
315.671804
 30
0.0
 11
233.121280
 21
311.931065
 31
0.0
  0
LINE
  5
311
100
AcDbEntity
  8
Layer_1
 62
3
100
AcDbLine
 10
233.121280
 20
311.931065
 30
0.0
 11
235.459961
 21
311.931065
 31
0.0
  0
LINE
  5
312
100
AcDbEntity
  8
Layer_1
 62
3
100
AcDbLine
 10
235.459961
 20
311.931065
 30
0.0
 11
235.459961
 21
315.953365
 31
0.0
  0
SPLINE
  5
313
100
AcDbEntity
  8
Layer_1
 62
3
100
AcDbSpline
 70
8
 71
3
 72
8
 73
4
 74
0
 40
0
 40
0
 40
0
 40
0
 40
1
 40
1
 40
1
 40
1
 10
235.459961
 20
315.953365
 30
0.0
 10
235.459961
 20
316.321118
 30
0.0
 10
235.415907
 20
316.648649
 30
0.0
 10
235.327800
 20
316.935956
 30
0.0
  0
SPLINE
  5
314
100
AcDbEntity
  8
Layer_1
 62
3
100
AcDbSpline
 70
8
 71
3
 72
8
 73
4
 74
0
 40
0
 40
0
 40
0
 40
0
 40
1
 40
1
 40
1
 40
1
 10
235.327800
 20
316.935956
 30
0.0
 10
235.239692
 20
317.227094
 30
0.0
 10
235.105615
 20
317.472263
 30
0.0
 10
234.925569
 20
317.671462
 30
0.0
  0
SPLINE
  5
315
100
AcDbEntity
  8
Layer_1
 62
3
100
AcDbSpline
 70
8
 71
3
 72
8
 73
4
 74
0
 40
0
 40
0
 40
0
 40
0
 40
1
 40
1
 40
1
 40
1
 10
234.925569
 20
317.671462
 30
0.0
 10
234.749354
 20
317.870662
 30
0.0
 10
234.525254
 20
318.021977
 30
0.0
 10
234.253270
 20
318.125408
 30
0.0
  0
SPLINE
  5
316
100
AcDbEntity
  8
Layer_1
 62
3
100
AcDbSpline
 70
8
 71
3
 72
8
 73
4
 74
0
 40
0
 40
0
 40
0
 40
0
 40
1
 40
1
 40
1
 40
1
 10
234.253270
 20
318.125408
 30
0.0
 10
233.981286
 20
318.232669
 30
0.0
 10
233.661418
 20
318.286300
 30
0.0
 10
233.293665
 20
318.286300
 30
0.0
  0
LINE
  5
317
100
AcDbEntity
  8
Layer_1
 62
3
100
AcDbLine
 10
233.293665
 20
318.286300
 30
0.0
 11
233.293665
 21
318.286300
 31
0.0
  0
LINE
  5
318
100
AcDbEntity
  8
Layer_1
 62
3
100
AcDbLine
 10
239.298385
 20
318.142646
 30
0.0
 11
236.953958
 21
318.142646
 31
0.0
  0
LINE
  5
319
100
AcDbEntity
  8
Layer_1
 62
3
100
AcDbLine
 10
236.953958
 20
318.142646
 30
0.0
 11
236.953958
 21
311.931065
 31
0.0
  0
LINE
  5
31a
100
AcDbEntity
  8
Layer_1
 62
3
100
AcDbLine
 10
236.953958
 20
311.931065
 30
0.0
 11
239.298385
 21
311.931065
 31
0.0
  0
LINE
  5
31b
100
AcDbEntity
  8
Layer_1
 62
3
100
AcDbLine
 10
239.298385
 20
311.931065
 30
0.0
 11
239.298385
 21
318.142646
 31
0.0
  0
LINE
  5
31c
100
AcDbEntity
  8
Layer_1
 62
3
100
AcDbLine
 10
239.298385
 20
320.464088
 30
0.0
 11
236.953958
 21
320.464088
 31
0.0
  0
LINE
  5
31d
100
AcDbEntity
  8
Layer_1
 62
3
100
AcDbLine
 10
236.953958
 20
320.464088
 30
0.0
 11
236.953958
 21
318.872406
 31
0.0
  0
LINE
  5
31e
100
AcDbEntity
  8
Layer_1
 62
3
100
AcDbLine
 10
236.953958
 20
318.872406
 30
0.0
 11
239.298385
 21
318.872406
 31
0.0
  0
LINE
  5
31f
100
AcDbEntity
  8
Layer_1
 62
3
100
AcDbLine
 10
239.298385
 20
318.872406
 30
0.0
 11
239.298385
 21
320.464088
 31
0.0
  0
LINE
  5
320
100
AcDbEntity
  8
Layer_1
 62
3
100
AcDbLine
 10
243.228748
 20
320.464088
 30
0.0
 11
240.884321
 21
320.464088
 31
0.0
  0
LINE
  5
321
100
AcDbEntity
  8
Layer_1
 62
3
100
AcDbLine
 10
240.884321
 20
320.464088
 30
0.0
 11
240.884321
 21
311.931065
 31
0.0
  0
LINE
  5
322
100
AcDbEntity
  8
Layer_1
 62
3
100
AcDbLine
 10
240.884321
 20
311.931065
 30
0.0
 11
243.228748
 21
311.931065
 31
0.0
  0
LINE
  5
323
100
AcDbEntity
  8
Layer_1
 62
3
100
AcDbLine
 10
243.228748
 20
311.931065
 30
0.0
 11
243.228748
 21
320.464088
 31
0.0
  0
LINE
  5
324
100
AcDbEntity
  8
Layer_1
 62
3
100
AcDbLine
 10
247.159110
 20
320.464088
 30
0.0
 11
244.814683
 21
320.464088
 31
0.0
  0
LINE
  5
325
100
AcDbEntity
  8
Layer_1
 62
3
100
AcDbLine
 10
244.814683
 20
320.464088
 30
0.0
 11
244.814683
 21
311.931065
 31
0.0
  0
LINE
  5
326
100
AcDbEntity
  8
Layer_1
 62
3
100
AcDbLine
 10
244.814683
 20
311.931065
 30
0.0
 11
247.159110
 21
311.931065
 31
0.0
  0
LINE
  5
327
100
AcDbEntity
  8
Layer_1
 62
3
100
AcDbLine
 10
247.159110
 20
311.931065
 30
0.0
 11
247.159110
 21
320.464088
 31
0.0
  0
SPLINE
  5
328
100
AcDbEntity
  8
Layer_1
 62
3
100
AcDbSpline
 70
8
 71
3
 72
8
 73
4
 74
0
 40
0
 40
0
 40
0
 40
0
 40
1
 40
1
 40
1
 40
1
 10
251.733041
 20
318.286300
 30
0.0
 10
251.200564
 20
318.286300
 30
0.0
 10
250.731296
 20
318.240331
 30
0.0
 10
250.325235
 20
318.148392
 30
0.0
  0
SPLINE
  5
329
100
AcDbEntity
  8
Layer_1
 62
3
100
AcDbSpline
 70
8
 71
3
 72
8
 73
4
 74
0
 40
0
 40
0
 40
0
 40
0
 40
1
 40
1
 40
1
 40
1
 10
250.325235
 20
318.148392
 30
0.0
 10
249.923005
 20
318.056454
 30
0.0
 10
249.583983
 20
317.926208
 30
0.0
 10
249.308168
 20
317.757655
 30
0.0
  0
SPLINE
  5
32a
100
AcDbEntity
  8
Layer_1
 62
3
100
AcDbSpline
 70
8
 71
3
 72
8
 73
4
 74
0
 40
0
 40
0
 40
0
 40
0
 40
1
 40
1
 40
1
 40
1
 10
249.308168
 20
317.757655
 30
0.0
 10
249.036184
 20
317.589101
 30
0.0
 10
248.831238
 20
317.386070
 30
0.0
 10
248.693330
 20
317.148563
 30
0.0
  0
SPLINE
  5
32b
100
AcDbEntity
  8
Layer_1
 62
3
100
AcDbSpline
 70
8
 71
3
 72
8
 73
4
 74
0
 40
0
 40
0
 40
0
 40
0
 40
1
 40
1
 40
1
 40
1
 10
248.693330
 20
317.148563
 30
0.0
 10
248.555423
 20
316.914887
 30
0.0
 10
248.486469
 20
316.654395
 30
0.0
 10
248.486469
 20
316.367088
 30
0.0
  0
SPLINE
  5
32c
100
AcDbEntity
  8
Layer_1
 62
3
100
AcDbSpline
 70
8
 71
3
 72
8
 73
4
 74
0
 40
0
 40
0
 40
0
 40
0
 40
1
 40
1
 40
1
 40
1
 10
248.486469
 20
316.367088
 30
0.0
 10
248.486469
 20
316.336441
 30
0.0
 10
248.486469
 20
316.307711
 30
0.0
 10
248.486469
 20
316.280896
 30
0.0
  0
SPLINE
  5
32d
100
AcDbEntity
  8
Layer_1
 62
3
100
AcDbSpline
 70
8
 71
3
 72
8
 73
4
 74
0
 40
0
 40
0
 40
0
 40
0
 40
1
 40
1
 40
1
 40
1
 10
248.486469
 20
316.280896
 30
0.0
 10
248.486469
 20
316.257911
 30
0.0
 10
248.490300
 20
316.231096
 30
0.0
 10
248.497962
 20
316.200449
 30
0.0
  0
LINE
  5
32e
100
AcDbEntity
  8
Layer_1
 62
3
100
AcDbLine
 10
248.497962
 20
316.200449
 30
0.0
 11
250.807911
 21
316.200449
 31
0.0
  0
LINE
  5
32f
100
AcDbEntity
  8
Layer_1
 62
3
100
AcDbLine
 10
250.807911
 20
316.200449
 30
0.0
 11
250.807911
 21
316.252165
 31
0.0
  0
SPLINE
  5
330
100
AcDbEntity
  8
Layer_1
 62
3
100
AcDbSpline
 70
8
 71
3
 72
8
 73
4
 74
0
 40
0
 40
0
 40
0
 40
0
 40
1
 40
1
 40
1
 40
1
 10
250.807911
 20
316.252165
 30
0.0
 10
250.807911
 20
316.355595
 30
0.0
 10
250.834727
 20
316.441787
 30
0.0
 10
250.888357
 20
316.510741
 30
0.0
  0
SPLINE
  5
331
100
AcDbEntity
  8
Layer_1
 62
3
100
AcDbSpline
 70
8
 71
3
 72
8
 73
4
 74
0
 40
0
 40
0
 40
0
 40
0
 40
1
 40
1
 40
1
 40
1
 10
250.888357
 20
316.510741
 30
0.0
 10
250.941988
 20
316.579695
 30
0.0
 10
251.010942
 20
316.635241
 30
0.0
 10
251.095218
 20
316.677379
 30
0.0
  0
SPLINE
  5
332
100
AcDbEntity
  8
Layer_1
 62
3
100
AcDbSpline
 70
8
 71
3
 72
8
 73
4
 74
0
 40
0
 40
0
 40
0
 40
0
 40
1
 40
1
 40
1
 40
1
 10
251.095218
 20
316.677379
 30
0.0
 10
251.183326
 20
316.719518
 30
0.0
 10
251.279095
 20
316.748249
 30
0.0
 10
251.382526
 20
316.763572
 30
0.0
  0
SPLINE
  5
333
100
AcDbEntity
  8
Layer_1
 62
3
100
AcDbSpline
 70
8
 71
3
 72
8
 73
4
 74
0
 40
0
 40
0
 40
0
 40
0
 40
1
 40
1
 40
1
 40
1
 10
251.382526
 20
316.763572
 30
0.0
 10
251.489787
 20
316.782725
 30
0.0
 10
251.595133
 20
316.792302
 30
0.0
 10
251.698564
 20
316.792302
 30
0.0
  0
SPLINE
  5
334
100
AcDbEntity
  8
Layer_1
 62
3
100
AcDbSpline
 70
8
 71
3
 72
8
 73
4
 74
0
 40
0
 40
0
 40
0
 40
0
 40
1
 40
1
 40
1
 40
1
 10
251.698564
 20
316.792302
 30
0.0
 10
251.824979
 20
316.792302
 30
0.0
 10
251.943733
 20
316.776979
 30
0.0
 10
252.054825
 20
316.746333
 30
0.0
  0
SPLINE
  5
335
100
AcDbEntity
  8
Layer_1
 62
3
100
AcDbSpline
 70
8
 71
3
 72
8
 73
4
 74
0
 40
0
 40
0
 40
0
 40
0
 40
1
 40
1
 40
1
 40
1
 10
252.054825
 20
316.746333
 30
0.0
 10
252.165917
 20
316.715687
 30
0.0
 10
252.261686
 20
316.669718
 30
0.0
 10
252.342132
 20
316.608425
 30
0.0
  0
SPLINE
  5
336
100
AcDbEntity
  8
Layer_1
 62
3
100
AcDbSpline
 70
8
 71
3
 72
8
 73
4
 74
0
 40
0
 40
0
 40
0
 40
0
 40
1
 40
1
 40
1
 40
1
 10
252.342132
 20
316.608425
 30
0.0
 10
252.422578
 20
316.550964
 30
0.0
 10
252.485785
 20
316.474349
 30
0.0
 10
252.531755
 20
316.378580
 30
0.0
  0
SPLINE
  5
337
100
AcDbEntity
  8
Layer_1
 62
3
100
AcDbSpline
 70
8
 71
3
 72
8
 73
4
 74
0
 40
0
 40
0
 40
0
 40
0
 40
1
 40
1
 40
1
 40
1
 10
252.531755
 20
316.378580
 30
0.0
 10
252.581555
 20
316.286641
 30
0.0
 10
252.606455
 20
316.177465
 30
0.0
 10
252.606455
 20
316.051050
 30
0.0
  0
LINE
  5
338
100
AcDbEntity
  8
Layer_1
 62
3
100
AcDbLine
 10
252.606455
 20
316.051050
 30
0.0
 11
252.606455
 21
315.746504
 31
0.0
  0
SPLINE
  5
339
100
AcDbEntity
  8
Layer_1
 62
3
100
AcDbSpline
 70
8
 71
3
 72
8
 73
4
 74
0
 40
0
 40
0
 40
0
 40
0
 40
1
 40
1
 40
1
 40
1
 10
252.606455
 20
315.746504
 30
0.0
 10
251.928410
 20
315.746504
 30
0.0
 10
251.323149
 20
315.717773
 30
0.0
 10
250.790673
 20
315.660312
 30
0.0
  0
SPLINE
  5
33a
100
AcDbEntity
  8
Layer_1
 62
3
100
AcDbSpline
 70
8
 71
3
 72
8
 73
4
 74
0
 40
0
 40
0
 40
0
 40
0
 40
1
 40
1
 40
1
 40
1
 10
250.790673
 20
315.660312
 30
0.0
 10
250.258197
 20
315.606681
 30
0.0
 10
249.808082
 20
315.499420
 30
0.0
 10
249.440329
 20
315.338528
 30
0.0
  0
SPLINE
  5
33b
100
AcDbEntity
  8
Layer_1
 62
3
100
AcDbSpline
 70
8
 71
3
 72
8
 73
4
 74
0
 40
0
 40
0
 40
0
 40
0
 40
1
 40
1
 40
1
 40
1
 10
249.440329
 20
315.338528
 30
0.0
 10
249.072576
 20
315.177636
 30
0.0
 10
248.791015
 20
314.951621
 30
0.0
 10
248.595646
 20
314.660483
 30
0.0
  0
SPLINE
  5
33c
100
AcDbEntity
  8
Layer_1
 62
3
100
AcDbSpline
 70
8
 71
3
 72
8
 73
4
 74
0
 40
0
 40
0
 40
0
 40
0
 40
1
 40
1
 40
1
 40
1
 10
248.595646
 20
314.660483
 30
0.0
 10
248.404108
 20
314.373176
 30
0.0
 10
248.308339
 20
313.997761
 30
0.0
 10
248.308339
 20
313.534239
 30
0.0
  0
SPLINE
  5
33d
100
AcDbEntity
  8
Layer_1
 62
3
100
AcDbSpline
 70
8
 71
3
 72
8
 73
4
 74
0
 40
0
 40
0
 40
0
 40
0
 40
1
 40
1
 40
1
 40
1
 10
248.308339
 20
313.534239
 30
0.0
 10
248.308339
 20
313.208624
 30
0.0
 10
248.361970
 20
312.934724
 30
0.0
 10
248.469231
 20
312.712540
 30
0.0
  0
SPLINE
  5
33e
100
AcDbEntity
  8
Layer_1
 62
3
100
AcDbSpline
 70
8
 71
3
 72
8
 73
4
 74
0
 40
0
 40
0
 40
0
 40
0
 40
1
 40
1
 40
1
 40
1
 10
248.469231
 20
312.712540
 30
0.0
 10
248.576492
 20
312.490356
 30
0.0
 10
248.725892
 20
312.310310
 30
0.0
 10
248.917430
 20
312.172402
 30
0.0
  0
SPLINE
  5
33f
100
AcDbEntity
  8
Layer_1
 62
3
100
AcDbSpline
 70
8
 71
3
 72
8
 73
4
 74
0
 40
0
 40
0
 40
0
 40
0
 40
1
 40
1
 40
1
 40
1
 10
248.917430
 20
312.172402
 30
0.0
 10
249.108968
 20
312.034495
 30
0.0
 10
249.338814
 20
311.936811
 30
0.0
 10
249.606967
 20
311.879349
 30
0.0
  0
SPLINE
  5
340
100
AcDbEntity
  8
Layer_1
 62
3
100
AcDbSpline
 70
8
 71
3
 72
8
 73
4
 74
0
 40
0
 40
0
 40
0
 40
0
 40
1
 40
1
 40
1
 40
1
 10
249.606967
 20
311.879349
 30
0.0
 10
249.878951
 20
311.818057
 30
0.0
 10
250.175835
 20
311.787411
 30
0.0
 10
250.497620
 20
311.787411
 30
0.0
  0
SPLINE
  5
341
100
AcDbEntity
  8
Layer_1
 62
3
100
AcDbSpline
 70
8
 71
3
 72
8
 73
4
 74
0
 40
0
 40
0
 40
0
 40
0
 40
1
 40
1
 40
1
 40
1
 10
250.497620
 20
311.787411
 30
0.0
 10
250.769604
 20
311.787411
 30
0.0
 10
251.016688
 20
311.808480
 30
0.0
 10
251.238872
 20
311.850619
 30
0.0
  0
SPLINE
  5
342
100
AcDbEntity
  8
Layer_1
 62
3
100
AcDbSpline
 70
8
 71
3
 72
8
 73
4
 74
0
 40
0
 40
0
 40
0
 40
0
 40
1
 40
1
 40
1
 40
1
 10
251.238872
 20
311.850619
 30
0.0
 10
251.464887
 20
311.892757
 30
0.0
 10
251.671748
 20
311.950218
 30
0.0
 10
251.859456
 20
312.023003
 30
0.0
  0
SPLINE
  5
343
100
AcDbEntity
  8
Layer_1
 62
3
100
AcDbSpline
 70
8
 71
3
 72
8
 73
4
 74
0
 40
0
 40
0
 40
0
 40
0
 40
1
 40
1
 40
1
 40
1
 10
251.859456
 20
312.023003
 30
0.0
 10
252.047163
 20
312.095787
 30
0.0
 10
252.217632
 20
312.178149
 30
0.0
 10
252.370863
 20
312.270087
 30
0.0
  0
SPLINE
  5
344
100
AcDbEntity
  8
Layer_1
 62
3
100
AcDbSpline
 70
8
 71
3
 72
8
 73
4
 74
0
 40
0
 40
0
 40
0
 40
0
 40
1
 40
1
 40
1
 40
1
 10
252.370863
 20
312.270087
 30
0.0
 10
252.524093
 20
312.365856
 30
0.0
 10
252.665832
 20
312.465456
 30
0.0
 10
252.796077
 20
312.568887
 30
0.0
  0
SPLINE
  5
345
100
AcDbEntity
  8
Layer_1
 62
3
100
AcDbSpline
 70
8
 71
3
 72
8
 73
4
 74
0
 40
0
 40
0
 40
0
 40
0
 40
1
 40
1
 40
1
 40
1
 10
252.796077
 20
312.568887
 30
0.0
 10
252.903338
 20
312.331379
 30
0.0
 10
253.098707
 20
312.141757
 30
0.0
 10
253.382184
 20
312.000018
 30
0.0
  0
SPLINE
  5
346
100
AcDbEntity
  8
Layer_1
 62
3
100
AcDbSpline
 70
8
 71
3
 72
8
 73
4
 74
0
 40
0
 40
0
 40
0
 40
0
 40
1
 40
1
 40
1
 40
1
 10
253.382184
 20
312.000018
 30
0.0
 10
253.669491
 20
311.858280
 30
0.0
 10
254.050652
 20
311.787411
 30
0.0
 10
254.525667
 20
311.787411
 30
0.0
  0
SPLINE
  5
347
100
AcDbEntity
  8
Layer_1
 62
3
100
AcDbSpline
 70
8
 71
3
 72
8
 73
4
 74
0
 40
0
 40
0
 40
0
 40
0
 40
1
 40
1
 40
1
 40
1
 10
254.525667
 20
311.787411
 30
0.0
 10
254.721036
 20
311.787411
 30
0.0
 10
254.895335
 20
311.798903
 30
0.0
 10
255.048566
 20
311.821887
 30
0.0
  0
SPLINE
  5
348
100
AcDbEntity
  8
Layer_1
 62
3
100
AcDbSpline
 70
8
 71
3
 72
8
 73
4
 74
0
 40
0
 40
0
 40
0
 40
0
 40
1
 40
1
 40
1
 40
1
 10
255.048566
 20
311.821887
 30
0.0
 10
255.201796
 20
311.844872
 30
0.0
 10
255.330127
 20
311.871688
 30
0.0
 10
255.433557
 20
311.902334
 30
0.0
  0
SPLINE
  5
349
100
AcDbEntity
  8
Layer_1
 62
3
100
AcDbSpline
 70
8
 71
3
 72
8
 73
4
 74
0
 40
0
 40
0
 40
0
 40
0
 40
1
 40
1
 40
1
 40
1
 10
255.433557
 20
311.902334
 30
0.0
 10
255.556142
 20
311.936811
 30
0.0
 10
255.661488
 20
311.977034
 30
0.0
 10
255.749595
 20
312.023003
 30
0.0
  0
LINE
  5
34a
100
AcDbEntity
  8
Layer_1
 62
3
100
AcDbLine
 10
255.749595
 20
312.023003
 30
0.0
 11
255.749595
 21
313.379093
 31
0.0
  0
LINE
  5
34b
100
AcDbEntity
  8
Layer_1
 62
3
100
AcDbLine
 10
255.749595
 20
313.379093
 30
0.0
 11
255.324380
 21
313.379093
 31
0.0
  0
SPLINE
  5
34c
100
AcDbEntity
  8
Layer_1
 62
3
100
AcDbSpline
 70
8
 71
3
 72
8
 73
4
 74
0
 40
0
 40
0
 40
0
 40
0
 40
1
 40
1
 40
1
 40
1
 10
255.324380
 20
313.379093
 30
0.0
 10
255.194135
 20
313.379093
 30
0.0
 10
255.098366
 20
313.423146
 30
0.0
 10
255.037073
 20
313.511254
 30
0.0
  0
SPLINE
  5
34d
100
AcDbEntity
  8
Layer_1
 62
3
100
AcDbSpline
 70
8
 71
3
 72
8
 73
4
 74
0
 40
0
 40
0
 40
0
 40
0
 40
1
 40
1
 40
1
 40
1
 10
255.037073
 20
313.511254
 30
0.0
 10
254.979612
 20
313.599362
 30
0.0
 10
254.950881
 20
313.708538
 30
0.0
 10
254.950881
 20
313.838784
 30
0.0
  0
LINE
  5
34e
100
AcDbEntity
  8
Layer_1
 62
3
100
AcDbLine
 10
254.950881
 20
313.838784
 30
0.0
 11
254.950881
 21
316.263657
 31
0.0
  0
SPLINE
  5
34f
100
AcDbEntity
  8
Layer_1
 62
3
100
AcDbSpline
 70
8
 71
3
 72
8
 73
4
 74
0
 40
0
 40
0
 40
0
 40
0
 40
1
 40
1
 40
1
 40
1
 10
254.950881
 20
316.263657
 30
0.0
 10
254.950881
 20
316.646733
 30
0.0
 10
254.862774
 20
316.966602
 30
0.0
 10
254.686558
 20
317.223263
 30
0.0
  0
SPLINE
  5
350
100
AcDbEntity
  8
Layer_1
 62
3
100
AcDbSpline
 70
8
 71
3
 72
8
 73
4
 74
0
 40
0
 40
0
 40
0
 40
0
 40
1
 40
1
 40
1
 40
1
 10
254.686558
 20
317.223263
 30
0.0
 10
254.514174
 20
317.483755
 30
0.0
 10
254.278582
 20
317.692531
 30
0.0
 10
253.979783
 20
317.849593
 30
0.0
  0
SPLINE
  5
351
100
AcDbEntity
  8
Layer_1
 62
3
100
AcDbSpline
 70
8
 71
3
 72
8
 73
4
 74
0
 40
0
 40
0
 40
0
 40
0
 40
1
 40
1
 40
1
 40
1
 10
253.979783
 20
317.849593
 30
0.0
 10
253.684814
 20
318.006654
 30
0.0
 10
253.341961
 20
318.117747
 30
0.0
 10
252.951223
 20
318.182869
 30
0.0
  0
SPLINE
  5
352
100
AcDbEntity
  8
Layer_1
 62
3
100
AcDbSpline
 70
8
 71
3
 72
8
 73
4
 74
0
 40
0
 40
0
 40
0
 40
0
 40
1
 40
1
 40
1
 40
1
 10
252.951223
 20
318.182869
 30
0.0
 10
252.564316
 20
318.251823
 30
0.0
 10
252.158255
 20
318.286300
 30
0.0
 10
251.733041
 20
318.286300
 30
0.0
  0
LINE
  5
353
100
AcDbEntity
  8
Layer_1
 62
3
100
AcDbLine
 10
251.733041
 20
318.286300
 30
0.0
 11
251.733041
 21
318.286300
 31
0.0
  0
SPLINE
  5
354
100
AcDbEntity
  8
Layer_1
 62
3
100
AcDbSpline
 70
8
 71
3
 72
8
 73
4
 74
0
 40
0
 40
0
 40
0
 40
0
 40
1
 40
1
 40
1
 40
1
 10
252.606455
 20
314.108853
 30
0.0
 10
252.606455
 20
313.982438
 30
0.0
 10
252.573893
 20
313.865599
 30
0.0
 10
252.508770
 20
313.758338
 30
0.0
  0
SPLINE
  5
355
100
AcDbEntity
  8
Layer_1
 62
3
100
AcDbSpline
 70
8
 71
3
 72
8
 73
4
 74
0
 40
0
 40
0
 40
0
 40
0
 40
1
 40
1
 40
1
 40
1
 10
252.508770
 20
313.758338
 30
0.0
 10
252.447478
 20
313.654908
 30
0.0
 10
252.363201
 20
313.564885
 30
0.0
 10
252.255940
 20
313.488270
 30
0.0
  0
SPLINE
  5
356
100
AcDbEntity
  8
Layer_1
 62
3
100
AcDbSpline
 70
8
 71
3
 72
8
 73
4
 74
0
 40
0
 40
0
 40
0
 40
0
 40
1
 40
1
 40
1
 40
1
 10
252.255940
 20
313.488270
 30
0.0
 10
252.148678
 20
313.411654
 30
0.0
 10
252.024179
 20
313.352277
 30
0.0
 10
251.882441
 20
313.310139
 30
0.0
  0
SPLINE
  5
357
100
AcDbEntity
  8
Layer_1
 62
3
100
AcDbSpline
 70
8
 71
3
 72
8
 73
4
 74
0
 40
0
 40
0
 40
0
 40
0
 40
1
 40
1
 40
1
 40
1
 10
251.882441
 20
313.310139
 30
0.0
 10
251.744533
 20
313.268001
 30
0.0
 10
251.600879
 20
313.246932
 30
0.0
 10
251.451479
 20
313.246932
 30
0.0
  0
SPLINE
  5
358
100
AcDbEntity
  8
Layer_1
 62
3
100
AcDbSpline
 70
8
 71
3
 72
8
 73
4
 74
0
 40
0
 40
0
 40
0
 40
0
 40
1
 40
1
 40
1
 40
1
 10
251.451479
 20
313.246932
 30
0.0
 10
251.351880
 20
313.246932
 30
0.0
 10
251.254195
 20
313.254593
 30
0.0
 10
251.158426
 20
313.269916
 30
0.0
  0
SPLINE
  5
359
100
AcDbEntity
  8
Layer_1
 62
3
100
AcDbSpline
 70
8
 71
3
 72
8
 73
4
 74
0
 40
0
 40
0
 40
0
 40
0
 40
1
 40
1
 40
1
 40
1
 10
251.158426
 20
313.269916
 30
0.0
 10
251.062657
 20
313.289070
 30
0.0
 10
250.976465
 20
313.319716
 30
0.0
 10
250.899850
 20
313.361854
 30
0.0
  0
SPLINE
  5
35a
100
AcDbEntity
  8
Layer_1
 62
3
100
AcDbSpline
 70
8
 71
3
 72
8
 73
4
 74
0
 40
0
 40
0
 40
0
 40
0
 40
1
 40
1
 40
1
 40
1
 10
250.899850
 20
313.361854
 30
0.0
 10
250.827065
 20
313.403993
 30
0.0
 10
250.767688
 20
313.463370
 30
0.0
 10
250.721719
 20
313.539985
 30
0.0
  0
SPLINE
  5
35b
100
AcDbEntity
  8
Layer_1
 62
3
100
AcDbSpline
 70
8
 71
3
 72
8
 73
4
 74
0
 40
0
 40
0
 40
0
 40
0
 40
1
 40
1
 40
1
 40
1
 10
250.721719
 20
313.539985
 30
0.0
 10
250.675750
 20
313.616600
 30
0.0
 10
250.652765
 20
313.716200
 30
0.0
 10
250.652765
 20
313.838784
 30
0.0
  0
SPLINE
  5
35c
100
AcDbEntity
  8
Layer_1
 62
3
100
AcDbSpline
 70
8
 71
3
 72
8
 73
4
 74
0
 40
0
 40
0
 40
0
 40
0
 40
1
 40
1
 40
1
 40
1
 10
250.652765
 20
313.838784
 30
0.0
 10
250.652765
 20
313.953707
 30
0.0
 10
250.689158
 20
314.059053
 30
0.0
 10
250.761943
 20
314.154822
 30
0.0
  0
SPLINE
  5
35d
100
AcDbEntity
  8
Layer_1
 62
3
100
AcDbSpline
 70
8
 71
3
 72
8
 73
4
 74
0
 40
0
 40
0
 40
0
 40
0
 40
1
 40
1
 40
1
 40
1
 10
250.761943
 20
314.154822
 30
0.0
 10
250.834727
 20
314.254422
 30
0.0
 10
250.949650
 20
314.338699
 30
0.0
 10
251.106711
 20
314.407653
 30
0.0
  0
SPLINE
  5
35e
100
AcDbEntity
  8
Layer_1
 62
3
100
AcDbSpline
 70
8
 71
3
 72
8
 73
4
 74
0
 40
0
 40
0
 40
0
 40
0
 40
1
 40
1
 40
1
 40
1
 10
251.106711
 20
314.407653
 30
0.0
 10
251.263772
 20
314.480437
 30
0.0
 10
251.464887
 20
314.535983
 30
0.0
 10
251.710056
 20
314.574291
 30
0.0
  0
SPLINE
  5
35f
100
AcDbEntity
  8
Layer_1
 62
3
100
AcDbSpline
 70
8
 71
3
 72
8
 73
4
 74
0
 40
0
 40
0
 40
0
 40
0
 40
1
 40
1
 40
1
 40
1
 10
251.710056
 20
314.574291
 30
0.0
 10
251.959056
 20
314.616429
 30
0.0
 10
252.257855
 20
314.637498
 30
0.0
 10
252.606455
 20
314.637498
 30
0.0
  0
LINE
  5
360
100
AcDbEntity
  8
Layer_1
 62
3
100
AcDbLine
 10
252.606455
 20
314.637498
 30
0.0
 11
252.606455
 21
314.108853
 31
0.0
  0
LINE
  5
361
100
AcDbEntity
  8
Layer_1
 62
3
100
AcDbLine
 10
258.990420
 20
320.464088
 30
0.0
 11
256.651740
 21
320.464088
 31
0.0
  0
LINE
  5
362
100
AcDbEntity
  8
Layer_1
 62
3
100
AcDbLine
 10
256.651740
 20
320.464088
 30
0.0
 11
256.651740
 21
311.931065
 31
0.0
  0
LINE
  5
363
100
AcDbEntity
  8
Layer_1
 62
3
100
AcDbLine
 10
256.651740
 20
311.931065
 30
0.0
 11
258.559459
 21
311.931065
 31
0.0
  0
LINE
  5
364
100
AcDbEntity
  8
Layer_1
 62
3
100
AcDbLine
 10
258.559459
 20
311.931065
 30
0.0
 11
258.760575
 21
312.815971
 31
0.0
  0
SPLINE
  5
365
100
AcDbEntity
  8
Layer_1
 62
3
100
AcDbSpline
 70
8
 71
3
 72
8
 73
4
 74
0
 40
0
 40
0
 40
0
 40
0
 40
1
 40
1
 40
1
 40
1
 10
258.760575
 20
312.815971
 30
0.0
 10
258.990420
 20
312.467371
 30
0.0
 10
259.271981
 20
312.208795
 30
0.0
 10
259.605258
 20
312.040241
 30
0.0
  0
SPLINE
  5
366
100
AcDbEntity
  8
Layer_1
 62
3
100
AcDbSpline
 70
8
 71
3
 72
8
 73
4
 74
0
 40
0
 40
0
 40
0
 40
0
 40
1
 40
1
 40
1
 40
1
 10
259.605258
 20
312.040241
 30
0.0
 10
259.938534
 20
311.871688
 30
0.0
 10
260.315864
 20
311.787411
 30
0.0
 10
260.737248
 20
311.787411
 30
0.0
  0
SPLINE
  5
367
100
AcDbEntity
  8
Layer_1
 62
3
100
AcDbSpline
 70
8
 71
3
 72
8
 73
4
 74
0
 40
0
 40
0
 40
0
 40
0
 40
1
 40
1
 40
1
 40
1
 10
260.737248
 20
311.787411
 30
0.0
 10
261.147140
 20
311.787411
 30
0.0
 10
261.514893
 20
311.854449
 30
0.0
 10
261.840508
 20
311.988526
 30
0.0
  0
SPLINE
  5
368
100
AcDbEntity
  8
Layer_1
 62
3
100
AcDbSpline
 70
8
 71
3
 72
8
 73
4
 74
0
 40
0
 40
0
 40
0
 40
0
 40
1
 40
1
 40
1
 40
1
 10
261.840508
 20
311.988526
 30
0.0
 10
262.166123
 20
312.122602
 30
0.0
 10
262.440022
 20
312.325633
 30
0.0
 10
262.662207
 20
312.597617
 30
0.0
  0
SPLINE
  5
369
100
AcDbEntity
  8
Layer_1
 62
3
100
AcDbSpline
 70
8
 71
3
 72
8
 73
4
 74
0
 40
0
 40
0
 40
0
 40
0
 40
1
 40
1
 40
1
 40
1
 10
262.662207
 20
312.597617
 30
0.0
 10
262.888222
 20
312.869601
 30
0.0
 10
263.060606
 20
313.208624
 30
0.0
 10
263.179360
 20
313.614685
 30
0.0
  0
SPLINE
  5
36a
100
AcDbEntity
  8
Layer_1
 62
3
100
AcDbSpline
 70
8
 71
3
 72
8
 73
4
 74
0
 40
0
 40
0
 40
0
 40
0
 40
1
 40
1
 40
1
 40
1
 10
263.179360
 20
313.614685
 30
0.0
 10
263.298113
 20
314.024576
 30
0.0
 10
263.357490
 20
314.503422
 30
0.0
 10
263.357490
 20
315.051221
 30
0.0
  0
SPLINE
  5
36b
100
AcDbEntity
  8
Layer_1
 62
3
100
AcDbSpline
 70
8
 71
3
 72
8
 73
4
 74
0
 40
0
 40
0
 40
0
 40
0
 40
1
 40
1
 40
1
 40
1
 10
263.357490
 20
315.051221
 30
0.0
 10
263.357490
 20
315.591358
 30
0.0
 10
263.298113
 20
316.064457
 30
0.0
 10
263.179360
 20
316.470518
 30
0.0
  0
SPLINE
  5
36c
100
AcDbEntity
  8
Layer_1
 62
3
100
AcDbSpline
 70
8
 71
3
 72
8
 73
4
 74
0
 40
0
 40
0
 40
0
 40
0
 40
1
 40
1
 40
1
 40
1
 10
263.179360
 20
316.470518
 30
0.0
 10
263.060606
 20
316.876579
 30
0.0
 10
262.888222
 20
317.213686
 30
0.0
 10
262.662207
 20
317.481840
 30
0.0
  0
SPLINE
  5
36d
100
AcDbEntity
  8
Layer_1
 62
3
100
AcDbSpline
 70
8
 71
3
 72
8
 73
4
 74
0
 40
0
 40
0
 40
0
 40
0
 40
1
 40
1
 40
1
 40
1
 10
262.662207
 20
317.481840
 30
0.0
 10
262.440022
 20
317.749993
 30
0.0
 10
262.166123
 20
317.951108
 30
0.0
 10
261.840508
 20
318.085185
 30
0.0
  0
SPLINE
  5
36e
100
AcDbEntity
  8
Layer_1
 62
3
100
AcDbSpline
 70
8
 71
3
 72
8
 73
4
 74
0
 40
0
 40
0
 40
0
 40
0
 40
1
 40
1
 40
1
 40
1
 10
261.840508
 20
318.085185
 30
0.0
 10
261.514893
 20
318.219262
 30
0.0
 10
261.147140
 20
318.286300
 30
0.0
 10
260.737248
 20
318.286300
 30
0.0
  0
SPLINE
  5
36f
100
AcDbEntity
  8
Layer_1
 62
3
100
AcDbSpline
 70
8
 71
3
 72
8
 73
4
 74
0
 40
0
 40
0
 40
0
 40
0
 40
1
 40
1
 40
1
 40
1
 10
260.737248
 20
318.286300
 30
0.0
 10
260.380987
 20
318.286300
 30
0.0
 10
260.057288
 20
318.226923
 30
0.0
 10
259.766150
 20
318.108169
 30
0.0
  0
SPLINE
  5
370
100
AcDbEntity
  8
Layer_1
 62
3
100
AcDbSpline
 70
8
 71
3
 72
8
 73
4
 74
0
 40
0
 40
0
 40
0
 40
0
 40
1
 40
1
 40
1
 40
1
 10
259.766150
 20
318.108169
 30
0.0
 10
259.475012
 20
317.989416
 30
0.0
 10
259.216436
 20
317.809370
 30
0.0
 10
258.990420
 20
317.568032
 30
0.0
  0
LINE
  5
371
100
AcDbEntity
  8
Layer_1
 62
3
100
AcDbLine
 10
258.990420
 20
317.568032
 30
0.0
 11
258.990420
 21
320.464088
 31
0.0
  0
SPLINE
  5
372
100
AcDbEntity
  8
Layer_1
 62
3
100
AcDbSpline
 70
8
 71
3
 72
8
 73
4
 74
0
 40
0
 40
0
 40
0
 40
0
 40
1
 40
1
 40
1
 40
1
 10
260.007488
 20
316.556711
 30
0.0
 10
260.191365
 20
316.556711
 30
0.0
 10
260.346510
 20
316.527980
 30
0.0
 10
260.472926
 20
316.470518
 30
0.0
  0
SPLINE
  5
373
100
AcDbEntity
  8
Layer_1
 62
3
100
AcDbSpline
 70
8
 71
3
 72
8
 73
4
 74
0
 40
0
 40
0
 40
0
 40
0
 40
1
 40
1
 40
1
 40
1
 10
260.472926
 20
316.470518
 30
0.0
 10
260.603171
 20
316.413057
 30
0.0
 10
260.708518
 20
316.330695
 30
0.0
 10
260.788964
 20
316.223434
 30
0.0
  0
SPLINE
  5
374
100
AcDbEntity
  8
Layer_1
 62
3
100
AcDbSpline
 70
8
 71
3
 72
8
 73
4
 74
0
 40
0
 40
0
 40
0
 40
0
 40
1
 40
1
 40
1
 40
1
 10
260.788964
 20
316.223434
 30
0.0
 10
260.869410
 20
316.116173
 30
0.0
 10
260.926871
 20
315.987842
 30
0.0
 10
260.961348
 20
315.838442
 30
0.0
  0
SPLINE
  5
375
100
AcDbEntity
  8
Layer_1
 62
3
100
AcDbSpline
 70
8
 71
3
 72
8
 73
4
 74
0
 40
0
 40
0
 40
0
 40
0
 40
1
 40
1
 40
1
 40
1
 10
260.961348
 20
315.838442
 30
0.0
 10
260.999656
 20
315.692874
 30
0.0
 10
261.018809
 20
315.528151
 30
0.0
 10
261.018809
 20
315.344274
 30
0.0
  0
LINE
  5
376
100
AcDbEntity
  8
Layer_1
 62
3
100
AcDbLine
 10
261.018809
 20
315.344274
 30
0.0
 11
261.018809
 21
314.717944
 31
0.0
  0
SPLINE
  5
377
100
AcDbEntity
  8
Layer_1
 62
3
100
AcDbSpline
 70
8
 71
3
 72
8
 73
4
 74
0
 40
0
 40
0
 40
0
 40
0
 40
1
 40
1
 40
1
 40
1
 10
261.018809
 20
314.717944
 30
0.0
 10
261.018809
 20
314.534068
 30
0.0
 10
260.999656
 20
314.367430
 30
0.0
 10
260.961348
 20
314.218030
 30
0.0
  0
SPLINE
  5
378
100
AcDbEntity
  8
Layer_1
 62
3
100
AcDbSpline
 70
8
 71
3
 72
8
 73
4
 74
0
 40
0
 40
0
 40
0
 40
0
 40
1
 40
1
 40
1
 40
1
 10
260.961348
 20
314.218030
 30
0.0
 10
260.926871
 20
314.072461
 30
0.0
 10
260.869410
 20
313.947961
 30
0.0
 10
260.788964
 20
313.844530
 30
0.0
  0
SPLINE
  5
379
100
AcDbEntity
  8
Layer_1
 62
3
100
AcDbSpline
 70
8
 71
3
 72
8
 73
4
 74
0
 40
0
 40
0
 40
0
 40
0
 40
1
 40
1
 40
1
 40
1
 10
260.788964
 20
313.844530
 30
0.0
 10
260.708518
 20
313.741100
 30
0.0
 10
260.603171
 20
313.660654
 30
0.0
 10
260.472926
 20
313.603193
 30
0.0
  0
SPLINE
  5
37a
100
AcDbEntity
  8
Layer_1
 62
3
100
AcDbSpline
 70
8
 71
3
 72
8
 73
4
 74
0
 40
0
 40
0
 40
0
 40
0
 40
1
 40
1
 40
1
 40
1
 10
260.472926
 20
313.603193
 30
0.0
 10
260.346510
 20
313.545731
 30
0.0
 10
260.191365
 20
313.517000
 30
0.0
 10
260.007488
 20
313.517000
 30
0.0
  0
SPLINE
  5
37b
100
AcDbEntity
  8
Layer_1
 62
3
100
AcDbSpline
 70
8
 71
3
 72
8
 73
4
 74
0
 40
0
 40
0
 40
0
 40
0
 40
1
 40
1
 40
1
 40
1
 10
260.007488
 20
313.517000
 30
0.0
 10
259.823611
 20
313.517000
 30
0.0
 10
259.666550
 20
313.551477
 30
0.0
 10
259.536304
 20
313.620431
 30
0.0
  0
SPLINE
  5
37c
100
AcDbEntity
  8
Layer_1
 62
3
100
AcDbSpline
 70
8
 71
3
 72
8
 73
4
 74
0
 40
0
 40
0
 40
0
 40
0
 40
1
 40
1
 40
1
 40
1
 10
259.536304
 20
313.620431
 30
0.0
 10
259.406058
 20
313.689385
 30
0.0
 10
259.298797
 20
313.783238
 30
0.0
 10
259.214520
 20
313.901992
 30
0.0
  0
SPLINE
  5
37d
100
AcDbEntity
  8
Layer_1
 62
3
100
AcDbSpline
 70
8
 71
3
 72
8
 73
4
 74
0
 40
0
 40
0
 40
0
 40
0
 40
1
 40
1
 40
1
 40
1
 10
259.214520
 20
313.901992
 30
0.0
 10
259.130243
 20
314.024576
 30
0.0
 10
259.067036
 20
314.164399
 30
0.0
 10
259.024897
 20
314.321461
 30
0.0
  0
SPLINE
  5
37e
100
AcDbEntity
  8
Layer_1
 62
3
100
AcDbSpline
 70
8
 71
3
 72
8
 73
4
 74
0
 40
0
 40
0
 40
0
 40
0
 40
1
 40
1
 40
1
 40
1
 10
259.024897
 20
314.321461
 30
0.0
 10
258.986590
 20
314.482352
 30
0.0
 10
258.967436
 20
314.654737
 30
0.0
 10
258.967436
 20
314.838613
 30
0.0
  0
LINE
  5
37f
100
AcDbEntity
  8
Layer_1
 62
3
100
AcDbLine
 10
258.967436
 20
314.838613
 30
0.0
 11
258.967436
 21
315.223605
 31
0.0
  0
SPLINE
  5
380
100
AcDbEntity
  8
Layer_1
 62
3
100
AcDbSpline
 70
8
 71
3
 72
8
 73
4
 74
0
 40
0
 40
0
 40
0
 40
0
 40
1
 40
1
 40
1
 40
1
 10
258.967436
 20
315.223605
 30
0.0
 10
258.967436
 20
315.407481
 30
0.0
 10
258.986590
 20
315.579866
 30
0.0
 10
259.024897
 20
315.740758
 30
0.0
  0
SPLINE
  5
381
100
AcDbEntity
  8
Layer_1
 62
3
100
AcDbSpline
 70
8
 71
3
 72
8
 73
4
 74
0
 40
0
 40
0
 40
0
 40
0
 40
1
 40
1
 40
1
 40
1
 10
259.024897
 20
315.740758
 30
0.0
 10
259.067036
 20
315.901650
 30
0.0
 10
259.130243
 20
316.041473
 30
0.0
 10
259.214520
 20
316.160227
 30
0.0
  0
SPLINE
  5
382
100
AcDbEntity
  8
Layer_1
 62
3
100
AcDbSpline
 70
8
 71
3
 72
8
 73
4
 74
0
 40
0
 40
0
 40
0
 40
0
 40
1
 40
1
 40
1
 40
1
 10
259.214520
 20
316.160227
 30
0.0
 10
259.298797
 20
316.282811
 30
0.0
 10
259.406058
 20
316.378580
 30
0.0
 10
259.536304
 20
316.447534
 30
0.0
  0
SPLINE
  5
383
100
AcDbEntity
  8
Layer_1
 62
3
100
AcDbSpline
 70
8
 71
3
 72
8
 73
4
 74
0
 40
0
 40
0
 40
0
 40
0
 40
1
 40
1
 40
1
 40
1
 10
259.536304
 20
316.447534
 30
0.0
 10
259.666550
 20
316.520318
 30
0.0
 10
259.823611
 20
316.556711
 30
0.0
 10
260.007488
 20
316.556711
 30
0.0
  0
LINE
  5
384
100
AcDbEntity
  8
Layer_1
 62
3
100
AcDbLine
 10
260.007488
 20
316.556711
 30
0.0
 11
260.007488
 21
316.556711
 31
0.0
  0
SPLINE
  5
385
100
AcDbEntity
  8
Layer_1
 62
3
100
AcDbSpline
 70
8
 71
3
 72
8
 73
4
 74
0
 40
0
 40
0
 40
0
 40
0
 40
1
 40
1
 40
1
 40
1
 10
267.713067
 20
318.286300
 30
0.0
 10
267.184422
 20
318.286300
 30
0.0
 10
266.703663
 20
318.219262
 30
0.0
 10
266.270788
 20
318.085185
 30
0.0
  0
SPLINE
  5
386
100
AcDbEntity
  8
Layer_1
 62
3
100
AcDbSpline
 70
8
 71
3
 72
8
 73
4
 74
0
 40
0
 40
0
 40
0
 40
0
 40
1
 40
1
 40
1
 40
1
 10
266.270788
 20
318.085185
 30
0.0
 10
265.841741
 20
317.951108
 30
0.0
 10
265.473987
 20
317.748078
 30
0.0
 10
265.167528
 20
317.476094
 30
0.0
  0
SPLINE
  5
387
100
AcDbEntity
  8
Layer_1
 62
3
100
AcDbSpline
 70
8
 71
3
 72
8
 73
4
 74
0
 40
0
 40
0
 40
0
 40
0
 40
1
 40
1
 40
1
 40
1
 10
265.167528
 20
317.476094
 30
0.0
 10
264.864896
 20
317.207940
 30
0.0
 10
264.631219
 20
316.870833
 30
0.0
 10
264.466496
 20
316.464772
 30
0.0
  0
SPLINE
  5
388
100
AcDbEntity
  8
Layer_1
 62
3
100
AcDbSpline
 70
8
 71
3
 72
8
 73
4
 74
0
 40
0
 40
0
 40
0
 40
0
 40
1
 40
1
 40
1
 40
1
 10
264.466496
 20
316.464772
 30
0.0
 10
264.301773
 20
316.058711
 30
0.0
 10
264.219412
 20
315.583697
 30
0.0
 10
264.219412
 20
315.039728
 30
0.0
  0
SPLINE
  5
389
100
AcDbEntity
  8
Layer_1
 62
3
100
AcDbSpline
 70
8
 71
3
 72
8
 73
4
 74
0
 40
0
 40
0
 40
0
 40
0
 40
1
 40
1
 40
1
 40
1
 10
264.219412
 20
315.039728
 30
0.0
 10
264.219412
 20
314.495760
 30
0.0
 10
264.301773
 20
314.018830
 30
0.0
 10
264.466496
 20
313.608939
 30
0.0
  0
SPLINE
  5
38a
100
AcDbEntity
  8
Layer_1
 62
3
100
AcDbSpline
 70
8
 71
3
 72
8
 73
4
 74
0
 40
0
 40
0
 40
0
 40
0
 40
1
 40
1
 40
1
 40
1
 10
264.466496
 20
313.608939
 30
0.0
 10
264.631219
 20
313.202878
 30
0.0
 10
264.864896
 20
312.863855
 30
0.0
 10
265.167528
 20
312.591871
 30
0.0
  0
SPLINE
  5
38b
100
AcDbEntity
  8
Layer_1
 62
3
100
AcDbSpline
 70
8
 71
3
 72
8
 73
4
 74
0
 40
0
 40
0
 40
0
 40
0
 40
1
 40
1
 40
1
 40
1
 10
265.167528
 20
312.591871
 30
0.0
 10
265.473987
 20
312.323718
 30
0.0
 10
265.841741
 20
312.122602
 30
0.0
 10
266.270788
 20
311.988526
 30
0.0
  0
SPLINE
  5
38c
100
AcDbEntity
  8
Layer_1
 62
3
100
AcDbSpline
 70
8
 71
3
 72
8
 73
4
 74
0
 40
0
 40
0
 40
0
 40
0
 40
1
 40
1
 40
1
 40
1
 10
266.270788
 20
311.988526
 30
0.0
 10
266.703663
 20
311.854449
 30
0.0
 10
267.184422
 20
311.787411
 30
0.0
 10
267.713067
 20
311.787411
 30
0.0
  0
SPLINE
  5
38d
100
AcDbEntity
  8
Layer_1
 62
3
100
AcDbSpline
 70
8
 71
3
 72
8
 73
4
 74
0
 40
0
 40
0
 40
0
 40
0
 40
1
 40
1
 40
1
 40
1
 10
267.713067
 20
311.787411
 30
0.0
 10
268.241712
 20
311.787411
 30
0.0
 10
268.722472
 20
311.854449
 30
0.0
 10
269.155346
 20
311.988526
 30
0.0
  0
SPLINE
  5
38e
100
AcDbEntity
  8
Layer_1
 62
3
100
AcDbSpline
 70
8
 71
3
 72
8
 73
4
 74
0
 40
0
 40
0
 40
0
 40
0
 40
1
 40
1
 40
1
 40
1
 10
269.155346
 20
311.988526
 30
0.0
 10
269.588225
 20
312.122602
 30
0.0
 10
269.955978
 20
312.323718
 30
0.0
 10
270.258606
 20
312.591871
 30
0.0
  0
SPLINE
  5
38f
100
AcDbEntity
  8
Layer_1
 62
3
100
AcDbSpline
 70
8
 71
3
 72
8
 73
4
 74
0
 40
0
 40
0
 40
0
 40
0
 40
1
 40
1
 40
1
 40
1
 10
270.258606
 20
312.591871
 30
0.0
 10
270.565069
 20
312.863855
 30
0.0
 10
270.800662
 20
313.202878
 30
0.0
 10
270.965385
 20
313.608939
 30
0.0
  0
SPLINE
  5
390
100
AcDbEntity
  8
Layer_1
 62
3
100
AcDbSpline
 70
8
 71
3
 72
8
 73
4
 74
0
 40
0
 40
0
 40
0
 40
0
 40
1
 40
1
 40
1
 40
1
 10
270.965385
 20
313.608939
 30
0.0
 10
271.133939
 20
314.018830
 30
0.0
 10
271.218216
 20
314.495760
 30
0.0
 10
271.218216
 20
315.039728
 30
0.0
  0
SPLINE
  5
391
100
AcDbEntity
  8
Layer_1
 62
3
100
AcDbSpline
 70
8
 71
3
 72
8
 73
4
 74
0
 40
0
 40
0
 40
0
 40
0
 40
1
 40
1
 40
1
 40
1
 10
271.218216
 20
315.039728
 30
0.0
 10
271.218216
 20
315.583697
 30
0.0
 10
271.133939
 20
316.058711
 30
0.0
 10
270.965385
 20
316.464772
 30
0.0
  0
SPLINE
  5
392
100
AcDbEntity
  8
Layer_1
 62
3
100
AcDbSpline
 70
8
 71
3
 72
8
 73
4
 74
0
 40
0
 40
0
 40
0
 40
0
 40
1
 40
1
 40
1
 40
1
 10
270.965385
 20
316.464772
 30
0.0
 10
270.800662
 20
316.870833
 30
0.0
 10
270.565069
 20
317.207940
 30
0.0
 10
270.258606
 20
317.476094
 30
0.0
  0
SPLINE
  5
393
100
AcDbEntity
  8
Layer_1
 62
3
100
AcDbSpline
 70
8
 71
3
 72
8
 73
4
 74
0
 40
0
 40
0
 40
0
 40
0
 40
1
 40
1
 40
1
 40
1
 10
270.258606
 20
317.476094
 30
0.0
 10
269.955978
 20
317.748078
 30
0.0
 10
269.588225
 20
317.951108
 30
0.0
 10
269.155346
 20
318.085185
 30
0.0
  0
SPLINE
  5
394
100
AcDbEntity
  8
Layer_1
 62
3
100
AcDbSpline
 70
8
 71
3
 72
8
 73
4
 74
0
 40
0
 40
0
 40
0
 40
0
 40
1
 40
1
 40
1
 40
1
 10
269.155346
 20
318.085185
 30
0.0
 10
268.722472
 20
318.219262
 30
0.0
 10
268.241712
 20
318.286300
 30
0.0
 10
267.713067
 20
318.286300
 30
0.0
  0
LINE
  5
395
100
AcDbEntity
  8
Layer_1
 62
3
100
AcDbLine
 10
267.713067
 20
318.286300
 30
0.0
 11
267.713067
 21
318.286300
 31
0.0
  0
SPLINE
  5
396
100
AcDbEntity
  8
Layer_1
 62
3
100
AcDbSpline
 70
8
 71
3
 72
8
 73
4
 74
0
 40
0
 40
0
 40
0
 40
0
 40
1
 40
1
 40
1
 40
1
 10
267.713067
 20
316.694618
 30
0.0
 10
267.919929
 20
316.694618
 30
0.0
 10
268.096143
 20
316.663972
 30
0.0
 10
268.241710
 20
316.602679
 30
0.0
  0
SPLINE
  5
397
100
AcDbEntity
  8
Layer_1
 62
3
100
AcDbSpline
 70
8
 71
3
 72
8
 73
4
 74
0
 40
0
 40
0
 40
0
 40
0
 40
1
 40
1
 40
1
 40
1
 10
268.241710
 20
316.602679
 30
0.0
 10
268.387281
 20
316.541387
 30
0.0
 10
268.507950
 20
316.453280
 30
0.0
 10
268.603716
 20
316.338357
 30
0.0
  0
SPLINE
  5
398
100
AcDbEntity
  8
Layer_1
 62
3
100
AcDbSpline
 70
8
 71
3
 72
8
 73
4
 74
0
 40
0
 40
0
 40
0
 40
0
 40
1
 40
1
 40
1
 40
1
 10
268.603716
 20
316.338357
 30
0.0
 10
268.699487
 20
316.223434
 30
0.0
 10
268.768442
 20
316.083611
 30
0.0
 10
268.810580
 20
315.918888
 30
0.0
  0
SPLINE
  5
399
100
AcDbEntity
  8
Layer_1
 62
3
100
AcDbSpline
 70
8
 71
3
 72
8
 73
4
 74
0
 40
0
 40
0
 40
0
 40
0
 40
1
 40
1
 40
1
 40
1
 10
268.810580
 20
315.918888
 30
0.0
 10
268.856550
 20
315.757996
 30
0.0
 10
268.879535
 20
315.574120
 30
0.0
 10
268.879535
 20
315.367259
 30
0.0
  0
LINE
  5
39a
100
AcDbEntity
  8
Layer_1
 62
3
100
AcDbLine
 10
268.879535
 20
315.367259
 30
0.0
 11
268.879535
 21
314.694960
 31
0.0
  0
SPLINE
  5
39b
100
AcDbEntity
  8
Layer_1
 62
3
100
AcDbSpline
 70
8
 71
3
 72
8
 73
4
 74
0
 40
0
 40
0
 40
0
 40
0
 40
1
 40
1
 40
1
 40
1
 10
268.879535
 20
314.694960
 30
0.0
 10
268.879535
 20
314.285068
 30
0.0
 10
268.787595
 20
313.963284
 30
0.0
 10
268.603716
 20
313.729607
 30
0.0
  0
SPLINE
  5
39c
100
AcDbEntity
  8
Layer_1
 62
3
100
AcDbSpline
 70
8
 71
3
 72
8
 73
4
 74
0
 40
0
 40
0
 40
0
 40
0
 40
1
 40
1
 40
1
 40
1
 10
268.603716
 20
313.729607
 30
0.0
 10
268.419842
 20
313.495931
 30
0.0
 10
268.122959
 20
313.379093
 30
0.0
 10
267.713067
 20
313.379093
 30
0.0
  0
SPLINE
  5
39d
100
AcDbEntity
  8
Layer_1
 62
3
100
AcDbSpline
 70
8
 71
3
 72
8
 73
4
 74
0
 40
0
 40
0
 40
0
 40
0
 40
1
 40
1
 40
1
 40
1
 10
267.713067
 20
313.379093
 30
0.0
 10
267.506206
 20
313.379093
 30
0.0
 10
267.329991
 20
313.407823
 30
0.0
 10
267.184424
 20
313.465285
 30
0.0
  0
SPLINE
  5
39e
100
AcDbEntity
  8
Layer_1
 62
3
100
AcDbSpline
 70
8
 71
3
 72
8
 73
4
 74
0
 40
0
 40
0
 40
0
 40
0
 40
1
 40
1
 40
1
 40
1
 10
267.184424
 20
313.465285
 30
0.0
 10
267.038853
 20
313.526577
 30
0.0
 10
266.920098
 20
313.612769
 30
0.0
 10
266.828158
 20
313.723861
 30
0.0
  0
SPLINE
  5
39f
100
AcDbEntity
  8
Layer_1
 62
3
100
AcDbSpline
 70
8
 71
3
 72
8
 73
4
 74
0
 40
0
 40
0
 40
0
 40
0
 40
1
 40
1
 40
1
 40
1
 10
266.828158
 20
313.723861
 30
0.0
 10
266.736223
 20
313.838784
 30
0.0
 10
266.667271
 20
313.976692
 30
0.0
 10
266.621301
 20
314.137584
 30
0.0
  0
SPLINE
  5
3a0
100
AcDbEntity
  8
Layer_1
 62
3
100
AcDbSpline
 70
8
 71
3
 72
8
 73
4
 74
0
 40
0
 40
0
 40
0
 40
0
 40
1
 40
1
 40
1
 40
1
 10
266.621301
 20
314.137584
 30
0.0
 10
266.579163
 20
314.302307
 30
0.0
 10
266.558093
 20
314.488099
 30
0.0
 10
266.558093
 20
314.694960
 30
0.0
  0
LINE
  5
3a1
100
AcDbEntity
  8
Layer_1
 62
3
100
AcDbLine
 10
266.558093
 20
314.694960
 30
0.0
 11
266.558093
 21
315.367259
 31
0.0
  0
SPLINE
  5
3a2
100
AcDbEntity
  8
Layer_1
 62
3
100
AcDbSpline
 70
8
 71
3
 72
8
 73
4
 74
0
 40
0
 40
0
 40
0
 40
0
 40
1
 40
1
 40
1
 40
1
 10
266.558093
 20
315.367259
 30
0.0
 10
266.558093
 20
315.574120
 30
0.0
 10
266.579163
 20
315.757996
 30
0.0
 10
266.621301
 20
315.918888
 30
0.0
  0
SPLINE
  5
3a3
100
AcDbEntity
  8
Layer_1
 62
3
100
AcDbSpline
 70
8
 71
3
 72
8
 73
4
 74
0
 40
0
 40
0
 40
0
 40
0
 40
1
 40
1
 40
1
 40
1
 10
266.621301
 20
315.918888
 30
0.0
 10
266.667271
 20
316.083611
 30
0.0
 10
266.736223
 20
316.223434
 30
0.0
 10
266.828158
 20
316.338357
 30
0.0
  0
SPLINE
  5
3a4
100
AcDbEntity
  8
Layer_1
 62
3
100
AcDbSpline
 70
8
 71
3
 72
8
 73
4
 74
0
 40
0
 40
0
 40
0
 40
0
 40
1
 40
1
 40
1
 40
1
 10
266.828158
 20
316.338357
 30
0.0
 10
266.920098
 20
316.453280
 30
0.0
 10
267.038853
 20
316.541387
 30
0.0
 10
267.184424
 20
316.602679
 30
0.0
  0
SPLINE
  5
3a5
100
AcDbEntity
  8
Layer_1
 62
3
100
AcDbSpline
 70
8
 71
3
 72
8
 73
4
 74
0
 40
0
 40
0
 40
0
 40
0
 40
1
 40
1
 40
1
 40
1
 10
267.184424
 20
316.602679
 30
0.0
 10
267.329991
 20
316.663972
 30
0.0
 10
267.506206
 20
316.694618
 30
0.0
 10
267.713067
 20
316.694618
 30
0.0
  0
LINE
  5
3a6
100
AcDbEntity
  8
Layer_1
 62
3
100
AcDbLine
 10
267.713067
 20
316.694618
 30
0.0
 11
267.713067
 21
316.694618
 31
0.0
  0
LINE
  5
3a7
100
AcDbEntity
  8
Layer_1
 62
3
100
AcDbLine
 10
278.889320
 20
318.142646
 30
0.0
 11
276.303554
 21
318.142646
 31
0.0
  0
LINE
  5
3a8
100
AcDbEntity
  8
Layer_1
 62
3
100
AcDbLine
 10
276.303554
 20
318.142646
 30
0.0
 11
275.315216
 21
316.499249
 31
0.0
  0
LINE
  5
3a9
100
AcDbEntity
  8
Layer_1
 62
3
100
AcDbLine
 10
275.315216
 20
316.499249
 30
0.0
 11
275.263502
 21
316.499249
 31
0.0
  0
LINE
  5
3aa
100
AcDbEntity
  8
Layer_1
 62
3
100
AcDbLine
 10
275.263502
 20
316.499249
 30
0.0
 11
274.275164
 21
318.142646
 31
0.0
  0
LINE
  5
3ab
100
AcDbEntity
  8
Layer_1
 62
3
100
AcDbLine
 10
274.275164
 20
318.142646
 30
0.0
 11
271.522762
 21
318.142646
 31
0.0
  0
LINE
  5
3ac
100
AcDbEntity
  8
Layer_1
 62
3
100
AcDbLine
 10
271.522762
 20
318.142646
 30
0.0
 11
273.677567
 21
315.223605
 31
0.0
  0
LINE
  5
3ad
100
AcDbEntity
  8
Layer_1
 62
3
100
AcDbLine
 10
273.677567
 20
315.223605
 30
0.0
 11
271.287171
 21
311.931065
 31
0.0
  0
LINE
  5
3ae
100
AcDbEntity
  8
Layer_1
 62
3
100
AcDbLine
 10
271.287171
 20
311.931065
 30
0.0
 11
273.890171
 21
311.931065
 31
0.0
  0
LINE
  5
3af
100
AcDbEntity
  8
Layer_1
 62
3
100
AcDbLine
 10
273.890171
 20
311.931065
 30
0.0
 11
275.079625
 21
313.884754
 31
0.0
  0
LINE
  5
3b0
100
AcDbEntity
  8
Layer_1
 62
3
100
AcDbLine
 10
275.079625
 20
313.884754
 30
0.0
 11
275.125593
 21
313.884754
 31
0.0
  0
LINE
  5
3b1
100
AcDbEntity
  8
Layer_1
 62
3
100
AcDbLine
 10
275.125593
 20
313.884754
 30
0.0
 11
276.303554
 21
311.931065
 31
0.0
  0
LINE
  5
3b2
100
AcDbEntity
  8
Layer_1
 62
3
100
AcDbLine
 10
276.303554
 20
311.931065
 30
0.0
 11
279.032969
 21
311.931065
 31
0.0
  0
LINE
  5
3b3
100
AcDbEntity
  8
Layer_1
 62
3
100
AcDbLine
 10
279.032969
 20
311.931065
 30
0.0
 11
276.700034
 21
315.166144
 31
0.0
  0
LINE
  5
3b4
100
AcDbEntity
  8
Layer_1
 62
3
100
AcDbLine
 10
276.700034
 20
315.166144
 30
0.0
 11
278.889320
 21
318.142646
 31
0.0
  0
LINE
  5
3b5
100
AcDbEntity
  8
Layer_1
 62
1
100
AcDbLine
 10
209.776250
 20
317.578788
 30
0.0
 11
209.776250
 21
308.312608
 31
0.0
  0
LINE
  5
3b6
100
AcDbEntity
  8
Layer_1
 62
1
100
AcDbLine
 10
209.776250
 20
308.312608
 30
0.0
 11
219.042520
 21
308.312608
 31
0.0
  0
LINE
  5
3b7
100
AcDbEntity
  8
Layer_1
 62
1
100
AcDbLine
 10
219.042520
 20
308.312608
 30
0.0
 11
219.042520
 21
309.997378
 31
0.0
  0
LINE
  5
3b8
100
AcDbEntity
  8
Layer_1
 62
1
100
AcDbLine
 10
219.042520
 20
309.997378
 30
0.0
 11
211.461030
 21
309.997378
 31
0.0
  0
LINE
  5
3b9
100
AcDbEntity
  8
Layer_1
 62
1
100
AcDbLine
 10
211.461030
 20
309.997378
 30
0.0
 11
211.461030
 21
317.578788
 31
0.0
  0
LINE
  5
3ba
100
AcDbEntity
  8
Layer_1
 62
1
100
AcDbLine
 10
211.461030
 20
317.578788
 30
0.0
 11
209.776250
 21
317.578788
 31
0.0
  0
LINE
  5
3bb
100
AcDbEntity
  8
Layer_1
 62
1
100
AcDbLine
 10
273.241540
 20
321.651838
 30
0.0
 11
273.241540
 21
319.967068
 31
0.0
  0
LINE
  5
3bc
100
AcDbEntity
  8
Layer_1
 62
1
100
AcDbLine
 10
273.241540
 20
319.967068
 30
0.0
 11
280.823030
 21
319.967068
 31
0.0
  0
LINE
  5
3bd
100
AcDbEntity
  8
Layer_1
 62
1
100
AcDbLine
 10
280.823030
 20
319.967068
 30
0.0
 11
280.823030
 21
312.385578
 31
0.0
  0
LINE
  5
3be
100
AcDbEntity
  8
Layer_1
 62
1
100
AcDbLine
 10
280.823030
 20
312.385578
 30
0.0
 11
282.507800
 21
312.385578
 31
0.0
  0
LINE
  5
3bf
100
AcDbEntity
  8
Layer_1
 62
1
100
AcDbLine
 10
282.507800
 20
312.385578
 30
0.0
 11
282.507800
 21
321.651838
 31
0.0
  0
LINE
  5
3c0
100
AcDbEntity
  8
Layer_1
 62
1
100
AcDbLine
 10
282.507800
 20
321.651838
 30
0.0
 11
273.241540
 21
321.651838
 31
0.0
  0
LINE
  5
3c1
100
AcDbEntity
  8
Layer_1
 62
5
100
AcDbLine
 10
220.439540
 20
318.142646
 30
0.0
 11
218.135337
 21
318.142646
 31
0.0
  0
LINE
  5
3c2
100
AcDbEntity
  8
Layer_1
 62
5
100
AcDbLine
 10
218.135337
 20
318.142646
 30
0.0
 11
216.991854
 21
314.275491
 31
0.0
  0
LINE
  5
3c3
100
AcDbEntity
  8
Layer_1
 62
5
100
AcDbLine
 10
216.991854
 20
314.275491
 30
0.0
 11
216.911407
 21
314.275491
 31
0.0
  0
LINE
  5
3c4
100
AcDbEntity
  8
Layer_1
 62
5
100
AcDbLine
 10
216.911407
 20
314.275491
 30
0.0
 11
215.767925
 21
318.142646
 31
0.0
  0
LINE
  5
3c5
100
AcDbEntity
  8
Layer_1
 62
5
100
AcDbLine
 10
215.767925
 20
318.142646
 30
0.0
 11
213.251114
 21
318.142646
 31
0.0
  0
LINE
  5
3c6
100
AcDbEntity
  8
Layer_1
 62
5
100
AcDbLine
 10
213.251114
 20
318.142646
 30
0.0
 11
215.607033
 21
311.931065
 31
0.0
  0
LINE
  5
3c7
100
AcDbEntity
  8
Layer_1
 62
5
100
AcDbLine
 10
215.607033
 20
311.931065
 30
0.0
 11
218.066383
 21
311.931065
 31
0.0
  0
LINE
  5
3c8
100
AcDbEntity
  8
Layer_1
 62
5
100
AcDbLine
 10
218.066383
 20
311.931065
 30
0.0
 11
220.439540
 21
318.142646
 31
0.0
  0
SPLINE
  5
3c9
100
AcDbEntity
  8
Layer_1
 62
5
100
AcDbSpline
 70
8
 71
3
 72
8
 73
4
 74
0
 40
0
 40
0
 40
0
 40
0
 40
1
 40
1
 40
1
 40
1
 10
224.220503
 20
318.286300
 30
0.0
 10
223.688027
 20
318.286300
 30
0.0
 10
223.218758
 20
318.240331
 30
0.0
 10
222.812698
 20
318.148392
 30
0.0
  0
SPLINE
  5
3ca
100
AcDbEntity
  8
Layer_1
 62
5
100
AcDbSpline
 70
8
 71
3
 72
8
 73
4
 74
0
 40
0
 40
0
 40
0
 40
0
 40
1
 40
1
 40
1
 40
1
 10
222.812698
 20
318.148392
 30
0.0
 10
222.410468
 20
318.056454
 30
0.0
 10
222.071445
 20
317.926208
 30
0.0
 10
221.795630
 20
317.757655
 30
0.0
  0
SPLINE
  5
3cb
100
AcDbEntity
  8
Layer_1
 62
5
100
AcDbSpline
 70
8
 71
3
 72
8
 73
4
 74
0
 40
0
 40
0
 40
0
 40
0
 40
1
 40
1
 40
1
 40
1
 10
221.795630
 20
317.757655
 30
0.0
 10
221.523646
 20
317.589101
 30
0.0
 10
221.318700
 20
317.386070
 30
0.0
 10
221.180793
 20
317.148563
 30
0.0
  0
SPLINE
  5
3cc
100
AcDbEntity
  8
Layer_1
 62
5
100
AcDbSpline
 70
8
 71
3
 72
8
 73
4
 74
0
 40
0
 40
0
 40
0
 40
0
 40
1
 40
1
 40
1
 40
1
 10
221.180793
 20
317.148563
 30
0.0
 10
221.042885
 20
316.914887
 30
0.0
 10
220.973932
 20
316.654395
 30
0.0
 10
220.973932
 20
316.367088
 30
0.0
  0
SPLINE
  5
3cd
100
AcDbEntity
  8
Layer_1
 62
5
100
AcDbSpline
 70
8
 71
3
 72
8
 73
4
 74
0
 40
0
 40
0
 40
0
 40
0
 40
1
 40
1
 40
1
 40
1
 10
220.973932
 20
316.367088
 30
0.0
 10
220.973932
 20
316.336441
 30
0.0
 10
220.973932
 20
316.307711
 30
0.0
 10
220.973932
 20
316.280896
 30
0.0
  0
SPLINE
  5
3ce
100
AcDbEntity
  8
Layer_1
 62
5
100
AcDbSpline
 70
8
 71
3
 72
8
 73
4
 74
0
 40
0
 40
0
 40
0
 40
0
 40
1
 40
1
 40
1
 40
1
 10
220.973932
 20
316.280896
 30
0.0
 10
220.973932
 20
316.257911
 30
0.0
 10
220.977763
 20
316.231096
 30
0.0
 10
220.985424
 20
316.200449
 30
0.0
  0
LINE
  5
3cf
100
AcDbEntity
  8
Layer_1
 62
5
100
AcDbLine
 10
220.985424
 20
316.200449
 30
0.0
 11
223.295374
 21
316.200449
 31
0.0
  0
LINE
  5
3d0
100
AcDbEntity
  8
Layer_1
 62
5
100
AcDbLine
 10
223.295374
 20
316.200449
 30
0.0
 11
223.295374
 21
316.252165
 31
0.0
  0
SPLINE
  5
3d1
100
AcDbEntity
  8
Layer_1
 62
5
100
AcDbSpline
 70
8
 71
3
 72
8
 73
4
 74
0
 40
0
 40
0
 40
0
 40
0
 40
1
 40
1
 40
1
 40
1
 10
223.295374
 20
316.252165
 30
0.0
 10
223.295374
 20
316.355595
 30
0.0
 10
223.322189
 20
316.441787
 30
0.0
 10
223.375820
 20
316.510741
 30
0.0
  0
SPLINE
  5
3d2
100
AcDbEntity
  8
Layer_1
 62
5
100
AcDbSpline
 70
8
 71
3
 72
8
 73
4
 74
0
 40
0
 40
0
 40
0
 40
0
 40
1
 40
1
 40
1
 40
1
 10
223.375820
 20
316.510741
 30
0.0
 10
223.429451
 20
316.579695
 30
0.0
 10
223.498404
 20
316.635241
 30
0.0
 10
223.582681
 20
316.677379
 30
0.0
  0
SPLINE
  5
3d3
100
AcDbEntity
  8
Layer_1
 62
5
100
AcDbSpline
 70
8
 71
3
 72
8
 73
4
 74
0
 40
0
 40
0
 40
0
 40
0
 40
1
 40
1
 40
1
 40
1
 10
223.582681
 20
316.677379
 30
0.0
 10
223.670788
 20
316.719518
 30
0.0
 10
223.766557
 20
316.748249
 30
0.0
 10
223.869988
 20
316.763572
 30
0.0
  0
SPLINE
  5
3d4
100
AcDbEntity
  8
Layer_1
 62
5
100
AcDbSpline
 70
8
 71
3
 72
8
 73
4
 74
0
 40
0
 40
0
 40
0
 40
0
 40
1
 40
1
 40
1
 40
1
 10
223.869988
 20
316.763572
 30
0.0
 10
223.977250
 20
316.782725
 30
0.0
 10
224.082596
 20
316.792302
 30
0.0
 10
224.186026
 20
316.792302
 30
0.0
  0
SPLINE
  5
3d5
100
AcDbEntity
  8
Layer_1
 62
5
100
AcDbSpline
 70
8
 71
3
 72
8
 73
4
 74
0
 40
0
 40
0
 40
0
 40
0
 40
1
 40
1
 40
1
 40
1
 10
224.186026
 20
316.792302
 30
0.0
 10
224.312442
 20
316.792302
 30
0.0
 10
224.431195
 20
316.776979
 30
0.0
 10
224.542287
 20
316.746333
 30
0.0
  0
SPLINE
  5
3d6
100
AcDbEntity
  8
Layer_1
 62
5
100
AcDbSpline
 70
8
 71
3
 72
8
 73
4
 74
0
 40
0
 40
0
 40
0
 40
0
 40
1
 40
1
 40
1
 40
1
 10
224.542287
 20
316.746333
 30
0.0
 10
224.653379
 20
316.715687
 30
0.0
 10
224.749148
 20
316.669718
 30
0.0
 10
224.829595
 20
316.608425
 30
0.0
  0
SPLINE
  5
3d7
100
AcDbEntity
  8
Layer_1
 62
5
100
AcDbSpline
 70
8
 71
3
 72
8
 73
4
 74
0
 40
0
 40
0
 40
0
 40
0
 40
1
 40
1
 40
1
 40
1
 10
224.829595
 20
316.608425
 30
0.0
 10
224.910040
 20
316.550964
 30
0.0
 10
224.973248
 20
316.474349
 30
0.0
 10
225.019217
 20
316.378580
 30
0.0
  0
SPLINE
  5
3d8
100
AcDbEntity
  8
Layer_1
 62
5
100
AcDbSpline
 70
8
 71
3
 72
8
 73
4
 74
0
 40
0
 40
0
 40
0
 40
0
 40
1
 40
1
 40
1
 40
1
 10
225.019217
 20
316.378580
 30
0.0
 10
225.069017
 20
316.286641
 30
0.0
 10
225.093917
 20
316.177465
 30
0.0
 10
225.093917
 20
316.051050
 30
0.0
  0
LINE
  5
3d9
100
AcDbEntity
  8
Layer_1
 62
5
100
AcDbLine
 10
225.093917
 20
316.051050
 30
0.0
 11
225.093917
 21
315.746504
 31
0.0
  0
SPLINE
  5
3da
100
AcDbEntity
  8
Layer_1
 62
5
100
AcDbSpline
 70
8
 71
3
 72
8
 73
4
 74
0
 40
0
 40
0
 40
0
 40
0
 40
1
 40
1
 40
1
 40
1
 10
225.093917
 20
315.746504
 30
0.0
 10
224.415872
 20
315.746504
 30
0.0
 10
223.810611
 20
315.717773
 30
0.0
 10
223.278136
 20
315.660312
 30
0.0
  0
SPLINE
  5
3db
100
AcDbEntity
  8
Layer_1
 62
5
100
AcDbSpline
 70
8
 71
3
 72
8
 73
4
 74
0
 40
0
 40
0
 40
0
 40
0
 40
1
 40
1
 40
1
 40
1
 10
223.278136
 20
315.660312
 30
0.0
 10
222.745659
 20
315.606681
 30
0.0
 10
222.295545
 20
315.499420
 30
0.0
 10
221.927791
 20
315.338528
 30
0.0
  0
SPLINE
  5
3dc
100
AcDbEntity
  8
Layer_1
 62
5
100
AcDbSpline
 70
8
 71
3
 72
8
 73
4
 74
0
 40
0
 40
0
 40
0
 40
0
 40
1
 40
1
 40
1
 40
1
 10
221.927791
 20
315.338528
 30
0.0
 10
221.560038
 20
315.177636
 30
0.0
 10
221.278477
 20
314.951621
 30
0.0
 10
221.083108
 20
314.660483
 30
0.0
  0
SPLINE
  5
3dd
100
AcDbEntity
  8
Layer_1
 62
5
100
AcDbSpline
 70
8
 71
3
 72
8
 73
4
 74
0
 40
0
 40
0
 40
0
 40
0
 40
1
 40
1
 40
1
 40
1
 10
221.083108
 20
314.660483
 30
0.0
 10
220.891570
 20
314.373176
 30
0.0
 10
220.795801
 20
313.997761
 30
0.0
 10
220.795801
 20
313.534239
 30
0.0
  0
SPLINE
  5
3de
100
AcDbEntity
  8
Layer_1
 62
5
100
AcDbSpline
 70
8
 71
3
 72
8
 73
4
 74
0
 40
0
 40
0
 40
0
 40
0
 40
1
 40
1
 40
1
 40
1
 10
220.795801
 20
313.534239
 30
0.0
 10
220.795801
 20
313.208624
 30
0.0
 10
220.849432
 20
312.934724
 30
0.0
 10
220.956693
 20
312.712540
 30
0.0
  0
SPLINE
  5
3df
100
AcDbEntity
  8
Layer_1
 62
5
100
AcDbSpline
 70
8
 71
3
 72
8
 73
4
 74
0
 40
0
 40
0
 40
0
 40
0
 40
1
 40
1
 40
1
 40
1
 10
220.956693
 20
312.712540
 30
0.0
 10
221.063954
 20
312.490356
 30
0.0
 10
221.213354
 20
312.310310
 30
0.0
 10
221.404892
 20
312.172402
 30
0.0
  0
SPLINE
  5
3e0
100
AcDbEntity
  8
Layer_1
 62
5
100
AcDbSpline
 70
8
 71
3
 72
8
 73
4
 74
0
 40
0
 40
0
 40
0
 40
0
 40
1
 40
1
 40
1
 40
1
 10
221.404892
 20
312.172402
 30
0.0
 10
221.596430
 20
312.034495
 30
0.0
 10
221.826276
 20
311.936811
 30
0.0
 10
222.094430
 20
311.879349
 30
0.0
  0
SPLINE
  5
3e1
100
AcDbEntity
  8
Layer_1
 62
5
100
AcDbSpline
 70
8
 71
3
 72
8
 73
4
 74
0
 40
0
 40
0
 40
0
 40
0
 40
1
 40
1
 40
1
 40
1
 10
222.094430
 20
311.879349
 30
0.0
 10
222.366414
 20
311.818057
 30
0.0
 10
222.663298
 20
311.787411
 30
0.0
 10
222.985082
 20
311.787411
 30
0.0
  0
SPLINE
  5
3e2
100
AcDbEntity
  8
Layer_1
 62
5
100
AcDbSpline
 70
8
 71
3
 72
8
 73
4
 74
0
 40
0
 40
0
 40
0
 40
0
 40
1
 40
1
 40
1
 40
1
 10
222.985082
 20
311.787411
 30
0.0
 10
223.257066
 20
311.787411
 30
0.0
 10
223.504150
 20
311.808480
 30
0.0
 10
223.726335
 20
311.850619
 30
0.0
  0
SPLINE
  5
3e3
100
AcDbEntity
  8
Layer_1
 62
5
100
AcDbSpline
 70
8
 71
3
 72
8
 73
4
 74
0
 40
0
 40
0
 40
0
 40
0
 40
1
 40
1
 40
1
 40
1
 10
223.726335
 20
311.850619
 30
0.0
 10
223.952350
 20
311.892757
 30
0.0
 10
224.159211
 20
311.950218
 30
0.0
 10
224.346918
 20
312.023003
 30
0.0
  0
SPLINE
  5
3e4
100
AcDbEntity
  8
Layer_1
 62
5
100
AcDbSpline
 70
8
 71
3
 72
8
 73
4
 74
0
 40
0
 40
0
 40
0
 40
0
 40
1
 40
1
 40
1
 40
1
 10
224.346918
 20
312.023003
 30
0.0
 10
224.534625
 20
312.095787
 30
0.0
 10
224.705094
 20
312.178149
 30
0.0
 10
224.858325
 20
312.270087
 30
0.0
  0
SPLINE
  5
3e5
100
AcDbEntity
  8
Layer_1
 62
5
100
AcDbSpline
 70
8
 71
3
 72
8
 73
4
 74
0
 40
0
 40
0
 40
0
 40
0
 40
1
 40
1
 40
1
 40
1
 10
224.858325
 20
312.270087
 30
0.0
 10
225.011555
 20
312.365856
 30
0.0
 10
225.153293
 20
312.465456
 30
0.0
 10
225.283539
 20
312.568887
 30
0.0
  0
SPLINE
  5
3e6
100
AcDbEntity
  8
Layer_1
 62
5
100
AcDbSpline
 70
8
 71
3
 72
8
 73
4
 74
0
 40
0
 40
0
 40
0
 40
0
 40
1
 40
1
 40
1
 40
1
 10
225.283539
 20
312.568887
 30
0.0
 10
225.390801
 20
312.331379
 30
0.0
 10
225.586170
 20
312.141757
 30
0.0
 10
225.869646
 20
312.000018
 30
0.0
  0
SPLINE
  5
3e7
100
AcDbEntity
  8
Layer_1
 62
5
100
AcDbSpline
 70
8
 71
3
 72
8
 73
4
 74
0
 40
0
 40
0
 40
0
 40
0
 40
1
 40
1
 40
1
 40
1
 10
225.869646
 20
312.000018
 30
0.0
 10
226.156954
 20
311.858280
 30
0.0
 10
226.538115
 20
311.787411
 30
0.0
 10
227.013129
 20
311.787411
 30
0.0
  0
SPLINE
  5
3e8
100
AcDbEntity
  8
Layer_1
 62
5
100
AcDbSpline
 70
8
 71
3
 72
8
 73
4
 74
0
 40
0
 40
0
 40
0
 40
0
 40
1
 40
1
 40
1
 40
1
 10
227.013129
 20
311.787411
 30
0.0
 10
227.208498
 20
311.787411
 30
0.0
 10
227.382797
 20
311.798903
 30
0.0
 10
227.536028
 20
311.821887
 30
0.0
  0
SPLINE
  5
3e9
100
AcDbEntity
  8
Layer_1
 62
5
100
AcDbSpline
 70
8
 71
3
 72
8
 73
4
 74
0
 40
0
 40
0
 40
0
 40
0
 40
1
 40
1
 40
1
 40
1
 10
227.536028
 20
311.821887
 30
0.0
 10
227.689258
 20
311.844872
 30
0.0
 10
227.817589
 20
311.871688
 30
0.0
 10
227.921020
 20
311.902334
 30
0.0
  0
SPLINE
  5
3ea
100
AcDbEntity
  8
Layer_1
 62
5
100
AcDbSpline
 70
8
 71
3
 72
8
 73
4
 74
0
 40
0
 40
0
 40
0
 40
0
 40
1
 40
1
 40
1
 40
1
 10
227.921020
 20
311.902334
 30
0.0
 10
228.043604
 20
311.936811
 30
0.0
 10
228.148950
 20
311.977034
 30
0.0
 10
228.237058
 20
312.023003
 30
0.0
  0
LINE
  5
3eb
100
AcDbEntity
  8
Layer_1
 62
5
100
AcDbLine
 10
228.237058
 20
312.023003
 30
0.0
 11
228.237058
 21
313.379093
 31
0.0
  0
LINE
  5
3ec
100
AcDbEntity
  8
Layer_1
 62
5
100
AcDbLine
 10
228.237058
 20
313.379093
 30
0.0
 11
227.811843
 21
313.379093
 31
0.0
  0
SPLINE
  5
3ed
100
AcDbEntity
  8
Layer_1
 62
5
100
AcDbSpline
 70
8
 71
3
 72
8
 73
4
 74
0
 40
0
 40
0
 40
0
 40
0
 40
1
 40
1
 40
1
 40
1
 10
227.811843
 20
313.379093
 30
0.0
 10
227.681597
 20
313.379093
 30
0.0
 10
227.585828
 20
313.423146
 30
0.0
 10
227.524536
 20
313.511254
 30
0.0
  0
SPLINE
  5
3ee
100
AcDbEntity
  8
Layer_1
 62
5
100
AcDbSpline
 70
8
 71
3
 72
8
 73
4
 74
0
 40
0
 40
0
 40
0
 40
0
 40
1
 40
1
 40
1
 40
1
 10
227.524536
 20
313.511254
 30
0.0
 10
227.467074
 20
313.599362
 30
0.0
 10
227.438344
 20
313.708538
 30
0.0
 10
227.438344
 20
313.838784
 30
0.0
  0
LINE
  5
3ef
100
AcDbEntity
  8
Layer_1
 62
5
100
AcDbLine
 10
227.438344
 20
313.838784
 30
0.0
 11
227.438344
 21
316.263657
 31
0.0
  0
SPLINE
  5
3f0
100
AcDbEntity
  8
Layer_1
 62
5
100
AcDbSpline
 70
8
 71
3
 72
8
 73
4
 74
0
 40
0
 40
0
 40
0
 40
0
 40
1
 40
1
 40
1
 40
1
 10
227.438344
 20
316.263657
 30
0.0
 10
227.438344
 20
316.646733
 30
0.0
 10
227.350236
 20
316.966602
 30
0.0
 10
227.174021
 20
317.223263
 30
0.0
  0
SPLINE
  5
3f1
100
AcDbEntity
  8
Layer_1
 62
5
100
AcDbSpline
 70
8
 71
3
 72
8
 73
4
 74
0
 40
0
 40
0
 40
0
 40
0
 40
1
 40
1
 40
1
 40
1
 10
227.174021
 20
317.223263
 30
0.0
 10
227.001637
 20
317.483755
 30
0.0
 10
226.766045
 20
317.692531
 30
0.0
 10
226.467245
 20
317.849593
 30
0.0
  0
SPLINE
  5
3f2
100
AcDbEntity
  8
Layer_1
 62
5
100
AcDbSpline
 70
8
 71
3
 72
8
 73
4
 74
0
 40
0
 40
0
 40
0
 40
0
 40
1
 40
1
 40
1
 40
1
 10
226.467245
 20
317.849593
 30
0.0
 10
226.172277
 20
318.006654
 30
0.0
 10
225.829423
 20
318.117747
 30
0.0
 10
225.438685
 20
318.182869
 30
0.0
  0
SPLINE
  5
3f3
100
AcDbEntity
  8
Layer_1
 62
5
100
AcDbSpline
 70
8
 71
3
 72
8
 73
4
 74
0
 40
0
 40
0
 40
0
 40
0
 40
1
 40
1
 40
1
 40
1
 10
225.438685
 20
318.182869
 30
0.0
 10
225.051778
 20
318.251823
 30
0.0
 10
224.645718
 20
318.286300
 30
0.0
 10
224.220503
 20
318.286300
 30
0.0
  0
LINE
  5
3f4
100
AcDbEntity
  8
Layer_1
 62
5
100
AcDbLine
 10
224.220503
 20
318.286300
 30
0.0
 11
224.220503
 21
318.286300
 31
0.0
  0
SPLINE
  5
3f5
100
AcDbEntity
  8
Layer_1
 62
5
100
AcDbSpline
 70
8
 71
3
 72
8
 73
4
 74
0
 40
0
 40
0
 40
0
 40
0
 40
1
 40
1
 40
1
 40
1
 10
225.093917
 20
314.108853
 30
0.0
 10
225.093917
 20
313.982438
 30
0.0
 10
225.061355
 20
313.865599
 30
0.0
 10
224.996232
 20
313.758338
 30
0.0
  0
SPLINE
  5
3f6
100
AcDbEntity
  8
Layer_1
 62
5
100
AcDbSpline
 70
8
 71
3
 72
8
 73
4
 74
0
 40
0
 40
0
 40
0
 40
0
 40
1
 40
1
 40
1
 40
1
 10
224.996232
 20
313.758338
 30
0.0
 10
224.934940
 20
313.654908
 30
0.0
 10
224.850663
 20
313.564885
 30
0.0
 10
224.743402
 20
313.488270
 30
0.0
  0
SPLINE
  5
3f7
100
AcDbEntity
  8
Layer_1
 62
5
100
AcDbSpline
 70
8
 71
3
 72
8
 73
4
 74
0
 40
0
 40
0
 40
0
 40
0
 40
1
 40
1
 40
1
 40
1
 10
224.743402
 20
313.488270
 30
0.0
 10
224.636141
 20
313.411654
 30
0.0
 10
224.511641
 20
313.352277
 30
0.0
 10
224.369903
 20
313.310139
 30
0.0
  0
SPLINE
  5
3f8
100
AcDbEntity
  8
Layer_1
 62
5
100
AcDbSpline
 70
8
 71
3
 72
8
 73
4
 74
0
 40
0
 40
0
 40
0
 40
0
 40
1
 40
1
 40
1
 40
1
 10
224.369903
 20
313.310139
 30
0.0
 10
224.231995
 20
313.268001
 30
0.0
 10
224.088342
 20
313.246932
 30
0.0
 10
223.938942
 20
313.246932
 30
0.0
  0
SPLINE
  5
3f9
100
AcDbEntity
  8
Layer_1
 62
5
100
AcDbSpline
 70
8
 71
3
 72
8
 73
4
 74
0
 40
0
 40
0
 40
0
 40
0
 40
1
 40
1
 40
1
 40
1
 10
223.938942
 20
313.246932
 30
0.0
 10
223.839342
 20
313.246932
 30
0.0
 10
223.741658
 20
313.254593
 30
0.0
 10
223.645889
 20
313.269916
 30
0.0
  0
SPLINE
  5
3fa
100
AcDbEntity
  8
Layer_1
 62
5
100
AcDbSpline
 70
8
 71
3
 72
8
 73
4
 74
0
 40
0
 40
0
 40
0
 40
0
 40
1
 40
1
 40
1
 40
1
 10
223.645889
 20
313.269916
 30
0.0
 10
223.550119
 20
313.289070
 30
0.0
 10
223.463927
 20
313.319716
 30
0.0
 10
223.387312
 20
313.361854
 30
0.0
  0
SPLINE
  5
3fb
100
AcDbEntity
  8
Layer_1
 62
5
100
AcDbSpline
 70
8
 71
3
 72
8
 73
4
 74
0
 40
0
 40
0
 40
0
 40
0
 40
1
 40
1
 40
1
 40
1
 10
223.387312
 20
313.361854
 30
0.0
 10
223.314528
 20
313.403993
 30
0.0
 10
223.255151
 20
313.463370
 30
0.0
 10
223.209182
 20
313.539985
 30
0.0
  0
SPLINE
  5
3fc
100
AcDbEntity
  8
Layer_1
 62
5
100
AcDbSpline
 70
8
 71
3
 72
8
 73
4
 74
0
 40
0
 40
0
 40
0
 40
0
 40
1
 40
1
 40
1
 40
1
 10
223.209182
 20
313.539985
 30
0.0
 10
223.163212
 20
313.616600
 30
0.0
 10
223.140228
 20
313.716200
 30
0.0
 10
223.140228
 20
313.838784
 30
0.0
  0
SPLINE
  5
3fd
100
AcDbEntity
  8
Layer_1
 62
5
100
AcDbSpline
 70
8
 71
3
 72
8
 73
4
 74
0
 40
0
 40
0
 40
0
 40
0
 40
1
 40
1
 40
1
 40
1
 10
223.140228
 20
313.838784
 30
0.0
 10
223.140228
 20
313.953707
 30
0.0
 10
223.176620
 20
314.059053
 30
0.0
 10
223.249404
 20
314.154822
 30
0.0
  0
SPLINE
  5
3fe
100
AcDbEntity
  8
Layer_1
 62
5
100
AcDbSpline
 70
8
 71
3
 72
8
 73
4
 74
0
 40
0
 40
0
 40
0
 40
0
 40
1
 40
1
 40
1
 40
1
 10
223.249404
 20
314.154822
 30
0.0
 10
223.322189
 20
314.254422
 30
0.0
 10
223.437112
 20
314.338699
 30
0.0
 10
223.594173
 20
314.407653
 30
0.0
  0
SPLINE
  5
3ff
100
AcDbEntity
  8
Layer_1
 62
5
100
AcDbSpline
 70
8
 71
3
 72
8
 73
4
 74
0
 40
0
 40
0
 40
0
 40
0
 40
1
 40
1
 40
1
 40
1
 10
223.594173
 20
314.407653
 30
0.0
 10
223.751235
 20
314.480437
 30
0.0
 10
223.952350
 20
314.535983
 30
0.0
 10
224.197519
 20
314.574291
 30
0.0
  0
SPLINE
  5
400
100
AcDbEntity
  8
Layer_1
 62
5
100
AcDbSpline
 70
8
 71
3
 72
8
 73
4
 74
0
 40
0
 40
0
 40
0
 40
0
 40
1
 40
1
 40
1
 40
1
 10
224.197519
 20
314.574291
 30
0.0
 10
224.446518
 20
314.616429
 30
0.0
 10
224.745317
 20
314.637498
 30
0.0
 10
225.093917
 20
314.637498
 30
0.0
  0
LINE
  5
401
100
AcDbEntity
  8
Layer_1
 62
5
100
AcDbLine
 10
225.093917
 20
314.637498
 30
0.0
 11
225.093917
 21
314.108853
 31
0.0
  0
SPLINE
  5
402
100
AcDbEntity
  8
Layer_1
 62
5
100
AcDbSpline
 70
8
 71
3
 72
8
 73
4
 74
0
 40
0
 40
0
 40
0
 40
0
 40
1
 40
1
 40
1
 40
1
 10
233.293665
 20
318.286300
 30
0.0
 10
233.075311
 20
318.286300
 30
0.0
 10
232.858873
 20
318.259485
 30
0.0
 10
232.644350
 20
318.205854
 30
0.0
  0
SPLINE
  5
403
100
AcDbEntity
  8
Layer_1
 62
5
100
AcDbSpline
 70
8
 71
3
 72
8
 73
4
 74
0
 40
0
 40
0
 40
0
 40
0
 40
1
 40
1
 40
1
 40
1
 10
232.644350
 20
318.205854
 30
0.0
 10
232.433658
 20
318.156054
 30
0.0
 10
232.232543
 20
318.083269
 30
0.0
 10
232.041005
 20
317.987500
 30
0.0
  0
SPLINE
  5
404
100
AcDbEntity
  8
Layer_1
 62
5
100
AcDbSpline
 70
8
 71
3
 72
8
 73
4
 74
0
 40
0
 40
0
 40
0
 40
0
 40
1
 40
1
 40
1
 40
1
 10
232.041005
 20
317.987500
 30
0.0
 10
231.849467
 20
317.895562
 30
0.0
 10
231.671336
 20
317.782555
 30
0.0
 10
231.506613
 20
317.648478
 30
0.0
  0
SPLINE
  5
405
100
AcDbEntity
  8
Layer_1
 62
5
100
AcDbSpline
 70
8
 71
3
 72
8
 73
4
 74
0
 40
0
 40
0
 40
0
 40
0
 40
1
 40
1
 40
1
 40
1
 10
231.506613
 20
317.648478
 30
0.0
 10
231.341891
 20
317.518232
 30
0.0
 10
231.200152
 20
317.370748
 30
0.0
 10
231.081399
 20
317.206025
 30
0.0
  0
LINE
  5
406
100
AcDbEntity
  8
Layer_1
 62
5
100
AcDbLine
 10
231.081399
 20
317.206025
 30
0.0
 11
230.931999
 21
318.142646
 31
0.0
  0
LINE
  5
407
100
AcDbEntity
  8
Layer_1
 62
5
100
AcDbLine
 10
230.931999
 20
318.142646
 30
0.0
 11
229.012787
 21
318.142646
 31
0.0
  0
LINE
  5
408
100
AcDbEntity
  8
Layer_1
 62
5
100
AcDbLine
 10
229.012787
 20
318.142646
 30
0.0
 11
229.012787
 21
311.931065
 31
0.0
  0
LINE
  5
409
100
AcDbEntity
  8
Layer_1
 62
5
100
AcDbLine
 10
229.012787
 20
311.931065
 30
0.0
 11
231.351467
 21
311.931065
 31
0.0
  0
LINE
  5
40a
100
AcDbEntity
  8
Layer_1
 62
5
100
AcDbLine
 10
231.351467
 20
311.931065
 30
0.0
 11
231.351467
 21
315.579866
 31
0.0
  0
SPLINE
  5
40b
100
AcDbEntity
  8
Layer_1
 62
5
100
AcDbSpline
 70
8
 71
3
 72
8
 73
4
 74
0
 40
0
 40
0
 40
0
 40
0
 40
1
 40
1
 40
1
 40
1
 10
231.351467
 20
315.579866
 30
0.0
 10
231.351467
 20
315.710112
 30
0.0
 10
231.374452
 20
315.834611
 30
0.0
 10
231.420421
 20
315.953365
 30
0.0
  0
SPLINE
  5
40c
100
AcDbEntity
  8
Layer_1
 62
5
100
AcDbSpline
 70
8
 71
3
 72
8
 73
4
 74
0
 40
0
 40
0
 40
0
 40
0
 40
1
 40
1
 40
1
 40
1
 10
231.420421
 20
315.953365
 30
0.0
 10
231.466391
 20
316.072119
 30
0.0
 10
231.531513
 20
316.175549
 30
0.0
 10
231.615790
 20
316.263657
 30
0.0
  0
SPLINE
  5
40d
100
AcDbEntity
  8
Layer_1
 62
5
100
AcDbSpline
 70
8
 71
3
 72
8
 73
4
 74
0
 40
0
 40
0
 40
0
 40
0
 40
1
 40
1
 40
1
 40
1
 10
231.615790
 20
316.263657
 30
0.0
 10
231.703898
 20
316.355595
 30
0.0
 10
231.807329
 20
316.426464
 30
0.0
 10
231.926082
 20
316.476264
 30
0.0
  0
SPLINE
  5
40e
100
AcDbEntity
  8
Layer_1
 62
5
100
AcDbSpline
 70
8
 71
3
 72
8
 73
4
 74
0
 40
0
 40
0
 40
0
 40
0
 40
1
 40
1
 40
1
 40
1
 10
231.926082
 20
316.476264
 30
0.0
 10
232.048667
 20
316.529895
 30
0.0
 10
232.182743
 20
316.556711
 30
0.0
 10
232.328312
 20
316.556711
 30
0.0
  0
SPLINE
  5
40f
100
AcDbEntity
  8
Layer_1
 62
5
100
AcDbSpline
 70
8
 71
3
 72
8
 73
4
 74
0
 40
0
 40
0
 40
0
 40
0
 40
1
 40
1
 40
1
 40
1
 10
232.328312
 20
316.556711
 30
0.0
 10
232.592635
 20
316.556711
 30
0.0
 10
232.789919
 20
316.474349
 30
0.0
 10
232.920165
 20
316.309626
 30
0.0
  0
SPLINE
  5
410
100
AcDbEntity
  8
Layer_1
 62
5
100
AcDbSpline
 70
8
 71
3
 72
8
 73
4
 74
0
 40
0
 40
0
 40
0
 40
0
 40
1
 40
1
 40
1
 40
1
 10
232.920165
 20
316.309626
 30
0.0
 10
233.054242
 20
316.144904
 30
0.0
 10
233.121280
 20
315.932296
 30
0.0
 10
233.121280
 20
315.671804
 30
0.0
  0
LINE
  5
411
100
AcDbEntity
  8
Layer_1
 62
5
100
AcDbLine
 10
233.121280
 20
315.671804
 30
0.0
 11
233.121280
 21
311.931065
 31
0.0
  0
LINE
  5
412
100
AcDbEntity
  8
Layer_1
 62
5
100
AcDbLine
 10
233.121280
 20
311.931065
 30
0.0
 11
235.459961
 21
311.931065
 31
0.0
  0
LINE
  5
413
100
AcDbEntity
  8
Layer_1
 62
5
100
AcDbLine
 10
235.459961
 20
311.931065
 30
0.0
 11
235.459961
 21
315.953365
 31
0.0
  0
SPLINE
  5
414
100
AcDbEntity
  8
Layer_1
 62
5
100
AcDbSpline
 70
8
 71
3
 72
8
 73
4
 74
0
 40
0
 40
0
 40
0
 40
0
 40
1
 40
1
 40
1
 40
1
 10
235.459961
 20
315.953365
 30
0.0
 10
235.459961
 20
316.321118
 30
0.0
 10
235.415907
 20
316.648649
 30
0.0
 10
235.327800
 20
316.935956
 30
0.0
  0
SPLINE
  5
415
100
AcDbEntity
  8
Layer_1
 62
5
100
AcDbSpline
 70
8
 71
3
 72
8
 73
4
 74
0
 40
0
 40
0
 40
0
 40
0
 40
1
 40
1
 40
1
 40
1
 10
235.327800
 20
316.935956
 30
0.0
 10
235.239692
 20
317.227094
 30
0.0
 10
235.105615
 20
317.472263
 30
0.0
 10
234.925569
 20
317.671462
 30
0.0
  0
SPLINE
  5
416
100
AcDbEntity
  8
Layer_1
 62
5
100
AcDbSpline
 70
8
 71
3
 72
8
 73
4
 74
0
 40
0
 40
0
 40
0
 40
0
 40
1
 40
1
 40
1
 40
1
 10
234.925569
 20
317.671462
 30
0.0
 10
234.749354
 20
317.870662
 30
0.0
 10
234.525254
 20
318.021977
 30
0.0
 10
234.253270
 20
318.125408
 30
0.0
  0
SPLINE
  5
417
100
AcDbEntity
  8
Layer_1
 62
5
100
AcDbSpline
 70
8
 71
3
 72
8
 73
4
 74
0
 40
0
 40
0
 40
0
 40
0
 40
1
 40
1
 40
1
 40
1
 10
234.253270
 20
318.125408
 30
0.0
 10
233.981286
 20
318.232669
 30
0.0
 10
233.661418
 20
318.286300
 30
0.0
 10
233.293665
 20
318.286300
 30
0.0
  0
LINE
  5
418
100
AcDbEntity
  8
Layer_1
 62
5
100
AcDbLine
 10
233.293665
 20
318.286300
 30
0.0
 11
233.293665
 21
318.286300
 31
0.0
  0
LINE
  5
419
100
AcDbEntity
  8
Layer_1
 62
5
100
AcDbLine
 10
239.298385
 20
318.142646
 30
0.0
 11
236.953958
 21
318.142646
 31
0.0
  0
LINE
  5
41a
100
AcDbEntity
  8
Layer_1
 62
5
100
AcDbLine
 10
236.953958
 20
318.142646
 30
0.0
 11
236.953958
 21
311.931065
 31
0.0
  0
LINE
  5
41b
100
AcDbEntity
  8
Layer_1
 62
5
100
AcDbLine
 10
236.953958
 20
311.931065
 30
0.0
 11
239.298385
 21
311.931065
 31
0.0
  0
LINE
  5
41c
100
AcDbEntity
  8
Layer_1
 62
5
100
AcDbLine
 10
239.298385
 20
311.931065
 30
0.0
 11
239.298385
 21
318.142646
 31
0.0
  0
LINE
  5
41d
100
AcDbEntity
  8
Layer_1
 62
5
100
AcDbLine
 10
239.298385
 20
320.464088
 30
0.0
 11
236.953958
 21
320.464088
 31
0.0
  0
LINE
  5
41e
100
AcDbEntity
  8
Layer_1
 62
5
100
AcDbLine
 10
236.953958
 20
320.464088
 30
0.0
 11
236.953958
 21
318.872406
 31
0.0
  0
LINE
  5
41f
100
AcDbEntity
  8
Layer_1
 62
5
100
AcDbLine
 10
236.953958
 20
318.872406
 30
0.0
 11
239.298385
 21
318.872406
 31
0.0
  0
LINE
  5
420
100
AcDbEntity
  8
Layer_1
 62
5
100
AcDbLine
 10
239.298385
 20
318.872406
 30
0.0
 11
239.298385
 21
320.464088
 31
0.0
  0
LINE
  5
421
100
AcDbEntity
  8
Layer_1
 62
5
100
AcDbLine
 10
243.228748
 20
320.464088
 30
0.0
 11
240.884321
 21
320.464088
 31
0.0
  0
LINE
  5
422
100
AcDbEntity
  8
Layer_1
 62
5
100
AcDbLine
 10
240.884321
 20
320.464088
 30
0.0
 11
240.884321
 21
311.931065
 31
0.0
  0
LINE
  5
423
100
AcDbEntity
  8
Layer_1
 62
5
100
AcDbLine
 10
240.884321
 20
311.931065
 30
0.0
 11
243.228748
 21
311.931065
 31
0.0
  0
LINE
  5
424
100
AcDbEntity
  8
Layer_1
 62
5
100
AcDbLine
 10
243.228748
 20
311.931065
 30
0.0
 11
243.228748
 21
320.464088
 31
0.0
  0
LINE
  5
425
100
AcDbEntity
  8
Layer_1
 62
5
100
AcDbLine
 10
247.159110
 20
320.464088
 30
0.0
 11
244.814683
 21
320.464088
 31
0.0
  0
LINE
  5
426
100
AcDbEntity
  8
Layer_1
 62
5
100
AcDbLine
 10
244.814683
 20
320.464088
 30
0.0
 11
244.814683
 21
311.931065
 31
0.0
  0
LINE
  5
427
100
AcDbEntity
  8
Layer_1
 62
5
100
AcDbLine
 10
244.814683
 20
311.931065
 30
0.0
 11
247.159110
 21
311.931065
 31
0.0
  0
LINE
  5
428
100
AcDbEntity
  8
Layer_1
 62
5
100
AcDbLine
 10
247.159110
 20
311.931065
 30
0.0
 11
247.159110
 21
320.464088
 31
0.0
  0
SPLINE
  5
429
100
AcDbEntity
  8
Layer_1
 62
5
100
AcDbSpline
 70
8
 71
3
 72
8
 73
4
 74
0
 40
0
 40
0
 40
0
 40
0
 40
1
 40
1
 40
1
 40
1
 10
251.733041
 20
318.286300
 30
0.0
 10
251.200564
 20
318.286300
 30
0.0
 10
250.731296
 20
318.240331
 30
0.0
 10
250.325235
 20
318.148392
 30
0.0
  0
SPLINE
  5
42a
100
AcDbEntity
  8
Layer_1
 62
5
100
AcDbSpline
 70
8
 71
3
 72
8
 73
4
 74
0
 40
0
 40
0
 40
0
 40
0
 40
1
 40
1
 40
1
 40
1
 10
250.325235
 20
318.148392
 30
0.0
 10
249.923005
 20
318.056454
 30
0.0
 10
249.583983
 20
317.926208
 30
0.0
 10
249.308168
 20
317.757655
 30
0.0
  0
SPLINE
  5
42b
100
AcDbEntity
  8
Layer_1
 62
5
100
AcDbSpline
 70
8
 71
3
 72
8
 73
4
 74
0
 40
0
 40
0
 40
0
 40
0
 40
1
 40
1
 40
1
 40
1
 10
249.308168
 20
317.757655
 30
0.0
 10
249.036184
 20
317.589101
 30
0.0
 10
248.831238
 20
317.386070
 30
0.0
 10
248.693330
 20
317.148563
 30
0.0
  0
SPLINE
  5
42c
100
AcDbEntity
  8
Layer_1
 62
5
100
AcDbSpline
 70
8
 71
3
 72
8
 73
4
 74
0
 40
0
 40
0
 40
0
 40
0
 40
1
 40
1
 40
1
 40
1
 10
248.693330
 20
317.148563
 30
0.0
 10
248.555423
 20
316.914887
 30
0.0
 10
248.486469
 20
316.654395
 30
0.0
 10
248.486469
 20
316.367088
 30
0.0
  0
SPLINE
  5
42d
100
AcDbEntity
  8
Layer_1
 62
5
100
AcDbSpline
 70
8
 71
3
 72
8
 73
4
 74
0
 40
0
 40
0
 40
0
 40
0
 40
1
 40
1
 40
1
 40
1
 10
248.486469
 20
316.367088
 30
0.0
 10
248.486469
 20
316.336441
 30
0.0
 10
248.486469
 20
316.307711
 30
0.0
 10
248.486469
 20
316.280896
 30
0.0
  0
SPLINE
  5
42e
100
AcDbEntity
  8
Layer_1
 62
5
100
AcDbSpline
 70
8
 71
3
 72
8
 73
4
 74
0
 40
0
 40
0
 40
0
 40
0
 40
1
 40
1
 40
1
 40
1
 10
248.486469
 20
316.280896
 30
0.0
 10
248.486469
 20
316.257911
 30
0.0
 10
248.490300
 20
316.231096
 30
0.0
 10
248.497962
 20
316.200449
 30
0.0
  0
LINE
  5
42f
100
AcDbEntity
  8
Layer_1
 62
5
100
AcDbLine
 10
248.497962
 20
316.200449
 30
0.0
 11
250.807911
 21
316.200449
 31
0.0
  0
LINE
  5
430
100
AcDbEntity
  8
Layer_1
 62
5
100
AcDbLine
 10
250.807911
 20
316.200449
 30
0.0
 11
250.807911
 21
316.252165
 31
0.0
  0
SPLINE
  5
431
100
AcDbEntity
  8
Layer_1
 62
5
100
AcDbSpline
 70
8
 71
3
 72
8
 73
4
 74
0
 40
0
 40
0
 40
0
 40
0
 40
1
 40
1
 40
1
 40
1
 10
250.807911
 20
316.252165
 30
0.0
 10
250.807911
 20
316.355595
 30
0.0
 10
250.834727
 20
316.441787
 30
0.0
 10
250.888357
 20
316.510741
 30
0.0
  0
SPLINE
  5
432
100
AcDbEntity
  8
Layer_1
 62
5
100
AcDbSpline
 70
8
 71
3
 72
8
 73
4
 74
0
 40
0
 40
0
 40
0
 40
0
 40
1
 40
1
 40
1
 40
1
 10
250.888357
 20
316.510741
 30
0.0
 10
250.941988
 20
316.579695
 30
0.0
 10
251.010942
 20
316.635241
 30
0.0
 10
251.095218
 20
316.677379
 30
0.0
  0
SPLINE
  5
433
100
AcDbEntity
  8
Layer_1
 62
5
100
AcDbSpline
 70
8
 71
3
 72
8
 73
4
 74
0
 40
0
 40
0
 40
0
 40
0
 40
1
 40
1
 40
1
 40
1
 10
251.095218
 20
316.677379
 30
0.0
 10
251.183326
 20
316.719518
 30
0.0
 10
251.279095
 20
316.748249
 30
0.0
 10
251.382526
 20
316.763572
 30
0.0
  0
SPLINE
  5
434
100
AcDbEntity
  8
Layer_1
 62
5
100
AcDbSpline
 70
8
 71
3
 72
8
 73
4
 74
0
 40
0
 40
0
 40
0
 40
0
 40
1
 40
1
 40
1
 40
1
 10
251.382526
 20
316.763572
 30
0.0
 10
251.489787
 20
316.782725
 30
0.0
 10
251.595133
 20
316.792302
 30
0.0
 10
251.698564
 20
316.792302
 30
0.0
  0
SPLINE
  5
435
100
AcDbEntity
  8
Layer_1
 62
5
100
AcDbSpline
 70
8
 71
3
 72
8
 73
4
 74
0
 40
0
 40
0
 40
0
 40
0
 40
1
 40
1
 40
1
 40
1
 10
251.698564
 20
316.792302
 30
0.0
 10
251.824979
 20
316.792302
 30
0.0
 10
251.943733
 20
316.776979
 30
0.0
 10
252.054825
 20
316.746333
 30
0.0
  0
SPLINE
  5
436
100
AcDbEntity
  8
Layer_1
 62
5
100
AcDbSpline
 70
8
 71
3
 72
8
 73
4
 74
0
 40
0
 40
0
 40
0
 40
0
 40
1
 40
1
 40
1
 40
1
 10
252.054825
 20
316.746333
 30
0.0
 10
252.165917
 20
316.715687
 30
0.0
 10
252.261686
 20
316.669718
 30
0.0
 10
252.342132
 20
316.608425
 30
0.0
  0
SPLINE
  5
437
100
AcDbEntity
  8
Layer_1
 62
5
100
AcDbSpline
 70
8
 71
3
 72
8
 73
4
 74
0
 40
0
 40
0
 40
0
 40
0
 40
1
 40
1
 40
1
 40
1
 10
252.342132
 20
316.608425
 30
0.0
 10
252.422578
 20
316.550964
 30
0.0
 10
252.485785
 20
316.474349
 30
0.0
 10
252.531755
 20
316.378580
 30
0.0
  0
SPLINE
  5
438
100
AcDbEntity
  8
Layer_1
 62
5
100
AcDbSpline
 70
8
 71
3
 72
8
 73
4
 74
0
 40
0
 40
0
 40
0
 40
0
 40
1
 40
1
 40
1
 40
1
 10
252.531755
 20
316.378580
 30
0.0
 10
252.581555
 20
316.286641
 30
0.0
 10
252.606455
 20
316.177465
 30
0.0
 10
252.606455
 20
316.051050
 30
0.0
  0
LINE
  5
439
100
AcDbEntity
  8
Layer_1
 62
5
100
AcDbLine
 10
252.606455
 20
316.051050
 30
0.0
 11
252.606455
 21
315.746504
 31
0.0
  0
SPLINE
  5
43a
100
AcDbEntity
  8
Layer_1
 62
5
100
AcDbSpline
 70
8
 71
3
 72
8
 73
4
 74
0
 40
0
 40
0
 40
0
 40
0
 40
1
 40
1
 40
1
 40
1
 10
252.606455
 20
315.746504
 30
0.0
 10
251.928410
 20
315.746504
 30
0.0
 10
251.323149
 20
315.717773
 30
0.0
 10
250.790673
 20
315.660312
 30
0.0
  0
SPLINE
  5
43b
100
AcDbEntity
  8
Layer_1
 62
5
100
AcDbSpline
 70
8
 71
3
 72
8
 73
4
 74
0
 40
0
 40
0
 40
0
 40
0
 40
1
 40
1
 40
1
 40
1
 10
250.790673
 20
315.660312
 30
0.0
 10
250.258197
 20
315.606681
 30
0.0
 10
249.808082
 20
315.499420
 30
0.0
 10
249.440329
 20
315.338528
 30
0.0
  0
SPLINE
  5
43c
100
AcDbEntity
  8
Layer_1
 62
5
100
AcDbSpline
 70
8
 71
3
 72
8
 73
4
 74
0
 40
0
 40
0
 40
0
 40
0
 40
1
 40
1
 40
1
 40
1
 10
249.440329
 20
315.338528
 30
0.0
 10
249.072576
 20
315.177636
 30
0.0
 10
248.791015
 20
314.951621
 30
0.0
 10
248.595646
 20
314.660483
 30
0.0
  0
SPLINE
  5
43d
100
AcDbEntity
  8
Layer_1
 62
5
100
AcDbSpline
 70
8
 71
3
 72
8
 73
4
 74
0
 40
0
 40
0
 40
0
 40
0
 40
1
 40
1
 40
1
 40
1
 10
248.595646
 20
314.660483
 30
0.0
 10
248.404108
 20
314.373176
 30
0.0
 10
248.308339
 20
313.997761
 30
0.0
 10
248.308339
 20
313.534239
 30
0.0
  0
SPLINE
  5
43e
100
AcDbEntity
  8
Layer_1
 62
5
100
AcDbSpline
 70
8
 71
3
 72
8
 73
4
 74
0
 40
0
 40
0
 40
0
 40
0
 40
1
 40
1
 40
1
 40
1
 10
248.308339
 20
313.534239
 30
0.0
 10
248.308339
 20
313.208624
 30
0.0
 10
248.361970
 20
312.934724
 30
0.0
 10
248.469231
 20
312.712540
 30
0.0
  0
SPLINE
  5
43f
100
AcDbEntity
  8
Layer_1
 62
5
100
AcDbSpline
 70
8
 71
3
 72
8
 73
4
 74
0
 40
0
 40
0
 40
0
 40
0
 40
1
 40
1
 40
1
 40
1
 10
248.469231
 20
312.712540
 30
0.0
 10
248.576492
 20
312.490356
 30
0.0
 10
248.725892
 20
312.310310
 30
0.0
 10
248.917430
 20
312.172402
 30
0.0
  0
SPLINE
  5
440
100
AcDbEntity
  8
Layer_1
 62
5
100
AcDbSpline
 70
8
 71
3
 72
8
 73
4
 74
0
 40
0
 40
0
 40
0
 40
0
 40
1
 40
1
 40
1
 40
1
 10
248.917430
 20
312.172402
 30
0.0
 10
249.108968
 20
312.034495
 30
0.0
 10
249.338814
 20
311.936811
 30
0.0
 10
249.606967
 20
311.879349
 30
0.0
  0
SPLINE
  5
441
100
AcDbEntity
  8
Layer_1
 62
5
100
AcDbSpline
 70
8
 71
3
 72
8
 73
4
 74
0
 40
0
 40
0
 40
0
 40
0
 40
1
 40
1
 40
1
 40
1
 10
249.606967
 20
311.879349
 30
0.0
 10
249.878951
 20
311.818057
 30
0.0
 10
250.175835
 20
311.787411
 30
0.0
 10
250.497620
 20
311.787411
 30
0.0
  0
SPLINE
  5
442
100
AcDbEntity
  8
Layer_1
 62
5
100
AcDbSpline
 70
8
 71
3
 72
8
 73
4
 74
0
 40
0
 40
0
 40
0
 40
0
 40
1
 40
1
 40
1
 40
1
 10
250.497620
 20
311.787411
 30
0.0
 10
250.769604
 20
311.787411
 30
0.0
 10
251.016688
 20
311.808480
 30
0.0
 10
251.238872
 20
311.850619
 30
0.0
  0
SPLINE
  5
443
100
AcDbEntity
  8
Layer_1
 62
5
100
AcDbSpline
 70
8
 71
3
 72
8
 73
4
 74
0
 40
0
 40
0
 40
0
 40
0
 40
1
 40
1
 40
1
 40
1
 10
251.238872
 20
311.850619
 30
0.0
 10
251.464887
 20
311.892757
 30
0.0
 10
251.671748
 20
311.950218
 30
0.0
 10
251.859456
 20
312.023003
 30
0.0
  0
SPLINE
  5
444
100
AcDbEntity
  8
Layer_1
 62
5
100
AcDbSpline
 70
8
 71
3
 72
8
 73
4
 74
0
 40
0
 40
0
 40
0
 40
0
 40
1
 40
1
 40
1
 40
1
 10
251.859456
 20
312.023003
 30
0.0
 10
252.047163
 20
312.095787
 30
0.0
 10
252.217632
 20
312.178149
 30
0.0
 10
252.370863
 20
312.270087
 30
0.0
  0
SPLINE
  5
445
100
AcDbEntity
  8
Layer_1
 62
5
100
AcDbSpline
 70
8
 71
3
 72
8
 73
4
 74
0
 40
0
 40
0
 40
0
 40
0
 40
1
 40
1
 40
1
 40
1
 10
252.370863
 20
312.270087
 30
0.0
 10
252.524093
 20
312.365856
 30
0.0
 10
252.665832
 20
312.465456
 30
0.0
 10
252.796077
 20
312.568887
 30
0.0
  0
SPLINE
  5
446
100
AcDbEntity
  8
Layer_1
 62
5
100
AcDbSpline
 70
8
 71
3
 72
8
 73
4
 74
0
 40
0
 40
0
 40
0
 40
0
 40
1
 40
1
 40
1
 40
1
 10
252.796077
 20
312.568887
 30
0.0
 10
252.903338
 20
312.331379
 30
0.0
 10
253.098707
 20
312.141757
 30
0.0
 10
253.382184
 20
312.000018
 30
0.0
  0
SPLINE
  5
447
100
AcDbEntity
  8
Layer_1
 62
5
100
AcDbSpline
 70
8
 71
3
 72
8
 73
4
 74
0
 40
0
 40
0
 40
0
 40
0
 40
1
 40
1
 40
1
 40
1
 10
253.382184
 20
312.000018
 30
0.0
 10
253.669491
 20
311.858280
 30
0.0
 10
254.050652
 20
311.787411
 30
0.0
 10
254.525667
 20
311.787411
 30
0.0
  0
SPLINE
  5
448
100
AcDbEntity
  8
Layer_1
 62
5
100
AcDbSpline
 70
8
 71
3
 72
8
 73
4
 74
0
 40
0
 40
0
 40
0
 40
0
 40
1
 40
1
 40
1
 40
1
 10
254.525667
 20
311.787411
 30
0.0
 10
254.721036
 20
311.787411
 30
0.0
 10
254.895335
 20
311.798903
 30
0.0
 10
255.048566
 20
311.821887
 30
0.0
  0
SPLINE
  5
449
100
AcDbEntity
  8
Layer_1
 62
5
100
AcDbSpline
 70
8
 71
3
 72
8
 73
4
 74
0
 40
0
 40
0
 40
0
 40
0
 40
1
 40
1
 40
1
 40
1
 10
255.048566
 20
311.821887
 30
0.0
 10
255.201796
 20
311.844872
 30
0.0
 10
255.330127
 20
311.871688
 30
0.0
 10
255.433557
 20
311.902334
 30
0.0
  0
SPLINE
  5
44a
100
AcDbEntity
  8
Layer_1
 62
5
100
AcDbSpline
 70
8
 71
3
 72
8
 73
4
 74
0
 40
0
 40
0
 40
0
 40
0
 40
1
 40
1
 40
1
 40
1
 10
255.433557
 20
311.902334
 30
0.0
 10
255.556142
 20
311.936811
 30
0.0
 10
255.661488
 20
311.977034
 30
0.0
 10
255.749595
 20
312.023003
 30
0.0
  0
LINE
  5
44b
100
AcDbEntity
  8
Layer_1
 62
5
100
AcDbLine
 10
255.749595
 20
312.023003
 30
0.0
 11
255.749595
 21
313.379093
 31
0.0
  0
LINE
  5
44c
100
AcDbEntity
  8
Layer_1
 62
5
100
AcDbLine
 10
255.749595
 20
313.379093
 30
0.0
 11
255.324380
 21
313.379093
 31
0.0
  0
SPLINE
  5
44d
100
AcDbEntity
  8
Layer_1
 62
5
100
AcDbSpline
 70
8
 71
3
 72
8
 73
4
 74
0
 40
0
 40
0
 40
0
 40
0
 40
1
 40
1
 40
1
 40
1
 10
255.324380
 20
313.379093
 30
0.0
 10
255.194135
 20
313.379093
 30
0.0
 10
255.098366
 20
313.423146
 30
0.0
 10
255.037073
 20
313.511254
 30
0.0
  0
SPLINE
  5
44e
100
AcDbEntity
  8
Layer_1
 62
5
100
AcDbSpline
 70
8
 71
3
 72
8
 73
4
 74
0
 40
0
 40
0
 40
0
 40
0
 40
1
 40
1
 40
1
 40
1
 10
255.037073
 20
313.511254
 30
0.0
 10
254.979612
 20
313.599362
 30
0.0
 10
254.950881
 20
313.708538
 30
0.0
 10
254.950881
 20
313.838784
 30
0.0
  0
LINE
  5
44f
100
AcDbEntity
  8
Layer_1
 62
5
100
AcDbLine
 10
254.950881
 20
313.838784
 30
0.0
 11
254.950881
 21
316.263657
 31
0.0
  0
SPLINE
  5
450
100
AcDbEntity
  8
Layer_1
 62
5
100
AcDbSpline
 70
8
 71
3
 72
8
 73
4
 74
0
 40
0
 40
0
 40
0
 40
0
 40
1
 40
1
 40
1
 40
1
 10
254.950881
 20
316.263657
 30
0.0
 10
254.950881
 20
316.646733
 30
0.0
 10
254.862774
 20
316.966602
 30
0.0
 10
254.686558
 20
317.223263
 30
0.0
  0
SPLINE
  5
451
100
AcDbEntity
  8
Layer_1
 62
5
100
AcDbSpline
 70
8
 71
3
 72
8
 73
4
 74
0
 40
0
 40
0
 40
0
 40
0
 40
1
 40
1
 40
1
 40
1
 10
254.686558
 20
317.223263
 30
0.0
 10
254.514174
 20
317.483755
 30
0.0
 10
254.278582
 20
317.692531
 30
0.0
 10
253.979783
 20
317.849593
 30
0.0
  0
SPLINE
  5
452
100
AcDbEntity
  8
Layer_1
 62
5
100
AcDbSpline
 70
8
 71
3
 72
8
 73
4
 74
0
 40
0
 40
0
 40
0
 40
0
 40
1
 40
1
 40
1
 40
1
 10
253.979783
 20
317.849593
 30
0.0
 10
253.684814
 20
318.006654
 30
0.0
 10
253.341961
 20
318.117747
 30
0.0
 10
252.951223
 20
318.182869
 30
0.0
  0
SPLINE
  5
453
100
AcDbEntity
  8
Layer_1
 62
5
100
AcDbSpline
 70
8
 71
3
 72
8
 73
4
 74
0
 40
0
 40
0
 40
0
 40
0
 40
1
 40
1
 40
1
 40
1
 10
252.951223
 20
318.182869
 30
0.0
 10
252.564316
 20
318.251823
 30
0.0
 10
252.158255
 20
318.286300
 30
0.0
 10
251.733041
 20
318.286300
 30
0.0
  0
LINE
  5
454
100
AcDbEntity
  8
Layer_1
 62
5
100
AcDbLine
 10
251.733041
 20
318.286300
 30
0.0
 11
251.733041
 21
318.286300
 31
0.0
  0
SPLINE
  5
455
100
AcDbEntity
  8
Layer_1
 62
5
100
AcDbSpline
 70
8
 71
3
 72
8
 73
4
 74
0
 40
0
 40
0
 40
0
 40
0
 40
1
 40
1
 40
1
 40
1
 10
252.606455
 20
314.108853
 30
0.0
 10
252.606455
 20
313.982438
 30
0.0
 10
252.573893
 20
313.865599
 30
0.0
 10
252.508770
 20
313.758338
 30
0.0
  0
SPLINE
  5
456
100
AcDbEntity
  8
Layer_1
 62
5
100
AcDbSpline
 70
8
 71
3
 72
8
 73
4
 74
0
 40
0
 40
0
 40
0
 40
0
 40
1
 40
1
 40
1
 40
1
 10
252.508770
 20
313.758338
 30
0.0
 10
252.447478
 20
313.654908
 30
0.0
 10
252.363201
 20
313.564885
 30
0.0
 10
252.255940
 20
313.488270
 30
0.0
  0
SPLINE
  5
457
100
AcDbEntity
  8
Layer_1
 62
5
100
AcDbSpline
 70
8
 71
3
 72
8
 73
4
 74
0
 40
0
 40
0
 40
0
 40
0
 40
1
 40
1
 40
1
 40
1
 10
252.255940
 20
313.488270
 30
0.0
 10
252.148678
 20
313.411654
 30
0.0
 10
252.024179
 20
313.352277
 30
0.0
 10
251.882441
 20
313.310139
 30
0.0
  0
SPLINE
  5
458
100
AcDbEntity
  8
Layer_1
 62
5
100
AcDbSpline
 70
8
 71
3
 72
8
 73
4
 74
0
 40
0
 40
0
 40
0
 40
0
 40
1
 40
1
 40
1
 40
1
 10
251.882441
 20
313.310139
 30
0.0
 10
251.744533
 20
313.268001
 30
0.0
 10
251.600879
 20
313.246932
 30
0.0
 10
251.451479
 20
313.246932
 30
0.0
  0
SPLINE
  5
459
100
AcDbEntity
  8
Layer_1
 62
5
100
AcDbSpline
 70
8
 71
3
 72
8
 73
4
 74
0
 40
0
 40
0
 40
0
 40
0
 40
1
 40
1
 40
1
 40
1
 10
251.451479
 20
313.246932
 30
0.0
 10
251.351880
 20
313.246932
 30
0.0
 10
251.254195
 20
313.254593
 30
0.0
 10
251.158426
 20
313.269916
 30
0.0
  0
SPLINE
  5
45a
100
AcDbEntity
  8
Layer_1
 62
5
100
AcDbSpline
 70
8
 71
3
 72
8
 73
4
 74
0
 40
0
 40
0
 40
0
 40
0
 40
1
 40
1
 40
1
 40
1
 10
251.158426
 20
313.269916
 30
0.0
 10
251.062657
 20
313.289070
 30
0.0
 10
250.976465
 20
313.319716
 30
0.0
 10
250.899850
 20
313.361854
 30
0.0
  0
SPLINE
  5
45b
100
AcDbEntity
  8
Layer_1
 62
5
100
AcDbSpline
 70
8
 71
3
 72
8
 73
4
 74
0
 40
0
 40
0
 40
0
 40
0
 40
1
 40
1
 40
1
 40
1
 10
250.899850
 20
313.361854
 30
0.0
 10
250.827065
 20
313.403993
 30
0.0
 10
250.767688
 20
313.463370
 30
0.0
 10
250.721719
 20
313.539985
 30
0.0
  0
SPLINE
  5
45c
100
AcDbEntity
  8
Layer_1
 62
5
100
AcDbSpline
 70
8
 71
3
 72
8
 73
4
 74
0
 40
0
 40
0
 40
0
 40
0
 40
1
 40
1
 40
1
 40
1
 10
250.721719
 20
313.539985
 30
0.0
 10
250.675750
 20
313.616600
 30
0.0
 10
250.652765
 20
313.716200
 30
0.0
 10
250.652765
 20
313.838784
 30
0.0
  0
SPLINE
  5
45d
100
AcDbEntity
  8
Layer_1
 62
5
100
AcDbSpline
 70
8
 71
3
 72
8
 73
4
 74
0
 40
0
 40
0
 40
0
 40
0
 40
1
 40
1
 40
1
 40
1
 10
250.652765
 20
313.838784
 30
0.0
 10
250.652765
 20
313.953707
 30
0.0
 10
250.689158
 20
314.059053
 30
0.0
 10
250.761943
 20
314.154822
 30
0.0
  0
SPLINE
  5
45e
100
AcDbEntity
  8
Layer_1
 62
5
100
AcDbSpline
 70
8
 71
3
 72
8
 73
4
 74
0
 40
0
 40
0
 40
0
 40
0
 40
1
 40
1
 40
1
 40
1
 10
250.761943
 20
314.154822
 30
0.0
 10
250.834727
 20
314.254422
 30
0.0
 10
250.949650
 20
314.338699
 30
0.0
 10
251.106711
 20
314.407653
 30
0.0
  0
SPLINE
  5
45f
100
AcDbEntity
  8
Layer_1
 62
5
100
AcDbSpline
 70
8
 71
3
 72
8
 73
4
 74
0
 40
0
 40
0
 40
0
 40
0
 40
1
 40
1
 40
1
 40
1
 10
251.106711
 20
314.407653
 30
0.0
 10
251.263772
 20
314.480437
 30
0.0
 10
251.464887
 20
314.535983
 30
0.0
 10
251.710056
 20
314.574291
 30
0.0
  0
SPLINE
  5
460
100
AcDbEntity
  8
Layer_1
 62
5
100
AcDbSpline
 70
8
 71
3
 72
8
 73
4
 74
0
 40
0
 40
0
 40
0
 40
0
 40
1
 40
1
 40
1
 40
1
 10
251.710056
 20
314.574291
 30
0.0
 10
251.959056
 20
314.616429
 30
0.0
 10
252.257855
 20
314.637498
 30
0.0
 10
252.606455
 20
314.637498
 30
0.0
  0
LINE
  5
461
100
AcDbEntity
  8
Layer_1
 62
5
100
AcDbLine
 10
252.606455
 20
314.637498
 30
0.0
 11
252.606455
 21
314.108853
 31
0.0
  0
LINE
  5
462
100
AcDbEntity
  8
Layer_1
 62
5
100
AcDbLine
 10
258.990420
 20
320.464088
 30
0.0
 11
256.651740
 21
320.464088
 31
0.0
  0
LINE
  5
463
100
AcDbEntity
  8
Layer_1
 62
5
100
AcDbLine
 10
256.651740
 20
320.464088
 30
0.0
 11
256.651740
 21
311.931065
 31
0.0
  0
LINE
  5
464
100
AcDbEntity
  8
Layer_1
 62
5
100
AcDbLine
 10
256.651740
 20
311.931065
 30
0.0
 11
258.559459
 21
311.931065
 31
0.0
  0
LINE
  5
465
100
AcDbEntity
  8
Layer_1
 62
5
100
AcDbLine
 10
258.559459
 20
311.931065
 30
0.0
 11
258.760575
 21
312.815971
 31
0.0
  0
SPLINE
  5
466
100
AcDbEntity
  8
Layer_1
 62
5
100
AcDbSpline
 70
8
 71
3
 72
8
 73
4
 74
0
 40
0
 40
0
 40
0
 40
0
 40
1
 40
1
 40
1
 40
1
 10
258.760575
 20
312.815971
 30
0.0
 10
258.990420
 20
312.467371
 30
0.0
 10
259.271981
 20
312.208795
 30
0.0
 10
259.605258
 20
312.040241
 30
0.0
  0
SPLINE
  5
467
100
AcDbEntity
  8
Layer_1
 62
5
100
AcDbSpline
 70
8
 71
3
 72
8
 73
4
 74
0
 40
0
 40
0
 40
0
 40
0
 40
1
 40
1
 40
1
 40
1
 10
259.605258
 20
312.040241
 30
0.0
 10
259.938534
 20
311.871688
 30
0.0
 10
260.315864
 20
311.787411
 30
0.0
 10
260.737248
 20
311.787411
 30
0.0
  0
SPLINE
  5
468
100
AcDbEntity
  8
Layer_1
 62
5
100
AcDbSpline
 70
8
 71
3
 72
8
 73
4
 74
0
 40
0
 40
0
 40
0
 40
0
 40
1
 40
1
 40
1
 40
1
 10
260.737248
 20
311.787411
 30
0.0
 10
261.147140
 20
311.787411
 30
0.0
 10
261.514893
 20
311.854449
 30
0.0
 10
261.840508
 20
311.988526
 30
0.0
  0
SPLINE
  5
469
100
AcDbEntity
  8
Layer_1
 62
5
100
AcDbSpline
 70
8
 71
3
 72
8
 73
4
 74
0
 40
0
 40
0
 40
0
 40
0
 40
1
 40
1
 40
1
 40
1
 10
261.840508
 20
311.988526
 30
0.0
 10
262.166123
 20
312.122602
 30
0.0
 10
262.440022
 20
312.325633
 30
0.0
 10
262.662207
 20
312.597617
 30
0.0
  0
SPLINE
  5
46a
100
AcDbEntity
  8
Layer_1
 62
5
100
AcDbSpline
 70
8
 71
3
 72
8
 73
4
 74
0
 40
0
 40
0
 40
0
 40
0
 40
1
 40
1
 40
1
 40
1
 10
262.662207
 20
312.597617
 30
0.0
 10
262.888222
 20
312.869601
 30
0.0
 10
263.060606
 20
313.208624
 30
0.0
 10
263.179360
 20
313.614685
 30
0.0
  0
SPLINE
  5
46b
100
AcDbEntity
  8
Layer_1
 62
5
100
AcDbSpline
 70
8
 71
3
 72
8
 73
4
 74
0
 40
0
 40
0
 40
0
 40
0
 40
1
 40
1
 40
1
 40
1
 10
263.179360
 20
313.614685
 30
0.0
 10
263.298113
 20
314.024576
 30
0.0
 10
263.357490
 20
314.503422
 30
0.0
 10
263.357490
 20
315.051221
 30
0.0
  0
SPLINE
  5
46c
100
AcDbEntity
  8
Layer_1
 62
5
100
AcDbSpline
 70
8
 71
3
 72
8
 73
4
 74
0
 40
0
 40
0
 40
0
 40
0
 40
1
 40
1
 40
1
 40
1
 10
263.357490
 20
315.051221
 30
0.0
 10
263.357490
 20
315.591358
 30
0.0
 10
263.298113
 20
316.064457
 30
0.0
 10
263.179360
 20
316.470518
 30
0.0
  0
SPLINE
  5
46d
100
AcDbEntity
  8
Layer_1
 62
5
100
AcDbSpline
 70
8
 71
3
 72
8
 73
4
 74
0
 40
0
 40
0
 40
0
 40
0
 40
1
 40
1
 40
1
 40
1
 10
263.179360
 20
316.470518
 30
0.0
 10
263.060606
 20
316.876579
 30
0.0
 10
262.888222
 20
317.213686
 30
0.0
 10
262.662207
 20
317.481840
 30
0.0
  0
SPLINE
  5
46e
100
AcDbEntity
  8
Layer_1
 62
5
100
AcDbSpline
 70
8
 71
3
 72
8
 73
4
 74
0
 40
0
 40
0
 40
0
 40
0
 40
1
 40
1
 40
1
 40
1
 10
262.662207
 20
317.481840
 30
0.0
 10
262.440022
 20
317.749993
 30
0.0
 10
262.166123
 20
317.951108
 30
0.0
 10
261.840508
 20
318.085185
 30
0.0
  0
SPLINE
  5
46f
100
AcDbEntity
  8
Layer_1
 62
5
100
AcDbSpline
 70
8
 71
3
 72
8
 73
4
 74
0
 40
0
 40
0
 40
0
 40
0
 40
1
 40
1
 40
1
 40
1
 10
261.840508
 20
318.085185
 30
0.0
 10
261.514893
 20
318.219262
 30
0.0
 10
261.147140
 20
318.286300
 30
0.0
 10
260.737248
 20
318.286300
 30
0.0
  0
SPLINE
  5
470
100
AcDbEntity
  8
Layer_1
 62
5
100
AcDbSpline
 70
8
 71
3
 72
8
 73
4
 74
0
 40
0
 40
0
 40
0
 40
0
 40
1
 40
1
 40
1
 40
1
 10
260.737248
 20
318.286300
 30
0.0
 10
260.380987
 20
318.286300
 30
0.0
 10
260.057288
 20
318.226923
 30
0.0
 10
259.766150
 20
318.108169
 30
0.0
  0
SPLINE
  5
471
100
AcDbEntity
  8
Layer_1
 62
5
100
AcDbSpline
 70
8
 71
3
 72
8
 73
4
 74
0
 40
0
 40
0
 40
0
 40
0
 40
1
 40
1
 40
1
 40
1
 10
259.766150
 20
318.108169
 30
0.0
 10
259.475012
 20
317.989416
 30
0.0
 10
259.216436
 20
317.809370
 30
0.0
 10
258.990420
 20
317.568032
 30
0.0
  0
LINE
  5
472
100
AcDbEntity
  8
Layer_1
 62
5
100
AcDbLine
 10
258.990420
 20
317.568032
 30
0.0
 11
258.990420
 21
320.464088
 31
0.0
  0
SPLINE
  5
473
100
AcDbEntity
  8
Layer_1
 62
5
100
AcDbSpline
 70
8
 71
3
 72
8
 73
4
 74
0
 40
0
 40
0
 40
0
 40
0
 40
1
 40
1
 40
1
 40
1
 10
260.007488
 20
316.556711
 30
0.0
 10
260.191365
 20
316.556711
 30
0.0
 10
260.346510
 20
316.527980
 30
0.0
 10
260.472926
 20
316.470518
 30
0.0
  0
SPLINE
  5
474
100
AcDbEntity
  8
Layer_1
 62
5
100
AcDbSpline
 70
8
 71
3
 72
8
 73
4
 74
0
 40
0
 40
0
 40
0
 40
0
 40
1
 40
1
 40
1
 40
1
 10
260.472926
 20
316.470518
 30
0.0
 10
260.603171
 20
316.413057
 30
0.0
 10
260.708518
 20
316.330695
 30
0.0
 10
260.788964
 20
316.223434
 30
0.0
  0
SPLINE
  5
475
100
AcDbEntity
  8
Layer_1
 62
5
100
AcDbSpline
 70
8
 71
3
 72
8
 73
4
 74
0
 40
0
 40
0
 40
0
 40
0
 40
1
 40
1
 40
1
 40
1
 10
260.788964
 20
316.223434
 30
0.0
 10
260.869410
 20
316.116173
 30
0.0
 10
260.926871
 20
315.987842
 30
0.0
 10
260.961348
 20
315.838442
 30
0.0
  0
SPLINE
  5
476
100
AcDbEntity
  8
Layer_1
 62
5
100
AcDbSpline
 70
8
 71
3
 72
8
 73
4
 74
0
 40
0
 40
0
 40
0
 40
0
 40
1
 40
1
 40
1
 40
1
 10
260.961348
 20
315.838442
 30
0.0
 10
260.999656
 20
315.692874
 30
0.0
 10
261.018809
 20
315.528151
 30
0.0
 10
261.018809
 20
315.344274
 30
0.0
  0
LINE
  5
477
100
AcDbEntity
  8
Layer_1
 62
5
100
AcDbLine
 10
261.018809
 20
315.344274
 30
0.0
 11
261.018809
 21
314.717944
 31
0.0
  0
SPLINE
  5
478
100
AcDbEntity
  8
Layer_1
 62
5
100
AcDbSpline
 70
8
 71
3
 72
8
 73
4
 74
0
 40
0
 40
0
 40
0
 40
0
 40
1
 40
1
 40
1
 40
1
 10
261.018809
 20
314.717944
 30
0.0
 10
261.018809
 20
314.534068
 30
0.0
 10
260.999656
 20
314.367430
 30
0.0
 10
260.961348
 20
314.218030
 30
0.0
  0
SPLINE
  5
479
100
AcDbEntity
  8
Layer_1
 62
5
100
AcDbSpline
 70
8
 71
3
 72
8
 73
4
 74
0
 40
0
 40
0
 40
0
 40
0
 40
1
 40
1
 40
1
 40
1
 10
260.961348
 20
314.218030
 30
0.0
 10
260.926871
 20
314.072461
 30
0.0
 10
260.869410
 20
313.947961
 30
0.0
 10
260.788964
 20
313.844530
 30
0.0
  0
SPLINE
  5
47a
100
AcDbEntity
  8
Layer_1
 62
5
100
AcDbSpline
 70
8
 71
3
 72
8
 73
4
 74
0
 40
0
 40
0
 40
0
 40
0
 40
1
 40
1
 40
1
 40
1
 10
260.788964
 20
313.844530
 30
0.0
 10
260.708518
 20
313.741100
 30
0.0
 10
260.603171
 20
313.660654
 30
0.0
 10
260.472926
 20
313.603193
 30
0.0
  0
SPLINE
  5
47b
100
AcDbEntity
  8
Layer_1
 62
5
100
AcDbSpline
 70
8
 71
3
 72
8
 73
4
 74
0
 40
0
 40
0
 40
0
 40
0
 40
1
 40
1
 40
1
 40
1
 10
260.472926
 20
313.603193
 30
0.0
 10
260.346510
 20
313.545731
 30
0.0
 10
260.191365
 20
313.517000
 30
0.0
 10
260.007488
 20
313.517000
 30
0.0
  0
SPLINE
  5
47c
100
AcDbEntity
  8
Layer_1
 62
5
100
AcDbSpline
 70
8
 71
3
 72
8
 73
4
 74
0
 40
0
 40
0
 40
0
 40
0
 40
1
 40
1
 40
1
 40
1
 10
260.007488
 20
313.517000
 30
0.0
 10
259.823611
 20
313.517000
 30
0.0
 10
259.666550
 20
313.551477
 30
0.0
 10
259.536304
 20
313.620431
 30
0.0
  0
SPLINE
  5
47d
100
AcDbEntity
  8
Layer_1
 62
5
100
AcDbSpline
 70
8
 71
3
 72
8
 73
4
 74
0
 40
0
 40
0
 40
0
 40
0
 40
1
 40
1
 40
1
 40
1
 10
259.536304
 20
313.620431
 30
0.0
 10
259.406058
 20
313.689385
 30
0.0
 10
259.298797
 20
313.783238
 30
0.0
 10
259.214520
 20
313.901992
 30
0.0
  0
SPLINE
  5
47e
100
AcDbEntity
  8
Layer_1
 62
5
100
AcDbSpline
 70
8
 71
3
 72
8
 73
4
 74
0
 40
0
 40
0
 40
0
 40
0
 40
1
 40
1
 40
1
 40
1
 10
259.214520
 20
313.901992
 30
0.0
 10
259.130243
 20
314.024576
 30
0.0
 10
259.067036
 20
314.164399
 30
0.0
 10
259.024897
 20
314.321461
 30
0.0
  0
SPLINE
  5
47f
100
AcDbEntity
  8
Layer_1
 62
5
100
AcDbSpline
 70
8
 71
3
 72
8
 73
4
 74
0
 40
0
 40
0
 40
0
 40
0
 40
1
 40
1
 40
1
 40
1
 10
259.024897
 20
314.321461
 30
0.0
 10
258.986590
 20
314.482352
 30
0.0
 10
258.967436
 20
314.654737
 30
0.0
 10
258.967436
 20
314.838613
 30
0.0
  0
LINE
  5
480
100
AcDbEntity
  8
Layer_1
 62
5
100
AcDbLine
 10
258.967436
 20
314.838613
 30
0.0
 11
258.967436
 21
315.223605
 31
0.0
  0
SPLINE
  5
481
100
AcDbEntity
  8
Layer_1
 62
5
100
AcDbSpline
 70
8
 71
3
 72
8
 73
4
 74
0
 40
0
 40
0
 40
0
 40
0
 40
1
 40
1
 40
1
 40
1
 10
258.967436
 20
315.223605
 30
0.0
 10
258.967436
 20
315.407481
 30
0.0
 10
258.986590
 20
315.579866
 30
0.0
 10
259.024897
 20
315.740758
 30
0.0
  0
SPLINE
  5
482
100
AcDbEntity
  8
Layer_1
 62
5
100
AcDbSpline
 70
8
 71
3
 72
8
 73
4
 74
0
 40
0
 40
0
 40
0
 40
0
 40
1
 40
1
 40
1
 40
1
 10
259.024897
 20
315.740758
 30
0.0
 10
259.067036
 20
315.901650
 30
0.0
 10
259.130243
 20
316.041473
 30
0.0
 10
259.214520
 20
316.160227
 30
0.0
  0
SPLINE
  5
483
100
AcDbEntity
  8
Layer_1
 62
5
100
AcDbSpline
 70
8
 71
3
 72
8
 73
4
 74
0
 40
0
 40
0
 40
0
 40
0
 40
1
 40
1
 40
1
 40
1
 10
259.214520
 20
316.160227
 30
0.0
 10
259.298797
 20
316.282811
 30
0.0
 10
259.406058
 20
316.378580
 30
0.0
 10
259.536304
 20
316.447534
 30
0.0
  0
SPLINE
  5
484
100
AcDbEntity
  8
Layer_1
 62
5
100
AcDbSpline
 70
8
 71
3
 72
8
 73
4
 74
0
 40
0
 40
0
 40
0
 40
0
 40
1
 40
1
 40
1
 40
1
 10
259.536304
 20
316.447534
 30
0.0
 10
259.666550
 20
316.520318
 30
0.0
 10
259.823611
 20
316.556711
 30
0.0
 10
260.007488
 20
316.556711
 30
0.0
  0
LINE
  5
485
100
AcDbEntity
  8
Layer_1
 62
5
100
AcDbLine
 10
260.007488
 20
316.556711
 30
0.0
 11
260.007488
 21
316.556711
 31
0.0
  0
SPLINE
  5
486
100
AcDbEntity
  8
Layer_1
 62
5
100
AcDbSpline
 70
8
 71
3
 72
8
 73
4
 74
0
 40
0
 40
0
 40
0
 40
0
 40
1
 40
1
 40
1
 40
1
 10
267.713067
 20
318.286300
 30
0.0
 10
267.184422
 20
318.286300
 30
0.0
 10
266.703663
 20
318.219262
 30
0.0
 10
266.270788
 20
318.085185
 30
0.0
  0
SPLINE
  5
487
100
AcDbEntity
  8
Layer_1
 62
5
100
AcDbSpline
 70
8
 71
3
 72
8
 73
4
 74
0
 40
0
 40
0
 40
0
 40
0
 40
1
 40
1
 40
1
 40
1
 10
266.270788
 20
318.085185
 30
0.0
 10
265.841741
 20
317.951108
 30
0.0
 10
265.473987
 20
317.748078
 30
0.0
 10
265.167528
 20
317.476094
 30
0.0
  0
SPLINE
  5
488
100
AcDbEntity
  8
Layer_1
 62
5
100
AcDbSpline
 70
8
 71
3
 72
8
 73
4
 74
0
 40
0
 40
0
 40
0
 40
0
 40
1
 40
1
 40
1
 40
1
 10
265.167528
 20
317.476094
 30
0.0
 10
264.864896
 20
317.207940
 30
0.0
 10
264.631219
 20
316.870833
 30
0.0
 10
264.466496
 20
316.464772
 30
0.0
  0
SPLINE
  5
489
100
AcDbEntity
  8
Layer_1
 62
5
100
AcDbSpline
 70
8
 71
3
 72
8
 73
4
 74
0
 40
0
 40
0
 40
0
 40
0
 40
1
 40
1
 40
1
 40
1
 10
264.466496
 20
316.464772
 30
0.0
 10
264.301773
 20
316.058711
 30
0.0
 10
264.219412
 20
315.583697
 30
0.0
 10
264.219412
 20
315.039728
 30
0.0
  0
SPLINE
  5
48a
100
AcDbEntity
  8
Layer_1
 62
5
100
AcDbSpline
 70
8
 71
3
 72
8
 73
4
 74
0
 40
0
 40
0
 40
0
 40
0
 40
1
 40
1
 40
1
 40
1
 10
264.219412
 20
315.039728
 30
0.0
 10
264.219412
 20
314.495760
 30
0.0
 10
264.301773
 20
314.018830
 30
0.0
 10
264.466496
 20
313.608939
 30
0.0
  0
SPLINE
  5
48b
100
AcDbEntity
  8
Layer_1
 62
5
100
AcDbSpline
 70
8
 71
3
 72
8
 73
4
 74
0
 40
0
 40
0
 40
0
 40
0
 40
1
 40
1
 40
1
 40
1
 10
264.466496
 20
313.608939
 30
0.0
 10
264.631219
 20
313.202878
 30
0.0
 10
264.864896
 20
312.863855
 30
0.0
 10
265.167528
 20
312.591871
 30
0.0
  0
SPLINE
  5
48c
100
AcDbEntity
  8
Layer_1
 62
5
100
AcDbSpline
 70
8
 71
3
 72
8
 73
4
 74
0
 40
0
 40
0
 40
0
 40
0
 40
1
 40
1
 40
1
 40
1
 10
265.167528
 20
312.591871
 30
0.0
 10
265.473987
 20
312.323718
 30
0.0
 10
265.841741
 20
312.122602
 30
0.0
 10
266.270788
 20
311.988526
 30
0.0
  0
SPLINE
  5
48d
100
AcDbEntity
  8
Layer_1
 62
5
100
AcDbSpline
 70
8
 71
3
 72
8
 73
4
 74
0
 40
0
 40
0
 40
0
 40
0
 40
1
 40
1
 40
1
 40
1
 10
266.270788
 20
311.988526
 30
0.0
 10
266.703663
 20
311.854449
 30
0.0
 10
267.184422
 20
311.787411
 30
0.0
 10
267.713067
 20
311.787411
 30
0.0
  0
SPLINE
  5
48e
100
AcDbEntity
  8
Layer_1
 62
5
100
AcDbSpline
 70
8
 71
3
 72
8
 73
4
 74
0
 40
0
 40
0
 40
0
 40
0
 40
1
 40
1
 40
1
 40
1
 10
267.713067
 20
311.787411
 30
0.0
 10
268.241712
 20
311.787411
 30
0.0
 10
268.722472
 20
311.854449
 30
0.0
 10
269.155346
 20
311.988526
 30
0.0
  0
SPLINE
  5
48f
100
AcDbEntity
  8
Layer_1
 62
5
100
AcDbSpline
 70
8
 71
3
 72
8
 73
4
 74
0
 40
0
 40
0
 40
0
 40
0
 40
1
 40
1
 40
1
 40
1
 10
269.155346
 20
311.988526
 30
0.0
 10
269.588225
 20
312.122602
 30
0.0
 10
269.955978
 20
312.323718
 30
0.0
 10
270.258606
 20
312.591871
 30
0.0
  0
SPLINE
  5
490
100
AcDbEntity
  8
Layer_1
 62
5
100
AcDbSpline
 70
8
 71
3
 72
8
 73
4
 74
0
 40
0
 40
0
 40
0
 40
0
 40
1
 40
1
 40
1
 40
1
 10
270.258606
 20
312.591871
 30
0.0
 10
270.565069
 20
312.863855
 30
0.0
 10
270.800662
 20
313.202878
 30
0.0
 10
270.965385
 20
313.608939
 30
0.0
  0
SPLINE
  5
491
100
AcDbEntity
  8
Layer_1
 62
5
100
AcDbSpline
 70
8
 71
3
 72
8
 73
4
 74
0
 40
0
 40
0
 40
0
 40
0
 40
1
 40
1
 40
1
 40
1
 10
270.965385
 20
313.608939
 30
0.0
 10
271.133939
 20
314.018830
 30
0.0
 10
271.218216
 20
314.495760
 30
0.0
 10
271.218216
 20
315.039728
 30
0.0
  0
SPLINE
  5
492
100
AcDbEntity
  8
Layer_1
 62
5
100
AcDbSpline
 70
8
 71
3
 72
8
 73
4
 74
0
 40
0
 40
0
 40
0
 40
0
 40
1
 40
1
 40
1
 40
1
 10
271.218216
 20
315.039728
 30
0.0
 10
271.218216
 20
315.583697
 30
0.0
 10
271.133939
 20
316.058711
 30
0.0
 10
270.965385
 20
316.464772
 30
0.0
  0
SPLINE
  5
493
100
AcDbEntity
  8
Layer_1
 62
5
100
AcDbSpline
 70
8
 71
3
 72
8
 73
4
 74
0
 40
0
 40
0
 40
0
 40
0
 40
1
 40
1
 40
1
 40
1
 10
270.965385
 20
316.464772
 30
0.0
 10
270.800662
 20
316.870833
 30
0.0
 10
270.565069
 20
317.207940
 30
0.0
 10
270.258606
 20
317.476094
 30
0.0
  0
SPLINE
  5
494
100
AcDbEntity
  8
Layer_1
 62
5
100
AcDbSpline
 70
8
 71
3
 72
8
 73
4
 74
0
 40
0
 40
0
 40
0
 40
0
 40
1
 40
1
 40
1
 40
1
 10
270.258606
 20
317.476094
 30
0.0
 10
269.955978
 20
317.748078
 30
0.0
 10
269.588225
 20
317.951108
 30
0.0
 10
269.155346
 20
318.085185
 30
0.0
  0
SPLINE
  5
495
100
AcDbEntity
  8
Layer_1
 62
5
100
AcDbSpline
 70
8
 71
3
 72
8
 73
4
 74
0
 40
0
 40
0
 40
0
 40
0
 40
1
 40
1
 40
1
 40
1
 10
269.155346
 20
318.085185
 30
0.0
 10
268.722472
 20
318.219262
 30
0.0
 10
268.241712
 20
318.286300
 30
0.0
 10
267.713067
 20
318.286300
 30
0.0
  0
LINE
  5
496
100
AcDbEntity
  8
Layer_1
 62
5
100
AcDbLine
 10
267.713067
 20
318.286300
 30
0.0
 11
267.713067
 21
318.286300
 31
0.0
  0
SPLINE
  5
497
100
AcDbEntity
  8
Layer_1
 62
5
100
AcDbSpline
 70
8
 71
3
 72
8
 73
4
 74
0
 40
0
 40
0
 40
0
 40
0
 40
1
 40
1
 40
1
 40
1
 10
267.713067
 20
316.694618
 30
0.0
 10
267.919929
 20
316.694618
 30
0.0
 10
268.096143
 20
316.663972
 30
0.0
 10
268.241710
 20
316.602679
 30
0.0
  0
SPLINE
  5
498
100
AcDbEntity
  8
Layer_1
 62
5
100
AcDbSpline
 70
8
 71
3
 72
8
 73
4
 74
0
 40
0
 40
0
 40
0
 40
0
 40
1
 40
1
 40
1
 40
1
 10
268.241710
 20
316.602679
 30
0.0
 10
268.387281
 20
316.541387
 30
0.0
 10
268.507950
 20
316.453280
 30
0.0
 10
268.603716
 20
316.338357
 30
0.0
  0
SPLINE
  5
499
100
AcDbEntity
  8
Layer_1
 62
5
100
AcDbSpline
 70
8
 71
3
 72
8
 73
4
 74
0
 40
0
 40
0
 40
0
 40
0
 40
1
 40
1
 40
1
 40
1
 10
268.603716
 20
316.338357
 30
0.0
 10
268.699487
 20
316.223434
 30
0.0
 10
268.768442
 20
316.083611
 30
0.0
 10
268.810580
 20
315.918888
 30
0.0
  0
SPLINE
  5
49a
100
AcDbEntity
  8
Layer_1
 62
5
100
AcDbSpline
 70
8
 71
3
 72
8
 73
4
 74
0
 40
0
 40
0
 40
0
 40
0
 40
1
 40
1
 40
1
 40
1
 10
268.810580
 20
315.918888
 30
0.0
 10
268.856550
 20
315.757996
 30
0.0
 10
268.879535
 20
315.574120
 30
0.0
 10
268.879535
 20
315.367259
 30
0.0
  0
LINE
  5
49b
100
AcDbEntity
  8
Layer_1
 62
5
100
AcDbLine
 10
268.879535
 20
315.367259
 30
0.0
 11
268.879535
 21
314.694960
 31
0.0
  0
SPLINE
  5
49c
100
AcDbEntity
  8
Layer_1
 62
5
100
AcDbSpline
 70
8
 71
3
 72
8
 73
4
 74
0
 40
0
 40
0
 40
0
 40
0
 40
1
 40
1
 40
1
 40
1
 10
268.879535
 20
314.694960
 30
0.0
 10
268.879535
 20
314.285068
 30
0.0
 10
268.787595
 20
313.963284
 30
0.0
 10
268.603716
 20
313.729607
 30
0.0
  0
SPLINE
  5
49d
100
AcDbEntity
  8
Layer_1
 62
5
100
AcDbSpline
 70
8
 71
3
 72
8
 73
4
 74
0
 40
0
 40
0
 40
0
 40
0
 40
1
 40
1
 40
1
 40
1
 10
268.603716
 20
313.729607
 30
0.0
 10
268.419842
 20
313.495931
 30
0.0
 10
268.122959
 20
313.379093
 30
0.0
 10
267.713067
 20
313.379093
 30
0.0
  0
SPLINE
  5
49e
100
AcDbEntity
  8
Layer_1
 62
5
100
AcDbSpline
 70
8
 71
3
 72
8
 73
4
 74
0
 40
0
 40
0
 40
0
 40
0
 40
1
 40
1
 40
1
 40
1
 10
267.713067
 20
313.379093
 30
0.0
 10
267.506206
 20
313.379093
 30
0.0
 10
267.329991
 20
313.407823
 30
0.0
 10
267.184424
 20
313.465285
 30
0.0
  0
SPLINE
  5
49f
100
AcDbEntity
  8
Layer_1
 62
5
100
AcDbSpline
 70
8
 71
3
 72
8
 73
4
 74
0
 40
0
 40
0
 40
0
 40
0
 40
1
 40
1
 40
1
 40
1
 10
267.184424
 20
313.465285
 30
0.0
 10
267.038853
 20
313.526577
 30
0.0
 10
266.920098
 20
313.612769
 30
0.0
 10
266.828158
 20
313.723861
 30
0.0
  0
SPLINE
  5
4a0
100
AcDbEntity
  8
Layer_1
 62
5
100
AcDbSpline
 70
8
 71
3
 72
8
 73
4
 74
0
 40
0
 40
0
 40
0
 40
0
 40
1
 40
1
 40
1
 40
1
 10
266.828158
 20
313.723861
 30
0.0
 10
266.736223
 20
313.838784
 30
0.0
 10
266.667271
 20
313.976692
 30
0.0
 10
266.621301
 20
314.137584
 30
0.0
  0
SPLINE
  5
4a1
100
AcDbEntity
  8
Layer_1
 62
5
100
AcDbSpline
 70
8
 71
3
 72
8
 73
4
 74
0
 40
0
 40
0
 40
0
 40
0
 40
1
 40
1
 40
1
 40
1
 10
266.621301
 20
314.137584
 30
0.0
 10
266.579163
 20
314.302307
 30
0.0
 10
266.558093
 20
314.488099
 30
0.0
 10
266.558093
 20
314.694960
 30
0.0
  0
LINE
  5
4a2
100
AcDbEntity
  8
Layer_1
 62
5
100
AcDbLine
 10
266.558093
 20
314.694960
 30
0.0
 11
266.558093
 21
315.367259
 31
0.0
  0
SPLINE
  5
4a3
100
AcDbEntity
  8
Layer_1
 62
5
100
AcDbSpline
 70
8
 71
3
 72
8
 73
4
 74
0
 40
0
 40
0
 40
0
 40
0
 40
1
 40
1
 40
1
 40
1
 10
266.558093
 20
315.367259
 30
0.0
 10
266.558093
 20
315.574120
 30
0.0
 10
266.579163
 20
315.757996
 30
0.0
 10
266.621301
 20
315.918888
 30
0.0
  0
SPLINE
  5
4a4
100
AcDbEntity
  8
Layer_1
 62
5
100
AcDbSpline
 70
8
 71
3
 72
8
 73
4
 74
0
 40
0
 40
0
 40
0
 40
0
 40
1
 40
1
 40
1
 40
1
 10
266.621301
 20
315.918888
 30
0.0
 10
266.667271
 20
316.083611
 30
0.0
 10
266.736223
 20
316.223434
 30
0.0
 10
266.828158
 20
316.338357
 30
0.0
  0
SPLINE
  5
4a5
100
AcDbEntity
  8
Layer_1
 62
5
100
AcDbSpline
 70
8
 71
3
 72
8
 73
4
 74
0
 40
0
 40
0
 40
0
 40
0
 40
1
 40
1
 40
1
 40
1
 10
266.828158
 20
316.338357
 30
0.0
 10
266.920098
 20
316.453280
 30
0.0
 10
267.038853
 20
316.541387
 30
0.0
 10
267.184424
 20
316.602679
 30
0.0
  0
SPLINE
  5
4a6
100
AcDbEntity
  8
Layer_1
 62
5
100
AcDbSpline
 70
8
 71
3
 72
8
 73
4
 74
0
 40
0
 40
0
 40
0
 40
0
 40
1
 40
1
 40
1
 40
1
 10
267.184424
 20
316.602679
 30
0.0
 10
267.329991
 20
316.663972
 30
0.0
 10
267.506206
 20
316.694618
 30
0.0
 10
267.713067
 20
316.694618
 30
0.0
  0
LINE
  5
4a7
100
AcDbEntity
  8
Layer_1
 62
5
100
AcDbLine
 10
267.713067
 20
316.694618
 30
0.0
 11
267.713067
 21
316.694618
 31
0.0
  0
LINE
  5
4a8
100
AcDbEntity
  8
Layer_1
 62
5
100
AcDbLine
 10
278.889320
 20
318.142646
 30
0.0
 11
276.303554
 21
318.142646
 31
0.0
  0
LINE
  5
4a9
100
AcDbEntity
  8
Layer_1
 62
5
100
AcDbLine
 10
276.303554
 20
318.142646
 30
0.0
 11
275.315216
 21
316.499249
 31
0.0
  0
LINE
  5
4aa
100
AcDbEntity
  8
Layer_1
 62
5
100
AcDbLine
 10
275.315216
 20
316.499249
 30
0.0
 11
275.263502
 21
316.499249
 31
0.0
  0
LINE
  5
4ab
100
AcDbEntity
  8
Layer_1
 62
5
100
AcDbLine
 10
275.263502
 20
316.499249
 30
0.0
 11
274.275164
 21
318.142646
 31
0.0
  0
LINE
  5
4ac
100
AcDbEntity
  8
Layer_1
 62
5
100
AcDbLine
 10
274.275164
 20
318.142646
 30
0.0
 11
271.522762
 21
318.142646
 31
0.0
  0
LINE
  5
4ad
100
AcDbEntity
  8
Layer_1
 62
5
100
AcDbLine
 10
271.522762
 20
318.142646
 30
0.0
 11
273.677567
 21
315.223605
 31
0.0
  0
LINE
  5
4ae
100
AcDbEntity
  8
Layer_1
 62
5
100
AcDbLine
 10
273.677567
 20
315.223605
 30
0.0
 11
271.287171
 21
311.931065
 31
0.0
  0
LINE
  5
4af
100
AcDbEntity
  8
Layer_1
 62
5
100
AcDbLine
 10
271.287171
 20
311.931065
 30
0.0
 11
273.890171
 21
311.931065
 31
0.0
  0
LINE
  5
4b0
100
AcDbEntity
  8
Layer_1
 62
5
100
AcDbLine
 10
273.890171
 20
311.931065
 30
0.0
 11
275.079625
 21
313.884754
 31
0.0
  0
LINE
  5
4b1
100
AcDbEntity
  8
Layer_1
 62
5
100
AcDbLine
 10
275.079625
 20
313.884754
 30
0.0
 11
275.125593
 21
313.884754
 31
0.0
  0
LINE
  5
4b2
100
AcDbEntity
  8
Layer_1
 62
5
100
AcDbLine
 10
275.125593
 20
313.884754
 30
0.0
 11
276.303554
 21
311.931065
 31
0.0
  0
LINE
  5
4b3
100
AcDbEntity
  8
Layer_1
 62
5
100
AcDbLine
 10
276.303554
 20
311.931065
 30
0.0
 11
279.032969
 21
311.931065
 31
0.0
  0
LINE
  5
4b4
100
AcDbEntity
  8
Layer_1
 62
5
100
AcDbLine
 10
279.032969
 20
311.931065
 30
0.0
 11
276.700034
 21
315.166144
 31
0.0
  0
LINE
  5
4b5
100
AcDbEntity
  8
Layer_1
 62
5
100
AcDbLine
 10
276.700034
 20
315.166144
 30
0.0
 11
278.889320
 21
318.142646
 31
0.0
  0
ENDSEC
  0
SECTION
  2
OBJECTS
  0
DICTIONARY
  5
C
330
0
100
AcDbDictionary
  3
ACAD_GROUP
350
D
  3
ACAD_MLINESTYLE
350
17
  0
DICTIONARY
  5
D
330
C
100
AcDbDictionary
  0
DICTIONARY
  5
1A
330
C
100
AcDbDictionary
  0
DICTIONARY
  5
17
330
C
100
AcDbDictionary
  3
STANDARD
350
18
  0
DICTIONARY
  5
19
330
C
100
AcDbDictionary
  0
ENDSEC
  0
EOF
