  0
SECTION
  2
HEADER
  9
$ACADVER
  1
AC1009
  9
$DWGCODEPAGE
  3
ansi_1252
  9
$INSBASE
 10
0.0
 20
0.0
 30
0.0
  9
$EXTMIN
 10
0.8013422818791933
 20
0.4912751677852349
 30
0.0
  9
$EXTMAX
 10
21.16912751677853
 20
11.29127516778524
 30
0.0
  9
$LIMMIN
 10
0.0
 20
0.0
  9
$LIMMAX
 10
12.0
 20
9.0
  9
$ORTHOMODE
 70
     0
  9
$REGENMODE
 70
     1
  9
$FILLMODE
 70
     1
  9
$QTEXTMODE
 70
     0
  9
$MIRRTEXT
 70
     1
  9
$DRAGMODE
 70
     2
  9
$LTSCALE
 40
1.0
  9
$OSMODE
 70
    37
  9
$ATTMODE
 70
     1
  9
$TEXTSIZE
 40
0.2
  9
$TRACEWID
 40
0.05
  9
$TEXTSTYLE
  7
STANDARD
  9
$CLAYER
  8
0
  9
$CELTYPE
  6
BYLAYER
  9
$CECOLOR
 62
   256
  9
$DIMSCALE
 40
1.0
  9
$DIMASZ
 40
0.18
  9
$DIMEXO
 40
0.0625
  9
$DIMDLI
 40
0.38
  9
$DIMRND
 40
0.0
  9
$DIMDLE
 40
0.0
  9
$DIMEXE
 40
0.18
  9
$DIMTP
 40
0.0
  9
$DIMTM
 40
0.0
  9
$DIMTXT
 40
0.18
  9
$DIMCEN
 40
0.09
  9
$DIMTSZ
 40
0.0
  9
$DIMTOL
 70
     0
  9
$DIMLIM
 70
     0
  9
$DIMTIH
 70
     1
  9
$DIMTOH
 70
     1
  9
$DIMSE1
 70
     0
  9
$DIMSE2
 70
     0
  9
$DIMTAD
 70
     0
  9
$DIMZIN
 70
     0
  9
$DIMBLK
  1

  9
$DIMASO
 70
     1
  9
$DIMSHO
 70
     1
  9
$DIMPOST
  1

  9
$DIMAPOST
  1

  9
$DIMALT
 70
     0
  9
$DIMALTD
 70
     2
  9
$DIMALTF
 40
25.4
  9
$DIMLFAC
 40
1.0
  9
$DIMTOFL
 70
     0
  9
$DIMTVP
 40
0.0
  9
$DIMTIX
 70
     0
  9
$DIMSOXD
 70
     0
  9
$DIMSAH
 70
     0
  9
$DIMBLK1
  1

  9
$DIMBLK2
  1

  9
$DIMSTYLE
  2
STANDARD
  9
$DIMCLRD
 70
     0
  9
$DIMCLRE
 70
     0
  9
$DIMCLRT
 70
     0
  9
$DIMTFAC
 40
1.0
  9
$DIMGAP
 40
0.09
  9
$LUNITS
 70
     2
  9
$LUPREC
 70
     4
  9
$SKETCHINC
 40
0.1
  9
$FILLETRAD
 40
0.5
  9
$AUNITS
 70
     0
  9
$AUPREC
 70
     0
  9
$MENU
  1
.
  9
$ELEVATION
 40
0.0
  9
$PELEVATION
 40
0.0
  9
$THICKNESS
 40
0.0
  9
$LIMCHECK
 70
     0
  9
$CHAMFERA
 40
0.0
  9
$CHAMFERB
 40
0.0
  9
$SKPOLY
 70
     0
  9
$TDCREATE
 40
2454910.5
  9
$TDUPDATE
 40
2458419.586453518
  9
$TDINDWG
 40
0.0000000116
  9
$TDUSRTIMER
 40
0.0000000116
  9
$USRTIMER
 70
     1
  9
$ANGBASE
 50
0.0
  9
$ANGDIR
 70
     0
  9
$PDMODE
 70
     0
  9
$PDSIZE
 40
0.0
  9
$PLINEWID
 40
0.0
  9
$COORDS
 70
     1
  9
$SPLFRAME
 70
     0
  9
$SPLINETYPE
 70
     6
  9
$SPLINESEGS
 70
     8
  9
$ATTDIA
 70
     0
  9
$ATTREQ
 70
     1
  9
$HANDLING
 70
     1
  9
$HANDSEED
  5
C3F
  9
$SURFTAB1
 70
     6
  9
$SURFTAB2
 70
     6
  9
$SURFTYPE
 70
     6
  9
$SURFU
 70
     6
  9
$SURFV
 70
     6
  9
$UCSNAME
  2

  9
$UCSORG
 10
0.0
 20
0.0
 30
0.0
  9
$UCSXDIR
 10
1.0
 20
0.0
 30
0.0
  9
$UCSYDIR
 10
0.0
 20
1.0
 30
0.0
  9
$PUCSNAME
  2

  9
$PUCSORG
 10
0.0
 20
0.0
 30
0.0
  9
$PUCSXDIR
 10
1.0
 20
0.0
 30
0.0
  9
$PUCSYDIR
 10
0.0
 20
1.0
 30
0.0
  9
$USERI1
 70
     0
  9
$USERI2
 70
     0
  9
$USERI3
 70
     0
  9
$USERI4
 70
     0
  9
$USERI5
 70
     0
  9
$USERR1
 40
0.0
  9
$USERR2
 40
0.0
  9
$USERR3
 40
0.0
  9
$USERR4
 40
0.0
  9
$USERR5
 40
0.0
  9
$WORLDVIEW
 70
     1
  9
$SHADEDGE
 70
     3
  9
$SHADEDIF
 70
    70
  9
$TILEMODE
 70
     1
  9
$MAXACTVP
 70
    64
  9
$PLIMCHECK
 70
     0
  9
$PEXTMIN
 10
1.000000000000000E+20
 20
1.000000000000000E+20
 30
1.000000000000000E+20
  9
$PEXTMAX
 10
-1.000000000000000E+20
 20
-1.000000000000000E+20
 30
-1.000000000000000E+20
  9
$PLIMMIN
 10
0.0
 20
0.0
  9
$PLIMMAX
 10
12.0
 20
9.0
  9
$UNITMODE
 70
     0
  9
$VISRETAIN
 70
     1
  9
$PLINEGEN
 70
     0
  9
$PSLTSCALE
 70
     1
  0
ENDSEC
  0
SECTION
  2
TABLES
  0
TABLE
  2
VPORT
 70
     1
  0
VPORT
  2
*ACTIVE
 70
     0
 10
0.0
 20
0.0
 11
1.0
 21
1.0
 12
10.42990654205607
 22
4.5
 13
0.0
 23
0.0
 14
0.5
 24
0.5
 15
0.5
 25
0.5
 16
0.0
 26
0.0
 36
1.0
 17
0.0
 27
0.0
 37
0.0
 40
9.0
 41
1.972972972850329
 42
50.0
 43
0.0
 44
0.0
 50
0.0
 51
0.0
 71
     0
 72
   100
 73
     1
 74
     3
 75
     0
 76
     0
 77
     0
 78
     0
  0
ENDTAB
  0
TABLE
  2
LTYPE
 70
     2
  0
LTYPE
  2
CONTINUOUS
 70
     0
  3
Solid line
 72
    65
 73
     0
 40
0.0
  0
LTYPE
  2
CONTINUOUS2
 70
     0
  3
Solid Line
 72
    65
 73
     0
 40
0.0
  0
ENDTAB
  0
TABLE
  2
LAYER
 70
     2
  0
LAYER
  2
0
 70
     0
 62
     7
  6
CONTINUOUS
  0
LAYER
  2
LAYER_1
 70
     0
 62
    18
  6
CONTINUOUS
  0
ENDTAB
  0
TABLE
  2
STYLE
 70
     1
  0
STYLE
  2
STANDARD
 70
     0
 40
0.0
 41
1.0
 50
0.0
 71
     0
 42
0.2
  3
txt
  4

  0
ENDTAB
  0
TABLE
  2
VIEW
 70
     0
  0
ENDTAB
  0
TABLE
  2
UCS
 70
     0
  0
ENDTAB
  0
TABLE
  2
APPID
 70
     1
  0
APPID
  2
ACAD
 70
     0
  0
ENDTAB
  0
TABLE
  2
DIMSTYLE
 70
     1
  0
DIMSTYLE
  2
STANDARD
 70
     0
  3

  4

  5

  6

  7

 40
1.0
 41
0.18
 42
0.0625
 43
0.38
 44
0.18
 45
0.0
 46
0.0
 47
0.0
 48
0.0
140
0.18
141
0.09
142
0.0
143
25.4
144
1.0
145
0.0
146
1.0
147
0.09
 71
     0
 72
     0
 73
     1
 74
     1
 75
     0
 76
     0
 77
     0
 78
     0
170
     0
171
     2
172
     0
173
     0
174
     0
175
     0
176
     0
177
     0
178
     0
  0
ENDTAB
  0
ENDSEC
  0
SECTION
  2
BLOCKS
  0
BLOCK
  8
0
  2
$MODEL_SPACE
 70
     0
 10
0.0
 20
0.0
 30
0.0
  3
$MODEL_SPACE
  1

  0
ENDBLK
  5
21
  8
0
  0
BLOCK
 67
     1
  8
0
  2
$PAPER_SPACE
 70
     0
 10
0.0
 20
0.0
 30
0.0
  3
$PAPER_SPACE
  1

  0
ENDBLK
  5
1D
 67
     1
  8
0
  0
ENDSEC
  0
SECTION
  2
ENTITIES
  0
POLYLINE
  5
6C
  8
LAYER_1
 66
     1
 10
0.0
 20
0.0
 30
0.0
 70
     1
  0
VERTEX
  5
90
  8
LAYER_1
 10
2.221624024879084
 20
6.576269516876549
 30
0.0
 42
0.7785029320989688
  0
VERTEX
  5
91
  8
LAYER_1
 10
5.115467258307394
 20
2.127483437789069
 30
0.0
  0
VERTEX
  5
92
  8
LAYER_1
 10
9.870011830802952
 20
5.220216240525168
 30
0.0
  0
VERTEX
  5
93
  8
LAYER_1
 10
6.976168597374642
 20
9.669002319612648
 30
0.0
  0
SEQEND
  5
C22
  8
LAYER_1
  0
POLYLINE
  5
6D
  8
LAYER_1
 66
     1
 10
0.0
 20
0.0
 30
0.0
 70
     1
  0
VERTEX
  5
94
  8
LAYER_1
 10
5.609112455021855
 20
8.84278508822594
 30
0.0
 42
0.4142135623730951
  0
VERTEX
  5
95
  8
LAYER_1
 10
2.30441506316564
 20
5.538087696369727
 30
0.0
 42
0.4142135623730951
  0
VERTEX
  5
96
  8
LAYER_1
 10
5.609112455021855
 20
2.233390304513515
 30
0.0
 42
0.4142135623730951
  0
VERTEX
  5
97
  8
LAYER_1
 10
8.913809846878067
 20
5.538087696369727
 30
0.0
 42
0.4142135623730951
  0
SEQEND
  5
C23
  8
LAYER_1
  0
POLYLINE
  5
6E
  8
LAYER_1
 66
     1
 10
0.0
 20
0.0
 30
0.0
 70
     1
  0
VERTEX
  5
98
  8
LAYER_1
 10
5.946546878884661
 20
6.213397025240966
 30
0.0
  0
VERTEX
  5
99
  8
LAYER_1
 10
5.966789978236109
 20
6.202929075354284
 30
0.0
  0
VERTEX
  5
9A
  8
LAYER_1
 10
5.986656921040137
 20
6.191851030457586
 30
0.0
  0
VERTEX
  5
9B
  8
LAYER_1
 10
6.006136902756079
 20
6.180178498879872
 30
0.0
  0
VERTEX
  5
9C
  8
LAYER_1
 10
6.025219118843271
 20
6.167927088950146
 30
0.0
  0
VERTEX
  5
9D
  8
LAYER_1
 10
7.850063767010983
 20
7.221519085884501
 30
0.0
  0
VERTEX
  5
9E
  8
LAYER_1
 10
7.828947496064108
 20
7.249247884342687
 30
0.0
  0
VERTEX
  5
9F
  8
LAYER_1
 10
7.807495208556955
 20
7.276705388556445
 30
0.0
  0
VERTEX
  5
A0
  8
LAYER_1
 10
7.78570991242977
 20
7.303888510488706
 30
0.0
  0
VERTEX
  5
A1
  8
LAYER_1
 10
7.763594615622798
 20
7.330794162102398
 30
0.0
  0
VERTEX
  5
A2
  8
LAYER_1
 10
7.741152326076291
 20
7.357419255360451
 30
0.0
  0
VERTEX
  5
A3
  8
LAYER_1
 10
7.718386051730493
 20
7.383760702225793
 30
0.0
  0
VERTEX
  5
A4
  8
LAYER_1
 10
7.695298800525651
 20
7.409815414661355
 30
0.0
  0
VERTEX
  5
A5
  8
LAYER_1
 10
7.671893580402015
 20
7.435580304630065
 30
0.0
  0
VERTEX
  5
A6
  8
LAYER_1
 10
7.64817339929983
 20
7.461052284094853
 30
0.0
  0
VERTEX
  5
A7
  8
LAYER_1
 10
7.624141265159345
 20
7.486228265018648
 30
0.0
  0
VERTEX
  5
A8
  8
LAYER_1
 10
7.599800185920806
 20
7.511105159364379
 30
0.0
  0
VERTEX
  5
A9
  8
LAYER_1
 10
7.57515316952446
 20
7.535679879094975
 30
0.0
  0
VERTEX
  5
AA
  8
LAYER_1
 10
7.550203223910557
 20
7.559949336173366
 30
0.0
  0
VERTEX
  5
AB
  8
LAYER_1
 10
7.52495335701934
 20
7.583910442562481
 30
0.0
  0
VERTEX
  5
AC
  8
LAYER_1
 10
7.49940657679106
 20
7.607560110225249
 30
0.0
  0
VERTEX
  5
AD
  8
LAYER_1
 10
7.473565891165963
 20
7.630895251124599
 30
0.0
  0
VERTEX
  5
AE
  8
LAYER_1
 10
7.447434308084296
 20
7.653912777223461
 30
0.0
  0
VERTEX
  5
AF
  8
LAYER_1
 10
7.421014835486307
 20
7.676609600484763
 30
0.0
  0
VERTEX
  5
B0
  8
LAYER_1
 10
7.394310481312243
 20
7.698982632871436
 30
0.0
  0
VERTEX
  5
B1
  8
LAYER_1
 10
7.367324253502352
 20
7.721028786346408
 30
0.0
  0
VERTEX
  5
B2
  8
LAYER_1
 10
7.340059159996878
 20
7.742744972872608
 30
0.0
  0
VERTEX
  5
B3
  8
LAYER_1
 10
7.312518208736073
 20
7.764128104412967
 30
0.0
  0
VERTEX
  5
B4
  8
LAYER_1
 10
7.284704407660181
 20
7.785175092930412
 30
0.0
  0
VERTEX
  5
B5
  8
LAYER_1
 10
7.256620764709451
 20
7.805882850387873
 30
0.0
  0
VERTEX
  5
B6
  8
LAYER_1
 10
7.228270287824129
 20
7.826248288748279
 30
0.0
  0
VERTEX
  5
B7
  8
LAYER_1
 10
7.199655984944465
 20
7.846268319974561
 30
0.0
  0
VERTEX
  5
B8
  8
LAYER_1
 10
7.170780864010703
 20
7.865939856029646
 30
0.0
  0
VERTEX
  5
B9
  8
LAYER_1
 10
7.141647932963092
 20
7.885259808876466
 30
0.0
  0
VERTEX
  5
BA
  8
LAYER_1
 10
7.112260199741879
 20
7.904225090477947
 30
0.0
  0
VERTEX
  5
BB
  8
LAYER_1
 10
7.082620672287312
 20
7.922832612797019
 30
0.0
  0
VERTEX
  5
BC
  8
LAYER_1
 10
7.052732358539636
 20
7.941079287796612
 30
0.0
  0
VERTEX
  5
BD
  8
LAYER_1
 10
7.022598266439101
 20
7.958962027439656
 30
0.0
  0
VERTEX
  5
BE
  8
LAYER_1
 10
6.992221403925953
 20
7.976477743689079
 30
0.0
  0
VERTEX
  5
BF
  8
LAYER_1
 10
6.96160477894044
 20
7.993623348507811
 30
0.0
  0
VERTEX
  5
C0
  8
LAYER_1
 10
6.930751399422808
 20
8.010395753858779
 30
0.0
  0
VERTEX
  5
C1
  8
LAYER_1
 10
6.899664273313306
 20
8.026791871704916
 30
0.0
  0
VERTEX
  5
C2
  8
LAYER_1
 10
6.868346408552179
 20
8.042808614009148
 30
0.0
  0
VERTEX
  5
C3
  8
LAYER_1
 10
6.836800813079678
 20
8.058442892734405
 30
0.0
  0
VERTEX
  5
C4
  8
LAYER_1
 10
6.805030494836048
 20
8.073691619843618
 30
0.0
  0
VERTEX
  5
C5
  8
LAYER_1
 10
6.773038461761534
 20
8.088551707299715
 30
0.0
  0
VERTEX
  5
C6
  8
LAYER_1
 10
6.740827721796388
 20
8.103020067065625
 30
0.0
  0
VERTEX
  5
C7
  8
LAYER_1
 10
6.708401282880854
 20
8.117093611104277
 30
0.0
  0
VERTEX
  5
C8
  8
LAYER_1
 10
6.67576215295518
 20
8.130769251378602
 30
0.0
  0
VERTEX
  5
C9
  8
LAYER_1
 10
6.642913339959614
 20
8.144043899851528
 30
0.0
  0
VERTEX
  5
CA
  8
LAYER_1
 10
6.609857851834404
 20
8.156914468485983
 30
0.0
  0
VERTEX
  5
CB
  8
LAYER_1
 10
6.576598696519794
 20
8.169377869244897
 30
0.0
  0
VERTEX
  5
CC
  8
LAYER_1
 10
6.543138881956035
 20
8.1814310140912
 30
0.0
  0
VERTEX
  5
CD
  8
LAYER_1
 10
6.509481416083373
 20
8.19307081498782
 30
0.0
  0
VERTEX
  5
CE
  8
LAYER_1
 10
6.475629306842055
 20
8.204294183897689
 30
0.0
  0
VERTEX
  5
CF
  8
LAYER_1
 10
6.441585562172328
 20
8.215098032783734
 30
0.0
  0
VERTEX
  5
D0
  8
LAYER_1
 10
6.40735319001444
 20
8.225479273608885
 30
0.0
  0
VERTEX
  5
D1
  8
LAYER_1
 10
6.372935198308639
 20
8.23543481833607
 30
0.0
  0
VERTEX
  5
D2
  8
LAYER_1
 10
6.33833459499517
 20
8.24496157892822
 30
0.0
  0
VERTEX
  5
D3
  8
LAYER_1
 10
6.303554388014282
 20
8.254056467348262
 30
0.0
  0
VERTEX
  5
D4
  8
LAYER_1
 10
6.268597585306223
 20
8.262716395559126
 30
0.0
  0
VERTEX
  5
D5
  8
LAYER_1
 10
6.233467194811238
 20
8.270938275523743
 30
0.0
  0
VERTEX
  5
D6
  8
LAYER_1
 10
6.198166224469577
 20
8.278719019205042
 30
0.0
  0
VERTEX
  5
D7
  8
LAYER_1
 10
6.162697682221485
 20
8.28605553856595
 30
0.0
  0
VERTEX
  5
D8
  8
LAYER_1
 10
6.127064576007211
 20
8.292944745569397
 30
0.0
  0
VERTEX
  5
D9
  8
LAYER_1
 10
6.091269913767
 20
8.299383552178313
 30
0.0
  0
VERTEX
  5
DA
  8
LAYER_1
 10
6.055316703441102
 20
8.305368870355629
 30
0.0
  0
VERTEX
  5
DB
  8
LAYER_1
 10
6.019207952969763
 20
8.31089761206427
 30
0.0
  0
VERTEX
  5
DC
  8
LAYER_1
 10
5.982946670293232
 20
8.315966689267167
 30
0.0
  0
VERTEX
  5
DD
  8
LAYER_1
 10
5.946535863351754
 20
8.32057301392725
 30
0.0
  0
SEQEND
  5
C24
  8
LAYER_1
  0
POLYLINE
  5
6F
  8
LAYER_1
 66
     1
 10
0.0
 20
0.0
 30
0.0
 70
     1
  0
VERTEX
  5
DE
  8
LAYER_1
 10
3.3681652952764
 20
7.221455551050364
 30
0.0
  0
VERTEX
  5
DF
  8
LAYER_1
 10
3.389802269703464
 20
7.249902103152124
 30
0.0
  0
VERTEX
  5
E0
  8
LAYER_1
 10
3.411772840018758
 20
7.278034666342526
 30
0.0
  0
VERTEX
  5
E1
  8
LAYER_1
 10
3.43407331563162
 20
7.305851115865234
 30
0.0
  0
VERTEX
  5
E2
  8
LAYER_1
 10
3.456700005951389
 20
7.333349326963916
 30
0.0
  0
VERTEX
  5
E3
  8
LAYER_1
 10
3.479649220387405
 20
7.360527174882238
 30
0.0
  0
VERTEX
  5
E4
  8
LAYER_1
 10
3.502917268349008
 20
7.387382534863866
 30
0.0
  0
VERTEX
  5
E5
  8
LAYER_1
 10
3.526500459245536
 20
7.413913282152464
 30
0.0
  0
VERTEX
  5
E6
  8
LAYER_1
 10
3.550395102486328
 20
7.440117291991703
 30
0.0
  0
VERTEX
  5
E7
  8
LAYER_1
 10
3.574597507480724
 20
7.465992439625245
 30
0.0
  0
VERTEX
  5
E8
  8
LAYER_1
 10
3.599103983638063
 20
7.491536600296756
 30
0.0
  0
VERTEX
  5
E9
  8
LAYER_1
 10
3.623910840367684
 20
7.516747649249904
 30
0.0
  0
VERTEX
  5
EA
  8
LAYER_1
 10
3.649014387078928
 20
7.541623461728355
 30
0.0
  0
VERTEX
  5
EB
  8
LAYER_1
 10
3.674410933181132
 20
7.566161912975774
 30
0.0
  0
VERTEX
  5
EC
  8
LAYER_1
 10
3.700096788083637
 20
7.590360878235828
 30
0.0
  0
VERTEX
  5
ED
  8
LAYER_1
 10
3.72606826119578
 20
7.614218232752181
 30
0.0
  0
VERTEX
  5
EE
  8
LAYER_1
 10
3.752321661926903
 20
7.637731851768503
 30
0.0
  0
VERTEX
  5
EF
  8
LAYER_1
 10
3.778853299686343
 20
7.660899610528457
 30
0.0
  0
VERTEX
  5
F0
  8
LAYER_1
 10
3.805659483883441
 20
7.683719384275711
 30
0.0
  0
VERTEX
  5
F1
  8
LAYER_1
 10
3.832736523927535
 20
7.706189048253929
 30
0.0
  0
VERTEX
  5
F2
  8
LAYER_1
 10
3.860080729227965
 20
7.728306477706779
 30
0.0
  0
VERTEX
  5
F3
  8
LAYER_1
 10
3.88768840919407
 20
7.750069547877926
 30
0.0
  0
VERTEX
  5
F4
  8
LAYER_1
 10
3.915555873235188
 20
7.771476134011036
 30
0.0
  0
VERTEX
  5
F5
  8
LAYER_1
 10
3.943679430760661
 20
7.792524111349776
 30
0.0
  0
VERTEX
  5
F6
  8
LAYER_1
 10
3.972055391179827
 20
7.813211355137812
 30
0.0
  0
VERTEX
  5
F7
  8
LAYER_1
 10
4.000680063902024
 20
7.833535740618809
 30
0.0
  0
VERTEX
  5
F8
  8
LAYER_1
 10
4.029549758336593
 20
7.853495143036435
 30
0.0
  0
VERTEX
  5
F9
  8
LAYER_1
 10
4.058660783892872
 20
7.873087437634354
 30
0.0
  0
VERTEX
  5
FA
  8
LAYER_1
 10
4.0880094499802
 20
7.892310499656233
 30
0.0
  0
VERTEX
  5
FB
  8
LAYER_1
 10
4.117592066007919
 20
7.911162204345739
 30
0.0
  0
VERTEX
  5
FC
  8
LAYER_1
 10
4.147404941385365
 20
7.929640426946537
 30
0.0
  0
VERTEX
  5
FD
  8
LAYER_1
 10
4.177444385521879
 20
7.947743042702293
 30
0.0
  0
VERTEX
  5
FE
  8
LAYER_1
 10
4.2077067078268
 20
7.965467926856673
 30
0.0
  0
VERTEX
  5
FF
  8
LAYER_1
 10
4.238188217709467
 20
7.982812954653345
 30
0.0
  0
VERTEX
  5
100
  8
LAYER_1
 10
4.268885224579219
 20
7.999776001335974
 30
0.0
  0
VERTEX
  5
101
  8
LAYER_1
 10
4.299794037845396
 20
8.016354942148226
 30
0.0
  0
VERTEX
  5
102
  8
LAYER_1
 10
4.330910966917337
 20
8.032547652333765
 30
0.0
  0
VERTEX
  5
103
  8
LAYER_1
 10
4.362232321204381
 20
8.048352007136259
 30
0.0
  0
VERTEX
  5
104
  8
LAYER_1
 10
4.393754410115867
 20
8.063765881799377
 30
0.0
  0
VERTEX
  5
105
  8
LAYER_1
 10
4.425473543061136
 20
8.07878715156678
 30
0.0
  0
VERTEX
  5
106
  8
LAYER_1
 10
4.457386029449523
 20
8.093413691682137
 30
0.0
  0
VERTEX
  5
107
  8
LAYER_1
 10
4.489488178690372
 20
8.107643377389113
 30
0.0
  0
VERTEX
  5
108
  8
LAYER_1
 10
4.52177630019302
 20
8.121474083931375
 30
0.0
  0
VERTEX
  5
109
  8
LAYER_1
 10
4.554246703366807
 20
8.134903686552589
 30
0.0
  0
VERTEX
  5
10A
  8
LAYER_1
 10
4.586895697621072
 20
8.147930060496419
 30
0.0
  0
VERTEX
  5
10B
  8
LAYER_1
 10
4.619719592365155
 20
8.160551081006535
 30
0.0
  0
VERTEX
  5
10C
  8
LAYER_1
 10
4.652714697008395
 20
8.1727646233266
 30
0.0
  0
VERTEX
  5
10D
  8
LAYER_1
 10
4.685877320960129
 20
8.184568562700282
 30
0.0
  0
VERTEX
  5
10E
  8
LAYER_1
 10
4.719203773629698
 20
8.195960774371244
 30
0.0
  0
VERTEX
  5
10F
  8
LAYER_1
 10
4.752690364426442
 20
8.206939133583155
 30
0.0
  0
VERTEX
  5
110
  8
LAYER_1
 10
4.786333402759699
 20
8.21750151557968
 30
0.0
  0
VERTEX
  5
111
  8
LAYER_1
 10
4.82012919803881
 20
8.227645795604488
 30
0.0
  0
VERTEX
  5
112
  8
LAYER_1
 10
4.854074059673112
 20
8.237369848901242
 30
0.0
  0
VERTEX
  5
113
  8
LAYER_1
 10
4.888164297071945
 20
8.246671550713609
 30
0.0
  0
VERTEX
  5
114
  8
LAYER_1
 10
4.922396219644649
 20
8.255548776285254
 30
0.0
  0
VERTEX
  5
115
  8
LAYER_1
 10
4.956766136800563
 20
8.263999400859845
 30
0.0
  0
VERTEX
  5
116
  8
LAYER_1
 10
4.991270357949026
 20
8.272021299681047
 30
0.0
  0
VERTEX
  5
117
  8
LAYER_1
 10
5.025905192499377
 20
8.279612347992526
 30
0.0
  0
VERTEX
  5
118
  8
LAYER_1
 10
5.060666949860956
 20
8.286770421037946
 30
0.0
  0
VERTEX
  5
119
  8
LAYER_1
 10
5.095551939443101
 20
8.293493394060977
 30
0.0
  0
VERTEX
  5
11A
  8
LAYER_1
 10
5.130556470655153
 20
8.299779142305283
 30
0.0
  0
VERTEX
  5
11B
  8
LAYER_1
 10
5.165676852906451
 20
8.305625541014532
 30
0.0
  0
VERTEX
  5
11C
  8
LAYER_1
 10
5.200909395606333
 20
8.311030465432388
 30
0.0
  0
VERTEX
  5
11D
  8
LAYER_1
 10
5.236250408164139
 20
8.315991790802517
 30
0.0
  0
VERTEX
  5
11E
  8
LAYER_1
 10
5.271696199989208
 20
8.320507392368588
 30
0.0
  0
VERTEX
  5
11F
  8
LAYER_1
 10
5.271714366941401
 20
6.213324203237338
 30
0.0
  0
VERTEX
  5
120
  8
LAYER_1
 10
5.251524949945017
 20
6.202852011751002
 30
0.0
  0
VERTEX
  5
121
  8
LAYER_1
 10
5.231665523969268
 20
6.191779885912521
 30
0.0
  0
VERTEX
  5
122
  8
LAYER_1
 10
5.212149700040333
 20
6.180115976819083
 30
0.0
  0
VERTEX
  5
123
  8
LAYER_1
 10
5.192991089184396
 20
6.167868435567873
 30
0.0
  0
SEQEND
  5
C25
  8
LAYER_1
  0
POLYLINE
  5
70
  8
LAYER_1
 66
     1
 10
0.0
 20
0.0
 30
0.0
 70
     1
  0
VERTEX
  5
124
  8
LAYER_1
 10
5.946528099201419
 20
2.755672530079492
 30
0.0
  0
VERTEX
  5
125
  8
LAYER_1
 10
5.981887245976596
 20
2.760178042712818
 30
0.0
  0
VERTEX
  5
126
  8
LAYER_1
 10
6.017145123507023
 20
2.765127489741231
 30
0.0
  0
VERTEX
  5
127
  8
LAYER_1
 10
6.052298002673169
 20
2.770518846523623
 30
0.0
  0
VERTEX
  5
128
  8
LAYER_1
 10
6.087342154355502
 20
2.776350088418882
 30
0.0
  0
VERTEX
  5
129
  8
LAYER_1
 10
6.122273849434489
 20
2.782619190785899
 30
0.0
  0
VERTEX
  5
12A
  8
LAYER_1
 10
6.157089358790599
 20
2.789324128983566
 30
0.0
  0
VERTEX
  5
12B
  8
LAYER_1
 10
6.191784953304299
 20
2.796462878370771
 30
0.0
  0
VERTEX
  5
12C
  8
LAYER_1
 10
6.226356903856058
 20
2.804033414306404
 30
0.0
  0
VERTEX
  5
12D
  8
LAYER_1
 10
6.260801481326341
 20
2.812033712149355
 30
0.0
  0
VERTEX
  5
12E
  8
LAYER_1
 10
6.295114956595619
 20
2.820461747258516
 30
0.0
  0
VERTEX
  5
12F
  8
LAYER_1
 10
6.329293600544358
 20
2.829315494992776
 30
0.0
  0
VERTEX
  5
130
  8
LAYER_1
 10
6.363333684053027
 20
2.838592930711025
 30
0.0
  0
VERTEX
  5
131
  8
LAYER_1
 10
6.397231478002094
 20
2.848292029772153
 30
0.0
  0
VERTEX
  5
132
  8
LAYER_1
 10
6.430983253272026
 20
2.85841076753505
 30
0.0
  0
VERTEX
  5
133
  8
LAYER_1
 10
6.464585280743291
 20
2.868947119358607
 30
0.0
  0
VERTEX
  5
134
  8
LAYER_1
 10
6.498033831296357
 20
2.879899060601713
 30
0.0
  0
VERTEX
  5
135
  8
LAYER_1
 10
6.531325175811692
 20
2.891264566623259
 30
0.0
  0
VERTEX
  5
136
  8
LAYER_1
 10
6.564455585169764
 20
2.903041612782135
 30
0.0
  0
VERTEX
  5
137
  8
LAYER_1
 10
6.59742133025104
 20
2.915228174437231
 30
0.0
  0
VERTEX
  5
138
  8
LAYER_1
 10
6.630218681935988
 20
2.927822226947436
 30
0.0
  0
VERTEX
  5
139
  8
LAYER_1
 10
6.662843911105077
 20
2.940821745671642
 30
0.0
  0
VERTEX
  5
13A
  8
LAYER_1
 10
6.695293288638774
 20
2.954224705968739
 30
0.0
  0
VERTEX
  5
13B
  8
LAYER_1
 10
6.727563085417546
 20
2.968029083197615
 30
0.0
  0
VERTEX
  5
13C
  8
LAYER_1
 10
6.759649572321862
 20
2.982232852717162
 30
0.0
  0
VERTEX
  5
13D
  8
LAYER_1
 10
6.791549020232191
 20
2.99683398988627
 30
0.0
  0
VERTEX
  5
13E
  8
LAYER_1
 10
6.823257700028998
 20
3.011830470063829
 30
0.0
  0
VERTEX
  5
13F
  8
LAYER_1
 10
6.854771882592753
 20
3.027220268608729
 30
0.0
  0
VERTEX
  5
140
  8
LAYER_1
 10
6.886087838803924
 20
3.04300136087986
 30
0.0
  0
VERTEX
  5
141
  8
LAYER_1
 10
6.917201839542978
 20
3.059171722236112
 30
0.0
  0
VERTEX
  5
142
  8
LAYER_1
 10
6.948110155690381
 20
3.075729328036375
 30
0.0
  0
VERTEX
  5
143
  8
LAYER_1
 10
6.978809058126604
 20
3.09267215363954
 30
0.0
  0
VERTEX
  5
144
  8
LAYER_1
 10
7.009294817732115
 20
3.109998174404496
 30
0.0
  0
VERTEX
  5
145
  8
LAYER_1
 10
7.039563705387379
 20
3.127705365690134
 30
0.0
  0
VERTEX
  5
146
  8
LAYER_1
 10
7.069611991972866
 20
3.145791702855343
 30
0.0
  0
VERTEX
  5
147
  8
LAYER_1
 10
7.099435948369043
 20
3.164255161259015
 30
0.0
  0
VERTEX
  5
148
  8
LAYER_1
 10
7.129031845456377
 20
3.183093716260038
 30
0.0
  0
VERTEX
  5
149
  8
LAYER_1
 10
7.158395954115338
 20
3.202305343217304
 30
0.0
  0
VERTEX
  5
14A
  8
LAYER_1
 10
7.187524545226394
 20
3.221888017489702
 30
0.0
  0
VERTEX
  5
14B
  8
LAYER_1
 10
7.21641388967001
 20
3.241839714436122
 30
0.0
  0
VERTEX
  5
14C
  8
LAYER_1
 10
7.245060258326656
 20
3.262158409415456
 30
0.0
  0
VERTEX
  5
14D
  8
LAYER_1
 10
7.273459922076798
 20
3.282842077786591
 30
0.0
  0
VERTEX
  5
14E
  8
LAYER_1
 10
7.301609151800907
 20
3.303888694908419
 30
0.0
  0
VERTEX
  5
14F
  8
LAYER_1
 10
7.32950421837945
 20
3.325296236139831
 30
0.0
  0
VERTEX
  5
150
  8
LAYER_1
 10
7.357141392692892
 20
3.347062676839715
 30
0.0
  0
VERTEX
  5
151
  8
LAYER_1
 10
7.384516945621703
 20
3.369185992366963
 30
0.0
  0
VERTEX
  5
152
  8
LAYER_1
 10
7.41162714804635
 20
3.391664158080463
 30
0.0
  0
VERTEX
  5
153
  8
LAYER_1
 10
7.438468270847302
 20
3.414495149339107
 30
0.0
  0
VERTEX
  5
154
  8
LAYER_1
 10
7.465036584905027
 20
3.437676941501784
 30
0.0
  0
VERTEX
  5
155
  8
LAYER_1
 10
7.491328361099992
 20
3.461207509927386
 30
0.0
  0
VERTEX
  5
156
  8
LAYER_1
 10
7.517339870312665
 20
3.485084829974801
 30
0.0
  0
VERTEX
  5
157
  8
LAYER_1
 10
7.543067383423514
 20
3.509306877002919
 30
0.0
  0
VERTEX
  5
158
  8
LAYER_1
 10
7.568507171313007
 20
3.533871626370631
 30
0.0
  0
VERTEX
  5
159
  8
LAYER_1
 10
7.593655504861611
 20
3.558777053436828
 30
0.0
  0
VERTEX
  5
15A
  8
LAYER_1
 10
7.618508654949794
 20
3.584021133560399
 30
0.0
  0
VERTEX
  5
15B
  8
LAYER_1
 10
7.643062892458024
 20
3.609601842100235
 30
0.0
  0
VERTEX
  5
15C
  8
LAYER_1
 10
7.667314488266771
 20
3.635517154415225
 30
0.0
  0
VERTEX
  5
15D
  8
LAYER_1
 10
7.691259713256501
 20
3.661765045864259
 30
0.0
  0
VERTEX
  5
15E
  8
LAYER_1
 10
7.71489483830768
 20
3.688343491806228
 30
0.0
  0
VERTEX
  5
15F
  8
LAYER_1
 10
7.738216134300779
 20
3.715250467600022
 30
0.0
  0
VERTEX
  5
160
  8
LAYER_1
 10
7.761219872116264
 20
3.742483948604531
 30
0.0
  0
VERTEX
  5
161
  8
LAYER_1
 10
7.783902322634604
 20
3.770041910178646
 30
0.0
  0
VERTEX
  5
162
  8
LAYER_1
 10
7.806259756736266
 20
3.797922327681255
 30
0.0
  0
VERTEX
  5
163
  8
LAYER_1
 10
7.828288445301719
 20
3.826123176471249
 30
0.0
  0
VERTEX
  5
164
  8
LAYER_1
 10
7.84998465921143
 20
3.854642431907519
 30
0.0
  0
VERTEX
  5
165
  8
LAYER_1
 10
6.025137123384582
 20
4.90824206242081
 30
0.0
  0
VERTEX
  5
166
  8
LAYER_1
 10
6.00599312066051
 20
4.896007619275681
 30
0.0
  0
VERTEX
  5
167
  8
LAYER_1
 10
5.986497852823785
 20
4.884359553387892
 30
0.0
  0
VERTEX
  5
168
  8
LAYER_1
 10
5.966665454091751
 20
4.87330527999687
 30
0.0
  0
VERTEX
  5
169
  8
LAYER_1
 10
5.946510058681749
 20
4.862852214342041
 30
0.0
  0
SEQEND
  5
C26
  8
LAYER_1
  0
POLYLINE
  5
71
  8
LAYER_1
 66
     1
 10
0.0
 20
0.0
 30
0.0
 70
     1
  0
VERTEX
  5
16A
  8
LAYER_1
 10
3.368151905439953
 20
3.854637803633837
 30
0.0
  0
VERTEX
  5
16B
  8
LAYER_1
 10
5.193020894926914
 20
4.908237047885668
 30
0.0
  0
VERTEX
  5
16C
  8
LAYER_1
 10
5.212087541039888
 20
4.896007147883653
 30
0.0
  0
VERTEX
  5
16D
  8
LAYER_1
 10
5.231561309531216
 20
4.88434894865126
 30
0.0
  0
VERTEX
  5
16E
  8
LAYER_1
 10
5.251432073510029
 20
4.873275862028986
 30
0.0
  0
VERTEX
  5
16F
  8
LAYER_1
 10
5.271689706085454
 20
4.862801299857328
 30
0.0
  0
VERTEX
  5
170
  8
LAYER_1
 10
5.271682846669112
 20
2.755550389321825
 30
0.0
  0
VERTEX
  5
171
  8
LAYER_1
 10
5.235338441957923
 20
2.760139856795397
 30
0.0
  0
VERTEX
  5
172
  8
LAYER_1
 10
5.199140281709868
 20
2.765192129434443
 30
0.0
  0
VERTEX
  5
173
  8
LAYER_1
 10
5.163091430492019
 20
2.770704143353651
 30
0.0
  0
VERTEX
  5
174
  8
LAYER_1
 10
5.127194952871454
 20
2.776672834667711
 30
0.0
  0
VERTEX
  5
175
  8
LAYER_1
 10
5.091453913415247
 20
2.783095139491309
 30
0.0
  0
VERTEX
  5
176
  8
LAYER_1
 10
5.055871376690472
 20
2.789967993939138
 30
0.0
  0
VERTEX
  5
177
  8
LAYER_1
 10
5.020450407264205
 20
2.797288334125884
 30
0.0
  0
VERTEX
  5
178
  8
LAYER_1
 10
4.985194069703521
 20
2.805053096166239
 30
0.0
  0
VERTEX
  5
179
  8
LAYER_1
 10
4.950105428575494
 20
2.813259216174891
 30
0.0
  0
VERTEX
  5
17A
  8
LAYER_1
 10
4.9151875484472
 20
2.821903630266529
 30
0.0
  0
VERTEX
  5
17B
  8
LAYER_1
 10
4.880443493885714
 20
2.830983274555843
 30
0.0
  0
VERTEX
  5
17C
  8
LAYER_1
 10
4.845876329458111
 20
2.840495085157521
 30
0.0
  0
VERTEX
  5
17D
  8
LAYER_1
 10
4.811489119731464
 20
2.850435998186252
 30
0.0
  0
VERTEX
  5
17E
  8
LAYER_1
 10
4.77728492927285
 20
2.860802949756726
 30
0.0
  0
VERTEX
  5
17F
  8
LAYER_1
 10
4.743266822649343
 20
2.871592875983633
 30
0.0
  0
VERTEX
  5
180
  8
LAYER_1
 10
4.709437864428018
 20
2.882802712981661
 30
0.0
  0
VERTEX
  5
181
  8
LAYER_1
 10
4.675801119175951
 20
2.894429396865498
 30
0.0
  0
VERTEX
  5
182
  8
LAYER_1
 10
4.642359651460215
 20
2.906469863749837
 30
0.0
  0
VERTEX
  5
183
  8
LAYER_1
 10
4.609116525847887
 20
2.918921049749364
 30
0.0
  0
VERTEX
  5
184
  8
LAYER_1
 10
4.576074806906041
 20
2.931779890978769
 30
0.0
  0
VERTEX
  5
185
  8
LAYER_1
 10
4.543237559201752
 20
2.945043323552741
 30
0.0
  0
VERTEX
  5
186
  8
LAYER_1
 10
4.510607847302095
 20
2.95870828358597
 30
0.0
  0
VERTEX
  5
187
  8
LAYER_1
 10
4.478188735774146
 20
2.972771707193144
 30
0.0
  0
VERTEX
  5
188
  8
LAYER_1
 10
4.445983289184978
 20
2.987230530488954
 30
0.0
  0
VERTEX
  5
189
  8
LAYER_1
 10
4.413994572101667
 20
3.002081689588087
 30
0.0
  0
VERTEX
  5
18A
  8
LAYER_1
 10
4.382225649091287
 20
3.017322120605234
 30
0.0
  0
VERTEX
  5
18B
  8
LAYER_1
 10
4.350679584720916
 20
3.032948759655083
 30
0.0
  0
VERTEX
  5
18C
  8
LAYER_1
 10
4.319359443557625
 20
3.048958542852323
 30
0.0
  0
VERTEX
  5
18D
  8
LAYER_1
 10
4.288268290168491
 20
3.065348406311645
 30
0.0
  0
VERTEX
  5
18E
  8
LAYER_1
 10
4.257409189120589
 20
3.082115286147737
 30
0.0
  0
VERTEX
  5
18F
  8
LAYER_1
 10
4.226785204980994
 20
3.099256118475287
 30
0.0
  0
VERTEX
  5
190
  8
LAYER_1
 10
4.196399402316779
 20
3.116767839408986
 30
0.0
  0
VERTEX
  5
191
  8
LAYER_1
 10
4.166254845695022
 20
3.134647385063523
 30
0.0
  0
VERTEX
  5
192
  8
LAYER_1
 10
4.136354599682796
 20
3.152891691553586
 30
0.0
  0
VERTEX
  5
193
  8
LAYER_1
 10
4.106701728847177
 20
3.171497694993866
 30
0.0
  0
VERTEX
  5
194
  8
LAYER_1
 10
4.077299297755238
 20
3.190462331499051
 30
0.0
  0
VERTEX
  5
195
  8
LAYER_1
 10
4.048150370974057
 20
3.209782537183829
 30
0.0
  0
VERTEX
  5
196
  8
LAYER_1
 10
4.019258013070706
 20
3.229455248162892
 30
0.0
  0
VERTEX
  5
197
  8
LAYER_1
 10
3.990625288612262
 20
3.249477400550926
 30
0.0
  0
VERTEX
  5
198
  8
LAYER_1
 10
3.962255262165799
 20
3.269845930462624
 30
0.0
  0
VERTEX
  5
199
  8
LAYER_1
 10
3.934150998298393
 20
3.290557774012672
 30
0.0
  0
VERTEX
  5
19A
  8
LAYER_1
 10
3.906315561577117
 20
3.311609867315761
 30
0.0
  0
VERTEX
  5
19B
  8
LAYER_1
 10
3.878752016569048
 20
3.332999146486579
 30
0.0
  0
VERTEX
  5
19C
  8
LAYER_1
 10
3.85146342784126
 20
3.354722547639816
 30
0.0
  0
VERTEX
  5
19D
  8
LAYER_1
 10
3.824452859960827
 20
3.37677700689016
 30
0.0
  0
VERTEX
  5
19E
  8
LAYER_1
 10
3.797723377494826
 20
3.399159460352303
 30
0.0
  0
VERTEX
  5
19F
  8
LAYER_1
 10
3.771278045010331
 20
3.421866844140931
 30
0.0
  0
VERTEX
  5
1A0
  8
LAYER_1
 10
3.745119927074417
 20
3.444896094370734
 30
0.0
  0
VERTEX
  5
1A1
  8
LAYER_1
 10
3.719252088254158
 20
3.468244147156402
 30
0.0
  0
VERTEX
  5
1A2
  8
LAYER_1
 10
3.693677593116631
 20
3.491907938612624
 30
0.0
  0
VERTEX
  5
1A3
  8
LAYER_1
 10
3.668399506228909
 20
3.515884404854089
 30
0.0
  0
VERTEX
  5
1A4
  8
LAYER_1
 10
3.643420892158067
 20
3.540170481995486
 30
0.0
  0
VERTEX
  5
1A5
  8
LAYER_1
 10
3.618744815471182
 20
3.564763106151505
 30
0.0
  0
VERTEX
  5
1A6
  8
LAYER_1
 10
3.594374340735327
 20
3.589659213436835
 30
0.0
  0
VERTEX
  5
1A7
  8
LAYER_1
 10
3.570312532517577
 20
3.614855739966164
 30
0.0
  0
VERTEX
  5
1A8
  8
LAYER_1
 10
3.546562455385009
 20
3.640349621854183
 30
0.0
  0
VERTEX
  5
1A9
  8
LAYER_1
 10
3.523127173904696
 20
3.666137795215579
 30
0.0
  0
VERTEX
  5
1AA
  8
LAYER_1
 10
3.500009752643713
 20
3.692217196165043
 30
0.0
  0
VERTEX
  5
1AB
  8
LAYER_1
 10
3.477213256169136
 20
3.718584760817263
 30
0.0
  0
VERTEX
  5
1AC
  8
LAYER_1
 10
3.454740749048039
 20
3.74523742528693
 30
0.0
  0
VERTEX
  5
1AD
  8
LAYER_1
 10
3.432595295847497
 20
3.772172125688731
 30
0.0
  0
VERTEX
  5
1AE
  8
LAYER_1
 10
3.410779961134585
 20
3.799385798137357
 30
0.0
  0
VERTEX
  5
1AF
  8
LAYER_1
 10
3.389297809476379
 20
3.826875378747495
 30
0.0
  0
SEQEND
  5
C27
  8
LAYER_1
  0
POLYLINE
  5
72
  8
LAYER_1
 66
     1
 10
0.0
 20
0.0
 30
0.0
  0
VERTEX
  5
1B0
  8
LAYER_1
 10
8.187304949529993
 20
6.637009692236016
 30
0.0
  0
VERTEX
  5
1B1
  8
LAYER_1
 10
6.362594338380811
 20
5.583506440484204
 30
0.0
  0
VERTEX
  5
1B2
  8
LAYER_1
 10
6.363611076267627
 20
5.560881315754779
 30
0.0
  0
VERTEX
  5
1B3
  8
LAYER_1
 10
6.363950130254068
 20
5.538087696369727
 30
0.0
  0
VERTEX
  5
1B4
  8
LAYER_1
 10
6.363606599035863
 20
5.515313985342419
 30
0.0
  0
VERTEX
  5
1B5
  8
LAYER_1
 10
6.362578849477998
 20
5.492606285683581
 30
0.0
  0
VERTEX
  5
1B6
  8
LAYER_1
 10
8.187281893825451
 20
4.439112140195074
 30
0.0
  0
SEQEND
  5
C28
  8
LAYER_1
  0
POLYLINE
  5
73
  8
LAYER_1
 66
     1
 10
0.0
 20
0.0
 30
0.0
  0
VERTEX
  5
1B7
  8
LAYER_1
 10
8.182561774628931
 20
4.427370424564245
 30
0.0
  0
VERTEX
  5
1B8
  8
LAYER_1
 10
8.196481336852345
 20
4.46019371753013
 30
0.0
  0
VERTEX
  5
1B9
  8
LAYER_1
 10
8.209977847733622
 20
4.493180442657021
 30
0.0
  0
VERTEX
  5
1BA
  8
LAYER_1
 10
8.223050071787096
 20
4.526326428482226
 30
0.0
  0
VERTEX
  5
1BB
  8
LAYER_1
 10
8.23569677352711
 20
4.55962750354305
 30
0.0
  0
VERTEX
  5
1BC
  8
LAYER_1
 10
8.247916717468
 20
4.593079496376799
 30
0.0
  0
VERTEX
  5
1BD
  8
LAYER_1
 10
8.259708668124103
 20
4.626678235520779
 30
0.0
  0
VERTEX
  5
1BE
  8
LAYER_1
 10
8.27107139000976
 20
4.660419549512296
 30
0.0
  0
VERTEX
  5
1BF
  8
LAYER_1
 10
8.282003647639312
 20
4.694299266888657
 30
0.0
  0
VERTEX
  5
1C0
  8
LAYER_1
 10
8.292504205527095
 20
4.728313216187167
 30
0.0
  0
VERTEX
  5
1C1
  8
LAYER_1
 10
8.302571828187446
 20
4.762457225945131
 30
0.0
  0
VERTEX
  5
1C2
  8
LAYER_1
 10
8.312205280134705
 20
4.796727124699856
 30
0.0
  0
VERTEX
  5
1C3
  8
LAYER_1
 10
8.32140332588321
 20
4.831118740988648
 30
0.0
  0
VERTEX
  5
1C4
  8
LAYER_1
 10
8.3301647299473
 20
4.865627903348813
 30
0.0
  0
VERTEX
  5
1C5
  8
LAYER_1
 10
8.338488256841314
 20
4.900250440317658
 30
0.0
  0
VERTEX
  5
1C6
  8
LAYER_1
 10
8.346372671079592
 20
4.934982180432486
 30
0.0
  0
VERTEX
  5
1C7
  8
LAYER_1
 10
8.35381673717647
 20
4.969818952230606
 30
0.0
  0
VERTEX
  5
1C8
  8
LAYER_1
 10
8.360819219646288
 20
5.004756584249322
 30
0.0
  0
VERTEX
  5
1C9
  8
LAYER_1
 10
8.367378883003383
 20
5.03979090502594
 30
0.0
  0
VERTEX
  5
1CA
  8
LAYER_1
 10
8.373494491762099
 20
5.074917743097767
 30
0.0
  0
VERTEX
  5
1CB
  8
LAYER_1
 10
8.379164810436766
 20
5.11013292700211
 30
0.0
  0
VERTEX
  5
1CC
  8
LAYER_1
 10
8.384388603541728
 20
5.145432285276272
 30
0.0
  0
VERTEX
  5
1CD
  8
LAYER_1
 10
8.389164635591325
 20
5.180811646457562
 30
0.0
  0
VERTEX
  5
1CE
  8
LAYER_1
 10
8.39349167109989
 20
5.216266839083283
 30
0.0
  0
VERTEX
  5
1CF
  8
LAYER_1
 10
8.397368474581764
 20
5.251793691690744
 30
0.0
  0
VERTEX
  5
1D0
  8
LAYER_1
 10
8.400793810551288
 20
5.287388032817249
 30
0.0
  0
VERTEX
  5
1D1
  8
LAYER_1
 10
8.4037664435228
 20
5.323045691000104
 30
0.0
  0
VERTEX
  5
1D2
  8
LAYER_1
 10
8.406285138010638
 20
5.358762494776615
 30
0.0
  0
VERTEX
  5
1D3
  8
LAYER_1
 10
8.408348658529139
 20
5.394534272684089
 30
0.0
  0
VERTEX
  5
1D4
  8
LAYER_1
 10
8.409955769592644
 20
5.430356853259831
 30
0.0
  0
VERTEX
  5
1D5
  8
LAYER_1
 10
8.41110523571549
 20
5.466226065041148
 30
0.0
  0
VERTEX
  5
1D6
  8
LAYER_1
 10
8.411795821412017
 20
5.502137736565345
 30
0.0
  0
VERTEX
  5
1D7
  8
LAYER_1
 10
8.412026291196561
 20
5.538087696369729
 30
0.0
  0
VERTEX
  5
1D8
  8
LAYER_1
 10
8.411787194187127
 20
5.575053875017423
 30
0.0
  0
VERTEX
  5
1D9
  8
LAYER_1
 10
8.41107183654568
 20
5.611907622871985
 30
0.0
  0
VERTEX
  5
1DA
  8
LAYER_1
 10
8.409883118352493
 20
5.648645961170093
 30
0.0
  0
VERTEX
  5
1DB
  8
LAYER_1
 10
8.408223939687845
 20
5.685265911148425
 30
0.0
  0
VERTEX
  5
1DC
  8
LAYER_1
 10
8.406097200632015
 20
5.721764494043655
 30
0.0
  0
VERTEX
  5
1DD
  8
LAYER_1
 10
8.403505801265279
 20
5.758138731092462
 30
0.0
  0
VERTEX
  5
1DE
  8
LAYER_1
 10
8.400452641667911
 20
5.794385643531522
 30
0.0
  0
VERTEX
  5
1DF
  8
LAYER_1
 10
8.39694062192019
 20
5.830502252597509
 30
0.0
  0
VERTEX
  5
1E0
  8
LAYER_1
 10
8.392972642102396
 20
5.866485579527103
 30
0.0
  0
VERTEX
  5
1E1
  8
LAYER_1
 10
8.388551602294804
 20
5.902332645556979
 30
0.0
  0
VERTEX
  5
1E2
  8
LAYER_1
 10
8.383680402577692
 20
5.938040471923813
 30
0.0
  0
VERTEX
  5
1E3
  8
LAYER_1
 10
8.378361943031335
 20
5.973606079864282
 30
0.0
  0
VERTEX
  5
1E4
  8
LAYER_1
 10
8.372599123736011
 20
6.009026490615064
 30
0.0
  0
VERTEX
  5
1E5
  8
LAYER_1
 10
8.366394844772
 20
6.044298725412833
 30
0.0
  0
VERTEX
  5
1E6
  8
LAYER_1
 10
8.359752006219574
 20
6.079419805494268
 30
0.0
  0
VERTEX
  5
1E7
  8
LAYER_1
 10
8.352673508159015
 20
6.114386752096045
 30
0.0
  0
VERTEX
  5
1E8
  8
LAYER_1
 10
8.345162250670597
 20
6.149196586454838
 30
0.0
  0
VERTEX
  5
1E9
  8
LAYER_1
 10
8.337221133834598
 20
6.183846329807327
 30
0.0
  0
VERTEX
  5
1EA
  8
LAYER_1
 10
8.328853057731296
 20
6.218333003390187
 30
0.0
  0
VERTEX
  5
1EB
  8
LAYER_1
 10
8.320060922440966
 20
6.252653628440095
 30
0.0
  0
VERTEX
  5
1EC
  8
LAYER_1
 10
8.310847628043888
 20
6.286805226193726
 30
0.0
  0
VERTEX
  5
1ED
  8
LAYER_1
 10
8.301216074620337
 20
6.320784817887759
 30
0.0
  0
VERTEX
  5
1EE
  8
LAYER_1
 10
8.291169162250592
 20
6.354589424758869
 30
0.0
  0
VERTEX
  5
1EF
  8
LAYER_1
 10
8.280709791014926
 20
6.388216068043732
 30
0.0
  0
VERTEX
  5
1F0
  8
LAYER_1
 10
8.269840860993622
 20
6.421661768979027
 30
0.0
  0
VERTEX
  5
1F1
  8
LAYER_1
 10
8.258565272266953
 20
6.454923548801427
 30
0.0
  0
VERTEX
  5
1F2
  8
LAYER_1
 10
8.2468859249152
 20
6.487998428747613
 30
0.0
  0
VERTEX
  5
1F3
  8
LAYER_1
 10
8.234805719018635
 20
6.520883430054258
 30
0.0
  0
VERTEX
  5
1F4
  8
LAYER_1
 10
8.222327554657536
 20
6.553575573958039
 30
0.0
  0
VERTEX
  5
1F5
  8
LAYER_1
 10
8.209454331912184
 20
6.586071881695634
 30
0.0
  0
VERTEX
  5
1F6
  8
LAYER_1
 10
8.196188950862856
 20
6.618369374503719
 30
0.0
  0
VERTEX
  5
1F7
  8
LAYER_1
 10
8.182534311589826
 20
6.65046507361897
 30
0.0
  0
SEQEND
  5
C29
  8
LAYER_1
  0
POLYLINE
  5
74
  8
LAYER_1
 66
     1
 10
0.0
 20
0.0
 30
0.0
 70
     1
  0
VERTEX
  5
1F8
  8
LAYER_1
 10
2.988795052259158
 20
4.414834071647633
 30
0.0
  0
VERTEX
  5
1F9
  8
LAYER_1
 10
4.855635127118671
 20
5.492658578857328
 30
0.0
  0
VERTEX
  5
1FA
  8
LAYER_1
 10
4.854615383975336
 20
5.515297336119707
 30
0.0
  0
VERTEX
  5
1FB
  8
LAYER_1
 10
4.854274779789638
 20
5.538087696369727
 30
0.0
  0
VERTEX
  5
1FC
  8
LAYER_1
 10
4.854616442891096
 20
5.560797793698436
 30
0.0
  0
VERTEX
  5
1FD
  8
LAYER_1
 10
4.855638993826265
 20
5.583450348831361
 30
0.0
  0
VERTEX
  5
1FE
  8
LAYER_1
 10
3.030767152689352
 20
6.637021250765571
 30
0.0
  0
VERTEX
  5
1FF
  8
LAYER_1
 10
3.017122038659775
 20
6.604473489821538
 30
0.0
  0
VERTEX
  5
200
  8
LAYER_1
 10
3.003893811922508
 20
6.571769285415833
 30
0.0
  0
VERTEX
  5
201
  8
LAYER_1
 10
2.99108354082798
 20
6.538912708264742
 30
0.0
  0
VERTEX
  5
202
  8
LAYER_1
 10
2.978692293726616
 20
6.505907829084557
 30
0.0
  0
VERTEX
  5
203
  8
LAYER_1
 10
2.966721138968844
 20
6.472758718591571
 30
0.0
  0
VERTEX
  5
204
  8
LAYER_1
 10
2.955171144905091
 20
6.439469447502074
 30
0.0
  0
VERTEX
  5
205
  8
LAYER_1
 10
2.944043379885783
 20
6.406044086532359
 30
0.0
  0
VERTEX
  5
206
  8
LAYER_1
 10
2.933338912261349
 20
6.372486706398714
 30
0.0
  0
VERTEX
  5
207
  8
LAYER_1
 10
2.923058810382215
 20
6.338801377817433
 30
0.0
  0
VERTEX
  5
208
  8
LAYER_1
 10
2.913204142598807
 20
6.304992171504805
 30
0.0
  0
VERTEX
  5
209
  8
LAYER_1
 10
2.903775977261554
 20
6.271063158177122
 30
0.0
  0
VERTEX
  5
20A
  8
LAYER_1
 10
2.894775382720882
 20
6.237018408550675
 30
0.0
  0
VERTEX
  5
20B
  8
LAYER_1
 10
2.886203427327218
 20
6.202861993341756
 30
0.0
  0
VERTEX
  5
20C
  8
LAYER_1
 10
2.878061179430989
 20
6.168597983266656
 30
0.0
  0
VERTEX
  5
20D
  8
LAYER_1
 10
2.870349707382623
 20
6.134230449041665
 30
0.0
  0
VERTEX
  5
20E
  8
LAYER_1
 10
2.863070079532545
 20
6.099763461383076
 30
0.0
  0
VERTEX
  5
20F
  8
LAYER_1
 10
2.856223364231185
 20
6.065201091007179
 30
0.0
  0
VERTEX
  5
210
  8
LAYER_1
 10
2.849810629828966
 20
6.030547408630264
 30
0.0
  0
VERTEX
  5
211
  8
LAYER_1
 10
2.843832944676319
 20
5.995806484968624
 30
0.0
  0
VERTEX
  5
212
  8
LAYER_1
 10
2.83829137712367
 20
5.960982390738549
 30
0.0
  0
VERTEX
  5
213
  8
LAYER_1
 10
2.833186995521445
 20
5.92607919665633
 30
0.0
  0
VERTEX
  5
214
  8
LAYER_1
 10
2.828520868220072
 20
5.89110097343826
 30
0.0
  0
VERTEX
  5
215
  8
LAYER_1
 10
2.824294063569977
 20
5.856051791800628
 30
0.0
  0
VERTEX
  5
216
  8
LAYER_1
 10
2.820507649921588
 20
5.820935722459725
 30
0.0
  0
VERTEX
  5
217
  8
LAYER_1
 10
2.817162695625331
 20
5.785756836131844
 30
0.0
  0
VERTEX
  5
218
  8
LAYER_1
 10
2.814260269031635
 20
5.750519203533276
 30
0.0
  0
VERTEX
  5
219
  8
LAYER_1
 10
2.811801438490925
 20
5.715226895380312
 30
0.0
  0
VERTEX
  5
21A
  8
LAYER_1
 10
2.809787272353629
 20
5.679883982389241
 30
0.0
  0
VERTEX
  5
21B
  8
LAYER_1
 10
2.808218838970174
 20
5.644494535276356
 30
0.0
  0
VERTEX
  5
21C
  8
LAYER_1
 10
2.807097206690987
 20
5.609062624757949
 30
0.0
  0
VERTEX
  5
21D
  8
LAYER_1
 10
2.806423443866495
 20
5.57359232155031
 30
0.0
  0
VERTEX
  5
21E
  8
LAYER_1
 10
2.806198618847125
 20
5.538087696369729
 30
0.0
  0
VERTEX
  5
21F
  8
LAYER_1
 10
2.806477315693162
 20
5.498152440934904
 30
0.0
  0
VERTEX
  5
220
  8
LAYER_1
 10
2.807310947663259
 20
5.458351346739112
 30
0.0
  0
VERTEX
  5
221
  8
LAYER_1
 10
2.808695826905398
 20
5.418688101634373
 30
0.0
  0
VERTEX
  5
222
  8
LAYER_1
 10
2.810628265567561
 20
5.379166393472705
 30
0.0
  0
VERTEX
  5
223
  8
LAYER_1
 10
2.813104575797729
 20
5.339789910106125
 30
0.0
  0
VERTEX
  5
224
  8
LAYER_1
 10
2.816121069743884
 20
5.300562339386654
 30
0.0
  0
VERTEX
  5
225
  8
LAYER_1
 10
2.819674059554008
 20
5.261487369166309
 30
0.0
  0
VERTEX
  5
226
  8
LAYER_1
 10
2.823759857376082
 20
5.222568687297108
 30
0.0
  0
VERTEX
  5
227
  8
LAYER_1
 10
2.828374775358088
 20
5.18380998163107
 30
0.0
  0
VERTEX
  5
228
  8
LAYER_1
 10
2.833515125648007
 20
5.145214940020213
 30
0.0
  0
VERTEX
  5
229
  8
LAYER_1
 10
2.83917722039382
 20
5.106787250316556
 30
0.0
  0
VERTEX
  5
22A
  8
LAYER_1
 10
2.845357371743511
 20
5.068530600372116
 30
0.0
  0
VERTEX
  5
22B
  8
LAYER_1
 10
2.852051891845059
 20
5.030448678038914
 30
0.0
  0
VERTEX
  5
22C
  8
LAYER_1
 10
2.859257092846447
 20
4.992545171168966
 30
0.0
  0
VERTEX
  5
22D
  8
LAYER_1
 10
2.866969286895656
 20
4.954823767614291
 30
0.0
  0
VERTEX
  5
22E
  8
LAYER_1
 10
2.875184786140667
 20
4.91728815522691
 30
0.0
  0
SEQEND
  5
C2A
  8
LAYER_1
  0
POLYLINE
  5
75
  8
LAYER_1
 66
     1
 10
0.0
 20
0.0
 30
0.0
 70
     1
  0
VERTEX
  5
22F
  8
LAYER_1
 10
11.66868749538951
 20
1.610320371573023
 30
0.0
  0
VERTEX
  5
230
  8
LAYER_1
 10
10.28222858139254
 20
3.576571195059624
 30
0.0
  0
VERTEX
  5
231
  8
LAYER_1
 10
17.63429687790765
 20
3.576571195059624
 30
0.0
  0
VERTEX
  5
232
  8
LAYER_1
 10
16.49908143567334
 20
1.610320371573024
 30
0.0
  0
SEQEND
  5
C2B
  8
LAYER_1
  0
POLYLINE
  5
76
  8
LAYER_1
 66
     1
 10
0.0
 20
0.0
 30
0.0
  0
VERTEX
  5
233
  8
LAYER_1
 10
13.36034640793863
 20
3.547364283823148
 30
0.0
  0
VERTEX
  5
234
  8
LAYER_1
 10
13.37474887904608
 20
3.557967040589128
 30
0.0
  0
VERTEX
  5
235
  8
LAYER_1
 10
13.38890868141546
 20
3.568774825234405
 30
0.0
  0
VERTEX
  5
236
  8
LAYER_1
 10
13.40281708728502
 20
3.579784496768831
 30
0.0
  0
VERTEX
  5
237
  8
LAYER_1
 10
13.41646536889299
 20
3.590992914202261
 30
0.0
  0
VERTEX
  5
238
  8
LAYER_1
 10
13.42984479847761
 20
3.602396936544546
 30
0.0
  0
VERTEX
  5
239
  8
LAYER_1
 10
13.44294664827712
 20
3.613993422805541
 30
0.0
  0
VERTEX
  5
23A
  8
LAYER_1
 10
13.45576219052977
 20
3.625779231995097
 30
0.0
  0
VERTEX
  5
23B
  8
LAYER_1
 10
13.46828269747379
 20
3.637751223123067
 30
0.0
  0
VERTEX
  5
23C
  8
LAYER_1
 10
13.48049944134741
 20
3.649906255199306
 30
0.0
  0
VERTEX
  5
23D
  8
LAYER_1
 10
13.49240369438888
 20
3.662241187233666
 30
0.0
  0
VERTEX
  5
23E
  8
LAYER_1
 10
13.50398672883644
 20
3.674752878235999
 30
0.0
  0
VERTEX
  5
23F
  8
LAYER_1
 10
13.51523981692833
 20
3.687438187216159
 30
0.0
  0
VERTEX
  5
240
  8
LAYER_1
 10
13.52615423090278
 20
3.700293973183999
 30
0.0
  0
VERTEX
  5
241
  8
LAYER_1
 10
13.53672124299803
 20
3.713317095149371
 30
0.0
  0
VERTEX
  5
242
  8
LAYER_1
 10
13.54693212545233
 20
3.726504412122129
 30
0.0
  0
VERTEX
  5
243
  8
LAYER_1
 10
13.5567781505039
 20
3.739852783112125
 30
0.0
  0
VERTEX
  5
244
  8
LAYER_1
 10
13.566250590391
 20
3.753359067129214
 30
0.0
  0
VERTEX
  5
245
  8
LAYER_1
 10
13.57534071735186
 20
3.767020123183247
 30
0.0
  0
VERTEX
  5
246
  8
LAYER_1
 10
13.58403980362471
 20
3.780832810284078
 30
0.0
  0
VERTEX
  5
247
  8
LAYER_1
 10
13.59233912144781
 20
3.794793987441559
 30
0.0
  0
VERTEX
  5
248
  8
LAYER_1
 10
13.60022994305938
 20
3.808900513665544
 30
0.0
  0
VERTEX
  5
249
  8
LAYER_1
 10
13.60770354069766
 20
3.823149247965886
 30
0.0
  0
VERTEX
  5
24A
  8
LAYER_1
 10
13.61475118660089
 20
3.837537049352437
 30
0.0
  0
VERTEX
  5
24B
  8
LAYER_1
 10
13.62136415300733
 20
3.852060776835051
 30
0.0
  0
VERTEX
  5
24C
  8
LAYER_1
 10
13.62753371215519
 20
3.866717289423581
 30
0.0
  0
VERTEX
  5
24D
  8
LAYER_1
 10
13.63325113628272
 20
3.881503446127879
 30
0.0
  0
VERTEX
  5
24E
  8
LAYER_1
 10
13.63850769762816
 20
3.896416105957798
 30
0.0
  0
VERTEX
  5
24F
  8
LAYER_1
 10
13.64329466842976
 20
3.911452127923193
 30
0.0
  0
VERTEX
  5
250
  8
LAYER_1
 10
13.64760332092574
 20
3.926608371033914
 30
0.0
  0
VERTEX
  5
251
  8
LAYER_1
 10
13.65142492735434
 20
3.941881694299816
 30
0.0
  0
VERTEX
  5
252
  8
LAYER_1
 10
13.65475075995382
 20
3.957268956730752
 30
0.0
  0
VERTEX
  5
253
  8
LAYER_1
 10
13.65757209096239
 20
3.972767017336575
 30
0.0
  0
VERTEX
  5
254
  8
LAYER_1
 10
13.66384361612823
 20
4.013470438686575
 30
0.0
  0
VERTEX
  5
255
  8
LAYER_1
 10
13.66925032560732
 20
4.054285786010836
 30
0.0
  0
VERTEX
  5
256
  8
LAYER_1
 10
13.67380001479089
 20
4.095206533648747
 30
0.0
  0
VERTEX
  5
257
  8
LAYER_1
 10
13.67750047907014
 20
4.136226155939696
 30
0.0
  0
VERTEX
  5
258
  8
LAYER_1
 10
13.68035951383628
 20
4.177338127223074
 30
0.0
  0
VERTEX
  5
259
  8
LAYER_1
 10
13.6823849144805
 20
4.218535921838268
 30
0.0
  0
VERTEX
  5
25A
  8
LAYER_1
 10
13.68358447639403
 20
4.25981301412467
 30
0.0
  0
VERTEX
  5
25B
  8
LAYER_1
 10
13.68396599496806
 20
4.301162878421667
 30
0.0
  0
VERTEX
  5
25C
  8
LAYER_1
 10
13.68353726559381
 20
4.342578989068649
 30
0.0
  0
VERTEX
  5
25D
  8
LAYER_1
 10
13.68230608366249
 20
4.384054820405007
 30
0.0
  0
VERTEX
  5
25E
  8
LAYER_1
 10
13.68028024456529
 20
4.425583846770129
 30
0.0
  0
VERTEX
  5
25F
  8
LAYER_1
 10
13.67746754369342
 20
4.467159542503404
 30
0.0
  0
VERTEX
  5
260
  8
LAYER_1
 10
13.67387577643811
 20
4.508775381944221
 30
0.0
  0
VERTEX
  5
261
  8
LAYER_1
 10
13.66951273819054
 20
4.550424839431971
 30
0.0
  0
VERTEX
  5
262
  8
LAYER_1
 10
13.66438622434193
 20
4.59210138930604
 30
0.0
  0
VERTEX
  5
263
  8
LAYER_1
 10
13.65850403028349
 20
4.633798505905822
 30
0.0
  0
VERTEX
  5
264
  8
LAYER_1
 10
13.65187395140642
 20
4.675509663570703
 30
0.0
  0
VERTEX
  5
265
  8
LAYER_1
 10
13.64450378310193
 20
4.717228336640073
 30
0.0
  0
VERTEX
  5
266
  8
LAYER_1
 10
13.63640132076122
 20
4.758947999453321
 30
0.0
  0
VERTEX
  5
267
  8
LAYER_1
 10
13.62757435977552
 20
4.800662126349836
 30
0.0
  0
VERTEX
  5
268
  8
LAYER_1
 10
13.61803069553601
 20
4.842364191669009
 30
0.0
  0
VERTEX
  5
269
  8
LAYER_1
 10
13.60777812343392
 20
4.884047669750228
 30
0.0
  0
VERTEX
  5
26A
  8
LAYER_1
 10
13.59682443886044
 20
4.925706034932882
 30
0.0
  0
VERTEX
  5
26B
  8
LAYER_1
 10
13.58517743720679
 20
4.967332761556362
 30
0.0
  0
VERTEX
  5
26C
  8
LAYER_1
 10
13.57284491386416
 20
5.008921323960056
 30
0.0
  0
VERTEX
  5
26D
  8
LAYER_1
 10
13.55983466422378
 20
5.050465196483352
 30
0.0
  0
VERTEX
  5
26E
  8
LAYER_1
 10
13.54615448367684
 20
5.091957853465642
 30
0.0
  0
VERTEX
  5
26F
  8
LAYER_1
 10
13.53181216761456
 20
5.133392769246313
 30
0.0
  0
VERTEX
  5
270
  8
LAYER_1
 10
13.51681551142813
 20
5.174763418164757
 30
0.0
  0
VERTEX
  5
271
  8
LAYER_1
 10
13.50117231050877
 20
5.21606327456036
 30
0.0
  0
VERTEX
  5
272
  8
LAYER_1
 10
13.48489036024769
 20
5.257285812772515
 30
0.0
  0
VERTEX
  5
273
  8
LAYER_1
 10
13.46797745603609
 20
5.298424507140608
 30
0.0
  0
VERTEX
  5
274
  8
LAYER_1
 10
13.45044139326518
 20
5.339472832004029
 30
0.0
  0
VERTEX
  5
275
  8
LAYER_1
 10
13.43228996732617
 20
5.380424261702169
 30
0.0
  0
VERTEX
  5
276
  8
LAYER_1
 10
13.41353097361026
 20
5.421272270574415
 30
0.0
  0
VERTEX
  5
277
  8
LAYER_1
 10
13.39417220750866
 20
5.462010332960158
 30
0.0
  0
VERTEX
  5
278
  8
LAYER_1
 10
13.37422146441258
 20
5.502631923198787
 30
0.0
  0
VERTEX
  5
279
  8
LAYER_1
 10
13.35368653971322
 20
5.543130515629691
 30
0.0
  0
VERTEX
  5
27A
  8
LAYER_1
 10
13.3325752288018
 20
5.583499584592259
 30
0.0
  0
VERTEX
  5
27B
  8
LAYER_1
 10
13.31089532706952
 20
5.62373260442588
 30
0.0
  0
VERTEX
  5
27C
  8
LAYER_1
 10
13.28865462990759
 20
5.663823049469945
 30
0.0
  0
VERTEX
  5
27D
  8
LAYER_1
 10
13.26586093270721
 20
5.703764394063842
 30
0.0
  0
VERTEX
  5
27E
  8
LAYER_1
 10
13.2425220308596
 20
5.74355011254696
 30
0.0
  0
VERTEX
  5
27F
  8
LAYER_1
 10
13.21864571975595
 20
5.78317367925869
 30
0.0
  0
VERTEX
  5
280
  8
LAYER_1
 10
13.19423979478748
 20
5.82262856853842
 30
0.0
  0
VERTEX
  5
281
  8
LAYER_1
 10
13.1693120513454
 20
5.861908254725538
 30
0.0
  0
VERTEX
  5
282
  8
LAYER_1
 10
13.1438702848209
 20
5.901006212159436
 30
0.0
  0
VERTEX
  5
283
  8
LAYER_1
 10
13.11792229060521
 20
5.939915915179501
 30
0.0
  0
VERTEX
  5
284
  8
LAYER_1
 10
13.09147586408952
 20
5.978630838125125
 30
0.0
  0
VERTEX
  5
285
  8
LAYER_1
 10
13.06453880066504
 20
6.017144455335695
 30
0.0
  0
VERTEX
  5
286
  8
LAYER_1
 10
13.03711889572299
 20
6.055450241150599
 30
0.0
  0
VERTEX
  5
287
  8
LAYER_1
 10
13.00922394465456
 20
6.09354166990923
 30
0.0
  0
VERTEX
  5
288
  8
LAYER_1
 10
12.98086174285097
 20
6.131412215950976
 30
0.0
  0
VERTEX
  5
289
  8
LAYER_1
 10
12.95204008570341
 20
6.169055353615225
 30
0.0
  0
VERTEX
  5
28A
  8
LAYER_1
 10
12.92276676860311
 20
6.206464557241367
 30
0.0
  0
VERTEX
  5
28B
  8
LAYER_1
 10
12.89304958694127
 20
6.243633301168792
 30
0.0
  0
VERTEX
  5
28C
  8
LAYER_1
 10
12.86289633610909
 20
6.280555059736889
 30
0.0
  0
VERTEX
  5
28D
  8
LAYER_1
 10
12.83231481149778
 20
6.317223307285047
 30
0.0
  0
VERTEX
  5
28E
  8
LAYER_1
 10
12.80131280849855
 20
6.353631518152655
 30
0.0
  0
VERTEX
  5
28F
  8
LAYER_1
 10
12.76989812250261
 20
6.389773166679102
 30
0.0
  0
VERTEX
  5
290
  8
LAYER_1
 10
12.73807854890116
 20
6.425641727203778
 30
0.0
  0
VERTEX
  5
291
  8
LAYER_1
 10
12.70586188308541
 20
6.461230674066072
 30
0.0
  0
VERTEX
  5
292
  8
LAYER_1
 10
12.67325592044657
 20
6.496533481605374
 30
0.0
  0
VERTEX
  5
293
  8
LAYER_1
 10
12.64026845637584
 20
6.531543624161074
 30
0.0
  0
VERTEX
  5
294
  8
LAYER_1
 10
12.60690728626443
 20
6.566254576072559
 30
0.0
  0
VERTEX
  5
295
  8
LAYER_1
 10
12.57318020550356
 20
6.60065981167922
 30
0.0
  0
VERTEX
  5
296
  8
LAYER_1
 10
12.53909500948442
 20
6.634752805320446
 30
0.0
  0
VERTEX
  5
297
  8
LAYER_1
 10
12.50465949359823
 20
6.668527031335625
 30
0.0
  0
VERTEX
  5
298
  8
LAYER_1
 10
12.46988145323619
 20
6.701975964064148
 30
0.0
  0
VERTEX
  5
299
  8
LAYER_1
 10
12.4347686837895
 20
6.735093077845402
 30
0.0
  0
VERTEX
  5
29A
  8
LAYER_1
 10
12.39932898064938
 20
6.767871847018779
 30
0.0
  0
VERTEX
  5
29B
  8
LAYER_1
 10
12.36357013920704
 20
6.800305745923668
 30
0.0
  0
VERTEX
  5
29C
  8
LAYER_1
 10
12.32749995485367
 20
6.832388248899457
 30
0.0
  0
VERTEX
  5
29D
  8
LAYER_1
 10
12.2911262229805
 20
6.864112830285535
 30
0.0
  0
VERTEX
  5
29E
  8
LAYER_1
 10
12.25445673897872
 20
6.895472964421293
 30
0.0
  0
VERTEX
  5
29F
  8
LAYER_1
 10
12.21749929823954
 20
6.92646212564612
 30
0.0
  0
VERTEX
  5
2A0
  8
LAYER_1
 10
12.18026169615417
 20
6.957073788299404
 30
0.0
  0
VERTEX
  5
2A1
  8
LAYER_1
 10
12.14275172811382
 20
6.987301426720535
 30
0.0
  0
VERTEX
  5
2A2
  8
LAYER_1
 10
12.10497718950969
 20
7.017138515248902
 30
0.0
  0
VERTEX
  5
2A3
  8
LAYER_1
 10
12.06694587573299
 20
7.046578528223895
 30
0.0
  0
VERTEX
  5
2A4
  8
LAYER_1
 10
12.02866558217493
 20
7.075614939984902
 30
0.0
  0
VERTEX
  5
2A5
  8
LAYER_1
 10
11.99014410422672
 20
7.104241224871314
 30
0.0
  0
VERTEX
  5
2A6
  8
LAYER_1
 10
11.95138923727956
 20
7.132450857222521
 30
0.0
  0
VERTEX
  5
2A7
  8
LAYER_1
 10
11.91240877672466
 20
7.160237311377909
 30
0.0
  0
VERTEX
  5
2A8
  8
LAYER_1
 10
11.87321051795323
 20
7.187594061676869
 30
0.0
  0
VERTEX
  5
2A9
  8
LAYER_1
 10
11.83380225635648
 20
7.214514582458792
 30
0.0
  0
VERTEX
  5
2AA
  8
LAYER_1
 10
11.79419178732561
 20
7.240992348063065
 30
0.0
  0
VERTEX
  5
2AB
  8
LAYER_1
 10
11.75438690625182
 20
7.267020832829077
 30
0.0
  0
VERTEX
  5
2AC
  8
LAYER_1
 10
11.71439540852634
 20
7.29259351109622
 30
0.0
  0
VERTEX
  5
2AD
  8
LAYER_1
 10
11.67422508954036
 20
7.31770385720388
 30
0.0
  0
VERTEX
  5
2AE
  8
LAYER_1
 10
11.63388374468509
 20
7.342345345491448
 30
0.0
  0
VERTEX
  5
2AF
  8
LAYER_1
 10
11.59337916935173
 20
7.366511450298313
 30
0.0
  0
VERTEX
  5
2B0
  8
LAYER_1
 10
11.55271915893151
 20
7.390195645963866
 30
0.0
  0
VERTEX
  5
2B1
  8
LAYER_1
 10
11.51191150881562
 20
7.413391406827494
 30
0.0
  0
VERTEX
  5
2B2
  8
LAYER_1
 10
11.47096401439527
 20
7.436092207228588
 30
0.0
  0
VERTEX
  5
2B3
  8
LAYER_1
 10
11.42988447106166
 20
7.458291521506536
 30
0.0
  0
VERTEX
  5
2B4
  8
LAYER_1
 10
11.38868067420601
 20
7.479982824000727
 30
0.0
  0
VERTEX
  5
2B5
  8
LAYER_1
 10
11.34736041921953
 20
7.501159589050552
 30
0.0
  0
VERTEX
  5
2B6
  8
LAYER_1
 10
11.30593150149341
 20
7.521815290995399
 30
0.0
  0
VERTEX
  5
2B7
  8
LAYER_1
 10
11.26440171641887
 20
7.541943404174656
 30
0.0
  0
VERTEX
  5
2B8
  8
LAYER_1
 10
11.22277885938712
 20
7.561537402927716
 30
0.0
  0
VERTEX
  5
2B9
  8
LAYER_1
 10
11.18107072578936
 20
7.580590761593966
 30
0.0
  0
VERTEX
  5
2BA
  8
LAYER_1
 10
11.13928511101679
 20
7.599096954512794
 30
0.0
  0
VERTEX
  5
2BB
  8
LAYER_1
 10
11.09742981046064
 20
7.617049456023592
 30
0.0
  0
VERTEX
  5
2BC
  8
LAYER_1
 10
11.05551261951209
 20
7.634441740465748
 30
0.0
  0
VERTEX
  5
2BD
  8
LAYER_1
 10
11.01354133356237
 20
7.651267282178651
 30
0.0
  0
VERTEX
  5
2BE
  8
LAYER_1
 10
10.97152374800267
 20
7.667519555501691
 30
0.0
  0
VERTEX
  5
2BF
  8
LAYER_1
 10
10.92946765822421
 20
7.683192034774256
 30
0.0
  0
VERTEX
  5
2C0
  8
LAYER_1
 10
10.88738085961819
 20
7.698278194335738
 30
0.0
  0
VERTEX
  5
2C1
  8
LAYER_1
 10
10.84527114757582
 20
7.712771508525524
 30
0.0
  0
VERTEX
  5
2C2
  8
LAYER_1
 10
10.80314631748831
 20
7.726665451683004
 30
0.0
  0
VERTEX
  5
2C3
  8
LAYER_1
 10
10.76101416474686
 20
7.739953498147567
 30
0.0
  0
VERTEX
  5
2C4
  8
LAYER_1
 10
10.71888248474269
 20
7.752629122258602
 30
0.0
  0
VERTEX
  5
2C5
  8
LAYER_1
 10
10.67675907286699
 20
7.764685798355499
 30
0.0
  0
VERTEX
  5
2C6
  8
LAYER_1
 10
10.63465172451098
 20
7.776117000777647
 30
0.0
  0
VERTEX
  5
2C7
  8
LAYER_1
 10
10.59256823506587
 20
7.786916203864437
 30
0.0
  0
VERTEX
  5
2C8
  8
LAYER_1
 10
10.55051639992285
 20
7.797076881955256
 30
0.0
  0
VERTEX
  5
2C9
  8
LAYER_1
 10
10.50850401447314
 20
7.806592509389493
 30
0.0
  0
VERTEX
  5
2CA
  8
LAYER_1
 10
10.46653887410795
 20
7.815456560506539
 30
0.0
  0
VERTEX
  5
2CB
  8
LAYER_1
 10
10.42462877421847
 20
7.823662509645782
 30
0.0
  0
VERTEX
  5
2CC
  8
LAYER_1
 10
10.38278151019593
 20
7.831203831146612
 30
0.0
  0
VERTEX
  5
2CD
  8
LAYER_1
 10
10.34100487743153
 20
7.838073999348419
 30
0.0
  0
VERTEX
  5
2CE
  8
LAYER_1
 10
10.29930667131647
 20
7.84426648859059
 30
0.0
  0
VERTEX
  5
2CF
  8
LAYER_1
 10
10.25769468724196
 20
7.849774773212518
 30
0.0
  0
VERTEX
  5
2D0
  8
LAYER_1
 10
10.21617672059921
 20
7.854592327553589
 30
0.0
  0
VERTEX
  5
2D1
  8
LAYER_1
 10
10.17476056677943
 20
7.858712625953193
 30
0.0
  0
VERTEX
  5
2D2
  8
LAYER_1
 10
10.13345402117382
 20
7.862129142750719
 30
0.0
  0
VERTEX
  5
2D3
  8
LAYER_1
 10
10.09226487917359
 20
7.864835352285558
 30
0.0
  0
VERTEX
  5
2D4
  8
LAYER_1
 10
10.06917719719348
 20
7.865897710079593
 30
0.0
  0
VERTEX
  5
2D5
  8
LAYER_1
 10
10.04591856817308
 20
7.866461224895529
 30
0.0
  0
VERTEX
  5
2D6
  8
LAYER_1
 10
10.02249778216305
 20
7.866531142093965
 30
0.0
  0
VERTEX
  5
2D7
  8
LAYER_1
 10
9.998923629214087
 20
7.866112707035501
 30
0.0
  0
VERTEX
  5
2D8
  8
LAYER_1
 10
9.975204899376852
 20
7.865211165080736
 30
0.0
  0
VERTEX
  5
2D9
  8
LAYER_1
 10
9.951350382702019
 20
7.863831761590273
 30
0.0
  0
VERTEX
  5
2DA
  8
LAYER_1
 10
9.927368869240263
 20
7.861979741924708
 30
0.0
  0
VERTEX
  5
2DB
  8
LAYER_1
 10
9.903269149042258
 20
7.859660351444644
 30
0.0
  0
VERTEX
  5
2DC
  8
LAYER_1
 10
9.879060012158677
 20
7.856878835510679
 30
0.0
  0
VERTEX
  5
2DD
  8
LAYER_1
 10
9.85475024864019
 20
7.853640439483414
 30
0.0
  0
VERTEX
  5
2DE
  8
LAYER_1
 10
9.830348648537473
 20
7.849950408723446
 30
0.0
  0
VERTEX
  5
2DF
  8
LAYER_1
 10
9.805864001901202
 20
7.845813988591377
 30
0.0
  0
VERTEX
  5
2E0
  8
LAYER_1
 10
9.781305098782049
 20
7.841236424447807
 30
0.0
  0
VERTEX
  5
2E1
  8
LAYER_1
 10
9.756680729230688
 20
7.836222961653336
 30
0.0
  0
VERTEX
  5
2E2
  8
LAYER_1
 10
9.73199968329779
 20
7.830778845568561
 30
0.0
  0
VERTEX
  5
2E3
  8
LAYER_1
 10
9.70727075103403
 20
7.824909321554086
 30
0.0
  0
VERTEX
  5
2E4
  8
LAYER_1
 10
9.682502722490081
 20
7.818619634970508
 30
0.0
  0
VERTEX
  5
2E5
  8
LAYER_1
 10
9.657704387716619
 20
7.811915031178428
 30
0.0
  0
VERTEX
  5
2E6
  8
LAYER_1
 10
9.632884536764315
 20
7.804800755538444
 30
0.0
  0
VERTEX
  5
2E7
  8
LAYER_1
 10
9.608051959683843
 20
7.797282053411158
 30
0.0
  0
VERTEX
  5
2E8
  8
LAYER_1
 10
9.583215446525877
 20
7.789364170157169
 30
0.0
  0
VERTEX
  5
2E9
  8
LAYER_1
 10
9.55838378734109
 20
7.781052351137077
 30
0.0
  0
VERTEX
  5
2EA
  8
LAYER_1
 10
9.533565772180154
 20
7.772351841711481
 30
0.0
  0
VERTEX
  5
2EB
  8
LAYER_1
 10
9.508770191093745
 20
7.763267887240982
 30
0.0
  0
VERTEX
  5
2EC
  8
LAYER_1
 10
9.484005834132537
 20
7.753805733086178
 30
0.0
  0
VERTEX
  5
2ED
  8
LAYER_1
 10
9.459281491347202
 20
7.74397062460767
 30
0.0
  0
VERTEX
  5
2EE
  8
LAYER_1
 10
9.434605952788413
 20
7.733767807166059
 30
0.0
  0
VERTEX
  5
2EF
  8
LAYER_1
 10
9.409988008506845
 20
7.723202526121943
 30
0.0
  0
VERTEX
  5
2F0
  8
LAYER_1
 10
9.385436448553172
 20
7.712280026835922
 30
0.0
  0
VERTEX
  5
2F1
  8
LAYER_1
 10
9.360960062978062
 20
7.701005554668596
 30
0.0
  0
VERTEX
  5
2F2
  8
LAYER_1
 10
9.336567641832197
 20
7.689384354980564
 30
0.0
  0
VERTEX
  5
2F3
  8
LAYER_1
 10
9.312267975166243
 20
7.67742167313243
 30
0.0
  0
VERTEX
  5
2F4
  8
LAYER_1
 10
9.288069853030876
 20
7.665122754484788
 30
0.0
  0
VERTEX
  5
2F5
  8
LAYER_1
 10
9.263982065476775
 20
7.652492844398241
 30
0.0
  0
VERTEX
  5
2F6
  8
LAYER_1
 10
9.240013402554606
 20
7.639537188233389
 30
0.0
  0
VERTEX
  5
2F7
  8
LAYER_1
 10
9.216172654315047
 20
7.626261031350829
 30
0.0
  0
VERTEX
  5
2F8
  8
LAYER_1
 10
9.192468610808769
 20
7.612669619111164
 30
0.0
  0
VERTEX
  5
2F9
  8
LAYER_1
 10
9.168910062086445
 20
7.598768196874992
 30
0.0
  0
VERTEX
  5
2FA
  8
LAYER_1
 10
9.14550579819875
 20
7.584562010002915
 30
0.0
  0
VERTEX
  5
2FB
  8
LAYER_1
 10
9.122264609196357
 20
7.57005630385553
 30
0.0
  0
VERTEX
  5
2FC
  8
LAYER_1
 10
9.099195285129941
 20
7.555256323793438
 30
0.0
  0
VERTEX
  5
2FD
  8
LAYER_1
 10
9.076306616050175
 20
7.54016731517724
 30
0.0
  0
VERTEX
  5
2FE
  8
LAYER_1
 10
9.05360739200773
 20
7.524794523367534
 30
0.0
  0
VERTEX
  5
2FF
  8
LAYER_1
 10
9.031106403053283
 20
7.50914319372492
 30
0.0
  0
VERTEX
  5
300
  8
LAYER_1
 10
9.008812439237506
 20
7.493218571609999
 30
0.0
  0
VERTEX
  5
301
  8
LAYER_1
 10
8.986734290611071
 20
7.477025902383368
 30
0.0
  0
VERTEX
  5
302
  8
LAYER_1
 10
8.964880747224653
 20
7.46057043140563
 30
0.0
  0
VERTEX
  5
303
  8
LAYER_1
 10
8.943260599128926
 20
7.443857404037384
 30
0.0
  0
VERTEX
  5
304
  8
LAYER_1
 10
8.921882636374566
 20
7.42689206563923
 30
0.0
  0
VERTEX
  5
305
  8
LAYER_1
 10
8.900755649012238
 20
7.409679661571766
 30
0.0
  0
VERTEX
  5
306
  8
LAYER_1
 10
8.879888427092624
 20
7.392225437195593
 30
0.0
  0
VERTEX
  5
307
  8
LAYER_1
 10
8.859289760666393
 20
7.374534637871312
 30
0.0
  0
VERTEX
  5
308
  8
LAYER_1
 10
8.838968439784221
 20
7.356612508959521
 30
0.0
  0
VERTEX
  5
309
  8
LAYER_1
 10
8.81893325449678
 20
7.33846429582082
 30
0.0
  0
VERTEX
  5
30A
  8
LAYER_1
 10
8.799192994854742
 20
7.32009524381581
 30
0.0
  0
VERTEX
  5
30B
  8
LAYER_1
 10
8.779756450908787
 20
7.301510598305089
 30
0.0
  0
VERTEX
  5
30C
  8
LAYER_1
 10
8.760632412709583
 20
7.282715604649258
 30
0.0
  0
VERTEX
  5
30D
  8
LAYER_1
 10
8.741829670307801
 20
7.263715508208918
 30
0.0
  0
VERTEX
  5
30E
  8
LAYER_1
 10
8.723357013754121
 20
7.244515554344667
 30
0.0
  0
VERTEX
  5
30F
  8
LAYER_1
 10
8.705223233099211
 20
7.225120988417105
 30
0.0
  0
VERTEX
  5
310
  8
LAYER_1
 10
8.687437118393749
 20
7.205537055786832
 30
0.0
  0
VERTEX
  5
311
  8
LAYER_1
 10
8.670007459688406
 20
7.185769001814448
 30
0.0
  0
VERTEX
  5
312
  8
LAYER_1
 10
8.652943047033855
 20
7.165822071860552
 30
0.0
  0
VERTEX
  5
313
  8
LAYER_1
 10
8.636252670480774
 20
7.145701511285745
 30
0.0
  0
SEQEND
  5
C2C
  8
LAYER_1
  0
POLYLINE
  5
77
  8
LAYER_1
 66
     1
 10
0.0
 20
0.0
 30
0.0
  0
VERTEX
  5
314
  8
LAYER_1
 10
12.24421283503573
 20
3.547355619884747
 30
0.0
  0
VERTEX
  5
315
  8
LAYER_1
 10
12.23434137414816
 20
3.561344748489167
 30
0.0
  0
VERTEX
  5
316
  8
LAYER_1
 10
12.22470977809081
 20
3.575656310465122
 30
0.0
  0
VERTEX
  5
317
  8
LAYER_1
 10
12.21530873346915
 20
3.590278978662047
 30
0.0
  0
VERTEX
  5
318
  8
LAYER_1
 10
12.20612892688866
 20
3.605201425929381
 30
0.0
  0
VERTEX
  5
319
  8
LAYER_1
 10
12.19716104495482
 20
3.620412325116559
 30
0.0
  0
VERTEX
  5
31A
  8
LAYER_1
 10
12.18839577427313
 20
3.635900349073019
 30
0.0
  0
VERTEX
  5
31B
  8
LAYER_1
 10
12.17143581308808
 20
3.66766246269153
 30
0.0
  0
VERTEX
  5
31C
  8
LAYER_1
 10
12.15517453617738
 20
3.700397149580408
 30
0.0
  0
VERTEX
  5
31D
  8
LAYER_1
 10
12.13953743638489
 20
3.734013792535146
 30
0.0
  0
VERTEX
  5
31E
  8
LAYER_1
 10
12.12445000655445
 20
3.76842177435124
 30
0.0
  0
VERTEX
  5
31F
  8
LAYER_1
 10
12.10983773952994
 20
3.803530477824182
 30
0.0
  0
VERTEX
  5
320
  8
LAYER_1
 10
12.09562612815521
 20
3.839249285749467
 30
0.0
  0
VERTEX
  5
321
  8
LAYER_1
 10
12.08174066527412
 20
3.87548758092259
 30
0.0
  0
VERTEX
  5
322
  8
LAYER_1
 10
12.0546501563683
 20
3.949160164194322
 30
0.0
  0
VERTEX
  5
323
  8
LAYER_1
 10
12.02797015556336
 20
4.02382329000333
 30
0.0
  0
VERTEX
  5
324
  8
LAYER_1
 10
12.00110460561016
 20
4.098752020713567
 30
0.0
  0
VERTEX
  5
325
  8
LAYER_1
 10
11.98741598181262
 20
4.136089444895381
 30
0.0
  0
VERTEX
  5
326
  8
LAYER_1
 10
11.97345744925959
 20
4.173221418688986
 30
0.0
  0
VERTEX
  5
327
  8
LAYER_1
 10
11.95915450079494
 20
4.210057324889871
 30
0.0
  0
VERTEX
  5
328
  8
LAYER_1
 10
11.94443262926253
 20
4.246506546293536
 30
0.0
  0
VERTEX
  5
329
  8
LAYER_1
 10
11.9292173275062
 20
4.282478465695471
 30
0.0
  0
VERTEX
  5
32A
  8
LAYER_1
 10
11.91343408836983
 20
4.317882465891172
 30
0.0
  0
VERTEX
  5
32B
  8
LAYER_1
 10
11.89700840469728
 20
4.352627929676133
 30
0.0
  0
VERTEX
  5
32C
  8
LAYER_1
 10
11.87986576933239
 20
4.386624239845846
 30
0.0
  0
VERTEX
  5
32D
  8
LAYER_1
 10
11.86193167511904
 20
4.419780779195808
 30
0.0
  0
VERTEX
  5
32E
  8
LAYER_1
 10
11.85264454745789
 20
4.436015816936973
 30
0.0
  0
VERTEX
  5
32F
  8
LAYER_1
 10
11.84313161490108
 20
4.45200693052151
 30
0.0
  0
VERTEX
  5
330
  8
LAYER_1
 10
11.83338356405407
 20
4.467742792798857
 30
0.0
  0
VERTEX
  5
331
  8
LAYER_1
 10
11.82339108152236
 20
4.483212076618448
 30
0.0
  0
VERTEX
  5
332
  8
LAYER_1
 10
11.81314485391143
 20
4.498403454829723
 30
0.0
  0
VERTEX
  5
333
  8
LAYER_1
 10
11.80263556782676
 20
4.513305600282116
 30
0.0
  0
VERTEX
  5
334
  8
LAYER_1
 10
11.79185390987383
 20
4.527907185825066
 30
0.0
  0
VERTEX
  5
335
  8
LAYER_1
 10
11.78079056665813
 20
4.542196884308008
 30
0.0
  0
VERTEX
  5
336
  8
LAYER_1
 10
11.76943622478513
 20
4.556163368580378
 30
0.0
  0
VERTEX
  5
337
  8
LAYER_1
 10
11.75778157086032
 20
4.569795311491617
 30
0.0
  0
VERTEX
  5
338
  8
LAYER_1
 10
11.74581729148919
 20
4.583081385891157
 30
0.0
  0
VERTEX
  5
339
  8
LAYER_1
 10
11.7335340732772
 20
4.596010264628438
 30
0.0
  0
VERTEX
  5
33A
  8
LAYER_1
 10
11.72092260282986
 20
4.608570620552895
 30
0.0
  0
VERTEX
  5
33B
  8
LAYER_1
 10
11.70797356675263
 20
4.620751126513964
 30
0.0
  0
VERTEX
  5
33C
  8
LAYER_1
 10
11.68686019041044
 20
4.639630683985921
 30
0.0
  0
VERTEX
  5
33D
  8
LAYER_1
 10
11.6653008307777
 20
4.658110054887493
 30
0.0
  0
VERTEX
  5
33E
  8
LAYER_1
 10
11.64330428886931
 20
4.676196366599934
 30
0.0
  0
VERTEX
  5
33F
  8
LAYER_1
 10
11.62087936570015
 20
4.693896746504496
 30
0.0
  0
VERTEX
  5
340
  8
LAYER_1
 10
11.59803486228511
 20
4.711218321982435
 30
0.0
  0
VERTEX
  5
341
  8
LAYER_1
 10
11.57477957963906
 20
4.728168220415004
 30
0.0
  0
VERTEX
  5
342
  8
LAYER_1
 10
11.5511223187769
 20
4.744753569183453
 30
0.0
  0
VERTEX
  5
343
  8
LAYER_1
 10
11.52707188071351
 20
4.760981495669041
 30
0.0
  0
VERTEX
  5
344
  8
LAYER_1
 10
11.50263706646377
 20
4.776859127253018
 30
0.0
  0
VERTEX
  5
345
  8
LAYER_1
 10
11.47782667704257
 20
4.792393591316637
 30
0.0
  0
VERTEX
  5
346
  8
LAYER_1
 10
11.4526495134648
 20
4.807592015241154
 30
0.0
  0
VERTEX
  5
347
  8
LAYER_1
 10
11.42711437674532
 20
4.822461526407819
 30
0.0
  0
VERTEX
  5
348
  8
LAYER_1
 10
11.40123006789904
 20
4.837009252197888
 30
0.0
  0
VERTEX
  5
349
  8
LAYER_1
 10
11.37500538794084
 20
4.851242319992615
 30
0.0
  0
VERTEX
  5
34A
  8
LAYER_1
 10
11.3484491378856
 20
4.865167857173251
 30
0.0
  0
VERTEX
  5
34B
  8
LAYER_1
 10
11.3215701187482
 20
4.878792991121052
 30
0.0
  0
VERTEX
  5
34C
  8
LAYER_1
 10
11.29437713154353
 20
4.89212484921727
 30
0.0
  0
VERTEX
  5
34D
  8
LAYER_1
 10
11.26687897728648
 20
4.905170558843158
 30
0.0
  0
VERTEX
  5
34E
  8
LAYER_1
 10
11.23908445699193
 20
4.917937247379972
 30
0.0
  0
VERTEX
  5
34F
  8
LAYER_1
 10
11.21100237167476
 20
4.930432042208963
 30
0.0
  0
VERTEX
  5
350
  8
LAYER_1
 10
11.18264152234986
 20
4.942662070711386
 30
0.0
  0
VERTEX
  5
351
  8
LAYER_1
 10
11.15401071003211
 20
4.954634460268494
 30
0.0
  0
VERTEX
  5
352
  8
LAYER_1
 10
11.1251187357364
 20
4.96635633826154
 30
0.0
  0
VERTEX
  5
353
  8
LAYER_1
 10
11.09597440047761
 20
4.977834832071776
 30
0.0
  0
VERTEX
  5
354
  8
LAYER_1
 10
11.03696385113033
 20
5.00009017666884
 30
0.0
  0
VERTEX
  5
355
  8
LAYER_1
 10
10.97704947010937
 20
5.021457513109712
 30
0.0
  0
VERTEX
  5
356
  8
LAYER_1
 10
10.91630166553378
 20
5.041993860444419
 30
0.0
  0
VERTEX
  5
357
  8
LAYER_1
 10
10.85479084552264
 20
5.061756237722991
 30
0.0
  0
VERTEX
  5
358
  8
LAYER_1
 10
10.79258741819504
 20
5.080801663995455
 30
0.0
  0
VERTEX
  5
359
  8
LAYER_1
 10
10.72976179167005
 20
5.099187158311839
 30
0.0
  0
VERTEX
  5
35A
  8
LAYER_1
 10
10.66638437406675
 20
5.11696973972217
 30
0.0
  0
VERTEX
  5
35B
  8
LAYER_1
 10
10.60252557350421
 20
5.134206427276476
 30
0.0
  0
VERTEX
  5
35C
  8
LAYER_1
 10
10.53825579810151
 20
5.150954240024785
 30
0.0
  0
VERTEX
  5
35D
  8
LAYER_1
 10
10.47364545597773
 20
5.167270197017125
 30
0.0
  0
VERTEX
  5
35E
  8
LAYER_1
 10
10.40876495525194
 20
5.183211317303523
 30
0.0
  0
VERTEX
  5
35F
  8
LAYER_1
 10
10.34368470404323
 20
5.198834619934008
 30
0.0
  0
VERTEX
  5
360
  8
LAYER_1
 10
10.21320658265331
 20
5.229355848427348
 30
0.0
  0
VERTEX
  5
361
  8
LAYER_1
 10
10.08277435676059
 20
5.259290034897366
 30
0.0
  0
VERTEX
  5
362
  8
LAYER_1
 10
9.952951291317696
 20
5.289093331744286
 30
0.0
  0
VERTEX
  5
363
  8
LAYER_1
 10
9.824300651277225
 20
5.319221891368327
 30
0.0
  0
SEQEND
  5
C2D
  8
LAYER_1
  0
POLYLINE
  5
78
  8
LAYER_1
 66
     1
 10
0.0
 20
0.0
 30
0.0
  0
VERTEX
  5
364
  8
LAYER_1
 10
8.636252670480774
 20
7.145701511285745
 30
0.0
  0
VERTEX
  5
365
  8
LAYER_1
 10
9.824300651277225
 20
5.319221891368327
 30
0.0
  0
SEQEND
  5
C2E
  8
LAYER_1
  0
POLYLINE
  5
79
  8
LAYER_1
 66
     1
 10
0.0
 20
0.0
 30
0.0
  0
VERTEX
  5
366
  8
LAYER_1
 10
12.24421283503573
 20
3.547355619884747
 30
0.0
  0
VERTEX
  5
367
  8
LAYER_1
 10
13.36034640793863
 20
3.547364283823148
 30
0.0
  0
SEQEND
  5
C2F
  8
LAYER_1
  0
POLYLINE
  5
7A
  8
LAYER_1
 66
     1
 10
0.0
 20
0.0
 30
0.0
 70
     1
  0
VERTEX
  5
368
  8
LAYER_1
 10
1.70294655995406
 20
0.4912751677852349
 30
0.0
  0
VERTEX
  5
369
  8
LAYER_1
 10
20.26752323870366
 20
0.4912751677852349
 30
0.0
  0
VERTEX
  5
36A
  8
LAYER_1
 10
20.29079405053809
 20
0.4916017752310731
 30
0.0
  0
VERTEX
  5
36B
  8
LAYER_1
 10
20.31391967526762
 20
0.4925763615799643
 30
0.0
  0
VERTEX
  5
36C
  8
LAYER_1
 10
20.33689303170762
 20
0.4941910728489715
 30
0.0
  0
VERTEX
  5
36D
  8
LAYER_1
 10
20.35970703867349
 20
0.4964380550551576
 30
0.0
  0
VERTEX
  5
36E
  8
LAYER_1
 10
20.38235461498061
 20
0.4993094542155856
 30
0.0
  0
VERTEX
  5
36F
  8
LAYER_1
 10
20.40482867944436
 20
0.5027974163473187
 30
0.0
  0
VERTEX
  5
370
  8
LAYER_1
 10
20.42712215088012
 20
0.5068940874674196
 30
0.0
  0
VERTEX
  5
371
  8
LAYER_1
 10
20.44922794810327
 20
0.5115916135929515
 30
0.0
  0
VERTEX
  5
372
  8
LAYER_1
 10
20.47113898992922
 20
0.5168821407409769
 30
0.0
  0
VERTEX
  5
373
  8
LAYER_1
 10
20.49284819517332
 20
0.5227578149285592
 30
0.0
  0
VERTEX
  5
374
  8
LAYER_1
 10
20.51434848265098
 20
0.5292107821727614
 30
0.0
  0
VERTEX
  5
375
  8
LAYER_1
 10
20.53563277117758
 20
0.5362331884906462
 30
0.0
  0
VERTEX
  5
376
  8
LAYER_1
 10
20.55669397956849
 20
0.5438171798992766
 30
0.0
  0
VERTEX
  5
377
  8
LAYER_1
 10
20.57752502663911
 20
0.5519549024157158
 30
0.0
  0
VERTEX
  5
378
  8
LAYER_1
 10
20.59811883120481
 20
0.5606385020570265
 30
0.0
  0
VERTEX
  5
379
  8
LAYER_1
 10
20.61846831208098
 20
0.5698601248402717
 30
0.0
  0
VERTEX
  5
37A
  8
LAYER_1
 10
20.63856638808301
 20
0.5796119167825146
 30
0.0
  0
VERTEX
  5
37B
  8
LAYER_1
 10
20.65840597802627
 20
0.5898860239008179
 30
0.0
  0
VERTEX
  5
37C
  8
LAYER_1
 10
20.67798000072617
 20
0.6006745922122445
 30
0.0
  0
VERTEX
  5
37D
  8
LAYER_1
 10
20.69728137499806
 20
0.6119697677338578
 30
0.0
  0
VERTEX
  5
37E
  8
LAYER_1
 10
20.71630301965735
 20
0.6237636964827203
 30
0.0
  0
VERTEX
  5
37F
  8
LAYER_1
 10
20.73503785351942
 20
0.6360485244758953
 30
0.0
  0
VERTEX
  5
380
  8
LAYER_1
 10
20.75347879539964
 20
0.6488163977304457
 30
0.0
  0
VERTEX
  5
381
  8
LAYER_1
 10
20.77161876411341
 20
0.6620594622634344
 30
0.0
  0
VERTEX
  5
382
  8
LAYER_1
 10
20.78945067847611
 20
0.6757698640919243
 30
0.0
  0
VERTEX
  5
383
  8
LAYER_1
 10
20.80696745730312
 20
0.6899397492329784
 30
0.0
  0
VERTEX
  5
384
  8
LAYER_1
 10
20.82416201940982
 20
0.7045612637036598
 30
0.0
  0
VERTEX
  5
385
  8
LAYER_1
 10
20.8410272836116
 20
0.7196265535210313
 30
0.0
  0
VERTEX
  5
386
  8
LAYER_1
 10
20.85755616872385
 20
0.7351277647021559
 30
0.0
  0
VERTEX
  5
387
  8
LAYER_1
 10
20.87374159356194
 20
0.7510570432640966
 30
0.0
  0
VERTEX
  5
388
  8
LAYER_1
 10
20.88957647694127
 20
0.7674065352239163
 30
0.0
  0
VERTEX
  5
389
  8
LAYER_1
 10
20.90505373767721
 20
0.7841683865986782
 30
0.0
  0
VERTEX
  5
38A
  8
LAYER_1
 10
20.92016629458515
 20
0.801334743405445
 30
0.0
  0
VERTEX
  5
38B
  8
LAYER_1
 10
20.93490706648047
 20
0.8188977516612796
 30
0.0
  0
VERTEX
  5
38C
  8
LAYER_1
 10
20.94926897217856
 20
0.8368495573832454
 30
0.0
  0
VERTEX
  5
38D
  8
LAYER_1
 10
20.96324493049481
 20
0.855182306588405
 30
0.0
  0
VERTEX
  5
38E
  8
LAYER_1
 10
20.97682786024459
 20
0.8738881452938214
 30
0.0
  0
VERTEX
  5
38F
  8
LAYER_1
 10
20.99001068024329
 20
0.8929592195165577
 30
0.0
  0
VERTEX
  5
390
  8
LAYER_1
 10
21.00278630930629
 20
0.9123876752736768
 30
0.0
  0
VERTEX
  5
391
  8
LAYER_1
 10
21.01514766624899
 20
0.9321656585822415
 30
0.0
  0
VERTEX
  5
392
  8
LAYER_1
 10
21.02708766988675
 20
0.952285315459315
 30
0.0
  0
VERTEX
  5
393
  8
LAYER_1
 10
21.03859923903497
 20
0.9727387919219603
 30
0.0
  0
VERTEX
  5
394
  8
LAYER_1
 10
21.04967529250903
 20
0.9935182339872402
 30
0.0
  0
VERTEX
  5
395
  8
LAYER_1
 10
21.06030874912432
 20
1.014615787672217
 30
0.0
  0
VERTEX
  5
396
  8
LAYER_1
 10
21.07049252769621
 20
1.036023598993955
 30
0.0
  0
VERTEX
  5
397
  8
LAYER_1
 10
21.08021954704009
 20
1.057733813969517
 30
0.0
  0
VERTEX
  5
398
  8
LAYER_1
 10
21.08948272597135
 20
1.079738578615966
 30
0.0
  0
VERTEX
  5
399
  8
LAYER_1
 10
21.09827498330538
 20
1.102030038950363
 30
0.0
  0
VERTEX
  5
39A
  8
LAYER_1
 10
21.10658923785754
 20
1.124600340989773
 30
0.0
  0
VERTEX
  5
39B
  8
LAYER_1
 10
21.11441840844324
 20
1.147441630751258
 30
0.0
  0
VERTEX
  5
39C
  8
LAYER_1
 10
21.12175541387785
 20
1.170546054251882
 30
0.0
  0
VERTEX
  5
39D
  8
LAYER_1
 10
21.12859317297675
 20
1.193905757508708
 30
0.0
  0
VERTEX
  5
39E
  8
LAYER_1
 10
21.13492460455533
 20
1.217512886538797
 30
0.0
  0
VERTEX
  5
39F
  8
LAYER_1
 10
21.14074262742898
 20
1.241359587359214
 30
0.0
  0
VERTEX
  5
3A0
  8
LAYER_1
 10
21.14604016041308
 20
1.265438005987021
 30
0.0
  0
VERTEX
  5
3A1
  8
LAYER_1
 10
21.15081012232302
 20
1.289740288439281
 30
0.0
  0
VERTEX
  5
3A2
  8
LAYER_1
 10
21.15504543197417
 20
1.314258580733058
 30
0.0
  0
VERTEX
  5
3A3
  8
LAYER_1
 10
21.15873900818191
 20
1.338985028885413
 30
0.0
  0
VERTEX
  5
3A4
  8
LAYER_1
 10
21.16188376976164
 20
1.363911778913411
 30
0.0
  0
VERTEX
  5
3A5
  8
LAYER_1
 10
21.16447263552875
 20
1.389030976834114
 30
0.0
  0
VERTEX
  5
3A6
  8
LAYER_1
 10
21.1664985242986
 20
1.414334768664585
 30
0.0
  0
VERTEX
  5
3A7
  8
LAYER_1
 10
21.1679543548866
 20
1.439815300421887
 30
0.0
  0
VERTEX
  5
3A8
  8
LAYER_1
 10
21.16883304610811
 20
1.465464718123082
 30
0.0
  0
VERTEX
  5
3A9
  8
LAYER_1
 10
21.16912751677853
 20
1.491275167785235
 30
0.0
  0
VERTEX
  5
3AA
  8
LAYER_1
 10
21.16912751677853
 20
10.29127516778524
 30
0.0
  0
VERTEX
  5
3AB
  8
LAYER_1
 10
21.16883304610811
 20
10.31708561744739
 30
0.0
  0
VERTEX
  5
3AC
  8
LAYER_1
 10
21.1679543548866
 20
10.34273503514859
 30
0.0
  0
VERTEX
  5
3AD
  8
LAYER_1
 10
21.1664985242986
 20
10.36821556690589
 30
0.0
  0
VERTEX
  5
3AE
  8
LAYER_1
 10
21.16447263552875
 20
10.39351935873636
 30
0.0
  0
VERTEX
  5
3AF
  8
LAYER_1
 10
21.16188376976164
 20
10.41863855665706
 30
0.0
  0
VERTEX
  5
3B0
  8
LAYER_1
 10
21.15873900818191
 20
10.44356530668506
 30
0.0
  0
VERTEX
  5
3B1
  8
LAYER_1
 10
21.15504543197417
 20
10.46829175483741
 30
0.0
  0
VERTEX
  5
3B2
  8
LAYER_1
 10
21.15081012232302
 20
10.49281004713119
 30
0.0
  0
VERTEX
  5
3B3
  8
LAYER_1
 10
21.14604016041308
 20
10.51711232958345
 30
0.0
  0
VERTEX
  5
3B4
  8
LAYER_1
 10
21.14074262742898
 20
10.54119074821126
 30
0.0
  0
VERTEX
  5
3B5
  8
LAYER_1
 10
21.13492460455533
 20
10.56503744903167
 30
0.0
  0
VERTEX
  5
3B6
  8
LAYER_1
 10
21.12859317297675
 20
10.58864457806176
 30
0.0
  0
VERTEX
  5
3B7
  8
LAYER_1
 10
21.12175541387785
 20
10.61200428131859
 30
0.0
  0
VERTEX
  5
3B8
  8
LAYER_1
 10
21.11441840844324
 20
10.63510870481921
 30
0.0
  0
VERTEX
  5
3B9
  8
LAYER_1
 10
21.10658923785754
 20
10.6579499945807
 30
0.0
  0
VERTEX
  5
3BA
  8
LAYER_1
 10
21.09827498330538
 20
10.68052029662011
 30
0.0
  0
VERTEX
  5
3BB
  8
LAYER_1
 10
21.08948272597136
 20
10.70281175695451
 30
0.0
  0
VERTEX
  5
3BC
  8
LAYER_1
 10
21.0802195470401
 20
10.72481652160096
 30
0.0
  0
VERTEX
  5
3BD
  8
LAYER_1
 10
21.07049252769621
 20
10.74652673657652
 30
0.0
  0
VERTEX
  5
3BE
  8
LAYER_1
 10
21.06030874912432
 20
10.76793454789826
 30
0.0
  0
VERTEX
  5
3BF
  8
LAYER_1
 10
21.04967529250903
 20
10.78903210158323
 30
0.0
  0
VERTEX
  5
3C0
  8
LAYER_1
 10
21.03859923903497
 20
10.80981154364851
 30
0.0
  0
VERTEX
  5
3C1
  8
LAYER_1
 10
21.02708766988675
 20
10.83026502011116
 30
0.0
  0
VERTEX
  5
3C2
  8
LAYER_1
 10
21.01514766624899
 20
10.85038467698823
 30
0.0
  0
VERTEX
  5
3C3
  8
LAYER_1
 10
21.0027863093063
 20
10.8701626602968
 30
0.0
  0
VERTEX
  5
3C4
  8
LAYER_1
 10
20.99001068024329
 20
10.88959111605392
 30
0.0
  0
VERTEX
  5
3C5
  8
LAYER_1
 10
20.9768278602446
 20
10.90866219027665
 30
0.0
  0
VERTEX
  5
3C6
  8
LAYER_1
 10
20.96324493049481
 20
10.92736802898207
 30
0.0
  0
VERTEX
  5
3C7
  8
LAYER_1
 10
20.94926897217857
 20
10.94570077818723
 30
0.0
  0
VERTEX
  5
3C8
  8
LAYER_1
 10
20.93490706648048
 20
10.96365258390919
 30
0.0
  0
VERTEX
  5
3C9
  8
LAYER_1
 10
20.92016629458515
 20
10.98121559216503
 30
0.0
  0
VERTEX
  5
3CA
  8
LAYER_1
 10
20.90505373767721
 20
10.9983819489718
 30
0.0
  0
VERTEX
  5
3CB
  8
LAYER_1
 10
20.88957647694127
 20
11.01514380034656
 30
0.0
  0
VERTEX
  5
3CC
  8
LAYER_1
 10
20.87374159356195
 20
11.03149329230638
 30
0.0
  0
VERTEX
  5
3CD
  8
LAYER_1
 10
20.85755616872385
 20
11.04742257086832
 30
0.0
  0
VERTEX
  5
3CE
  8
LAYER_1
 10
20.84102728361161
 20
11.06292378204945
 30
0.0
  0
VERTEX
  5
3CF
  8
LAYER_1
 10
20.82416201940983
 20
11.07798907186682
 30
0.0
  0
VERTEX
  5
3D0
  8
LAYER_1
 10
20.80696745730312
 20
11.0926105863375
 30
0.0
  0
VERTEX
  5
3D1
  8
LAYER_1
 10
20.78945067847611
 20
11.10678047147855
 30
0.0
  0
VERTEX
  5
3D2
  8
LAYER_1
 10
20.77161876411342
 20
11.12049087330704
 30
0.0
  0
VERTEX
  5
3D3
  8
LAYER_1
 10
20.75347879539965
 20
11.13373393784003
 30
0.0
  0
VERTEX
  5
3D4
  8
LAYER_1
 10
20.73503785351943
 20
11.14650181109458
 30
0.0
  0
VERTEX
  5
3D5
  8
LAYER_1
 10
20.71630301965736
 20
11.15878663908775
 30
0.0
  0
VERTEX
  5
3D6
  8
LAYER_1
 10
20.69728137499807
 20
11.17058056783662
 30
0.0
  0
VERTEX
  5
3D7
  8
LAYER_1
 10
20.67798000072617
 20
11.18187574335823
 30
0.0
  0
VERTEX
  5
3D8
  8
LAYER_1
 10
20.65840597802628
 20
11.19266431166966
 30
0.0
  0
VERTEX
  5
3D9
  8
LAYER_1
 10
20.63856638808301
 20
11.20293841878796
 30
0.0
  0
VERTEX
  5
3DA
  8
LAYER_1
 10
20.61846831208099
 20
11.2126902107302
 30
0.0
  0
VERTEX
  5
3DB
  8
LAYER_1
 10
20.59811883120481
 20
11.22191183351345
 30
0.0
  0
VERTEX
  5
3DC
  8
LAYER_1
 10
20.57752502663911
 20
11.23059543315476
 30
0.0
  0
VERTEX
  5
3DD
  8
LAYER_1
 10
20.55669397956849
 20
11.2387331556712
 30
0.0
  0
VERTEX
  5
3DE
  8
LAYER_1
 10
20.53563277117758
 20
11.24631714707983
 30
0.0
  0
VERTEX
  5
3DF
  8
LAYER_1
 10
20.51434848265098
 20
11.25333955339771
 30
0.0
  0
VERTEX
  5
3E0
  8
LAYER_1
 10
20.49284819517333
 20
11.25979252064191
 30
0.0
  0
VERTEX
  5
3E1
  8
LAYER_1
 10
20.47113898992922
 20
11.2656681948295
 30
0.0
  0
VERTEX
  5
3E2
  8
LAYER_1
 10
20.44922794810328
 20
11.27095872197752
 30
0.0
  0
VERTEX
  5
3E3
  8
LAYER_1
 10
20.42712215088012
 20
11.27565624810306
 30
0.0
  0
VERTEX
  5
3E4
  8
LAYER_1
 10
20.40482867944436
 20
11.27975291922316
 30
0.0
  0
VERTEX
  5
3E5
  8
LAYER_1
 10
20.38235461498061
 20
11.28324088135489
 30
0.0
  0
VERTEX
  5
3E6
  8
LAYER_1
 10
20.3597070386735
 20
11.28611228051532
 30
0.0
  0
VERTEX
  5
3E7
  8
LAYER_1
 10
20.33689303170763
 20
11.2883592627215
 30
0.0
  0
VERTEX
  5
3E8
  8
LAYER_1
 10
20.31391967526762
 20
11.28997397399051
 30
0.0
  0
VERTEX
  5
3E9
  8
LAYER_1
 10
20.29079405053809
 20
11.2909485603394
 30
0.0
  0
VERTEX
  5
3EA
  8
LAYER_1
 10
20.26752323870366
 20
11.29127516778524
 30
0.0
  0
VERTEX
  5
3EB
  8
LAYER_1
 10
1.70294655995406
 20
11.29127516778524
 30
0.0
  0
VERTEX
  5
3EC
  8
LAYER_1
 10
1.679675748119627
 20
11.2909485603394
 30
0.0
  0
VERTEX
  5
3ED
  8
LAYER_1
 10
1.6565501233901
 20
11.28997397399051
 30
0.0
  0
VERTEX
  5
3EE
  8
LAYER_1
 10
1.633576766950094
 20
11.2883592627215
 30
0.0
  0
VERTEX
  5
3EF
  8
LAYER_1
 10
1.610762759984226
 20
11.28611228051531
 30
0.0
  0
VERTEX
  5
3F0
  8
LAYER_1
 10
1.588115183677111
 20
11.28324088135489
 30
0.0
  0
VERTEX
  5
3F1
  8
LAYER_1
 10
1.565641119213365
 20
11.27975291922315
 30
0.0
  0
VERTEX
  5
3F2
  8
LAYER_1
 10
1.543347647777605
 20
11.27565624810305
 30
0.0
  0
VERTEX
  5
3F3
  8
LAYER_1
 10
1.521241850554446
 20
11.27095872197752
 30
0.0
  0
VERTEX
  5
3F4
  8
LAYER_1
 10
1.499330808728505
 20
11.26566819482949
 30
0.0
  0
VERTEX
  5
3F5
  8
LAYER_1
 10
1.477621603484397
 20
11.25979252064191
 30
0.0
  0
VERTEX
  5
3F6
  8
LAYER_1
 10
1.456121316006738
 20
11.25333955339771
 30
0.0
  0
VERTEX
  5
3F7
  8
LAYER_1
 10
1.434837027480143
 20
11.24631714707983
 30
0.0
  0
VERTEX
  5
3F8
  8
LAYER_1
 10
1.41377581908923
 20
11.23873315567119
 30
0.0
  0
VERTEX
  5
3F9
  8
LAYER_1
 10
1.392944772018615
 20
11.23059543315476
 30
0.0
  0
VERTEX
  5
3FA
  8
LAYER_1
 10
1.372350967452912
 20
11.22191183351345
 30
0.0
  0
VERTEX
  5
3FB
  8
LAYER_1
 10
1.352001486576738
 20
11.2126902107302
 30
0.0
  0
VERTEX
  5
3FC
  8
LAYER_1
 10
1.331903410574709
 20
11.20293841878796
 30
0.0
  0
VERTEX
  5
3FD
  8
LAYER_1
 10
1.312063820631441
 20
11.19266431166965
 30
0.0
  0
VERTEX
  5
3FE
  8
LAYER_1
 10
1.292489797931549
 20
11.18187574335823
 30
0.0
  0
VERTEX
  5
3FF
  8
LAYER_1
 10
1.273188423659651
 20
11.17058056783661
 30
0.0
  0
VERTEX
  5
400
  8
LAYER_1
 10
1.254166779000361
 20
11.15878663908775
 30
0.0
  0
VERTEX
  5
401
  8
LAYER_1
 10
1.235431945138296
 20
11.14650181109458
 30
0.0
  0
VERTEX
  5
402
  8
LAYER_1
 10
1.216991003258071
 20
11.13373393784003
 30
0.0
  0
VERTEX
  5
403
  8
LAYER_1
 10
1.198851034544303
 20
11.12049087330704
 30
0.0
  0
VERTEX
  5
404
  8
LAYER_1
 10
1.181019120181608
 20
11.10678047147855
 30
0.0
  0
VERTEX
  5
405
  8
LAYER_1
 10
1.163502341354602
 20
11.09261058633749
 30
0.0
  0
VERTEX
  5
406
  8
LAYER_1
 10
1.146307779247899
 20
11.07798907186681
 30
0.0
  0
VERTEX
  5
407
  8
LAYER_1
 10
1.129442515046117
 20
11.06292378204944
 30
0.0
  0
VERTEX
  5
408
  8
LAYER_1
 10
1.112913629933872
 20
11.04742257086832
 30
0.0
  0
VERTEX
  5
409
  8
LAYER_1
 10
1.096728205095779
 20
11.03149329230638
 30
0.0
  0
VERTEX
  5
40A
  8
LAYER_1
 10
1.080893321716454
 20
11.01514380034656
 30
0.0
  0
VERTEX
  5
40B
  8
LAYER_1
 10
1.065416060980513
 20
10.99838194897179
 30
0.0
  0
VERTEX
  5
40C
  8
LAYER_1
 10
1.050303504072573
 20
10.98121559216503
 30
0.0
  0
VERTEX
  5
40D
  8
LAYER_1
 10
1.035562732177249
 20
10.96365258390919
 30
0.0
  0
VERTEX
  5
40E
  8
LAYER_1
 10
1.021200826479157
 20
10.94570077818722
 30
0.0
  0
VERTEX
  5
40F
  8
LAYER_1
 10
1.007224868162913
 20
10.92736802898207
 30
0.0
  0
VERTEX
  5
410
  8
LAYER_1
 10
0.9936419384131332
 20
10.90866219027665
 30
0.0
  0
VERTEX
  5
411
  8
LAYER_1
 10
0.9804591184144333
 20
10.88959111605391
 30
0.0
  0
VERTEX
  5
412
  8
LAYER_1
 10
0.9676834893514294
 20
10.8701626602968
 30
0.0
  0
VERTEX
  5
413
  8
LAYER_1
 10
0.9553221324087375
 20
10.85038467698823
 30
0.0
  0
VERTEX
  5
414
  8
LAYER_1
 10
0.9433821287709734
 20
10.83026502011116
 30
0.0
  0
VERTEX
  5
415
  8
LAYER_1
 10
0.9318705596227531
 20
10.80981154364851
 30
0.0
  0
VERTEX
  5
416
  8
LAYER_1
 10
0.9207945061486926
 20
10.78903210158323
 30
0.0
  0
VERTEX
  5
417
  8
LAYER_1
 10
0.9101610495334078
 20
10.76793454789825
 30
0.0
  0
VERTEX
  5
418
  8
LAYER_1
 10
0.8999772709615148
 20
10.74652673657652
 30
0.0
  0
VERTEX
  5
419
  8
LAYER_1
 10
0.8902502516176294
 20
10.72481652160095
 30
0.0
  0
VERTEX
  5
41A
  8
LAYER_1
 10
0.8809870726863677
 20
10.70281175695451
 30
0.0
  0
VERTEX
  5
41B
  8
LAYER_1
 10
0.8721948153523456
 20
10.68052029662011
 30
0.0
  0
VERTEX
  5
41C
  8
LAYER_1
 10
0.8638805608001789
 20
10.6579499945807
 30
0.0
  0
VERTEX
  5
41D
  8
LAYER_1
 10
0.8560513902144837
 20
10.63510870481921
 30
0.0
  0
VERTEX
  5
41E
  8
LAYER_1
 10
0.8487143847798759
 20
10.61200428131859
 30
0.0
  0
VERTEX
  5
41F
  8
LAYER_1
 10
0.8418766256809718
 20
10.58864457806176
 30
0.0
  0
VERTEX
  5
420
  8
LAYER_1
 10
0.8355451941023866
 20
10.56503744903167
 30
0.0
  0
VERTEX
  5
421
  8
LAYER_1
 10
0.8297271712287371
 20
10.54119074821126
 30
0.0
  0
VERTEX
  5
422
  8
LAYER_1
 10
0.8244296382446386
 20
10.51711232958345
 30
0.0
  0
VERTEX
  5
423
  8
LAYER_1
 10
0.8196596763347075
 20
10.49281004713119
 30
0.0
  0
VERTEX
  5
424
  8
LAYER_1
 10
0.8154243666835596
 20
10.46829175483741
 30
0.0
  0
VERTEX
  5
425
  8
LAYER_1
 10
0.8117307904758108
 20
10.44356530668506
 30
0.0
  0
VERTEX
  5
426
  8
LAYER_1
 10
0.8085860288960771
 20
10.41863855665706
 30
0.0
  0
VERTEX
  5
427
  8
LAYER_1
 10
0.8059971631289744
 20
10.39351935873636
 30
0.0
  0
VERTEX
  5
428
  8
LAYER_1
 10
0.8039712743591187
 20
10.36821556690589
 30
0.0
  0
VERTEX
  5
429
  8
LAYER_1
 10
0.8025154437711259
 20
10.34273503514859
 30
0.0
  0
VERTEX
  5
42A
  8
LAYER_1
 10
0.8016367525496122
 20
10.31708561744739
 30
0.0
  0
VERTEX
  5
42B
  8
LAYER_1
 10
0.8013422818791933
 20
10.29127516778524
 30
0.0
  0
VERTEX
  5
42C
  8
LAYER_1
 10
0.8013422818791933
 20
1.491275167785235
 30
0.0
  0
VERTEX
  5
42D
  8
LAYER_1
 10
0.8016367525496128
 20
1.465464718123083
 30
0.0
  0
VERTEX
  5
42E
  8
LAYER_1
 10
0.8025154437711269
 20
1.439815300421887
 30
0.0
  0
VERTEX
  5
42F
  8
LAYER_1
 10
0.8039712743591201
 20
1.414334768664586
 30
0.0
  0
VERTEX
  5
430
  8
LAYER_1
 10
0.8059971631289762
 20
1.389030976834116
 30
0.0
  0
VERTEX
  5
431
  8
LAYER_1
 10
0.8085860288960793
 20
1.363911778913413
 30
0.0
  0
VERTEX
  5
432
  8
LAYER_1
 10
0.8117307904758135
 20
1.338985028885416
 30
0.0
  0
VERTEX
  5
433
  8
LAYER_1
 10
0.8154243666835628
 20
1.314258580733061
 30
0.0
  0
VERTEX
  5
434
  8
LAYER_1
 10
0.819659676334711
 20
1.289740288439285
 30
0.0
  0
VERTEX
  5
435
  8
LAYER_1
 10
0.8244296382446425
 20
1.265438005987025
 30
0.0
  0
VERTEX
  5
436
  8
LAYER_1
 10
0.8297271712287413
 20
1.241359587359218
 30
0.0
  0
VERTEX
  5
437
  8
LAYER_1
 10
0.8355451941023913
 20
1.217512886538802
 30
0.0
  0
VERTEX
  5
438
  8
LAYER_1
 10
0.8418766256809764
 20
1.193905757508712
 30
0.0
  0
VERTEX
  5
439
  8
LAYER_1
 10
0.848714384779881
 20
1.170546054251888
 30
0.0
  0
VERTEX
  5
43A
  8
LAYER_1
 10
0.856051390214489
 20
1.147441630751264
 30
0.0
  0
VERTEX
  5
43B
  8
LAYER_1
 10
0.8638805608001843
 20
1.124600340989779
 30
0.0
  0
VERTEX
  5
43C
  8
LAYER_1
 10
0.8721948153523511
 20
1.102030038950369
 30
0.0
  0
VERTEX
  5
43D
  8
LAYER_1
 10
0.8809870726863734
 20
1.079738578615972
 30
0.0
  0
VERTEX
  5
43E
  8
LAYER_1
 10
0.8902502516176354
 20
1.057733813969524
 30
0.0
  0
VERTEX
  5
43F
  8
LAYER_1
 10
0.8999772709615209
 20
1.036023598993963
 30
0.0
  0
VERTEX
  5
440
  8
LAYER_1
 10
0.910161049533414
 20
1.014615787672225
 30
0.0
  0
VERTEX
  5
441
  8
LAYER_1
 10
0.9207945061486988
 20
0.9935182339872477
 30
0.0
  0
VERTEX
  5
442
  8
LAYER_1
 10
0.9318705596227594
 20
0.9727387919219681
 30
0.0
  0
VERTEX
  5
443
  8
LAYER_1
 10
0.9433821287709798
 20
0.9522853154593232
 30
0.0
  0
VERTEX
  5
444
  8
LAYER_1
 10
0.955322132408744
 20
0.9321656585822498
 30
0.0
  0
VERTEX
  5
445
  8
LAYER_1
 10
0.9676834893514361
 20
0.9123876752736851
 30
0.0
  0
VERTEX
  5
446
  8
LAYER_1
 10
0.98045911841444
 20
0.8929592195165662
 30
0.0
  0
VERTEX
  5
447
  8
LAYER_1
 10
0.9936419384131399
 20
0.8738881452938301
 30
0.0
  0
VERTEX
  5
448
  8
LAYER_1
 10
1.00722486816292
 20
0.8551823065884139
 30
0.0
  0
VERTEX
  5
449
  8
LAYER_1
 10
1.021200826479163
 20
0.8368495573832544
 30
0.0
  0
VERTEX
  5
44A
  8
LAYER_1
 10
1.035562732177255
 20
0.8188977516612889
 30
0.0
  0
VERTEX
  5
44B
  8
LAYER_1
 10
1.05030350407258
 20
0.8013347434054542
 30
0.0
  0
VERTEX
  5
44C
  8
LAYER_1
 10
1.06541606098052
 20
0.7841683865986875
 30
0.0
  0
VERTEX
  5
44D
  8
LAYER_1
 10
1.08089332171646
 20
0.7674065352239258
 30
0.0
  0
VERTEX
  5
44E
  8
LAYER_1
 10
1.096728205095785
 20
0.751057043264106
 30
0.0
  0
VERTEX
  5
44F
  8
LAYER_1
 10
1.112913629933878
 20
0.7351277647021653
 30
0.0
  0
VERTEX
  5
450
  8
LAYER_1
 10
1.129442515046124
 20
0.7196265535210408
 30
0.0
  0
VERTEX
  5
451
  8
LAYER_1
 10
1.146307779247905
 20
0.7045612637036693
 30
0.0
  0
VERTEX
  5
452
  8
LAYER_1
 10
1.163502341354608
 20
0.689939749232988
 30
0.0
  0
VERTEX
  5
453
  8
LAYER_1
 10
1.181019120181614
 20
0.6757698640919337
 30
0.0
  0
VERTEX
  5
454
  8
LAYER_1
 10
1.198851034544309
 20
0.6620594622634437
 30
0.0
  0
VERTEX
  5
455
  8
LAYER_1
 10
1.216991003258077
 20
0.6488163977304551
 30
0.0
  0
VERTEX
  5
456
  8
LAYER_1
 10
1.235431945138301
 20
0.6360485244759047
 30
0.0
  0
VERTEX
  5
457
  8
LAYER_1
 10
1.254166779000366
 20
0.6237636964827296
 30
0.0
  0
VERTEX
  5
458
  8
LAYER_1
 10
1.273188423659656
 20
0.6119697677338667
 30
0.0
  0
VERTEX
  5
459
  8
LAYER_1
 10
1.292489797931554
 20
0.6006745922122532
 30
0.0
  0
VERTEX
  5
45A
  8
LAYER_1
 10
1.312063820631445
 20
0.5898860239008262
 30
0.0
  0
VERTEX
  5
45B
  8
LAYER_1
 10
1.331903410574713
 20
0.5796119167825227
 30
0.0
  0
VERTEX
  5
45C
  8
LAYER_1
 10
1.352001486576742
 20
0.5698601248402797
 30
0.0
  0
VERTEX
  5
45D
  8
LAYER_1
 10
1.372350967452916
 20
0.5606385020570341
 30
0.0
  0
VERTEX
  5
45E
  8
LAYER_1
 10
1.392944772018619
 20
0.5519549024157231
 30
0.0
  0
VERTEX
  5
45F
  8
LAYER_1
 10
1.413775819089234
 20
0.5438171798992837
 30
0.0
  0
VERTEX
  5
460
  8
LAYER_1
 10
1.434837027480147
 20
0.5362331884906528
 30
0.0
  0
VERTEX
  5
461
  8
LAYER_1
 10
1.456121316006741
 20
0.5292107821727676
 30
0.0
  0
VERTEX
  5
462
  8
LAYER_1
 10
1.4776216034844
 20
0.5227578149285652
 30
0.0
  0
VERTEX
  5
463
  8
LAYER_1
 10
1.499330808728508
 20
0.5168821407409825
 30
0.0
  0
VERTEX
  5
464
  8
LAYER_1
 10
1.521241850554449
 20
0.5115916135929564
 30
0.0
  0
VERTEX
  5
465
  8
LAYER_1
 10
1.543347647777607
 20
0.506894087467424
 30
0.0
  0
VERTEX
  5
466
  8
LAYER_1
 10
1.565641119213367
 20
0.5027974163473226
 30
0.0
  0
VERTEX
  5
467
  8
LAYER_1
 10
1.588115183677112
 20
0.499309454215589
 30
0.0
  0
VERTEX
  5
468
  8
LAYER_1
 10
1.610762759984227
 20
0.4964380550551604
 30
0.0
  0
VERTEX
  5
469
  8
LAYER_1
 10
1.633576766950095
 20
0.4941910728489735
 30
0.0
  0
VERTEX
  5
46A
  8
LAYER_1
 10
1.6565501233901
 20
0.4925763615799656
 30
0.0
  0
VERTEX
  5
46B
  8
LAYER_1
 10
1.679675748119627
 20
0.4916017752310738
 30
0.0
  0
SEQEND
  5
C30
  8
LAYER_1
  0
POLYLINE
  5
7B
  8
LAYER_1
 66
     1
 10
0.0
 20
0.0
 30
0.0
 70
     1
  0
VERTEX
  5
46C
  8
LAYER_1
 10
13.74141049039584
 20
6.674048439211307
 30
0.0
  0
VERTEX
  5
46D
  8
LAYER_1
 10
13.73596105401102
 20
6.646160965372863
 30
0.0
  0
VERTEX
  5
46E
  8
LAYER_1
 10
13.72997206946929
 20
6.613270025423047
 30
0.0
  0
VERTEX
  5
46F
  8
LAYER_1
 10
13.71637545591508
 20
6.532477747189294
 30
0.0
  0
VERTEX
  5
470
  8
LAYER_1
 10
13.70963110395367
 20
6.489632986788427
 30
0.0
  0
VERTEX
  5
471
  8
LAYER_1
 10
13.70407375793746
 20
6.451897916042325
 30
0.0
  0
VERTEX
  5
472
  8
LAYER_1
 10
13.69970341786647
 20
6.41927253495099
 30
0.0
  0
VERTEX
  5
473
  8
LAYER_1
 10
13.69652008374068
 20
6.391756843514419
 30
0.0
  0
VERTEX
  5
474
  8
LAYER_1
 10
13.65095524188938
 20
6.385282265631462
 30
0.0
  0
VERTEX
  5
475
  8
LAYER_1
 10
13.60663136079897
 20
6.379670964799566
 30
0.0
  0
VERTEX
  5
476
  8
LAYER_1
 10
13.56354844046947
 20
6.374922941018732
 30
0.0
  0
VERTEX
  5
477
  8
LAYER_1
 10
13.52170648090087
 20
6.371038194288959
 30
0.0
  0
VERTEX
  5
478
  8
LAYER_1
 10
13.48110548209316
 20
6.368016724610245
 30
0.0
  0
VERTEX
  5
479
  8
LAYER_1
 10
13.44174544404636
 20
6.365858531982593
 30
0.0
  0
VERTEX
  5
47A
  8
LAYER_1
 10
13.40362636676045
 20
6.364563616406002
 30
0.0
  0
VERTEX
  5
47B
  8
LAYER_1
 10
13.36674825023545
 20
6.364131977880472
 30
0.0
  0
VERTEX
  5
47C
  8
LAYER_1
 10
13.33208902550575
 20
6.364678270389347
 30
0.0
  0
VERTEX
  5
47D
  8
LAYER_1
 10
13.29803679245258
 20
6.366317147915971
 30
0.0
  0
VERTEX
  5
47E
  8
LAYER_1
 10
13.26459155107593
 20
6.369048610460342
 30
0.0
  0
VERTEX
  5
47F
  8
LAYER_1
 10
13.23175330137581
 20
6.372872658022463
 30
0.0
  0
VERTEX
  5
480
  8
LAYER_1
 10
13.19952204335222
 20
6.377789290602333
 30
0.0
  0
VERTEX
  5
481
  8
LAYER_1
 10
13.16789777700516
 20
6.383798508199952
 30
0.0
  0
VERTEX
  5
482
  8
LAYER_1
 10
13.15231326571032
 20
6.387212836380417
 30
0.0
  0
VERTEX
  5
483
  8
LAYER_1
 10
13.13688050233462
 20
6.39090031081532
 30
0.0
  0
VERTEX
  5
484
  8
LAYER_1
 10
13.12159948687805
 20
6.39486093150466
 30
0.0
  0
VERTEX
  5
485
  8
LAYER_1
 10
13.10647021934061
 20
6.399094698448436
 30
0.0
  0
VERTEX
  5
486
  8
LAYER_1
 10
13.09149438581029
 20
6.403640391670428
 30
0.0
  0
VERTEX
  5
487
  8
LAYER_1
 10
13.07667367237509
 20
6.408536791194414
 30
0.0
  0
VERTEX
  5
488
  8
LAYER_1
 10
13.062008079035
 20
6.413783897020393
 30
0.0
  0
VERTEX
  5
489
  8
LAYER_1
 10
13.04749760579002
 20
6.419381709148364
 30
0.0
  0
VERTEX
  5
48A
  8
LAYER_1
 10
13.03314225264015
 20
6.42533022757833
 30
0.0
  0
VERTEX
  5
48B
  8
LAYER_1
 10
13.0189420195854
 20
6.43162945231029
 30
0.0
  0
VERTEX
  5
48C
  8
LAYER_1
 10
13.00489690662576
 20
6.438279383344243
 30
0.0
  0
VERTEX
  5
48D
  8
LAYER_1
 10
12.99100691376123
 20
6.445280020680189
 30
0.0
  0
VERTEX
  5
48E
  8
LAYER_1
 10
12.97727204099181
 20
6.45263136431813
 30
0.0
  0
VERTEX
  5
48F
  8
LAYER_1
 10
12.9636922883175
 20
6.460333414258063
 30
0.0
  0
VERTEX
  5
490
  8
LAYER_1
 10
12.95026765573832
 20
6.46838617049999
 30
0.0
  0
VERTEX
  5
491
  8
LAYER_1
 10
12.93699814325423
 20
6.47678963304391
 30
0.0
  0
VERTEX
  5
492
  8
LAYER_1
 10
12.92388375086527
 20
6.485543801889824
 30
0.0
  0
VERTEX
  5
493
  8
LAYER_1
 10
12.91092447857141
 20
6.494648677037731
 30
0.0
  0
VERTEX
  5
494
  8
LAYER_1
 10
12.89812032637267
 20
6.504104258487631
 30
0.0
  0
VERTEX
  5
495
  8
LAYER_1
 10
12.88547129426904
 20
6.513910546239525
 30
0.0
  0
VERTEX
  5
496
  8
LAYER_1
 10
12.87312407191569
 20
6.524001782861789
 30
0.0
  0
VERTEX
  5
497
  8
LAYER_1
 10
12.86122534896776
 20
6.534312210922797
 30
0.0
  0
VERTEX
  5
498
  8
LAYER_1
 10
12.84977512542528
 20
6.544841830422554
 30
0.0
  0
VERTEX
  5
499
  8
LAYER_1
 10
12.83877340128822
 20
6.555590641361055
 30
0.0
  0
VERTEX
  5
49A
  8
LAYER_1
 10
12.8282201765566
 20
6.566558643738303
 30
0.0
  0
VERTEX
  5
49B
  8
LAYER_1
 10
12.81811545123041
 20
6.577745837554296
 30
0.0
  0
VERTEX
  5
49C
  8
LAYER_1
 10
12.80845922530966
 20
6.589152222809036
 30
0.0
  0
VERTEX
  5
49D
  8
LAYER_1
 10
12.79925149879434
 20
6.60077779950252
 30
0.0
  0
VERTEX
  5
49E
  8
LAYER_1
 10
12.79049227168446
 20
6.612622567634752
 30
0.0
  0
VERTEX
  5
49F
  8
LAYER_1
 10
12.78218154398001
 20
6.624686527205728
 30
0.0
  0
VERTEX
  5
4A0
  8
LAYER_1
 10
12.77431931568099
 20
6.636969678215451
 30
0.0
  0
VERTEX
  5
4A1
  8
LAYER_1
 10
12.76690558678741
 20
6.64947202066392
 30
0.0
  0
VERTEX
  5
4A2
  8
LAYER_1
 10
12.75994035729926
 20
6.662193554551134
 30
0.0
  0
VERTEX
  5
4A3
  8
LAYER_1
 10
12.75342362721654
 20
6.675134279877096
 30
0.0
  0
VERTEX
  5
4A4
  8
LAYER_1
 10
12.74735539653926
 20
6.688294196641802
 30
0.0
  0
VERTEX
  5
4A5
  8
LAYER_1
 10
12.74173566526741
 20
6.701673304845253
 30
0.0
  0
VERTEX
  5
4A6
  8
LAYER_1
 10
12.73650879249732
 20
6.7152631740475
 30
0.0
  0
VERTEX
  5
4A7
  8
LAYER_1
 10
12.73161913732529
 20
6.729055373808588
 30
0.0
  0
VERTEX
  5
4A8
  8
LAYER_1
 10
12.72706669975134
 20
6.74304990412852
 30
0.0
  0
VERTEX
  5
4A9
  8
LAYER_1
 10
12.72285147977546
 20
6.757246765007293
 30
0.0
  0
VERTEX
  5
4AA
  8
LAYER_1
 10
12.71897347739765
 20
6.77164595644491
 30
0.0
  0
VERTEX
  5
4AB
  8
LAYER_1
 10
12.7154326926179
 20
6.786247478441368
 30
0.0
  0
VERTEX
  5
4AC
  8
LAYER_1
 10
12.71222912543623
 20
6.801051330996669
 30
0.0
  0
VERTEX
  5
4AD
  8
LAYER_1
 10
12.70936277585263
 20
6.816057514110812
 30
0.0
  0
VERTEX
  5
4AE
  8
LAYER_1
 10
12.70683364386711
 20
6.831266027783798
 30
0.0
  0
VERTEX
  5
4AF
  8
LAYER_1
 10
12.70464172947965
 20
6.846676872015626
 30
0.0
  0
VERTEX
  5
4B0
  8
LAYER_1
 10
12.70278703269026
 20
6.862290046806297
 30
0.0
  0
VERTEX
  5
4B1
  8
LAYER_1
 10
12.70126955349894
 20
6.878105552155809
 30
0.0
  0
VERTEX
  5
4B2
  8
LAYER_1
 10
12.70008929190569
 20
6.894123388064164
 30
0.0
  0
VERTEX
  5
4B3
  8
LAYER_1
 10
12.69924624791051
 20
6.910343554531361
 30
0.0
  0
VERTEX
  5
4B4
  8
LAYER_1
 10
12.69874042151341
 20
6.926766051557402
 30
0.0
  0
VERTEX
  5
4B5
  8
LAYER_1
 10
12.69857181271437
 20
6.943390879142282
 30
0.0
  0
VERTEX
  5
4B6
  8
LAYER_1
 10
12.69879943459307
 20
6.962799437999238
 30
0.0
  0
VERTEX
  5
4B7
  8
LAYER_1
 10
12.69948230022916
 20
6.981961828009601
 30
0.0
  0
VERTEX
  5
4B8
  8
LAYER_1
 10
12.70062040962265
 20
7.000878049173373
 30
0.0
  0
VERTEX
  5
4B9
  8
LAYER_1
 10
12.70221376277354
 20
7.019548101490554
 30
0.0
  0
VERTEX
  5
4BA
  8
LAYER_1
 10
12.70426235968182
 20
7.037971984961143
 30
0.0
  0
VERTEX
  5
4BB
  8
LAYER_1
 10
12.70676620034749
 20
7.05614969958514
 30
0.0
  0
VERTEX
  5
4BC
  8
LAYER_1
 10
12.70972528477056
 20
7.074081245362547
 30
0.0
  0
VERTEX
  5
4BD
  8
LAYER_1
 10
12.71313961295103
 20
7.091766622293361
 30
0.0
  0
VERTEX
  5
4BE
  8
LAYER_1
 10
12.71700918488889
 20
7.109205830377583
 30
0.0
  0
VERTEX
  5
4BF
  8
LAYER_1
 10
12.72133400058414
 20
7.126398869615215
 30
0.0
  0
VERTEX
  5
4C0
  8
LAYER_1
 10
12.72611406003679
 20
7.143345740006254
 30
0.0
  0
VERTEX
  5
4C1
  8
LAYER_1
 10
12.73134936324684
 20
7.160046441550702
 30
0.0
  0
VERTEX
  5
4C2
  8
LAYER_1
 10
12.73703991021428
 20
7.176500974248559
 30
0.0
  0
VERTEX
  5
4C3
  8
LAYER_1
 10
12.74318570093912
 20
7.192709338099823
 30
0.0
  0
VERTEX
  5
4C4
  8
LAYER_1
 10
12.74978673542135
 20
7.208671533104497
 30
0.0
  0
VERTEX
  5
4C5
  8
LAYER_1
 10
12.75684301366098
 20
7.224387559262579
 30
0.0
  0
VERTEX
  5
4C6
  8
LAYER_1
 10
12.76432587216217
 20
7.239818636550292
 30
0.0
  0
VERTEX
  5
4C7
  8
LAYER_1
 10
12.77220664742908
 20
7.254925984943856
 30
0.0
  0
VERTEX
  5
4C8
  8
LAYER_1
 10
12.78048533946171
 20
7.269709604443273
 30
0.0
  0
VERTEX
  5
4C9
  8
LAYER_1
 10
12.78916194826007
 20
7.284169495048541
 30
0.0
  0
VERTEX
  5
4CA
  8
LAYER_1
 10
12.79823647382415
 20
7.298305656759663
 30
0.0
  0
VERTEX
  5
4CB
  8
LAYER_1
 10
12.80770891615395
 20
7.312118089576636
 30
0.0
  0
VERTEX
  5
4CC
  8
LAYER_1
 10
12.81757927524948
 20
7.325606793499462
 30
0.0
  0
VERTEX
  5
4CD
  8
LAYER_1
 10
12.82784755111073
 20
7.338771768528138
 30
0.0
  0
VERTEX
  5
4CE
  8
LAYER_1
 10
12.83851374373771
 20
7.351613014662668
 30
0.0
  0
VERTEX
  5
4CF
  8
LAYER_1
 10
12.84957785313041
 20
7.364130531903051
 30
0.0
  0
VERTEX
  5
4D0
  8
LAYER_1
 10
12.86103987928882
 20
7.376324320249285
 30
0.0
  0
VERTEX
  5
4D1
  8
LAYER_1
 10
12.87289982221297
 20
7.388194379701371
 30
0.0
  0
VERTEX
  5
4D2
  8
LAYER_1
 10
12.88515768190284
 20
7.39974071025931
 30
0.0
  0
VERTEX
  5
4D3
  8
LAYER_1
 10
12.89781345835843
 20
7.4109633119231
 30
0.0
  0
VERTEX
  5
4D4
  8
LAYER_1
 10
12.91086715157974
 20
7.421862184692744
 30
0.0
  0
VERTEX
  5
4D5
  8
LAYER_1
 10
12.92431876156678
 20
7.432437328568238
 30
0.0
  0
VERTEX
  5
4D6
  8
LAYER_1
 10
12.93805194824821
 20
7.44266513831772
 30
0.0
  0
VERTEX
  5
4D7
  8
LAYER_1
 10
12.95195037155269
 20
7.452522008709324
 30
0.0
  0
VERTEX
  5
4D8
  8
LAYER_1
 10
12.96601403148022
 20
7.462007939743051
 30
0.0
  0
VERTEX
  5
4D9
  8
LAYER_1
 10
12.98024292803081
 20
7.4711229314189
 30
0.0
  0
VERTEX
  5
4DA
  8
LAYER_1
 10
12.99463706120446
 20
7.479866983736873
 30
0.0
  0
VERTEX
  5
4DB
  8
LAYER_1
 10
13.00919643100116
 20
7.488240096696966
 30
0.0
  0
VERTEX
  5
4DC
  8
LAYER_1
 10
13.02392103742091
 20
7.496242270299183
 30
0.0
  0
VERTEX
  5
4DD
  8
LAYER_1
 10
13.03881088046372
 20
7.50387350454352
 30
0.0
  0
VERTEX
  5
4DE
  8
LAYER_1
 10
13.05386596012958
 20
7.511133799429981
 30
0.0
  0
VERTEX
  5
4DF
  8
LAYER_1
 10
13.0690862764185
 20
7.518023154958564
 30
0.0
  0
VERTEX
  5
4E0
  8
LAYER_1
 10
13.08447182933048
 20
7.524541571129269
 30
0.0
  0
VERTEX
  5
4E1
  8
LAYER_1
 10
13.1000226188655
 20
7.530689047942097
 30
0.0
  0
VERTEX
  5
4E2
  8
LAYER_1
 10
13.11573864502359
 20
7.536465585397048
 30
0.0
  0
VERTEX
  5
4E3
  8
LAYER_1
 10
13.13161990780472
 20
7.541871183494119
 30
0.0
  0
VERTEX
  5
4E4
  8
LAYER_1
 10
13.14766640720891
 20
7.546905842233314
 30
0.0
  0
VERTEX
  5
4E5
  8
LAYER_1
 10
13.16387814323616
 20
7.551569561614631
 30
0.0
  0
VERTEX
  5
4E6
  8
LAYER_1
 10
13.19660173895293
 20
7.55996627980659
 30
0.0
  0
VERTEX
  5
4E7
  8
LAYER_1
 10
13.22959510874816
 20
7.567243435572953
 30
0.0
  0
VERTEX
  5
4E8
  8
LAYER_1
 10
13.26285825262185
 20
7.573401028913723
 30
0.0
  0
VERTEX
  5
4E9
  8
LAYER_1
 10
13.29639117057399
 20
7.578439059828898
 30
0.0
  0
VERTEX
  5
4EA
  8
LAYER_1
 10
13.33019386260459
 20
7.582357528318479
 30
0.0
  0
VERTEX
  5
4EB
  8
LAYER_1
 10
13.36426632871365
 20
7.585156434382465
 30
0.0
  0
VERTEX
  5
4EC
  8
LAYER_1
 10
13.39860856890116
 20
7.586835778020857
 30
0.0
  0
VERTEX
  5
4ED
  8
LAYER_1
 10
13.43322058316713
 20
7.587395559233654
 30
0.0
  0
VERTEX
  5
4EE
  8
LAYER_1
 10
13.46610604333098
 20
7.586882988484587
 30
0.0
  0
VERTEX
  5
4EF
  8
LAYER_1
 10
13.50087992204402
 20
7.585345276237384
 30
0.0
  0
VERTEX
  5
4F0
  8
LAYER_1
 10
13.53754221930626
 20
7.582782422492048
 30
0.0
  0
VERTEX
  5
4F1
  8
LAYER_1
 10
13.5760929351177
 20
7.579194427248577
 30
0.0
  0
VERTEX
  5
4F2
  8
LAYER_1
 10
13.61653206947833
 20
7.574581290506972
 30
0.0
  0
VERTEX
  5
4F3
  8
LAYER_1
 10
13.65885962238815
 20
7.56894301226723
 30
0.0
  0
VERTEX
  5
4F4
  8
LAYER_1
 10
13.70307559384717
 20
7.562279592529354
 30
0.0
  0
VERTEX
  5
4F5
  8
LAYER_1
 10
13.74917998385539
 20
7.554591031293343
 30
0.0
  0
VERTEX
  5
4F6
  8
LAYER_1
 10
13.75090653795751
 20
7.482075759004235
 30
0.0
  0
VERTEX
  5
4F7
  8
LAYER_1
 10
13.75306473058517
 20
7.432221509305472
 30
0.0
  0
VERTEX
  5
4F8
  8
LAYER_1
 10
13.75608620026388
 20
7.377619235825875
 30
0.0
  0
VERTEX
  5
4F9
  8
LAYER_1
 10
13.7621291396213
 20
7.279205652004942
 30
0.0
  0
VERTEX
  5
4FA
  8
LAYER_1
 10
13.71402842143251
 20
7.290320344037349
 30
0.0
  0
VERTEX
  5
4FB
  8
LAYER_1
 10
13.67072968184024
 20
7.29949266270487
 30
0.0
  0
VERTEX
  5
4FC
  8
LAYER_1
 10
13.6322329208445
 20
7.306722608007505
 30
0.0
  0
VERTEX
  5
4FD
  8
LAYER_1
 10
13.59853813844528
 20
7.312010179945252
 30
0.0
  0
VERTEX
  5
4FE
  8
LAYER_1
 10
13.56781087090908
 20
7.315787017043644
 30
0.0
  0
VERTEX
  5
4FF
  8
LAYER_1
 10
13.5382166545024
 20
7.318484757828209
 30
0.0
  0
VERTEX
  5
500
  8
LAYER_1
 10
13.50975548922524
 20
7.320103402298948
 30
0.0
  0
VERTEX
  5
501
  8
LAYER_1
 10
13.4824273750776
 20
7.320642950455861
 30
0.0
  0
VERTEX
  5
502
  8
LAYER_1
 10
13.46795062359243
 20
7.320460852952903
 30
0.0
  0
VERTEX
  5
503
  8
LAYER_1
 10
13.45365596961021
 20
7.319914560444029
 30
0.0
  0
VERTEX
  5
504
  8
LAYER_1
 10
13.43954341313096
 20
7.319004072929237
 30
0.0
  0
VERTEX
  5
505
  8
LAYER_1
 10
13.42561295415466
 20
7.31772939040853
 30
0.0
  0
VERTEX
  5
506
  8
LAYER_1
 10
13.41186459268132
 20
7.316090512881907
 30
0.0
  0
VERTEX
  5
507
  8
LAYER_1
 10
13.39829832871094
 20
7.314087440349368
 30
0.0
  0
VERTEX
  5
508
  8
LAYER_1
 10
13.38491416224352
 20
7.311720172810912
 30
0.0
  0
VERTEX
  5
509
  8
LAYER_1
 10
13.37171209327905
 20
7.30898871026654
 30
0.0
  0
VERTEX
  5
50A
  8
LAYER_1
 10
13.35869212181754
 20
7.305893052716251
 30
0.0
  0
VERTEX
  5
50B
  8
LAYER_1
 10
13.34585424785899
 20
7.302433200160047
 30
0.0
  0
VERTEX
  5
50C
  8
LAYER_1
 10
13.3331984714034
 20
7.298609152597926
 30
0.0
  0
VERTEX
  5
50D
  8
LAYER_1
 10
13.32072479245077
 20
7.294420910029889
 30
0.0
  0
VERTEX
  5
50E
  8
LAYER_1
 10
13.30843321100109
 20
7.289868472455936
 30
0.0
  0
VERTEX
  5
50F
  8
LAYER_1
 10
13.29632372705438
 20
7.284951839876067
 30
0.0
  0
VERTEX
  5
510
  8
LAYER_1
 10
13.28439634061062
 20
7.279671012290279
 30
0.0
  0
VERTEX
  5
511
  8
LAYER_1
 10
13.27265105166982
 20
7.274025989698577
 30
0.0
  0
VERTEX
  5
512
  8
LAYER_1
 10
13.26115193157561
 20
7.268033632980861
 30
0.0
  0
VERTEX
  5
513
  8
LAYER_1
 10
13.24996305167162
 20
7.261710803017037
 30
0.0
  0
VERTEX
  5
514
  8
LAYER_1
 10
13.23908441195787
 20
7.255057499807103
 30
0.0
  0
VERTEX
  5
515
  8
LAYER_1
 10
13.22851601243433
 20
7.248073723351061
 30
0.0
  0
VERTEX
  5
516
  8
LAYER_1
 10
13.21825785310103
 20
7.240759473648907
 30
0.0
  0
VERTEX
  5
517
  8
LAYER_1
 10
13.20830993395794
 20
7.233114750700647
 30
0.0
  0
VERTEX
  5
518
  8
LAYER_1
 10
13.19867225500509
 20
7.225139554506277
 30
0.0
  0
VERTEX
  5
519
  8
LAYER_1
 10
13.18934481624245
 20
7.216833885065798
 30
0.0
  0
VERTEX
  5
51A
  8
LAYER_1
 10
13.18032761767004
 20
7.208197742379208
 30
0.0
  0
VERTEX
  5
51B
  8
LAYER_1
 10
13.17162065928786
 20
7.19923112644651
 30
0.0
  0
VERTEX
  5
51C
  8
LAYER_1
 10
13.1632239410959
 20
7.189934037267703
 30
0.0
  0
VERTEX
  5
51D
  8
LAYER_1
 10
13.15513746309416
 20
7.180306474842787
 30
0.0
  0
VERTEX
  5
51E
  8
LAYER_1
 10
13.14736122528266
 20
7.170348439171761
 30
0.0
  0
VERTEX
  5
51F
  8
LAYER_1
 10
13.13989522766137
 20
7.160059930254626
 30
0.0
  0
VERTEX
  5
520
  8
LAYER_1
 10
13.13273947023031
 20
7.149440948091382
 30
0.0
  0
VERTEX
  5
521
  8
LAYER_1
 10
13.12589395298948
 20
7.138491492682028
 30
0.0
  0
VERTEX
  5
522
  8
LAYER_1
 10
13.11941263075456
 20
7.127302612778045
 30
0.0
  0
VERTEX
  5
523
  8
LAYER_1
 10
13.11334945834125
 20
7.11596535713091
 30
0.0
  0
VERTEX
  5
524
  8
LAYER_1
 10
13.10770443574955
 20
7.104479725740624
 30
0.0
  0
VERTEX
  5
525
  8
LAYER_1
 10
13.10247756297946
 20
7.092845718607187
 30
0.0
  0
VERTEX
  5
526
  8
LAYER_1
 10
13.09766884003097
 20
7.081063335730599
 30
0.0
  0
VERTEX
  5
527
  8
LAYER_1
 10
13.09327826690409
 20
7.06913257711086
 30
0.0
  0
VERTEX
  5
528
  8
LAYER_1
 10
13.08930584359882
 20
7.057053442747971
 30
0.0
  0
VERTEX
  5
529
  8
LAYER_1
 10
13.08575157011515
 20
7.044825932641929
 30
0.0
  0
VERTEX
  5
52A
  8
LAYER_1
 10
13.08261544645309
 20
7.032450046792738
 30
0.0
  0
VERTEX
  5
52B
  8
LAYER_1
 10
13.07989747261264
 20
7.019925785200394
 30
0.0
  0
VERTEX
  5
52C
  8
LAYER_1
 10
13.0775976485938
 20
7.0072531478649
 30
0.0
  0
VERTEX
  5
52D
  8
LAYER_1
 10
13.07571597439657
 20
6.994432134786254
 30
0.0
  0
VERTEX
  5
52E
  8
LAYER_1
 10
13.07425245002094
 20
6.981462745964458
 30
0.0
  0
VERTEX
  5
52F
  8
LAYER_1
 10
13.07320707546692
 20
6.96834498139951
 30
0.0
  0
VERTEX
  5
530
  8
LAYER_1
 10
13.07257985073451
 20
6.955078841091412
 30
0.0
  0
VERTEX
  5
531
  8
LAYER_1
 10
13.07237077582371
 20
6.941664325040161
 30
0.0
  0
VERTEX
  5
532
  8
LAYER_1
 10
13.0725461289747
 20
6.929472222781918
 30
0.0
  0
VERTEX
  5
533
  8
LAYER_1
 10
13.07307218842769
 20
6.91749931196242
 30
0.0
  0
VERTEX
  5
534
  8
LAYER_1
 10
13.07394895418268
 20
6.905745592581669
 30
0.0
  0
VERTEX
  5
535
  8
LAYER_1
 10
13.07517642623966
 20
6.894211064639663
 30
0.0
  0
VERTEX
  5
536
  8
LAYER_1
 10
13.07675460459863
 20
6.882895728136403
 30
0.0
  0
VERTEX
  5
537
  8
LAYER_1
 10
13.07868348925959
 20
6.871799583071889
 30
0.0
  0
VERTEX
  5
538
  8
LAYER_1
 10
13.08096308022255
 20
6.860922629446121
 30
0.0
  0
VERTEX
  5
539
  8
LAYER_1
 10
13.0835933774875
 20
6.850264867259098
 30
0.0
  0
VERTEX
  5
53A
  8
LAYER_1
 10
13.08657438105444
 20
6.839826296510822
 30
0.0
  0
VERTEX
  5
53B
  8
LAYER_1
 10
13.08990609092338
 20
6.82960691720129
 30
0.0
  0
VERTEX
  5
53C
  8
LAYER_1
 10
13.09358850709431
 20
6.819606729330506
 30
0.0
  0
VERTEX
  5
53D
  8
LAYER_1
 10
13.09762162956724
 20
6.809825732898467
 30
0.0
  0
VERTEX
  5
53E
  8
LAYER_1
 10
13.10200545834216
 20
6.800263927905174
 30
0.0
  0
VERTEX
  5
53F
  8
LAYER_1
 10
13.10673999341907
 20
6.790921314350628
 30
0.0
  0
VERTEX
  5
540
  8
LAYER_1
 10
13.11182523479797
 20
6.781797892234827
 30
0.0
  0
VERTEX
  5
541
  8
LAYER_1
 10
13.11726118247887
 20
6.772893661557771
 30
0.0
  0
VERTEX
  5
542
  8
LAYER_1
 10
13.12299556773406
 20
6.764223797111375
 30
0.0
  0
VERTEX
  5
543
  8
LAYER_1
 10
13.12897612183585
 20
6.755803473687551
 30
0.0
  0
VERTEX
  5
544
  8
LAYER_1
 10
13.13520284478422
 20
6.7476326912863
 30
0.0
  0
VERTEX
  5
545
  8
LAYER_1
 10
13.14167573657918
 20
6.73971144990762
 30
0.0
  0
VERTEX
  5
546
  8
LAYER_1
 10
13.14839479722074
 20
6.732039749551514
 30
0.0
  0
VERTEX
  5
547
  8
LAYER_1
 10
13.15536002670889
 20
6.724617590217979
 30
0.0
  0
VERTEX
  5
548
  8
LAYER_1
 10
13.16257142504363
 20
6.717444971907017
 30
0.0
  0
VERTEX
  5
549
  8
LAYER_1
 10
13.17002899222496
 20
6.710521894618626
 30
0.0
  0
VERTEX
  5
54A
  8
LAYER_1
 10
13.17773272825289
 20
6.703848358352809
 30
0.0
  0
VERTEX
  5
54B
  8
LAYER_1
 10
13.1856826331274
 20
6.697424363109563
 30
0.0
  0
VERTEX
  5
54C
  8
LAYER_1
 10
13.19387870684851
 20
6.691249908888889
 30
0.0
  0
VERTEX
  5
54D
  8
LAYER_1
 10
13.20232094941621
 20
6.685324995690788
 30
0.0
  0
VERTEX
  5
54E
  8
LAYER_1
 10
13.2110093608305
 20
6.67964962351526
 30
0.0
  0
VERTEX
  5
54F
  8
LAYER_1
 10
13.21994394109138
 20
6.674223792362303
 30
0.0
  0
VERTEX
  5
550
  8
LAYER_1
 10
13.22912469019885
 20
6.66904750223192
 30
0.0
  0
VERTEX
  5
551
  8
LAYER_1
 10
13.23855160815292
 20
6.664120753124108
 30
0.0
  0
VERTEX
  5
552
  8
LAYER_1
 10
13.24824155583348
 20
6.659468836358723
 30
0.0
  0
VERTEX
  5
553
  8
LAYER_1
 10
13.25821139412043
 20
6.655117043255621
 30
0.0
  0
VERTEX
  5
554
  8
LAYER_1
 10
13.26846112301379
 20
6.651065373814803
 30
0.0
  0
VERTEX
  5
555
  8
LAYER_1
 10
13.27899074251355
 20
6.647313828036268
 30
0.0
  0
VERTEX
  5
556
  8
LAYER_1
 10
13.2898002526197
 20
6.643862405920015
 30
0.0
  0
VERTEX
  5
557
  8
LAYER_1
 10
13.30088965333225
 20
6.640711107466045
 30
0.0
  0
VERTEX
  5
558
  8
LAYER_1
 10
13.31225894465121
 20
6.637859932674358
 30
0.0
  0
VERTEX
  5
559
  8
LAYER_1
 10
13.32390812657655
 20
6.635308881544953
 30
0.0
  0
VERTEX
  5
55A
  8
LAYER_1
 10
13.3358371991083
 20
6.633057954077831
 30
0.0
  0
VERTEX
  5
55B
  8
LAYER_1
 10
13.34804616224645
 20
6.631107150272992
 30
0.0
  0
VERTEX
  5
55C
  8
LAYER_1
 10
13.36053501599099
 20
6.629456470130437
 30
0.0
  0
VERTEX
  5
55D
  8
LAYER_1
 10
13.37330376034194
 20
6.628105913650164
 30
0.0
  0
VERTEX
  5
55E
  8
LAYER_1
 10
13.38635239529928
 20
6.627055480832174
 30
0.0
  0
VERTEX
  5
55F
  8
LAYER_1
 10
13.39968092086303
 20
6.626305171676466
 30
0.0
  0
VERTEX
  5
560
  8
LAYER_1
 10
13.41328933703317
 20
6.625854986183042
 30
0.0
  0
VERTEX
  5
561
  8
LAYER_1
 10
13.42717764380971
 20
6.625704924351901
 30
0.0
  0
VERTEX
  5
562
  8
LAYER_1
 10
13.44266942026507
 20
6.625860044447013
 30
0.0
  0
VERTEX
  5
563
  8
LAYER_1
 10
13.45849841431851
 20
6.626325404732351
 30
0.0
  0
VERTEX
  5
564
  8
LAYER_1
 10
13.49116805521959
 20
6.628186845873701
 30
0.0
  0
VERTEX
  5
565
  8
LAYER_1
 10
13.52518656651295
 20
6.631289247775952
 30
0.0
  0
VERTEX
  5
566
  8
LAYER_1
 10
13.5605539481986
 20
6.6356326104391
 30
0.0
  0
VERTEX
  5
567
  8
LAYER_1
 10
13.57914812655622
 20
6.63840453909524
 30
0.0
  0
VERTEX
  5
568
  8
LAYER_1
 10
13.59888884474727
 20
6.641756482020062
 30
0.0
  0
VERTEX
  5
569
  8
LAYER_1
 10
13.61977610277177
 20
6.645688439213565
 30
0.0
  0
VERTEX
  5
56A
  8
LAYER_1
 10
13.6418099006297
 20
6.650200410675751
 30
0.0
  0
VERTEX
  5
56B
  8
LAYER_1
 10
13.66499023832108
 20
6.655292396406617
 30
0.0
  0
VERTEX
  5
56C
  8
LAYER_1
 10
13.68931711584589
 20
6.660964396406166
 30
0.0
  0
SEQEND
  5
C31
  8
LAYER_1
  0
POLYLINE
  5
7C
  8
LAYER_1
 66
     1
 10
0.0
 20
0.0
 30
0.0
 70
     1
  0
VERTEX
  5
56D
  8
LAYER_1
 10
13.75176981500857
 20
6.386577181208054
 30
0.0
  0
VERTEX
  5
56E
  8
LAYER_1
 10
13.82346227635839
 20
6.510889076560812
 30
0.0
  0
VERTEX
  5
56F
  8
LAYER_1
 10
14.27000581972352
 20
7.35172092429405
 30
0.0
  0
VERTEX
  5
570
  8
LAYER_1
 10
14.31751303493971
 20
7.44581812285968
 30
0.0
  0
VERTEX
  5
571
  8
LAYER_1
 10
14.34234573886163
 20
7.496319830346738
 30
0.0
  0
VERTEX
  5
572
  8
LAYER_1
 10
14.37537957476863
 20
7.564950355906073
 30
0.0
  0
VERTEX
  5
573
  8
LAYER_1
 10
14.50680001708872
 20
7.563655440329482
 30
0.0
  0
VERTEX
  5
574
  8
LAYER_1
 10
14.59721479948342
 20
7.563223801803952
 30
0.0
  0
VERTEX
  5
575
  8
LAYER_1
 10
14.714391170461
 20
7.563655440329482
 30
0.0
  0
VERTEX
  5
576
  8
LAYER_1
 10
14.82250313240245
 20
7.564950355906073
 30
0.0
  0
VERTEX
  5
577
  8
LAYER_1
 10
14.94846064963379
 20
7.204963825613711
 30
0.0
  0
VERTEX
  5
578
  8
LAYER_1
 10
15.20469206935178
 20
6.512615630662934
 30
0.0
  0
VERTEX
  5
579
  8
LAYER_1
 10
15.25473516090546
 20
6.386577181208054
 30
0.0
  0
VERTEX
  5
57A
  8
LAYER_1
 10
15.13461150812074
 20
6.387872096784646
 30
0.0
  0
VERTEX
  5
57B
  8
LAYER_1
 10
15.07325813832777
 20
6.388303735310176
 30
0.0
  0
VERTEX
  5
57C
  8
LAYER_1
 10
14.98359535117677
 20
6.387872096784646
 30
0.0
  0
VERTEX
  5
57D
  8
LAYER_1
 10
14.85979939874906
 20
6.386577181208054
 30
0.0
  0
VERTEX
  5
57E
  8
LAYER_1
 10
14.8497949956583
 20
6.422969704391837
 30
0.0
  0
VERTEX
  5
57F
  8
LAYER_1
 10
14.83874015974955
 20
6.460926917230667
 30
0.0
  0
VERTEX
  5
580
  8
LAYER_1
 10
14.82663489102281
 20
6.500448819724546
 30
0.0
  0
VERTEX
  5
581
  8
LAYER_1
 10
14.81347918947808
 20
6.541535411873472
 30
0.0
  0
VERTEX
  5
582
  8
LAYER_1
 10
14.79927305511536
 20
6.584186693677445
 30
0.0
  0
VERTEX
  5
583
  8
LAYER_1
 10
14.78401648793464
 20
6.628402665136466
 30
0.0
  0
VERTEX
  5
584
  8
LAYER_1
 10
14.76770948793594
 20
6.674183326250535
 30
0.0
  0
VERTEX
  5
585
  8
LAYER_1
 10
14.75035205511925
 20
6.721528677019652
 30
0.0
  0
VERTEX
  5
586
  8
LAYER_1
 10
14.31578648083759
 20
6.721528677019652
 30
0.0
  0
VERTEX
  5
587
  8
LAYER_1
 10
14.27794392198211
 20
6.643617923161414
 30
0.0
  0
VERTEX
  5
588
  8
LAYER_1
 10
14.23945390533832
 20
6.561822422573401
 30
0.0
  0
VERTEX
  5
589
  8
LAYER_1
 10
14.20031643090624
 20
6.476142175255614
 30
0.0
  0
VERTEX
  5
58A
  8
LAYER_1
 10
14.16053149868587
 20
6.386577181208054
 30
0.0
  0
VERTEX
  5
58B
  8
LAYER_1
 10
14.03090168181154
 20
6.387872096784646
 30
0.0
  0
VERTEX
  5
58C
  8
LAYER_1
 10
13.96350200048516
 20
6.388303735310176
 30
0.0
  0
VERTEX
  5
58D
  8
LAYER_1
 10
13.87772396006394
 20
6.387872096784646
 30
0.0
  0
SEQEND
  5
C32
  8
LAYER_1
  0
POLYLINE
  5
7D
  8
LAYER_1
 66
     1
 10
0.0
 20
0.0
 30
0.0
 70
     1
  0
VERTEX
  5
58E
  8
LAYER_1
 10
14.42014858308849
 20
6.972742298878351
 30
0.0
  0
VERTEX
  5
58F
  8
LAYER_1
 10
14.68829052837033
 20
6.972742298878351
 30
0.0
  0
VERTEX
  5
590
  8
LAYER_1
 10
14.61094630007685
 20
7.208656358312584
 30
0.0
  0
VERTEX
  5
591
  8
LAYER_1
 10
14.57884318474053
 20
7.307977057472328
 30
0.0
  0
VERTEX
  5
592
  8
LAYER_1
 10
14.5514602727332
 20
7.247489493862403
 30
0.0
  0
VERTEX
  5
593
  8
LAYER_1
 10
14.52623386726553
 20
7.192712710275805
 30
0.0
  0
VERTEX
  5
594
  8
LAYER_1
 10
14.50316396833752
 20
7.143646706712532
 30
0.0
  0
VERTEX
  5
595
  8
LAYER_1
 10
14.48225057594918
 20
7.100291483172587
 30
0.0
  0
SEQEND
  5
C33
  8
LAYER_1
  0
POLYLINE
  5
7E
  8
LAYER_1
 66
     1
 10
0.0
 20
0.0
 30
0.0
 70
     1
  0
VERTEX
  5
596
  8
LAYER_1
 10
15.33501992665412
 20
6.404705999280331
 30
0.0
  0
VERTEX
  5
597
  8
LAYER_1
 10
15.32919280655946
 20
6.492058845884548
 30
0.0
  0
VERTEX
  5
598
  8
LAYER_1
 10
15.32293404793927
 20
6.570239373821243
 30
0.0
  0
VERTEX
  5
599
  8
LAYER_1
 10
15.3196428041821
 20
6.605890018289271
 30
0.0
  0
VERTEX
  5
59A
  8
LAYER_1
 10
15.31624365079355
 20
6.639247583090418
 30
0.0
  0
VERTEX
  5
59B
  8
LAYER_1
 10
15.31273658777361
 20
6.670312068224684
 30
0.0
  0
VERTEX
  5
59C
  8
LAYER_1
 10
15.30912161512229
 20
6.69908347369207
 30
0.0
  0
VERTEX
  5
59D
  8
LAYER_1
 10
15.33300621069114
 20
6.688703916023456
 30
0.0
  0
VERTEX
  5
59E
  8
LAYER_1
 10
15.35622880596277
 20
6.679147169294135
 30
0.0
  0
VERTEX
  5
59F
  8
LAYER_1
 10
15.3787894009372
 20
6.670413233504105
 30
0.0
  0
VERTEX
  5
5A0
  8
LAYER_1
 10
15.4006879956144
 20
6.662502108653368
 30
0.0
  0
VERTEX
  5
5A1
  8
LAYER_1
 10
15.4219245899944
 20
6.655413794741923
 30
0.0
  0
VERTEX
  5
5A2
  8
LAYER_1
 10
15.44249918407718
 20
6.649148291769771
 30
0.0
  0
VERTEX
  5
5A3
  8
LAYER_1
 10
15.46241177786276
 20
6.643705599736911
 30
0.0
  0
VERTEX
  5
5A4
  8
LAYER_1
 10
15.48166237135111
 20
6.639085718643344
 30
0.0
  0
VERTEX
  5
5A5
  8
LAYER_1
 10
15.50029143065403
 20
6.635140272745918
 30
0.0
  0
VERTEX
  5
5A6
  8
LAYER_1
 10
15.51833942188327
 20
6.631720886301482
 30
0.0
  0
VERTEX
  5
5A7
  8
LAYER_1
 10
15.53580634503883
 20
6.628827559310035
 30
0.0
  0
VERTEX
  5
5A8
  8
LAYER_1
 10
15.55269220012072
 20
6.626460291771579
 30
0.0
  0
VERTEX
  5
5A9
  8
LAYER_1
 10
15.56899698712893
 20
6.624619083686113
 30
0.0
  0
VERTEX
  5
5AA
  8
LAYER_1
 10
15.58472070606347
 20
6.623303935053638
 30
0.0
  0
VERTEX
  5
5AB
  8
LAYER_1
 10
15.59986335692433
 20
6.622514845874152
 30
0.0
  0
VERTEX
  5
5AC
  8
LAYER_1
 10
15.61442493971152
 20
6.622251816147657
 30
0.0
  0
VERTEX
  5
5AD
  8
LAYER_1
 10
15.63275524529865
 20
6.62259577809769
 30
0.0
  0
VERTEX
  5
5AE
  8
LAYER_1
 10
15.65012616681926
 20
6.623627663947786
 30
0.0
  0
VERTEX
  5
5AF
  8
LAYER_1
 10
15.66653770427336
 20
6.625347473697945
 30
0.0
  0
VERTEX
  5
5B0
  8
LAYER_1
 10
15.68198985766095
 20
6.62775520734817
 30
0.0
  0
VERTEX
  5
5B1
  8
LAYER_1
 10
15.69648262698204
 20
6.630850864898459
 30
0.0
  0
VERTEX
  5
5B2
  8
LAYER_1
 10
15.7100160122366
 20
6.634634446348811
 30
0.0
  0
VERTEX
  5
5B3
  8
LAYER_1
 10
15.72259001342466
 20
6.639105951699229
 30
0.0
  0
VERTEX
  5
5B4
  8
LAYER_1
 10
15.73420463054621
 20
6.644265380949709
 30
0.0
  0
VERTEX
  5
5B5
  8
LAYER_1
 10
15.73959810988585
 20
6.647099694861493
 30
0.0
  0
VERTEX
  5
5B6
  8
LAYER_1
 10
15.74464362281648
 20
6.650099245396331
 30
0.0
  0
VERTEX
  5
5B7
  8
LAYER_1
 10
15.74934116933811
 20
6.653264032554223
 30
0.0
  0
VERTEX
  5
5B8
  8
LAYER_1
 10
15.75369074945072
 20
6.656594056335171
 30
0.0
  0
VERTEX
  5
5B9
  8
LAYER_1
 10
15.75769236315433
 20
6.660089316739173
 30
0.0
  0
VERTEX
  5
5BA
  8
LAYER_1
 10
15.76134601044892
 20
6.66374981376623
 30
0.0
  0
VERTEX
  5
5BB
  8
LAYER_1
 10
15.76465169133451
 20
6.66757554741634
 30
0.0
  0
VERTEX
  5
5BC
  8
LAYER_1
 10
15.76760940581109
 20
6.671566517689507
 30
0.0
  0
VERTEX
  5
5BD
  8
LAYER_1
 10
15.77021915387866
 20
6.675722724585727
 30
0.0
  0
VERTEX
  5
5BE
  8
LAYER_1
 10
15.77248093553722
 20
6.680044168105002
 30
0.0
  0
VERTEX
  5
5BF
  8
LAYER_1
 10
15.77439475078677
 20
6.684530848247332
 30
0.0
  0
VERTEX
  5
5C0
  8
LAYER_1
 10
15.77596059962731
 20
6.689182765012716
 30
0.0
  0
VERTEX
  5
5C1
  8
LAYER_1
 10
15.77717848205884
 20
6.693999918401155
 30
0.0
  0
VERTEX
  5
5C2
  8
LAYER_1
 10
15.77804839808136
 20
6.698982308412649
 30
0.0
  0
VERTEX
  5
5C3
  8
LAYER_1
 10
15.77857034769488
 20
6.704129935047197
 30
0.0
  0
VERTEX
  5
5C4
  8
LAYER_1
 10
15.77874433089938
 20
6.7094427983048
 30
0.0
  0
VERTEX
  5
5C5
  8
LAYER_1
 10
15.77847413529893
 20
6.716699721015281
 30
0.0
  0
VERTEX
  5
5C6
  8
LAYER_1
 10
15.77766354849756
 20
6.723794779278687
 30
0.0
  0
VERTEX
  5
5C7
  8
LAYER_1
 10
15.77631257049529
 20
6.73072797309502
 30
0.0
  0
VERTEX
  5
5C8
  8
LAYER_1
 10
15.77442120129211
 20
6.737499302464277
 30
0.0
  0
VERTEX
  5
5C9
  8
LAYER_1
 10
15.77177277858127
 20
6.744405518872764
 30
0.0
  0
VERTEX
  5
5CA
  8
LAYER_1
 10
15.76815064005599
 20
6.75174337380678
 30
0.0
  0
VERTEX
  5
5CB
  8
LAYER_1
 10
15.76355478571629
 20
6.759512867266327
 30
0.0
  0
VERTEX
  5
5CC
  8
LAYER_1
 10
15.75798521556215
 20
6.767713999251406
 30
0.0
  0
VERTEX
  5
5CD
  8
LAYER_1
 10
15.75128048666851
 20
6.776319792354169
 30
0.0
  0
VERTEX
  5
5CE
  8
LAYER_1
 10
15.74327915611029
 20
6.785303269166771
 30
0.0
  0
VERTEX
  5
5CF
  8
LAYER_1
 10
15.73398122388749
 20
6.794664429689211
 30
0.0
  0
VERTEX
  5
5D0
  8
LAYER_1
 10
15.7233866900001
 20
6.804403273921491
 30
0.0
  0
VERTEX
  5
5D1
  8
LAYER_1
 10
15.56073989809868
 20
6.945980710295466
 30
0.0
  0
VERTEX
  5
5D2
  8
LAYER_1
 10
15.51230196231181
 20
6.98763382800915
 30
0.0
  0
VERTEX
  5
5D3
  8
LAYER_1
 10
15.49456768882928
 20
7.003442589006701
 30
0.0
  0
VERTEX
  5
5D4
  8
LAYER_1
 10
15.48115654495401
 20
7.015906151431391
 30
0.0
  0
VERTEX
  5
5D5
  8
LAYER_1
 10
15.47001213562077
 20
7.026818512904956
 30
0.0
  0
VERTEX
  5
5D6
  8
LAYER_1
 10
15.4595029599379
 20
7.037542032523604
 30
0.0
  0
VERTEX
  5
5D7
  8
LAYER_1
 10
15.44962901790539
 20
7.048076710287329
 30
0.0
  0
VERTEX
  5
5D8
  8
LAYER_1
 10
15.44039030952325
 20
7.058422546196137
 30
0.0
  0
VERTEX
  5
5D9
  8
LAYER_1
 10
15.43178683479147
 20
7.068579540250024
 30
0.0
  0
VERTEX
  5
5DA
  8
LAYER_1
 10
15.42381859371006
 20
7.078547692448993
 30
0.0
  0
VERTEX
  5
5DB
  8
LAYER_1
 10
15.41648558627902
 20
7.08832700279304
 30
0.0
  0
VERTEX
  5
5DC
  8
LAYER_1
 10
15.40978781249834
 20
7.09791747128217
 30
0.0
  0
VERTEX
  5
5DD
  8
LAYER_1
 10
15.40362400170811
 20
7.107433751899723
 30
0.0
  0
VERTEX
  5
5DE
  8
LAYER_1
 10
15.3978928832484
 20
7.116990498629045
 30
0.0
  0
VERTEX
  5
5DF
  8
LAYER_1
 10
15.39259445711921
 20
7.126587711470135
 30
0.0
  0
VERTEX
  5
5E0
  8
LAYER_1
 10
15.38772872332055
 20
7.136225390422993
 30
0.0
  0
VERTEX
  5
5E1
  8
LAYER_1
 10
15.38329568185241
 20
7.145903535487621
 30
0.0
  0
VERTEX
  5
5E2
  8
LAYER_1
 10
15.3792953327148
 20
7.155622146664016
 30
0.0
  0
VERTEX
  5
5E3
  8
LAYER_1
 10
15.37572767590771
 20
7.16538122395218
 30
0.0
  0
VERTEX
  5
5E4
  8
LAYER_1
 10
15.37259271143115
 20
7.175180767352113
 30
0.0
  0
VERTEX
  5
5E5
  8
LAYER_1
 10
15.3698565067643
 20
7.185074731679504
 30
0.0
  0
VERTEX
  5
5E6
  8
LAYER_1
 10
15.36748512938637
 20
7.195117071750047
 30
0.0
  0
VERTEX
  5
5E7
  8
LAYER_1
 10
15.36547857929735
 20
7.205307787563742
 30
0.0
  0
VERTEX
  5
5E8
  8
LAYER_1
 10
15.36383685649725
 20
7.215646879120589
 30
0.0
  0
VERTEX
  5
5E9
  8
LAYER_1
 10
15.36255996098605
 20
7.226134346420585
 30
0.0
  0
VERTEX
  5
5EA
  8
LAYER_1
 10
15.36164789276377
 20
7.236770189463734
 30
0.0
  0
VERTEX
  5
5EB
  8
LAYER_1
 10
15.3611006518304
 20
7.247554408250032
 30
0.0
  0
VERTEX
  5
5EC
  8
LAYER_1
 10
15.36091823818594
 20
7.258487002779482
 30
0.0
  0
VERTEX
  5
5ED
  8
LAYER_1
 10
15.36120824532028
 20
7.271618256048353
 30
0.0
  0
VERTEX
  5
5EE
  8
LAYER_1
 10
15.36207826672331
 20
7.284682065797609
 30
0.0
  0
VERTEX
  5
5EF
  8
LAYER_1
 10
15.36352830239501
 20
7.297678432027252
 30
0.0
  0
VERTEX
  5
5F0
  8
LAYER_1
 10
15.36555835233539
 20
7.31060735473728
 30
0.0
  0
VERTEX
  5
5F1
  8
LAYER_1
 10
15.36816841654446
 20
7.323468833927694
 30
0.0
  0
VERTEX
  5
5F2
  8
LAYER_1
 10
15.37135849502221
 20
7.336262869598493
 30
0.0
  0
VERTEX
  5
5F3
  8
LAYER_1
 10
15.37512858776864
 20
7.34898946174968
 30
0.0
  0
VERTEX
  5
5F4
  8
LAYER_1
 10
15.37947869478375
 20
7.36164861038125
 30
0.0
  0
VERTEX
  5
5F5
  8
LAYER_1
 10
15.38440881606754
 20
7.374172871973594
 30
0.0
  0
VERTEX
  5
5F6
  8
LAYER_1
 10
15.38991895162002
 20
7.386494803007094
 30
0.0
  0
VERTEX
  5
5F7
  8
LAYER_1
 10
15.39600910144117
 20
7.398614403481753
 30
0.0
  0
VERTEX
  5
5F8
  8
LAYER_1
 10
15.40267926553101
 20
7.410531673397569
 30
0.0
  0
VERTEX
  5
5F9
  8
LAYER_1
 10
15.40992944388953
 20
7.422246612754543
 30
0.0
  0
VERTEX
  5
5FA
  8
LAYER_1
 10
15.41775963651673
 20
7.433759221552674
 30
0.0
  0
VERTEX
  5
5FB
  8
LAYER_1
 10
15.42616984341261
 20
7.445069499791963
 30
0.0
  0
VERTEX
  5
5FC
  8
LAYER_1
 10
15.43516006457717
 20
7.45617744747241
 30
0.0
  0
VERTEX
  5
5FD
  8
LAYER_1
 10
15.44481797658592
 20
7.466995388018516
 30
0.0
  0
VERTEX
  5
5FE
  8
LAYER_1
 10
15.45523125601434
 20
7.477435644854783
 30
0.0
  0
VERTEX
  5
5FF
  8
LAYER_1
 10
15.46639990286244
 20
7.48749821798121
 30
0.0
  0
VERTEX
  5
600
  8
LAYER_1
 10
15.47832391713021
 20
7.497183107397799
 30
0.0
  0
VERTEX
  5
601
  8
LAYER_1
 10
15.49100329881767
 20
7.506490313104548
 30
0.0
  0
VERTEX
  5
602
  8
LAYER_1
 10
15.5044380479248
 20
7.515419835101459
 30
0.0
  0
VERTEX
  5
603
  8
LAYER_1
 10
15.51862816445162
 20
7.523971673388529
 30
0.0
  0
VERTEX
  5
604
  8
LAYER_1
 10
15.53357364839811
 20
7.532145827965762
 30
0.0
  0
VERTEX
  5
605
  8
LAYER_1
 10
15.54903170309366
 20
7.539814156145887
 30
0.0
  0
VERTEX
  5
606
  8
LAYER_1
 10
15.56475953186768
 20
7.546848515241642
 30
0.0
  0
VERTEX
  5
607
  8
LAYER_1
 10
15.58075713472015
 20
7.553248905253023
 30
0.0
  0
VERTEX
  5
608
  8
LAYER_1
 10
15.59702451165108
 20
7.559015326180031
 30
0.0
  0
VERTEX
  5
609
  8
LAYER_1
 10
15.61356166266046
 20
7.564147778022665
 30
0.0
  0
VERTEX
  5
60A
  8
LAYER_1
 10
15.6303685877483
 20
7.568646260780927
 30
0.0
  0
VERTEX
  5
60B
  8
LAYER_1
 10
15.6474452869146
 20
7.572510774454816
 30
0.0
  0
VERTEX
  5
60C
  8
LAYER_1
 10
15.66479176015935
 20
7.575741319044333
 30
0.0
  0
VERTEX
  5
60D
  8
LAYER_1
 10
15.68234056396295
 20
7.578472781588705
 30
0.0
  0
VERTEX
  5
60E
  8
LAYER_1
 10
15.70002425480577
 20
7.580840049127161
 30
0.0
  0
VERTEX
  5
60F
  8
LAYER_1
 10
15.71784283268783
 20
7.5828431216597
 30
0.0
  0
VERTEX
  5
610
  8
LAYER_1
 10
15.73579629760911
 20
7.584481999186323
 30
0.0
  0
VERTEX
  5
611
  8
LAYER_1
 10
15.75388464956961
 20
7.58575668170703
 30
0.0
  0
VERTEX
  5
612
  8
LAYER_1
 10
15.77210788856935
 20
7.586667169221822
 30
0.0
  0
VERTEX
  5
613
  8
LAYER_1
 10
15.79046601460831
 20
7.587213461730696
 30
0.0
  0
VERTEX
  5
614
  8
LAYER_1
 10
15.80895902768651
 20
7.587395559233654
 30
0.0
  0
VERTEX
  5
615
  8
LAYER_1
 10
15.84583714421151
 20
7.586869499780663
 30
0.0
  0
VERTEX
  5
616
  8
LAYER_1
 10
15.88352458297189
 20
7.585291321421693
 30
0.0
  0
VERTEX
  5
617
  8
LAYER_1
 10
15.92202134396763
 20
7.582661024156742
 30
0.0
  0
VERTEX
  5
618
  8
LAYER_1
 10
15.96132742719874
 20
7.578978607985812
 30
0.0
  0
VERTEX
  5
619
  8
LAYER_1
 10
16.00144283266523
 20
7.5742440729089
 30
0.0
  0
VERTEX
  5
61A
  8
LAYER_1
 10
16.04236756036708
 20
7.568457418926008
 30
0.0
  0
VERTEX
  5
61B
  8
LAYER_1
 10
16.0841016103043
 20
7.561618646037136
 30
0.0
  0
VERTEX
  5
61C
  8
LAYER_1
 10
16.12664498247689
 20
7.553727754242283
 30
0.0
  0
VERTEX
  5
61D
  8
LAYER_1
 10
16.12945063289284
 20
7.496643559240885
 30
0.0
  0
VERTEX
  5
61E
  8
LAYER_1
 10
16.13268792183432
 20
7.444523207283089
 30
0.0
  0
VERTEX
  5
61F
  8
LAYER_1
 10
16.13500797890904
 20
7.415036900507793
 30
0.0
  0
VERTEX
  5
620
  8
LAYER_1
 10
16.13851504192898
 20
7.376216410617902
 30
0.0
  0
VERTEX
  5
621
  8
LAYER_1
 10
16.14909018580447
 20
7.270572881494333
 30
0.0
  0
VERTEX
  5
622
  8
LAYER_1
 10
16.12945063289284
 20
7.278254698378383
 30
0.0
  0
VERTEX
  5
623
  8
LAYER_1
 10
16.11024271850674
 20
7.285329523585904
 30
0.0
  0
VERTEX
  5
624
  8
LAYER_1
 10
16.09146644264617
 20
7.2917973571169
 30
0.0
  0
VERTEX
  5
625
  8
LAYER_1
 10
16.07312180531112
 20
7.297658198971368
 30
0.0
  0
VERTEX
  5
626
  8
LAYER_1
 10
16.05520880650161
 20
7.302912049149308
 30
0.0
  0
VERTEX
  5
627
  8
LAYER_1
 10
16.03772744621762
 20
7.307558907650721
 30
0.0
  0
VERTEX
  5
628
  8
LAYER_1
 10
16.02067772445918
 20
7.311598774475607
 30
0.0
  0
VERTEX
  5
629
  8
LAYER_1
 10
16.00405964122626
 20
7.315031649623966
 30
0.0
  0
VERTEX
  5
62A
  8
LAYER_1
 10
15.97238816441546
 20
7.320508063416632
 30
0.0
  0
VERTEX
  5
62B
  8
LAYER_1
 10
15.9574022143572
 20
7.322659511692323
 30
0.0
  0
VERTEX
  5
62C
  8
LAYER_1
 10
15.9429827898637
 20
7.324419787554252
 30
0.0
  0
VERTEX
  5
62D
  8
LAYER_1
 10
15.92912989093496
 20
7.325788891002419
 30
0.0
  0
VERTEX
  5
62E
  8
LAYER_1
 10
15.91584351757098
 20
7.326766822036824
 30
0.0
  0
VERTEX
  5
62F
  8
LAYER_1
 10
15.90312366977176
 20
7.327353580657467
 30
0.0
  0
VERTEX
  5
630
  8
LAYER_1
 10
15.89097034753729
 20
7.327549166864348
 30
0.0
  0
VERTEX
  5
631
  8
LAYER_1
 10
15.87449389569556
 20
7.327157994450586
 30
0.0
  0
VERTEX
  5
632
  8
LAYER_1
 10
15.85873234516173
 20
7.3259844772093
 30
0.0
  0
VERTEX
  5
633
  8
LAYER_1
 10
15.84368569593582
 20
7.32402861514049
 30
0.0
  0
VERTEX
  5
634
  8
LAYER_1
 10
15.82935394801782
 20
7.321290408244156
 30
0.0
  0
VERTEX
  5
635
  8
LAYER_1
 10
15.81573710140773
 20
7.317769856520298
 30
0.0
  0
VERTEX
  5
636
  8
LAYER_1
 10
15.80283515610555
 20
7.313466959968919
 30
0.0
  0
VERTEX
  5
637
  8
LAYER_1
 10
15.79064811211127
 20
7.308381718590013
 30
0.0
  0
VERTEX
  5
638
  8
LAYER_1
 10
15.77917596942491
 20
7.302514132383584
 30
0.0
  0
VERTEX
  5
639
  8
LAYER_1
 10
15.76875594564453
 20
7.296066531908473
 30
0.0
  0
VERTEX
  5
63A
  8
LAYER_1
 10
15.7597252583682
 20
7.289241247723524
 30
0.0
  0
VERTEX
  5
63B
  8
LAYER_1
 10
15.75573091591905
 20
7.285686974239859
 30
0.0
  0
VERTEX
  5
63C
  8
LAYER_1
 10
15.75208390759592
 20
7.282038279828734
 30
0.0
  0
VERTEX
  5
63D
  8
LAYER_1
 10
15.74878423339879
 20
7.278295164490151
 30
0.0
  0
VERTEX
  5
63E
  8
LAYER_1
 10
15.74583189332769
 20
7.274457628224107
 30
0.0
  0
VERTEX
  5
63F
  8
LAYER_1
 10
15.74322688738259
 20
7.270525671030604
 30
0.0
  0
VERTEX
  5
640
  8
LAYER_1
 10
15.74096921556351
 20
7.26649929290964
 30
0.0
  0
VERTEX
  5
641
  8
LAYER_1
 10
15.73905887787044
 20
7.262378493861217
 30
0.0
  0
VERTEX
  5
642
  8
LAYER_1
 10
15.73749587430338
 20
7.258163273885335
 30
0.0
  0
VERTEX
  5
643
  8
LAYER_1
 10
15.73628020486234
 20
7.253853632981992
 30
0.0
  0
VERTEX
  5
644
  8
LAYER_1
 10
15.7354118695473
 20
7.249449571151189
 30
0.0
  0
VERTEX
  5
645
  8
LAYER_1
 10
15.73489086835828
 20
7.244951088392927
 30
0.0
  0
VERTEX
  5
646
  8
LAYER_1
 10
15.73471720129528
 20
7.240358184707205
 30
0.0
  0
VERTEX
  5
647
  8
LAYER_1
 10
15.73514883982081
 20
7.231779369012289
 30
0.0
  0
VERTEX
  5
648
  8
LAYER_1
 10
15.7364437553974
 20
7.223308462948753
 30
0.0
  0
VERTEX
  5
649
  8
LAYER_1
 10
15.73860194802505
 20
7.214945466516602
 30
0.0
  0
VERTEX
  5
64A
  8
LAYER_1
 10
15.74162341770377
 20
7.206690379715833
 30
0.0
  0
VERTEX
  5
64B
  8
LAYER_1
 10
15.74583189332769
 20
7.198138541428762
 30
0.0
  0
VERTEX
  5
64C
  8
LAYER_1
 10
15.75155110379096
 20
7.188885290537703
 30
0.0
  0
VERTEX
  5
64D
  8
LAYER_1
 10
15.7587810490936
 20
7.178930627042659
 30
0.0
  0
VERTEX
  5
64E
  8
LAYER_1
 10
15.76752172923559
 20
7.168274550943626
 30
0.0
  0
VERTEX
  5
64F
  8
LAYER_1
 10
15.77777314421694
 20
7.156997994464144
 30
0.0
  0
VERTEX
  5
650
  8
LAYER_1
 10
15.78953529403764
 20
7.145181889827749
 30
0.0
  0
VERTEX
  5
651
  8
LAYER_1
 10
15.8028081786977
 20
7.132826237034442
 30
0.0
  0
VERTEX
  5
652
  8
LAYER_1
 10
15.81759179819712
 20
7.11993103608422
 30
0.0
  0
VERTEX
  5
653
  8
LAYER_1
 10
15.83534293255956
 20
7.10517439399265
 30
0.0
  0
VERTEX
  5
654
  8
LAYER_1
 10
15.85751836180868
 20
7.087234417775292
 30
0.0
  0
VERTEX
  5
655
  8
LAYER_1
 10
15.91514210496699
 20
7.041804462963216
 30
0.0
  0
VERTEX
  5
656
  8
LAYER_1
 10
15.97729805264337
 20
6.992597671052749
 30
0.0
  0
VERTEX
  5
657
  8
LAYER_1
 10
15.9913802595388
 20
6.980781566416354
 30
0.0
  0
VERTEX
  5
658
  8
LAYER_1
 10
16.00600201459114
 20
6.96777845583475
 30
0.0
  0
VERTEX
  5
659
  8
LAYER_1
 10
16.02116331780039
 20
6.953588339307939
 30
0.0
  0
VERTEX
  5
65A
  8
LAYER_1
 10
16.03686416916657
 20
6.938211216835918
 30
0.0
  0
VERTEX
  5
65B
  8
LAYER_1
 10
16.05229524645428
 20
6.922294546206984
 30
0.0
  0
VERTEX
  5
65C
  8
LAYER_1
 10
16.06664722742816
 20
6.906485785209433
 30
0.0
  0
VERTEX
  5
65D
  8
LAYER_1
 10
16.07992011208822
 20
6.890784933843264
 30
0.0
  0
VERTEX
  5
65E
  8
LAYER_1
 10
16.09211390043446
 20
6.875191992108478
 30
0.0
  0
VERTEX
  5
65F
  8
LAYER_1
 10
16.10309370542764
 20
6.859976734083531
 30
0.0
  0
VERTEX
  5
660
  8
LAYER_1
 10
16.11272464002854
 20
6.84540893384688
 30
0.0
  0
VERTEX
  5
661
  8
LAYER_1
 10
16.12100670423715
 20
6.831488591398524
 30
0.0
  0
VERTEX
  5
662
  8
LAYER_1
 10
16.12793989805348
 20
6.818215706738464
 30
0.0
  0
VERTEX
  5
663
  8
LAYER_1
 10
16.13379399555599
 20
6.805239573564705
 30
0.0
  0
VERTEX
  5
664
  8
LAYER_1
 10
16.13883877082312
 20
6.792209485575256
 30
0.0
  0
VERTEX
  5
665
  8
LAYER_1
 10
16.14307422385489
 20
6.779125442770116
 30
0.0
  0
VERTEX
  5
666
  8
LAYER_1
 10
16.14650035465129
 20
6.765987445149285
 30
0.0
  0
VERTEX
  5
667
  8
LAYER_1
 10
16.14914414062016
 20
6.752579673449996
 30
0.0
  0
VERTEX
  5
668
  8
LAYER_1
 10
16.15103255916936
 20
6.738686308409486
 30
0.0
  0
VERTEX
  5
669
  8
LAYER_1
 10
16.15216561029887
 20
6.724307350027754
 30
0.0
  0
VERTEX
  5
66A
  8
LAYER_1
 10
16.15254329400872
 20
6.7094427983048
 30
0.0
  0
VERTEX
  5
66B
  8
LAYER_1
 10
16.15196327974004
 20
6.690133718639276
 30
0.0
  0
VERTEX
  5
66C
  8
LAYER_1
 10
16.15022323693399
 20
6.67105394694044
 30
0.0
  0
VERTEX
  5
66D
  8
LAYER_1
 10
16.14732316559058
 20
6.652203483208291
 30
0.0
  0
VERTEX
  5
66E
  8
LAYER_1
 10
16.14326306570981
 20
6.633582327442831
 30
0.0
  0
VERTEX
  5
66F
  8
LAYER_1
 10
16.13804293729168
 20
6.615190479644058
 30
0.0
  0
VERTEX
  5
670
  8
LAYER_1
 10
16.13166278033618
 20
6.597027939811974
 30
0.0
  0
VERTEX
  5
671
  8
LAYER_1
 10
16.12412259484332
 20
6.579094707946577
 30
0.0
  0
VERTEX
  5
672
  8
LAYER_1
 10
16.1154223808131
 20
6.56139078404787
 30
0.0
  0
VERTEX
  5
673
  8
LAYER_1
 10
16.11066086832835
 20
6.552693942193628
 30
0.0
  0
VERTEX
  5
674
  8
LAYER_1
 10
16.10565655917298
 20
6.544192686546268
 30
0.0
  0
VERTEX
  5
675
  8
LAYER_1
 10
16.100409453347
 20
6.535887017105788
 30
0.0
  0
VERTEX
  5
676
  8
LAYER_1
 10
16.09491955085041
 20
6.52777693387219
 30
0.0
  0
VERTEX
  5
677
  8
LAYER_1
 10
16.0891868516832
 20
6.519862436845472
 30
0.0
  0
VERTEX
  5
678
  8
LAYER_1
 10
16.08321135584539
 20
6.512143526025634
 30
0.0
  0
VERTEX
  5
679
  8
LAYER_1
 10
16.07699306333697
 20
6.504620201412678
 30
0.0
  0
VERTEX
  5
67A
  8
LAYER_1
 10
16.07053197415794
 20
6.497292463006604
 30
0.0
  0
VERTEX
  5
67B
  8
LAYER_1
 10
16.06382808830829
 20
6.49016031080741
 30
0.0
  0
VERTEX
  5
67C
  8
LAYER_1
 10
16.05688140578804
 20
6.483223744815097
 30
0.0
  0
VERTEX
  5
67D
  8
LAYER_1
 10
16.04969192659717
 20
6.476482765029665
 30
0.0
  0
VERTEX
  5
67E
  8
LAYER_1
 10
16.04225965073569
 20
6.469937371451115
 30
0.0
  0
VERTEX
  5
67F
  8
LAYER_1
 10
16.03458457820361
 20
6.463587564079445
 30
0.0
  0
VERTEX
  5
680
  8
LAYER_1
 10
16.02666670900091
 20
6.457433342914655
 30
0.0
  0
VERTEX
  5
681
  8
LAYER_1
 10
16.01010258058368
 20
6.44571165920572
 30
0.0
  0
VERTEX
  5
682
  8
LAYER_1
 10
15.99284378391443
 20
6.434806042084116
 30
0.0
  0
VERTEX
  5
683
  8
LAYER_1
 10
15.97516683742356
 20
6.424750213309649
 30
0.0
  0
VERTEX
  5
684
  8
LAYER_1
 10
15.95707174111109
 20
6.415544172882321
 30
0.0
  0
VERTEX
  5
685
  8
LAYER_1
 10
15.93855849497701
 20
6.407187920802131
 30
0.0
  0
VERTEX
  5
686
  8
LAYER_1
 10
15.91962709902133
 20
6.399681457069079
 30
0.0
  0
VERTEX
  5
687
  8
LAYER_1
 10
15.90027755324404
 20
6.393024781683165
 30
0.0
  0
VERTEX
  5
688
  8
LAYER_1
 10
15.88050985764514
 20
6.387217894644388
 30
0.0
  0
VERTEX
  5
689
  8
LAYER_1
 10
15.86032401222463
 20
6.38226079595275
 30
0.0
  0
VERTEX
  5
68A
  8
LAYER_1
 10
15.83978746050213
 20
6.37801185421706
 30
0.0
  0
VERTEX
  5
68B
  8
LAYER_1
 10
15.81896764599725
 20
6.374329438046129
 30
0.0
  0
VERTEX
  5
68C
  8
LAYER_1
 10
15.79786456870998
 20
6.371213547439956
 30
0.0
  0
VERTEX
  5
68D
  8
LAYER_1
 10
15.77647822864035
 20
6.368664182398541
 30
0.0
  0
VERTEX
  5
68E
  8
LAYER_1
 10
15.75480862578833
 20
6.366681342921886
 30
0.0
  0
VERTEX
  5
68F
  8
LAYER_1
 10
15.73285576015393
 20
6.36526502900999
 30
0.0
  0
VERTEX
  5
690
  8
LAYER_1
 10
15.71061963173715
 20
6.364415240662852
 30
0.0
  0
VERTEX
  5
691
  8
LAYER_1
 10
15.68810024053799
 20
6.364131977880472
 30
0.0
  0
VERTEX
  5
692
  8
LAYER_1
 10
15.67033224529565
 20
6.364290470151566
 30
0.0
  0
VERTEX
  5
693
  8
LAYER_1
 10
15.65199098013659
 20
6.364765946964845
 30
0.0
  0
VERTEX
  5
694
  8
LAYER_1
 10
15.61358864006831
 20
6.366667854217964
 30
0.0
  0
VERTEX
  5
695
  8
LAYER_1
 10
15.57289322033314
 20
6.369837699639827
 30
0.0
  0
VERTEX
  5
696
  8
LAYER_1
 10
15.5299047209311
 20
6.374275483230437
 30
0.0
  0
VERTEX
  5
697
  8
LAYER_1
 10
15.48462314186217
 20
6.379981204989792
 30
0.0
  0
VERTEX
  5
698
  8
LAYER_1
 10
15.43704848312637
 20
6.386954864917893
 30
0.0
  0
VERTEX
  5
699
  8
LAYER_1
 10
15.38718074472368
 20
6.395196463014739
 30
0.0
  0
SEQEND
  5
C34
  8
LAYER_1
  0
POLYLINE
  5
7F
  8
LAYER_1
 66
     1
 10
0.0
 20
0.0
 30
0.0
 70
     1
  0
VERTEX
  5
69A
  8
LAYER_1
 10
16.58504509659019
 20
6.386577181208054
 30
0.0
  0
VERTEX
  5
69B
  8
LAYER_1
 10
16.59027117900654
 20
6.439351735306108
 30
0.0
  0
VERTEX
  5
69C
  8
LAYER_1
 10
16.59522927881292
 20
6.492787235896381
 30
0.0
  0
VERTEX
  5
69D
  8
LAYER_1
 10
16.59991939600933
 20
6.546883682978871
 30
0.0
  0
VERTEX
  5
69E
  8
LAYER_1
 10
16.60434153059578
 20
6.60164107655358
 30
0.0
  0
VERTEX
  5
69F
  8
LAYER_1
 10
16.60849568257226
 20
6.657059416620508
 30
0.0
  0
VERTEX
  5
6A0
  8
LAYER_1
 10
16.61238185193878
 20
6.713138703179655
 30
0.0
  0
VERTEX
  5
6A1
  8
LAYER_1
 10
16.61600003869533
 20
6.769878936231019
 30
0.0
  0
VERTEX
  5
6A2
  8
LAYER_1
 10
16.61935024284191
 20
6.827280115774602
 30
0.0
  0
VERTEX
  5
6A3
  8
LAYER_1
 10
16.62243246437853
 20
6.885342241810404
 30
0.0
  0
VERTEX
  5
6A4
  8
LAYER_1
 10
16.62524670330517
 20
6.944065314338424
 30
0.0
  0
VERTEX
  5
6A5
  8
LAYER_1
 10
16.63007123332857
 20
7.063494298871118
 30
0.0
  0
VERTEX
  5
6A6
  8
LAYER_1
 10
16.6338238329121
 20
7.185567069372688
 30
0.0
  0
VERTEX
  5
6A7
  8
LAYER_1
 10
16.63650450205576
 20
7.310283625843131
 30
0.0
  0
VERTEX
  5
6A8
  8
LAYER_1
 10
16.26908569590192
 20
7.300787578281462
 30
0.0
  0
VERTEX
  5
6A9
  8
LAYER_1
 10
16.27340208115723
 20
7.396611330949213
 30
0.0
  0
VERTEX
  5
6AA
  8
LAYER_1
 10
16.27642355083594
 20
7.477111915960634
 30
0.0
  0
VERTEX
  5
6AB
  8
LAYER_1
 10
16.27858174346359
 20
7.564950355906073
 30
0.0
  0
VERTEX
  5
6AC
  8
LAYER_1
 10
16.54395513226528
 20
7.56364532380154
 30
0.0
  0
VERTEX
  5
6AD
  8
LAYER_1
 10
16.84989579811486
 20
7.563210313100028
 30
0.0
  0
VERTEX
  5
6AE
  8
LAYER_1
 10
17.06305778620727
 20
7.564073590151089
 30
0.0
  0
VERTEX
  5
6AF
  8
LAYER_1
 10
17.27019032364618
 20
7.564073590151089
 30
0.0
  0
VERTEX
  5
6B0
  8
LAYER_1
 10
17.38237587417231
 20
7.564950355906073
 30
0.0
  0
VERTEX
  5
6B1
  8
LAYER_1
 10
17.37719621186595
 20
7.480389671013882
 30
0.0
  0
VERTEX
  5
6B2
  8
LAYER_1
 10
17.37429276834656
 20
7.418265759009319
 30
0.0
  0
VERTEX
  5
6B3
  8
LAYER_1
 10
17.37246167678904
 20
7.367914113353402
 30
0.0
  0
VERTEX
  5
6B4
  8
LAYER_1
 10
17.37149049010659
 20
7.328899723344621
 30
0.0
  0
VERTEX
  5
6B5
  8
LAYER_1
 10
17.37116676121245
 20
7.300787578281462
 30
0.0
  0
VERTEX
  5
6B6
  8
LAYER_1
 10
17.28292028797334
 20
7.304942099089692
 30
0.0
  0
VERTEX
  5
6B7
  8
LAYER_1
 10
17.20276029273597
 20
7.307909613952714
 30
0.0
  0
VERTEX
  5
6B8
  8
LAYER_1
 10
17.13068677550034
 20
7.309690122870527
 30
0.0
  0
VERTEX
  5
6B9
  8
LAYER_1
 10
17.06669973626643
 20
7.310283625843131
 30
0.0
  0
VERTEX
  5
6BA
  8
LAYER_1
 10
17.00632429750787
 20
7.310283625843131
 30
0.0
  0
VERTEX
  5
6BB
  8
LAYER_1
 10
17.00018946635496
 20
7.235479489107118
 30
0.0
  0
VERTEX
  5
6BC
  8
LAYER_1
 10
16.99481506088571
 20
7.163583854154464
 30
0.0
  0
VERTEX
  5
6BD
  8
LAYER_1
 10
16.99020108110011
 20
7.094596720985169
 30
0.0
  0
VERTEX
  5
6BE
  8
LAYER_1
 10
16.98634752699816
 20
7.028518089599233
 30
0.0
  0
VERTEX
  5
6BF
  8
LAYER_1
 10
16.98183766314597
 20
6.936563908869342
 30
0.0
  0
VERTEX
  5
6C0
  8
LAYER_1
 10
16.97787156267066
 20
6.845955226355754
 30
0.0
  0
VERTEX
  5
6C1
  8
LAYER_1
 10
16.97444922557224
 20
6.756692042058466
 30
0.0
  0
VERTEX
  5
6C2
  8
LAYER_1
 10
16.97157065185071
 20
6.668774355977482
 30
0.0
  0
VERTEX
  5
6C3
  8
LAYER_1
 10
16.96928979632176
 20
6.585703329824767
 30
0.0
  0
VERTEX
  5
6C4
  8
LAYER_1
 10
16.96766061380108
 20
6.51098012531229
 30
0.0
  0
VERTEX
  5
6C5
  8
LAYER_1
 10
16.96668310428867
 20
6.444604742440053
 30
0.0
  0
VERTEX
  5
6C6
  8
LAYER_1
 10
16.96635726778453
 20
6.386577181208054
 30
0.0
  0
VERTEX
  5
6C7
  8
LAYER_1
 10
16.84989242593888
 20
6.387872096784646
 30
0.0
  0
VERTEX
  5
6C8
  8
LAYER_1
 10
16.78346393129495
 20
6.388303735310176
 30
0.0
  0
VERTEX
  5
6C9
  8
LAYER_1
 10
16.71531225472487
 20
6.387872096784646
 30
0.0
  0
SEQEND
  5
C35
  8
LAYER_1
  0
POLYLINE
  5
80
  8
LAYER_1
 66
     1
 10
0.0
 20
0.0
 30
0.0
 70
     1
  0
VERTEX
  5
6CA
  8
LAYER_1
 10
17.44832214765101
 20
6.386577181208054
 30
0.0
  0
VERTEX
  5
6CB
  8
LAYER_1
 10
17.45998460751928
 20
6.554889228757068
 30
0.0
  0
VERTEX
  5
6CC
  8
LAYER_1
 10
17.47009207273845
 20
6.713219635403192
 30
0.0
  0
VERTEX
  5
6CD
  8
LAYER_1
 10
17.47864454330852
 20
6.861568401146426
 30
0.0
  0
VERTEX
  5
6CE
  8
LAYER_1
 10
17.48564201922948
 20
6.999935525986767
 30
0.0
  0
VERTEX
  5
6CF
  8
LAYER_1
 10
17.49108450050134
 20
7.128321009924218
 30
0.0
  0
VERTEX
  5
6D0
  8
LAYER_1
 10
17.49322261814386
 20
7.188770636554359
 30
0.0
  0
VERTEX
  5
6D1
  8
LAYER_1
 10
17.4949719871241
 20
7.246724852958779
 30
0.0
  0
VERTEX
  5
6D2
  8
LAYER_1
 10
17.49633260744207
 20
7.302183659137475
 30
0.0
  0
VERTEX
  5
6D3
  8
LAYER_1
 10
17.49730447909776
 20
7.355147055090448
 30
0.0
  0
VERTEX
  5
6D4
  8
LAYER_1
 10
17.49788760209117
 20
7.4056150408177
 30
0.0
  0
VERTEX
  5
6D5
  8
LAYER_1
 10
17.49808197642231
 20
7.453587616319227
 30
0.0
  0
VERTEX
  5
6D6
  8
LAYER_1
 10
17.49721869937125
 20
7.564950355906073
 30
0.0
  0
VERTEX
  5
6D7
  8
LAYER_1
 10
17.62335831410555
 20
7.563655440329482
 30
0.0
  0
VERTEX
  5
6D8
  8
LAYER_1
 10
17.69938739376655
 20
7.563223801803952
 30
0.0
  0
VERTEX
  5
6D9
  8
LAYER_1
 10
17.88514033548778
 20
7.564950355906073
 30
0.0
  0
VERTEX
  5
6DA
  8
LAYER_1
 10
17.87771733311025
 20
7.469126603238321
 30
0.0
  0
VERTEX
  5
6DB
  8
LAYER_1
 10
17.87105475641637
 20
7.375892681723753
 30
0.0
  0
VERTEX
  5
6DC
  8
LAYER_1
 10
17.86515260540614
 20
7.285248591362366
 30
0.0
  0
VERTEX
  5
6DD
  8
LAYER_1
 10
17.86001088007956
 20
7.197194332154163
 30
0.0
  0
VERTEX
  5
6DE
  8
LAYER_1
 10
17.85437470944981
 20
7.078304895778382
 30
0.0
  0
VERTEX
  5
6DF
  8
LAYER_1
 10
17.84960603109109
 20
6.963354160948064
 30
0.0
  0
VERTEX
  5
6E0
  8
LAYER_1
 10
17.84570484500341
 20
6.852342127663213
 30
0.0
  0
VERTEX
  5
6E1
  8
LAYER_1
 10
17.84267115118677
 20
6.745268795923825
 30
0.0
  0
VERTEX
  5
6E2
  8
LAYER_1
 10
17.84039619696578
 20
6.644022584279098
 30
0.0
  0
VERTEX
  5
6E3
  8
LAYER_1
 10
17.83877122966508
 20
6.550491911278227
 30
0.0
  0
VERTEX
  5
6E4
  8
LAYER_1
 10
17.83779624928466
 20
6.464676776921213
 30
0.0
  0
VERTEX
  5
6E5
  8
LAYER_1
 10
17.83747125582452
 20
6.386577181208054
 30
0.0
  0
VERTEX
  5
6E6
  8
LAYER_1
 10
17.66058039258058
 20
6.388303735310176
 30
0.0
  0
VERTEX
  5
6E7
  8
LAYER_1
 10
17.58163100852029
 20
6.387872096784646
 30
0.0
  0
SEQEND
  5
C36
  8
LAYER_1
  0
POLYLINE
  5
81
  8
LAYER_1
 66
     1
 10
0.0
 20
0.0
 30
0.0
 70
     1
  0
VERTEX
  5
6E8
  8
LAYER_1
 10
18.0500262522404
 20
6.386577181208054
 30
0.0
  0
VERTEX
  5
6E9
  8
LAYER_1
 10
18.06729179326161
 20
6.567865361930826
 30
0.0
  0
VERTEX
  5
6EA
  8
LAYER_1
 10
18.10095959825298
 20
7.18251862228613
 30
0.0
  0
VERTEX
  5
6EB
  8
LAYER_1
 10
18.11045564581465
 20
7.430279135940586
 30
0.0
  0
VERTEX
  5
6EC
  8
LAYER_1
 10
18.11045564581465
 20
7.564950355906073
 30
0.0
  0
VERTEX
  5
6ED
  8
LAYER_1
 10
18.23669642582838
 20
7.563655440329482
 30
0.0
  0
VERTEX
  5
6EE
  8
LAYER_1
 10
18.34737124151516
 20
7.563223801803952
 30
0.0
  0
VERTEX
  5
6EF
  8
LAYER_1
 10
18.43577620702536
 20
7.563655440329482
 30
0.0
  0
VERTEX
  5
6F0
  8
LAYER_1
 10
18.55401818561284
 20
7.564950355906073
 30
0.0
  0
VERTEX
  5
6F1
  8
LAYER_1
 10
18.92252957678443
 20
6.894791078908344
 30
0.0
  0
VERTEX
  5
6F2
  8
LAYER_1
 10
18.97332803575779
 20
6.796337028975641
 30
0.0
  0
VERTEX
  5
6F3
  8
LAYER_1
 10
18.97822527832577
 20
6.876166129444904
 30
0.0
  0
VERTEX
  5
6F4
  8
LAYER_1
 10
18.98317816179743
 20
6.970568931458786
 30
0.0
  0
VERTEX
  5
6F5
  8
LAYER_1
 10
18.98818668617278
 20
7.079545435017284
 30
0.0
  0
VERTEX
  5
6F6
  8
LAYER_1
 10
18.9932508514518
 20
7.2030956401204
 30
0.0
  0
VERTEX
  5
6F7
  8
LAYER_1
 10
18.99770633896631
 20
7.323839351763572
 30
0.0
  0
VERTEX
  5
6F8
  8
LAYER_1
 10
19.0008888300481
 20
7.424396374942242
 30
0.0
  0
VERTEX
  5
6F9
  8
LAYER_1
 10
19.00279832469718
 20
7.50476670965641
 30
0.0
  0
VERTEX
  5
6FA
  8
LAYER_1
 10
19.00343482291354
 20
7.564950355906073
 30
0.0
  0
VERTEX
  5
6FB
  8
LAYER_1
 10
19.09894496321508
 20
7.563655440329482
 30
0.0
  0
VERTEX
  5
6FC
  8
LAYER_1
 10
19.17332504882152
 20
7.563223801803952
 30
0.0
  0
VERTEX
  5
6FD
  8
LAYER_1
 10
19.34235199767845
 20
7.564950355906073
 30
0.0
  0
VERTEX
  5
6FE
  8
LAYER_1
 10
19.32163334845298
 20
7.307693794689949
 30
0.0
  0
VERTEX
  5
6FF
  8
LAYER_1
 10
19.28278588115525
 20
6.59290039641159
 30
0.0
  0
VERTEX
  5
700
  8
LAYER_1
 10
19.27760621884888
 20
6.386577181208054
 30
0.0
  0
VERTEX
  5
701
  8
LAYER_1
 10
19.16897156963043
 20
6.387872096784646
 30
0.0
  0
VERTEX
  5
702
  8
LAYER_1
 10
19.06768151969795
 20
6.388303735310176
 30
0.0
  0
VERTEX
  5
703
  8
LAYER_1
 10
18.97093041863551
 20
6.387872096784646
 30
0.0
  0
VERTEX
  5
704
  8
LAYER_1
 10
18.84308111067899
 20
6.386577181208054
 30
0.0
  0
VERTEX
  5
705
  8
LAYER_1
 10
18.80406503458222
 20
6.459551069430539
 30
0.0
  0
VERTEX
  5
706
  8
LAYER_1
 10
18.77668970997084
 20
6.509216477274381
 30
0.0
  0
VERTEX
  5
707
  8
LAYER_1
 10
18.63184800724754
 20
6.755344857754175
 30
0.0
  0
VERTEX
  5
708
  8
LAYER_1
 10
18.59676978965224
 20
6.815147869640017
 30
0.0
  0
VERTEX
  5
709
  8
LAYER_1
 10
18.56309271117692
 20
6.873657652037256
 30
0.0
  0
VERTEX
  5
70A
  8
LAYER_1
 10
18.53081677182159
 20
6.930874204945896
 30
0.0
  0
VERTEX
  5
70B
  8
LAYER_1
 10
18.49994197158624
 20
6.986797528365934
 30
0.0
  0
VERTEX
  5
70C
  8
LAYER_1
 10
18.47995171237261
 20
7.022637014688881
 30
0.0
  0
VERTEX
  5
70D
  8
LAYER_1
 10
18.45963772426483
 20
7.06020305511395
 30
0.0
  0
VERTEX
  5
70E
  8
LAYER_1
 10
18.43900000726291
 20
7.09949564964114
 30
0.0
  0
VERTEX
  5
70F
  8
LAYER_1
 10
18.41803856136684
 20
7.140514798270452
 30
0.0
  0
VERTEX
  5
710
  8
LAYER_1
 10
18.39946461606511
 20
6.73115961162055
 30
0.0
  0
VERTEX
  5
711
  8
LAYER_1
 10
18.39061602629173
 20
6.386577181208054
 30
0.0
  0
VERTEX
  5
712
  8
LAYER_1
 10
18.29641091809473
 20
6.387872096784646
 30
0.0
  0
VERTEX
  5
713
  8
LAYER_1
 10
18.22764550549616
 20
6.388303735310176
 30
0.0
  0
VERTEX
  5
714
  8
LAYER_1
 10
18.15953429503786
 20
6.387872096784646
 30
0.0
  0
SEQEND
  5
C37
  8
LAYER_1
  0
POLYLINE
  5
82
  8
LAYER_1
 66
     1
 10
0.0
 20
0.0
 30
0.0
 70
     1
  0
VERTEX
  5
715
  8
LAYER_1
 10
20.19354317002441
 20
7.073745713852467
 30
0.0
  0
VERTEX
  5
716
  8
LAYER_1
 10
20.30900647560379
 20
7.072450798275876
 30
0.0
  0
VERTEX
  5
717
  8
LAYER_1
 10
20.41885848035128
 20
7.072019159750345
 30
0.0
  0
VERTEX
  5
718
  8
LAYER_1
 10
20.58201784300178
 20
7.072450798275876
 30
0.0
  0
VERTEX
  5
719
  8
LAYER_1
 10
20.64870599519623
 20
7.072990346432788
 30
0.0
  0
VERTEX
  5
71A
  8
LAYER_1
 10
20.70546646130348
 20
7.073745713852467
 30
0.0
  0
VERTEX
  5
71B
  8
LAYER_1
 10
20.69984167176766
 20
7.008460386865992
 30
0.0
  0
VERTEX
  5
71C
  8
LAYER_1
 10
20.69416292741615
 20
6.930873361901901
 30
0.0
  0
VERTEX
  5
71D
  8
LAYER_1
 10
20.68843022824895
 20
6.840984638960193
 30
0.0
  0
VERTEX
  5
71E
  8
LAYER_1
 10
20.68264357426606
 20
6.738794218040868
 30
0.0
  0
VERTEX
  5
71F
  8
LAYER_1
 10
20.67739478235209
 20
6.637089390462766
 30
0.0
  0
VERTEX
  5
720
  8
LAYER_1
 10
20.67327566939165
 20
6.548657447544723
 30
0.0
  0
VERTEX
  5
721
  8
LAYER_1
 10
20.67028623538476
 20
6.47349838928674
 30
0.0
  0
VERTEX
  5
722
  8
LAYER_1
 10
20.6684264803314
 20
6.411612215688818
 30
0.0
  0
VERTEX
  5
723
  8
LAYER_1
 10
20.62091336380724
 20
6.403168287033129
 30
0.0
  0
VERTEX
  5
724
  8
LAYER_1
 10
20.57766436381069
 20
6.395965319138341
 30
0.0
  0
VERTEX
  5
725
  8
LAYER_1
 10
20.53867948034173
 20
6.390003312004453
 30
0.0
  0
VERTEX
  5
726
  8
LAYER_1
 10
20.50395871340039
 20
6.385282265631463
 30
0.0
  0
VERTEX
  5
727
  8
LAYER_1
 10
20.46972396132226
 20
6.381289609270306
 30
0.0
  0
VERTEX
  5
728
  8
LAYER_1
 10
20.43219712244297
 20
6.377512772171915
 30
0.0
  0
VERTEX
  5
729
  8
LAYER_1
 10
20.39137819676251
 20
6.373951754336289
 30
0.0
  0
VERTEX
  5
72A
  8
LAYER_1
 10
20.34726718428089
 20
6.370606555763429
 30
0.0
  0
VERTEX
  5
72B
  8
LAYER_1
 10
20.30275151068158
 20
6.367773927939636
 30
0.0
  0
VERTEX
  5
72C
  8
LAYER_1
 10
20.26071860164807
 20
6.365750622351212
 30
0.0
  0
VERTEX
  5
72D
  8
LAYER_1
 10
20.22116845718035
 20
6.364536638998158
 30
0.0
  0
VERTEX
  5
72E
  8
LAYER_1
 10
20.18410107727843
 20
6.364131977880472
 30
0.0
  0
VERTEX
  5
72F
  8
LAYER_1
 10
20.15481383426649
 20
6.364428729366774
 30
0.0
  0
VERTEX
  5
730
  8
LAYER_1
 10
20.12566168905479
 20
6.365318983825682
 30
0.0
  0
VERTEX
  5
731
  8
LAYER_1
 10
20.09664464164331
 20
6.366802741257192
 30
0.0
  0
VERTEX
  5
732
  8
LAYER_1
 10
20.06776269203205
 20
6.368880001661307
 30
0.0
  0
VERTEX
  5
733
  8
LAYER_1
 10
20.03901584022103
 20
6.371550765038027
 30
0.0
  0
VERTEX
  5
734
  8
LAYER_1
 10
20.01040408621023
 20
6.37481503138735
 30
0.0
  0
VERTEX
  5
735
  8
LAYER_1
 10
19.98192742999965
 20
6.378672800709278
 30
0.0
  0
VERTEX
  5
736
  8
LAYER_1
 10
19.95358587158931
 20
6.383124073003811
 30
0.0
  0
VERTEX
  5
737
  8
LAYER_1
 10
19.92568280143695
 20
6.388236291790562
 30
0.0
  0
VERTEX
  5
738
  8
LAYER_1
 10
19.89852161000035
 20
6.394076900589145
 30
0.0
  0
VERTEX
  5
739
  8
LAYER_1
 10
19.87210229727951
 20
6.400645899399561
 30
0.0
  0
VERTEX
  5
73A
  8
LAYER_1
 10
19.84642486327442
 20
6.407943288221809
 30
0.0
  0
VERTEX
  5
73B
  8
LAYER_1
 10
19.82148930798509
 20
6.41596906705589
 30
0.0
  0
VERTEX
  5
73C
  8
LAYER_1
 10
19.79729563141151
 20
6.424723235901804
 30
0.0
  0
VERTEX
  5
73D
  8
LAYER_1
 10
19.77384383355369
 20
6.43420579475955
 30
0.0
  0
VERTEX
  5
73E
  8
LAYER_1
 10
19.75113391441162
 20
6.444416743629128
 30
0.0
  0
VERTEX
  5
73F
  8
LAYER_1
 10
19.74008076459086
 20
6.4498223417262
 30
0.0
  0
VERTEX
  5
740
  8
LAYER_1
 10
19.72926029491277
 20
6.455463992141922
 30
0.0
  0
VERTEX
  5
741
  8
LAYER_1
 10
19.71867250537735
 20
6.461341694876294
 30
0.0
  0
VERTEX
  5
742
  8
LAYER_1
 10
19.70831739598459
 20
6.467455449929314
 30
0.0
  0
VERTEX
  5
743
  8
LAYER_1
 10
19.69819496673451
 20
6.473805257300985
 30
0.0
  0
VERTEX
  5
744
  8
LAYER_1
 10
19.68830521762709
 20
6.480391116991304
 30
0.0
  0
VERTEX
  5
745
  8
LAYER_1
 10
19.67864814866234
 20
6.487213029000273
 30
0.0
  0
VERTEX
  5
746
  8
LAYER_1
 10
19.66922375984026
 20
6.494270993327891
 30
0.0
  0
VERTEX
  5
747
  8
LAYER_1
 10
19.66003205116085
 20
6.50156500997416
 30
0.0
  0
VERTEX
  5
748
  8
LAYER_1
 10
19.65107302262411
 20
6.509095078939076
 30
0.0
  0
VERTEX
  5
749
  8
LAYER_1
 10
19.64234667423004
 20
6.516861200222643
 30
0.0
  0
VERTEX
  5
74A
  8
LAYER_1
 10
19.63385300597864
 20
6.524863373824859
 30
0.0
  0
VERTEX
  5
74B
  8
LAYER_1
 10
19.6255920178699
 20
6.533101599745724
 30
0.0
  0
VERTEX
  5
74C
  8
LAYER_1
 10
19.61756370990384
 20
6.541575877985239
 30
0.0
  0
VERTEX
  5
74D
  8
LAYER_1
 10
19.60976808208044
 20
6.550286208543405
 30
0.0
  0
VERTEX
  5
74E
  8
LAYER_1
 10
19.60220513439971
 20
6.559232591420217
 30
0.0
  0
VERTEX
  5
74F
  8
LAYER_1
 10
19.58773691873499
 20
6.577779559314102
 30
0.0
  0
VERTEX
  5
750
  8
LAYER_1
 10
19.5741187021784
 20
6.597162826851203
 30
0.0
  0
VERTEX
  5
751
  8
LAYER_1
 10
19.56135048472996
 20
6.617382394031518
 30
0.0
  0
VERTEX
  5
752
  8
LAYER_1
 10
19.54943226638964
 20
6.638438260855049
 30
0.0
  0
VERTEX
  5
753
  8
LAYER_1
 10
19.53836404715747
 20
6.660330427321794
 30
0.0
  0
VERTEX
  5
754
  8
LAYER_1
 10
19.52814582703343
 20
6.683058893431754
 30
0.0
  0
VERTEX
  5
755
  8
LAYER_1
 10
19.51877760601753
 20
6.706623659184929
 30
0.0
  0
VERTEX
  5
756
  8
LAYER_1
 10
19.51025938410977
 20
6.731024724581321
 30
0.0
  0
VERTEX
  5
757
  8
LAYER_1
 10
19.50267198815318
 20
6.755951849430702
 30
0.0
  0
VERTEX
  5
758
  8
LAYER_1
 10
19.4960962449908
 20
6.781094793542849
 30
0.0
  0
VERTEX
  5
759
  8
LAYER_1
 10
19.49053215462264
 20
6.80645355691776
 30
0.0
  0
VERTEX
  5
75A
  8
LAYER_1
 10
19.48597971704869
 20
6.832028139555437
 30
0.0
  0
VERTEX
  5
75B
  8
LAYER_1
 10
19.48243893226894
 20
6.857818541455879
 30
0.0
  0
VERTEX
  5
75C
  8
LAYER_1
 10
19.47990980028341
 20
6.883824762619086
 30
0.0
  0
VERTEX
  5
75D
  8
LAYER_1
 10
19.47839232109209
 20
6.910046803045058
 30
0.0
  0
VERTEX
  5
75E
  8
LAYER_1
 10
19.47788649469499
 20
6.936484662733796
 30
0.0
  0
VERTEX
  5
75F
  8
LAYER_1
 10
19.47822708446904
 20
6.958292524801024
 30
0.0
  0
VERTEX
  5
760
  8
LAYER_1
 10
19.47924885379119
 20
6.97990480066137
 30
0.0
  0
VERTEX
  5
761
  8
LAYER_1
 10
19.48095180266145
 20
7.001321490314837
 30
0.0
  0
VERTEX
  5
762
  8
LAYER_1
 10
19.48333593107981
 20
7.022542593761422
 30
0.0
  0
VERTEX
  5
763
  8
LAYER_1
 10
19.48640123904627
 20
7.043568111001125
 30
0.0
  0
VERTEX
  5
764
  8
LAYER_1
 10
19.49014772656084
 20
7.064398042033948
 30
0.0
  0
VERTEX
  5
765
  8
LAYER_1
 10
19.49457539362351
 20
7.08503238685989
 30
0.0
  0
VERTEX
  5
766
  8
LAYER_1
 10
19.49968424023427
 20
7.105471145478951
 30
0.0
  0
VERTEX
  5
767
  8
LAYER_1
 10
19.50547426639315
 20
7.125714317891132
 30
0.0
  0
VERTEX
  5
768
  8
LAYER_1
 10
19.51194547210012
 20
7.145761904096431
 30
0.0
  0
VERTEX
  5
769
  8
LAYER_1
 10
19.5190978573552
 20
7.165613904094849
 30
0.0
  0
VERTEX
  5
76A
  8
LAYER_1
 10
19.52693142215838
 20
7.185270317886387
 30
0.0
  0
VERTEX
  5
76B
  8
LAYER_1
 10
19.53544616650967
 20
7.204731145471044
 30
0.0
  0
VERTEX
  5
76C
  8
LAYER_1
 10
19.54464209040906
 20
7.223996386848818
 30
0.0
  0
VERTEX
  5
76D
  8
LAYER_1
 10
19.55451919385654
 20
7.243066042019713
 30
0.0
  0
VERTEX
  5
76E
  8
LAYER_1
 10
19.56507747685213
 20
7.261940110983725
 30
0.0
  0
VERTEX
  5
76F
  8
LAYER_1
 10
19.57627478719607
 20
7.280471904085696
 30
0.0
  0
VERTEX
  5
770
  8
LAYER_1
 10
19.58806897268859
 20
7.298514731670465
 30
0.0
  0
VERTEX
  5
771
  8
LAYER_1
 10
19.60046003332969
 20
7.316068593738033
 30
0.0
  0
VERTEX
  5
772
  8
LAYER_1
 10
19.61344796911938
 20
7.333133490288397
 30
0.0
  0
VERTEX
  5
773
  8
LAYER_1
 10
19.62703278005766
 20
7.349709421321559
 30
0.0
  0
VERTEX
  5
774
  8
LAYER_1
 10
19.64121446614452
 20
7.365796386837518
 30
0.0
  0
VERTEX
  5
775
  8
LAYER_1
 10
19.65599302737997
 20
7.381394386836275
 30
0.0
  0
VERTEX
  5
776
  8
LAYER_1
 10
19.671368463764
 20
7.39650342131783
 30
0.0
  0
VERTEX
  5
777
  8
LAYER_1
 10
19.68734077529661
 20
7.411123490282182
 30
0.0
  0
VERTEX
  5
778
  8
LAYER_1
 10
19.70390996197781
 20
7.425254593729332
 30
0.0
  0
VERTEX
  5
779
  8
LAYER_1
 10
19.7210760238076
 20
7.43889673165928
 30
0.0
  0
VERTEX
  5
77A
  8
LAYER_1
 10
19.73883896078597
 20
7.452049904072025
 30
0.0
  0
VERTEX
  5
77B
  8
LAYER_1
 10
19.75719877291293
 20
7.464714110967567
 30
0.0
  0
VERTEX
  5
77C
  8
LAYER_1
 10
19.77615546018846
 20
7.476889352345908
 30
0.0
  0
VERTEX
  5
77D
  8
LAYER_1
 10
19.79570902261259
 20
7.488575628207045
 30
0.0
  0
VERTEX
  5
77E
  8
LAYER_1
 10
19.8158594601853
 20
7.499772938550981
 30
0.0
  0
VERTEX
  5
77F
  8
LAYER_1
 10
19.83668096077817
 20
7.510383490274274
 30
0.0
  0
VERTEX
  5
780
  8
LAYER_1
 10
19.85824771226278
 20
7.520309490273483
 30
0.0
  0
VERTEX
  5
781
  8
LAYER_1
 10
19.88055971463913
 20
7.529550938548608
 30
0.0
  0
VERTEX
  5
782
  8
LAYER_1
 10
19.9036169679072
 20
7.538107835099651
 30
0.0
  0
VERTEX
  5
783
  8
LAYER_1
 10
19.92741947206702
 20
7.545980179926609
 30
0.0
  0
VERTEX
  5
784
  8
LAYER_1
 10
19.95196722711857
 20
7.553167973029485
 30
0.0
  0
VERTEX
  5
785
  8
LAYER_1
 10
19.97726023306186
 20
7.559671214408277
 30
0.0
  0
VERTEX
  5
786
  8
LAYER_1
 10
20.00329848989688
 20
7.565489904062986
 30
0.0
  0
VERTEX
  5
787
  8
LAYER_1
 10
20.03008199762365
 20
7.570624041993611
 30
0.0
  0
VERTEX
  5
788
  8
LAYER_1
 10
20.05761075624214
 20
7.575073628200153
 30
0.0
  0
VERTEX
  5
789
  8
LAYER_1
 10
20.08588476575237
 20
7.578838662682611
 30
0.0
  0
VERTEX
  5
78A
  8
LAYER_1
 10
20.11490402615434
 20
7.581919145440986
 30
0.0
  0
VERTEX
  5
78B
  8
LAYER_1
 10
20.14466853744805
 20
7.584315076475278
 30
0.0
  0
VERTEX
  5
78C
  8
LAYER_1
 10
20.17517829963349
 20
7.586026455785487
 30
0.0
  0
VERTEX
  5
78D
  8
LAYER_1
 10
20.20643331271066
 20
7.587053283371612
 30
0.0
  0
VERTEX
  5
78E
  8
LAYER_1
 10
20.23843357667957
 20
7.587395559233654
 30
0.0
  0
VERTEX
  5
78F
  8
LAYER_1
 10
20.26222427822345
 20
7.587216833906677
 30
0.0
  0
VERTEX
  5
790
  8
LAYER_1
 10
20.28633196430953
 20
7.586680657925744
 30
0.0
  0
VERTEX
  5
791
  8
LAYER_1
 10
20.31075663493778
 20
7.585787031290858
 30
0.0
  0
VERTEX
  5
792
  8
LAYER_1
 10
20.33549829010822
 20
7.584535954002016
 30
0.0
  0
VERTEX
  5
793
  8
LAYER_1
 10
20.36055692982085
 20
7.582927426059219
 30
0.0
  0
VERTEX
  5
794
  8
LAYER_1
 10
20.38593255407567
 20
7.580961447462466
 30
0.0
  0
VERTEX
  5
795
  8
LAYER_1
 10
20.41162516287267
 20
7.57863801821176
 30
0.0
  0
VERTEX
  5
796
  8
LAYER_1
 10
20.43763475621186
 20
7.575957138307098
 30
0.0
  0
VERTEX
  5
797
  8
LAYER_1
 10
20.46396133409323
 20
7.572918807748482
 30
0.0
  0
VERTEX
  5
798
  8
LAYER_1
 10
20.49060489651679
 20
7.569523026535911
 30
0.0
  0
VERTEX
  5
799
  8
LAYER_1
 10
20.51756544348254
 20
7.565769794669385
 30
0.0
  0
VERTEX
  5
79A
  8
LAYER_1
 10
20.54484297499047
 20
7.561659112148904
 30
0.0
  0
VERTEX
  5
79B
  8
LAYER_1
 10
20.57243749104059
 20
7.557190978974468
 30
0.0
  0
VERTEX
  5
79C
  8
LAYER_1
 10
20.6003489916329
 20
7.552365395146078
 30
0.0
  0
VERTEX
  5
79D
  8
LAYER_1
 10
20.65712294644407
 20
7.541641875527431
 30
0.0
  0
VERTEX
  5
79E
  8
LAYER_1
 10
20.65729829959507
 20
7.509687135934257
 30
0.0
  0
VERTEX
  5
79F
  8
LAYER_1
 10
20.65782435904806
 20
7.476842141882178
 30
0.0
  0
VERTEX
  5
7A0
  8
LAYER_1
 10
20.65870112480304
 20
7.443106893371192
 30
0.0
  0
VERTEX
  5
7A1
  8
LAYER_1
 10
20.65992859686002
 20
7.4084813904013
 30
0.0
  0
VERTEX
  5
7A2
  8
LAYER_1
 10
20.66150677521899
 20
7.3729656329725
 30
0.0
  0
VERTEX
  5
7A3
  8
LAYER_1
 10
20.66343565987995
 20
7.336559621084795
 30
0.0
  0
VERTEX
  5
7A4
  8
LAYER_1
 10
20.66834554810786
 20
7.261076833932664
 30
0.0
  0
VERTEX
  5
7A5
  8
LAYER_1
 10
20.61212463015752
 20
7.279313561636323
 30
0.0
  0
VERTEX
  5
7A6
  8
LAYER_1
 10
20.58846544347689
 20
7.286570484346804
 30
0.0
  0
VERTEX
  5
7A7
  8
LAYER_1
 10
20.56777377165928
 20
7.292586446296385
 30
0.0
  0
VERTEX
  5
7A8
  8
LAYER_1
 10
20.54775653503781
 20
7.297874018234133
 30
0.0
  0
VERTEX
  5
7A9
  8
LAYER_1
 10
20.52612065394559
 20
7.302945770909115
 30
0.0
  0
VERTEX
  5
7AA
  8
LAYER_1
 10
20.50286612838264
 20
7.307801704321331
 30
0.0
  0
VERTEX
  5
7AB
  8
LAYER_1
 10
20.47799295834895
 20
7.312441818470783
 30
0.0
  0
VERTEX
  5
7AC
  8
LAYER_1
 10
20.45263419497404
 20
7.316677271502551
 30
0.0
  0
VERTEX
  5
7AD
  8
LAYER_1
 10
20.42792288938742
 20
7.320319221561713
 30
0.0
  0
VERTEX
  5
7AE
  8
LAYER_1
 10
20.4038590415891
 20
7.323367668648272
 30
0.0
  0
VERTEX
  5
7AF
  8
LAYER_1
 10
20.38044265157908
 20
7.325822612762226
 30
0.0
  0
VERTEX
  5
7B0
  8
LAYER_1
 10
20.35797047084365
 20
7.327711031311422
 30
0.0
  0
VERTEX
  5
7B1
  8
LAYER_1
 10
20.33673925086912
 20
7.329059901703705
 30
0.0
  0
VERTEX
  5
7B2
  8
LAYER_1
 10
20.31674899165549
 20
7.329869223939073
 30
0.0
  0
VERTEX
  5
7B3
  8
LAYER_1
 10
20.29799969320277
 20
7.33013899801753
 30
0.0
  0
VERTEX
  5
7B4
  8
LAYER_1
 10
20.27442143874567
 20
7.329714103843961
 30
0.0
  0
VERTEX
  5
7B5
  8
LAYER_1
 10
20.25116691318271
 20
7.328439421323253
 30
0.0
  0
VERTEX
  5
7B6
  8
LAYER_1
 10
20.22823611651391
 20
7.326314950455409
 30
0.0
  0
VERTEX
  5
7B7
  8
LAYER_1
 10
20.20562904873926
 20
7.323340691240426
 30
0.0
  0
VERTEX
  5
7B8
  8
LAYER_1
 10
20.18334570985876
 20
7.319516643678305
 30
0.0
  0
VERTEX
  5
7B9
  8
LAYER_1
 10
20.1613860998724
 20
7.314842807769045
 30
0.0
  0
VERTEX
  5
7BA
  8
LAYER_1
 10
20.13975021878018
 20
7.309319183512649
 30
0.0
  0
VERTEX
  5
7BB
  8
LAYER_1
 10
20.11843806658212
 20
7.302945770909115
 30
0.0
  0
VERTEX
  5
7BC
  8
LAYER_1
 10
20.09765871818901
 20
7.295688848198634
 30
0.0
  0
VERTEX
  5
7BD
  8
LAYER_1
 10
20.07762124851165
 20
7.287514693621402
 30
0.0
  0
VERTEX
  5
7BE
  8
LAYER_1
 10
20.05832565755005
 20
7.278423307177418
 30
0.0
  0
VERTEX
  5
7BF
  8
LAYER_1
 10
20.0397719453042
 20
7.268414688866681
 30
0.0
  0
VERTEX
  5
7C0
  8
LAYER_1
 10
20.02196011177411
 20
7.257488838689192
 30
0.0
  0
VERTEX
  5
7C1
  8
LAYER_1
 10
20.00489015695977
 20
7.245645756644952
 30
0.0
  0
VERTEX
  5
7C2
  8
LAYER_1
 10
19.9885620808612
 20
7.232885442733959
 30
0.0
  0
VERTEX
  5
7C3
  8
LAYER_1
 10
19.97297588347837
 20
7.219207896956215
 30
0.0
  0
VERTEX
  5
7C4
  8
LAYER_1
 10
19.95823947444268
 20
7.204727773295062
 30
0.0
  0
VERTEX
  5
7C5
  8
LAYER_1
 10
19.94446076338551
 20
7.189559725733845
 30
0.0
  0
VERTEX
  5
7C6
  8
LAYER_1
 10
19.93163975030687
 20
7.173703754272564
 30
0.0
  0
VERTEX
  5
7C7
  8
LAYER_1
 10
19.91977643520675
 20
7.15715985891122
 30
0.0
  0
VERTEX
  5
7C8
  8
LAYER_1
 10
19.90887081808514
 20
7.13992803964981
 30
0.0
  0
VERTEX
  5
7C9
  8
LAYER_1
 10
19.89892289894206
 20
7.122008296488337
 30
0.0
  0
VERTEX
  5
7CA
  8
LAYER_1
 10
19.8899326777775
 20
7.103400629426799
 30
0.0
  0
VERTEX
  5
7CB
  8
LAYER_1
 10
19.88190015459145
 20
7.084105038465196
 30
0.0
  0
VERTEX
  5
7CC
  8
LAYER_1
 10
19.87481858503197
 20
7.064330598514334
 30
0.0
  0
VERTEX
  5
7CD
  8
LAYER_1
 10
19.86868122474709
 20
7.044286384485016
 30
0.0
  0
VERTEX
  5
7CE
  8
LAYER_1
 10
19.8634880737368
 20
7.023972396377241
 30
0.0
  0
VERTEX
  5
7CF
  8
LAYER_1
 10
19.85923913200111
 20
7.00338863419101
 30
0.0
  0
VERTEX
  5
7D0
  8
LAYER_1
 10
19.85593439954002
 20
6.982535097926322
 30
0.0
  0
VERTEX
  5
7D1
  8
LAYER_1
 10
19.85357387635352
 20
6.961411787583177
 30
0.0
  0
VERTEX
  5
7D2
  8
LAYER_1
 10
19.85215756244163
 20
6.940018703161576
 30
0.0
  0
VERTEX
  5
7D3
  8
LAYER_1
 10
19.85168545780433
 20
6.918355844661519
 30
0.0
  0
VERTEX
  5
7D4
  8
LAYER_1
 10
19.85222500596124
 20
6.896429956434966
 30
0.0
  0
VERTEX
  5
7D5
  8
LAYER_1
 10
19.85384365043198
 20
6.875111059884941
 30
0.0
  0
VERTEX
  5
7D6
  8
LAYER_1
 10
19.85654139121655
 20
6.854399155011443
 30
0.0
  0
VERTEX
  5
7D7
  8
LAYER_1
 10
19.86031822831493
 20
6.834294241814471
 30
0.0
  0
VERTEX
  5
7D8
  8
LAYER_1
 10
19.86517416172715
 20
6.814796320294027
 30
0.0
  0
VERTEX
  5
7D9
  8
LAYER_1
 10
19.86800678955095
 20
6.805274981412503
 30
0.0
  0
VERTEX
  5
7DA
  8
LAYER_1
 10
19.87110919145319
 20
6.795905390450111
 30
0.0
  0
VERTEX
  5
7DB
  8
LAYER_1
 10
19.8744813674339
 20
6.78668754740685
 30
0.0
  0
VERTEX
  5
7DC
  8
LAYER_1
 10
19.87812331749306
 20
6.777621452282721
 30
0.0
  0
VERTEX
  5
7DD
  8
LAYER_1
 10
19.88203504163068
 20
6.768707105077724
 30
0.0
  0
VERTEX
  5
7DE
  8
LAYER_1
 10
19.88621653984676
 20
6.759944505791858
 30
0.0
  0
VERTEX
  5
7DF
  8
LAYER_1
 10
19.89069141737315
 20
6.751387609240816
 30
0.0
  0
VERTEX
  5
7E0
  8
LAYER_1
 10
19.89548327944173
 20
6.743090370240289
 30
0.0
  0
VERTEX
  5
7E1
  8
LAYER_1
 10
19.9005921260525
 20
6.735052788790274
 30
0.0
  0
VERTEX
  5
7E2
  8
LAYER_1
 10
19.90601795720546
 20
6.727274864890775
 30
0.0
  0
VERTEX
  5
7E3
  8
LAYER_1
 10
19.91176077290061
 20
6.719756598541791
 30
0.0
  0
VERTEX
  5
7E4
  8
LAYER_1
 10
19.91782057313793
 20
6.712497989743321
 30
0.0
  0
VERTEX
  5
7E5
  8
LAYER_1
 10
19.92419735791745
 20
6.705499038495364
 30
0.0
  0
VERTEX
  5
7E6
  8
LAYER_1
 10
19.93089112723915
 20
6.698759744797923
 30
0.0
  0
VERTEX
  5
7E7
  8
LAYER_1
 10
19.93790188110304
 20
6.692280108650995
 30
0.0
  0
VERTEX
  5
7E8
  8
LAYER_1
 10
19.94522961950912
 20
6.686060130054583
 30
0.0
  0
VERTEX
  5
7E9
  8
LAYER_1
 10
19.95287434245738
 20
6.680099809008684
 30
0.0
  0
VERTEX
  5
7EA
  8
LAYER_1
 10
19.96083604994783
 20
6.6743991455133
 30
0.0
  0
VERTEX
  5
7EB
  8
LAYER_1
 10
19.96911474198046
 20
6.66895813956843
 30
0.0
  0
VERTEX
  5
7EC
  8
LAYER_1
 10
19.97771041855528
 20
6.663776791174075
 30
0.0
  0
VERTEX
  5
7ED
  8
LAYER_1
 10
19.98662307967229
 20
6.658855100330234
 30
0.0
  0
VERTEX
  5
7EE
  8
LAYER_1
 10
19.99585272533148
 20
6.654193067036908
 30
0.0
  0
VERTEX
  5
7EF
  8
LAYER_1
 10
20.00530830678138
 20
6.649802493910029
 30
0.0
  0
VERTEX
  5
7F0
  8
LAYER_1
 10
20.01489877527051
 20
6.645695183565528
 30
0.0
  0
VERTEX
  5
7F1
  8
LAYER_1
 10
20.02462413079887
 20
6.641871136003408
 30
0.0
  0
VERTEX
  5
7F2
  8
LAYER_1
 10
20.03448437336646
 20
6.638330351223665
 30
0.0
  0
VERTEX
  5
7F3
  8
LAYER_1
 10
20.04447950297327
 20
6.635072829226303
 30
0.0
  0
VERTEX
  5
7F4
  8
LAYER_1
 10
20.05460951961931
 20
6.63209857001132
 30
0.0
  0
VERTEX
  5
7F5
  8
LAYER_1
 10
20.06487442330458
 20
6.629407573578717
 30
0.0
  0
VERTEX
  5
7F6
  8
LAYER_1
 10
20.07527421402908
 20
6.626999839928492
 30
0.0
  0
VERTEX
  5
7F7
  8
LAYER_1
 10
20.08580889179281
 20
6.624875369060647
 30
0.0
  0
VERTEX
  5
7F8
  8
LAYER_1
 10
20.09647845659576
 20
6.623034160975181
 30
0.0
  0
VERTEX
  5
7F9
  8
LAYER_1
 10
20.11822224731936
 20
6.620201533151389
 30
0.0
  0
VERTEX
  5
7FA
  8
LAYER_1
 10
20.14050558619986
 20
6.618501956457113
 30
0.0
  0
VERTEX
  5
7FB
  8
LAYER_1
 10
20.16332847323728
 20
6.617935430892354
 30
0.0
  0
VERTEX
  5
7FC
  8
LAYER_1
 10
20.18276569559007
 20
6.618286137194348
 30
0.0
  0
VERTEX
  5
7FD
  8
LAYER_1
 10
20.20266153387624
 20
6.619338256100328
 30
0.0
  0
VERTEX
  5
7FE
  8
LAYER_1
 10
20.22301598809578
 20
6.621091787610296
 30
0.0
  0
VERTEX
  5
7FF
  8
LAYER_1
 10
20.2438290582487
 20
6.623546731724249
 30
0.0
  0
VERTEX
  5
800
  8
LAYER_1
 10
20.26510074433499
 20
6.62670308844219
 30
0.0
  0
VERTEX
  5
801
  8
LAYER_1
 10
20.28683104635467
 20
6.630560857764118
 30
0.0
  0
VERTEX
  5
802
  8
LAYER_1
 10
20.30901996430772
 20
6.635120039690033
 30
0.0
  0
VERTEX
  5
803
  8
LAYER_1
 10
20.33166749819414
 20
6.640380634219935
 30
0.0
  0
VERTEX
  5
804
  8
LAYER_1
 10
20.3415142520578
 20
6.827711754300132
 30
0.0
  0
VERTEX
  5
805
  8
LAYER_1
 10
20.29674187156197
 20
6.82965412766502
 30
0.0
  0
VERTEX
  5
806
  8
LAYER_1
 10
20.27489354338297
 20
6.830301585453316
 30
0.0
  0
VERTEX
  5
807
  8
LAYER_1
 10
20.18318384541168
 20
6.829438308402255
 30
0.0
  0
VERTEX
  5
808
  8
LAYER_1
 10
20.1892267847691
 20
6.935621385682736
 30
0.0
  0
VERTEX
  5
809
  8
LAYER_1
 10
20.19181661592229
 20
6.985259816118733
 30
0.0
  0
VERTEX
  5
80A
  8
LAYER_1
 10
20.19257198334197
 20
7.002930018257635
 30
0.0
  0
VERTEX
  5
80B
  8
LAYER_1
 10
20.19311153149888
 20
7.023567735259556
 30
0.0
  0
SEQEND
  5
C38
  8
LAYER_1
  0
POLYLINE
  5
83
  8
LAYER_1
 66
     1
 10
0.0
 20
0.0
 30
0.0
 70
     1
  0
VERTEX
  5
80C
  8
LAYER_1
 10
10.78852979625524
 20
8.858702097039123
 30
0.0
  0
VERTEX
  5
80D
  8
LAYER_1
 10
10.78362977813612
 20
8.833626269475477
 30
0.0
  0
VERTEX
  5
80E
  8
LAYER_1
 10
10.77824460970818
 20
8.80405143084485
 30
0.0
  0
VERTEX
  5
80F
  8
LAYER_1
 10
10.76601882192582
 20
8.73140472038265
 30
0.0
  0
VERTEX
  5
810
  8
LAYER_1
 10
10.75995444306552
 20
8.692879616601585
 30
0.0
  0
VERTEX
  5
811
  8
LAYER_1
 10
10.75495739488464
 20
8.658949037854551
 30
0.0
  0
VERTEX
  5
812
  8
LAYER_1
 10
10.75102767738317
 20
8.629612984141549
 30
0.0
  0
VERTEX
  5
813
  8
LAYER_1
 10
10.74816529056111
 20
8.604871455462577
 30
0.0
  0
VERTEX
  5
814
  8
LAYER_1
 10
10.70719434698095
 20
8.599049651756694
 30
0.0
  0
VERTEX
  5
815
  8
LAYER_1
 10
10.66733924911109
 20
8.594004088544928
 30
0.0
  0
VERTEX
  5
816
  8
LAYER_1
 10
10.62859999695152
 20
8.589734765827277
 30
0.0
  0
VERTEX
  5
817
  8
LAYER_1
 10
10.59097659050224
 20
8.586241683603749
 30
0.0
  0
VERTEX
  5
818
  8
LAYER_1
 10
10.55446902976326
 20
8.583524841874336
 30
0.0
  0
VERTEX
  5
819
  8
LAYER_1
 10
10.51907731473457
 20
8.581584240639042
 30
0.0
  0
VERTEX
  5
81A
  8
LAYER_1
 10
10.48480144541618
 20
8.580419879897866
 30
0.0
  0
VERTEX
  5
81B
  8
LAYER_1
 10
10.45164142180808
 20
8.580031759650806
 30
0.0
  0
VERTEX
  5
81C
  8
LAYER_1
 10
10.42047657884502
 20
8.58052297433849
 30
0.0
  0
VERTEX
  5
81D
  8
LAYER_1
 10
10.38985752997939
 20
8.581996618401542
 30
0.0
  0
VERTEX
  5
81E
  8
LAYER_1
 10
10.35978427521118
 20
8.584452691839962
 30
0.0
  0
VERTEX
  5
81F
  8
LAYER_1
 10
10.3302568145404
 20
8.58789119465375
 30
0.0
  0
VERTEX
  5
820
  8
LAYER_1
 10
10.30127514796705
 20
8.592312126842906
 30
0.0
  0
VERTEX
  5
821
  8
LAYER_1
 10
10.27283927549112
 20
8.597715488407427
 30
0.0
  0
VERTEX
  5
822
  8
LAYER_1
 10
10.24494919711262
 20
8.60410127934732
 30
0.0
  0
VERTEX
  5
823
  8
LAYER_1
 10
10.21760491283154
 20
8.61146949966258
 30
0.0
  0
VERTEX
  5
824
  8
LAYER_1
 10
10.20413895957225
 20
8.615556891014421
 30
0.0
  0
VERTEX
  5
825
  8
LAYER_1
 10
10.19081248702676
 20
8.619959630066994
 30
0.0
  0
VERTEX
  5
826
  8
LAYER_1
 10
10.17762549519504
 20
8.624677716820305
 30
0.0
  0
VERTEX
  5
827
  8
LAYER_1
 10
10.16457798407712
 20
8.629711151274348
 30
0.0
  0
VERTEX
  5
828
  8
LAYER_1
 10
10.15166995367298
 20
8.63505993342913
 30
0.0
  0
VERTEX
  5
829
  8
LAYER_1
 10
10.13890140398262
 20
8.640724063284646
 30
0.0
  0
VERTEX
  5
82A
  8
LAYER_1
 10
10.12627233500606
 20
8.646703540840898
 30
0.0
  0
VERTEX
  5
82B
  8
LAYER_1
 10
10.11378274674328
 20
8.652998366097885
 30
0.0
  0
VERTEX
  5
82C
  8
LAYER_1
 10
10.10143263919428
 20
8.65960853905561
 30
0.0
  0
VERTEX
  5
82D
  8
LAYER_1
 10
10.08922201235908
 20
8.666534059714067
 30
0.0
  0
VERTEX
  5
82E
  8
LAYER_1
 10
10.07715086623766
 20
8.67377492807326
 30
0.0
  0
VERTEX
  5
82F
  8
LAYER_1
 10
10.06521920083003
 20
8.681331144133187
 30
0.0
  0
VERTEX
  5
830
  8
LAYER_1
 10
10.05342701613618
 20
8.689202707893852
 30
0.0
  0
VERTEX
  5
831
  8
LAYER_1
 10
10.04177431215613
 20
8.697389619355253
 30
0.0
  0
VERTEX
  5
832
  8
LAYER_1
 10
10.03026108888985
 20
8.705891878517388
 30
0.0
  0
VERTEX
  5
833
  8
LAYER_1
 10
10.01888734633737
 20
8.714709485380256
 30
0.0
  0
VERTEX
  5
834
  8
LAYER_1
 10
10.00778498473888
 20
8.723783312249974
 30
0.0
  0
VERTEX
  5
835
  8
LAYER_1
 10
9.997085904334604
 20
8.733054231432652
 30
0.0
  0
VERTEX
  5
836
  8
LAYER_1
 10
9.986790105124538
 20
8.74252224292829
 30
0.0
  0
VERTEX
  5
837
  8
LAYER_1
 10
9.97689758710868
 20
8.752187346736886
 30
0.0
  0
VERTEX
  5
838
  8
LAYER_1
 10
9.96740835028703
 20
8.762049542858444
 30
0.0
  0
VERTEX
  5
839
  8
LAYER_1
 10
9.958322394659593
 20
8.77210883129296
 30
0.0
  0
VERTEX
  5
83A
  8
LAYER_1
 10
9.949639720226365
 20
8.782365212040435
 30
0.0
  0
VERTEX
  5
83B
  8
LAYER_1
 10
9.941360326987345
 20
8.792818685100869
 30
0.0
  0
VERTEX
  5
83C
  8
LAYER_1
 10
9.933484214942535
 20
8.803469250474265
 30
0.0
  0
VERTEX
  5
83D
  8
LAYER_1
 10
9.926011384091936
 20
8.814316908160619
 30
0.0
  0
VERTEX
  5
83E
  8
LAYER_1
 10
9.918941834435547
 20
8.825361658159933
 30
0.0
  0
VERTEX
  5
83F
  8
LAYER_1
 10
9.912275565973367
 20
8.836603500472204
 30
0.0
  0
VERTEX
  5
840
  8
LAYER_1
 10
9.906012578705397
 20
8.848042435097438
 30
0.0
  0
VERTEX
  5
841
  8
LAYER_1
 10
9.900152872631633
 20
8.85967846203563
 30
0.0
  0
VERTEX
  5
842
  8
LAYER_1
 10
9.894696447752082
 20
8.871511581286782
 30
0.0
  0
VERTEX
  5
843
  8
LAYER_1
 10
9.889643304066741
 20
8.883541792850894
 30
0.0
  0
VERTEX
  5
844
  8
LAYER_1
 10
9.884943410450012
 20
8.895761516254389
 30
0.0
  0
VERTEX
  5
845
  8
LAYER_1
 10
9.8805467357763
 20
8.908163171023695
 30
0.0
  0
VERTEX
  5
846
  8
LAYER_1
 10
9.876453280045599
 20
8.920746757158808
 30
0.0
  0
VERTEX
  5
847
  8
LAYER_1
 10
9.872663043257914
 20
8.93351227465973
 30
0.0
  0
VERTEX
  5
848
  8
LAYER_1
 10
9.869176025413243
 20
8.94645972352646
 30
0.0
  0
VERTEX
  5
849
  8
LAYER_1
 10
9.86599222651159
 20
8.959589103759
 30
0.0
  0
VERTEX
  5
84A
  8
LAYER_1
 10
9.863111646552948
 20
8.972900415357351
 30
0.0
  0
VERTEX
  5
84B
  8
LAYER_1
 10
9.860534285537323
 20
8.98639365832151
 30
0.0
  0
VERTEX
  5
84C
  8
LAYER_1
 10
9.858260143464712
 20
9.000068832651477
 30
0.0
  0
VERTEX
  5
84D
  8
LAYER_1
 10
9.856289220335116
 20
9.013925938347255
 30
0.0
  0
VERTEX
  5
84E
  8
LAYER_1
 10
9.854621516148534
 20
9.027964975408839
 30
0.0
  0
VERTEX
  5
84F
  8
LAYER_1
 10
9.853257030904967
 20
9.042185943836234
 30
0.0
  0
VERTEX
  5
850
  8
LAYER_1
 10
9.852195764604414
 20
9.056588843629434
 30
0.0
  0
VERTEX
  5
851
  8
LAYER_1
 10
9.851437717246878
 20
9.071173674788447
 30
0.0
  0
VERTEX
  5
852
  8
LAYER_1
 10
9.850982888832355
 20
9.085940437313269
 30
0.0
  0
VERTEX
  5
853
  8
LAYER_1
 10
9.850831279360849
 20
9.1008891312039
 30
0.0
  0
VERTEX
  5
854
  8
LAYER_1
 10
9.851035952147383
 20
9.118340897469114
 30
0.0
  0
VERTEX
  5
855
  8
LAYER_1
 10
9.851649970506987
 20
9.135571313905931
 30
0.0
  0
VERTEX
  5
856
  8
LAYER_1
 10
9.852673334439663
 20
9.152580380514346
 30
0.0
  0
VERTEX
  5
857
  8
LAYER_1
 10
9.854106043945407
 20
9.16936809729436
 30
0.0
  0
VERTEX
  5
858
  8
LAYER_1
 10
9.855948099024223
 20
9.185934464245971
 30
0.0
  0
VERTEX
  5
859
  8
LAYER_1
 10
9.858199499676108
 20
9.202279481369185
 30
0.0
  0
VERTEX
  5
85A
  8
LAYER_1
 10
9.860860245901064
 20
9.218403148663995
 30
0.0
  0
VERTEX
  5
85B
  8
LAYER_1
 10
9.863930337699088
 20
9.234305466130408
 30
0.0
  0
VERTEX
  5
85C
  8
LAYER_1
 10
9.867409775070184
 20
9.249986433768417
 30
0.0
  0
VERTEX
  5
85D
  8
LAYER_1
 10
9.871298558014349
 20
9.265446051578024
 30
0.0
  0
VERTEX
  5
85E
  8
LAYER_1
 10
9.875596686531583
 20
9.280684319559231
 30
0.0
  0
VERTEX
  5
85F
  8
LAYER_1
 10
9.880304160621886
 20
9.295701237712041
 30
0.0
  0
VERTEX
  5
860
  8
LAYER_1
 10
9.885420980285263
 20
9.310496806036447
 30
0.0
  0
VERTEX
  5
861
  8
LAYER_1
 10
9.890947145521707
 20
9.325071024532456
 30
0.0
  0
VERTEX
  5
862
  8
LAYER_1
 10
9.896882656331222
 20
9.339423893200061
 30
0.0
  0
VERTEX
  5
863
  8
LAYER_1
 10
9.903227512713805
 20
9.353555412039267
 30
0.0
  0
VERTEX
  5
864
  8
LAYER_1
 10
9.909955941059305
 20
9.367430710871623
 30
0.0
  0
VERTEX
  5
865
  8
LAYER_1
 10
9.917042167757561
 20
9.381014919518687
 30
0.0
  0
VERTEX
  5
866
  8
LAYER_1
 10
9.924486192808573
 20
9.394308037980455
 30
0.0
  0
VERTEX
  5
867
  8
LAYER_1
 10
9.932288016212343
 20
9.40731006625693
 30
0.0
  0
VERTEX
  5
868
  8
LAYER_1
 10
9.940447637968873
 20
9.420021004348108
 30
0.0
  0
VERTEX
  5
869
  8
LAYER_1
 10
9.948965058078159
 20
9.432440852253997
 30
0.0
  0
VERTEX
  5
86A
  8
LAYER_1
 10
9.9578402765402
 20
9.444569609974586
 30
0.0
  0
VERTEX
  5
86B
  8
LAYER_1
 10
9.967073293355
 20
9.456407277509886
 30
0.0
  0
VERTEX
  5
86C
  8
LAYER_1
 10
9.976664108522558
 20
9.46795385485989
 30
0.0
  0
VERTEX
  5
86D
  8
LAYER_1
 10
9.986612722042874
 20
9.479209342024596
 30
0.0
  0
VERTEX
  5
86E
  8
LAYER_1
 10
9.996919133915949
 20
9.49017373900401
 30
0.0
  0
VERTEX
  5
86F
  8
LAYER_1
 10
10.00758334414178
 20
9.500847045798132
 30
0.0
  0
VERTEX
  5
870
  8
LAYER_1
 10
10.01860535272037
 20
9.511229262406957
 30
0.0
  0
VERTEX
  5
871
  8
LAYER_1
 10
10.02998515965171
 20
9.521320388830492
 30
0.0
  0
VERTEX
  5
872
  8
LAYER_1
 10
10.04172276493581
 20
9.531120425068728
 30
0.0
  0
VERTEX
  5
873
  8
LAYER_1
 10
10.05381816857267
 20
9.540629371121675
 30
0.0
  0
VERTEX
  5
874
  8
LAYER_1
 10
10.06616676002695
 20
9.549826001663313
 30
0.0
  0
VERTEX
  5
875
  8
LAYER_1
 10
10.0786639287633
 20
9.558689091367636
 30
0.0
  0
VERTEX
  5
876
  8
LAYER_1
 10
10.09130967478174
 20
9.567218640234643
 30
0.0
  0
VERTEX
  5
877
  8
LAYER_1
 10
10.10410399808224
 20
9.575414648264331
 30
0.0
  0
VERTEX
  5
878
  8
LAYER_1
 10
10.11704689866483
 20
9.583277115456706
 30
0.0
  0
VERTEX
  5
879
  8
LAYER_1
 10
10.13013837652949
 20
9.590806041811764
 30
0.0
  0
VERTEX
  5
87A
  8
LAYER_1
 10
10.14337843167624
 20
9.598001427329505
 30
0.0
  0
VERTEX
  5
87B
  8
LAYER_1
 10
10.15676706410505
 20
9.60486327200993
 30
0.0
  0
VERTEX
  5
87C
  8
LAYER_1
 10
10.17030427381595
 20
9.611391575853037
 30
0.0
  0
VERTEX
  5
87D
  8
LAYER_1
 10
10.18399006080892
 20
9.617586338858828
 30
0.0
  0
VERTEX
  5
87E
  8
LAYER_1
 10
10.19782442508397
 20
9.623447561027305
 30
0.0
  0
VERTEX
  5
87F
  8
LAYER_1
 10
10.2118073666411
 20
9.628975242358464
 30
0.0
  0
VERTEX
  5
880
  8
LAYER_1
 10
10.22593888548031
 20
9.634169382852306
 30
0.0
  0
VERTEX
  5
881
  8
LAYER_1
 10
10.24021898160159
 20
9.639029982508834
 30
0.0
  0
VERTEX
  5
882
  8
LAYER_1
 10
10.25464765500495
 20
9.643557041328046
 30
0.0
  0
VERTEX
  5
883
  8
LAYER_1
 10
10.26922490569038
 20
9.64775055930994
 30
0.0
  0
VERTEX
  5
884
  8
LAYER_1
 10
10.29864927192054
 20
9.655300710991009
 30
0.0
  0
VERTEX
  5
885
  8
LAYER_1
 10
10.3283162133051
 20
9.661844175781269
 30
0.0
  0
VERTEX
  5
886
  8
LAYER_1
 10
10.35822572984408
 20
9.667380953680718
 30
0.0
  0
VERTEX
  5
887
  8
LAYER_1
 10
10.38837782153747
 20
9.67191104468936
 30
0.0
  0
VERTEX
  5
888
  8
LAYER_1
 10
10.41877248838528
 20
9.675434448807192
 30
0.0
  0
VERTEX
  5
889
  8
LAYER_1
 10
10.44940973038749
 20
9.677951166034214
 30
0.0
  0
VERTEX
  5
88A
  8
LAYER_1
 10
10.48028954754412
 20
9.67946119637043
 30
0.0
  0
VERTEX
  5
88B
  8
LAYER_1
 10
10.51141193985516
 20
9.679964539815833
 30
0.0
  0
VERTEX
  5
88C
  8
LAYER_1
 10
10.54098185117796
 20
9.67950364702245
 30
0.0
  0
VERTEX
  5
88D
  8
LAYER_1
 10
10.57224978858165
 20
9.678120968642304
 30
0.0
  0
VERTEX
  5
88E
  8
LAYER_1
 10
10.60521575206621
 20
9.675816504675392
 30
0.0
  0
VERTEX
  5
88F
  8
LAYER_1
 10
10.63987974163167
 20
9.672590255121714
 30
0.0
  0
VERTEX
  5
890
  8
LAYER_1
 10
10.676241757278
 20
9.668442219981271
 30
0.0
  0
VERTEX
  5
891
  8
LAYER_1
 10
10.71430179900522
 20
9.663372399254063
 30
0.0
  0
VERTEX
  5
892
  8
LAYER_1
 10
10.75405986681332
 20
9.657380792940092
 30
0.0
  0
VERTEX
  5
893
  8
LAYER_1
 10
10.7955159607023
 20
9.650467401039354
 30
0.0
  0
VERTEX
  5
894
  8
LAYER_1
 10
10.79706844169054
 20
9.585263199533452
 30
0.0
  0
VERTEX
  5
895
  8
LAYER_1
 10
10.79900904292583
 20
9.540435310998145
 30
0.0
  0
VERTEX
  5
896
  8
LAYER_1
 10
10.80172588465524
 20
9.491338099745189
 30
0.0
  0
VERTEX
  5
897
  8
LAYER_1
 10
10.80715956811407
 20
9.402846683415751
 30
0.0
  0
VERTEX
  5
898
  8
LAYER_1
 10
10.76390841808244
 20
9.412840779777518
 30
0.0
  0
VERTEX
  5
899
  8
LAYER_1
 10
10.72497510579934
 20
9.421088335027521
 30
0.0
  0
VERTEX
  5
89A
  8
LAYER_1
 10
10.69035963126477
 20
9.427589349165759
 30
0.0
  0
VERTEX
  5
89B
  8
LAYER_1
 10
10.66006199447873
 20
9.43234382219223
 30
0.0
  0
VERTEX
  5
89C
  8
LAYER_1
 10
10.63243268439122
 20
9.435739874353997
 30
0.0
  0
VERTEX
  5
89D
  8
LAYER_1
 10
10.60582218995224
 20
9.438165625898115
 30
0.0
  0
VERTEX
  5
89E
  8
LAYER_1
 10
10.5802305111618
 20
9.439621076824587
 30
0.0
  0
VERTEX
  5
89F
  8
LAYER_1
 10
10.55565764801988
 20
9.440106227133409
 30
0.0
  0
VERTEX
  5
8A0
  8
LAYER_1
 10
10.54264045879625
 20
9.439942488904181
 30
0.0
  0
VERTEX
  5
8A1
  8
LAYER_1
 10
10.52978700780185
 20
9.439451274216497
 30
0.0
  0
VERTEX
  5
8A2
  8
LAYER_1
 10
10.51709729503668
 20
9.438632583070358
 30
0.0
  0
VERTEX
  5
8A3
  8
LAYER_1
 10
10.50457132050074
 20
9.437486415465763
 30
0.0
  0
VERTEX
  5
8A4
  8
LAYER_1
 10
10.49220908419403
 20
9.436012771402712
 30
0.0
  0
VERTEX
  5
8A5
  8
LAYER_1
 10
10.48001058611655
 20
9.434211650881203
 30
0.0
  0
VERTEX
  5
8A6
  8
LAYER_1
 10
10.46797582626829
 20
9.432083053901238
 30
0.0
  0
VERTEX
  5
8A7
  8
LAYER_1
 10
10.45610480464926
 20
9.429626980462817
 30
0.0
  0
VERTEX
  5
8A8
  8
LAYER_1
 10
10.44439752125946
 20
9.426843430565944
 30
0.0
  0
VERTEX
  5
8A9
  8
LAYER_1
 10
10.43285397609889
 20
9.423732404210611
 30
0.0
  0
VERTEX
  5
8AA
  8
LAYER_1
 10
10.42147416916754
 20
9.420293901396825
 30
0.0
  0
VERTEX
  5
8AB
  8
LAYER_1
 10
10.41025810046542
 20
9.41652792212458
 30
0.0
  0
VERTEX
  5
8AC
  8
LAYER_1
 10
10.39920576999253
 20
9.41243446639388
 30
0.0
  0
VERTEX
  5
8AD
  8
LAYER_1
 10
10.38831717774887
 20
9.408013534204724
 30
0.0
  0
VERTEX
  5
8AE
  8
LAYER_1
 10
10.37759232373444
 20
9.403265125557112
 30
0.0
  0
VERTEX
  5
8AF
  8
LAYER_1
 10
10.36703120794923
 20
9.398189240451044
 30
0.0
  0
VERTEX
  5
8B0
  8
LAYER_1
 10
10.35669144199243
 20
9.392801039833671
 30
0.0
  0
VERTEX
  5
8B1
  8
LAYER_1
 10
10.3466306374632
 20
9.387115684652143
 30
0.0
  0
VERTEX
  5
8B2
  8
LAYER_1
 10
10.33684879436154
 20
9.381133174906461
 30
0.0
  0
VERTEX
  5
8B3
  8
LAYER_1
 10
10.32734591268746
 20
9.374853510596624
 30
0.0
  0
VERTEX
  5
8B4
  8
LAYER_1
 10
10.31812199244095
 20
9.368276691722633
 30
0.0
  0
VERTEX
  5
8B5
  8
LAYER_1
 10
10.30917703362201
 20
9.361402718284488
 30
0.0
  0
VERTEX
  5
8B6
  8
LAYER_1
 10
10.30051103623065
 20
9.354231590282188
 30
0.0
  0
VERTEX
  5
8B7
  8
LAYER_1
 10
10.29212400026686
 20
9.346763307715735
 30
0.0
  0
VERTEX
  5
8B8
  8
LAYER_1
 10
10.28401592573064
 20
9.338997870585127
 30
0.0
  0
VERTEX
  5
8B9
  8
LAYER_1
 10
10.276186812622
 20
9.330935278890362
 30
0.0
  0
VERTEX
  5
8BA
  8
LAYER_1
 10
10.26863666094093
 20
9.322575532631443
 30
0.0
  0
VERTEX
  5
8BB
  8
LAYER_1
 10
10.26136547068744
 20
9.313918631808372
 30
0.0
  0
VERTEX
  5
8BC
  8
LAYER_1
 10
10.25437324186152
 20
9.304964576421145
 30
0.0
  0
VERTEX
  5
8BD
  8
LAYER_1
 10
10.24765997446317
 20
9.295713366469762
 30
0.0
  0
VERTEX
  5
8BE
  8
LAYER_1
 10
10.24122566849239
 20
9.286165001954227
 30
0.0
  0
VERTEX
  5
8BF
  8
LAYER_1
 10
10.23507032394919
 20
9.276319482874538
 30
0.0
  0
VERTEX
  5
8C0
  8
LAYER_1
 10
10.22924245586445
 20
9.266258678345308
 30
0.0
  0
VERTEX
  5
8C1
  8
LAYER_1
 10
10.22379057926904
 20
9.25606445748115
 30
0.0
  0
VERTEX
  5
8C2
  8
LAYER_1
 10
10.21871469416298
 20
9.245736820282067
 30
0.0
  0
VERTEX
  5
8C3
  8
LAYER_1
 10
10.21401480054625
 20
9.235275766748057
 30
0.0
  0
VERTEX
  5
8C4
  8
LAYER_1
 10
10.20969089841886
 20
9.224681296879119
 30
0.0
  0
VERTEX
  5
8C5
  8
LAYER_1
 10
10.20574298778081
 20
9.213953410675256
 30
0.0
  0
VERTEX
  5
8C6
  8
LAYER_1
 10
10.20217106863209
 20
9.203092108136467
 30
0.0
  0
VERTEX
  5
8C7
  8
LAYER_1
 10
10.19897514097272
 20
9.192097389262749
 30
0.0
  0
VERTEX
  5
8C8
  8
LAYER_1
 10
10.19615520480268
 20
9.180969254054107
 30
0.0
  0
VERTEX
  5
8C9
  8
LAYER_1
 10
10.19371126012198
 20
9.169707702510536
 30
0.0
  0
VERTEX
  5
8CA
  8
LAYER_1
 10
10.19164330693062
 20
9.158312734632041
 30
0.0
  0
VERTEX
  5
8CB
  8
LAYER_1
 10
10.18995134522859
 20
9.146784350418617
 30
0.0
  0
VERTEX
  5
8CC
  8
LAYER_1
 10
10.18863537501591
 20
9.13512254987027
 30
0.0
  0
VERTEX
  5
8CD
  8
LAYER_1
 10
10.18769539629256
 20
9.123327332986994
 30
0.0
  0
VERTEX
  5
8CE
  8
LAYER_1
 10
10.18713140905855
 20
9.111398699768792
 30
0.0
  0
VERTEX
  5
8CF
  8
LAYER_1
 10
10.18694341331389
 20
9.099336650215664
 30
0.0
  0
VERTEX
  5
8D0
  8
LAYER_1
 10
10.18710108716426
 20
9.088373769330964
 30
0.0
  0
VERTEX
  5
8D1
  8
LAYER_1
 10
10.18757410871536
 20
9.077607980759224
 30
0.0
  0
VERTEX
  5
8D2
  8
LAYER_1
 10
10.1883624779672
 20
9.067039284500444
 30
0.0
  0
VERTEX
  5
8D3
  8
LAYER_1
 10
10.18946619491977
 20
9.056667680554622
 30
0.0
  0
VERTEX
  5
8D4
  8
LAYER_1
 10
10.19088525957308
 20
9.046493168921762
 30
0.0
  0
VERTEX
  5
8D5
  8
LAYER_1
 10
10.19261967192713
 20
9.03651574960186
 30
0.0
  0
VERTEX
  5
8D6
  8
LAYER_1
 10
10.19466943198191
 20
9.026735422594918
 30
0.0
  0
VERTEX
  5
8D7
  8
LAYER_1
 10
10.19703453973742
 20
9.017152187900933
 30
0.0
  0
VERTEX
  5
8D8
  8
LAYER_1
 10
10.19971499519367
 20
9.007766045519912
 30
0.0
  0
VERTEX
  5
8D9
  8
LAYER_1
 10
10.20271079835066
 20
8.998576995451849
 30
0.0
  0
VERTEX
  5
8DA
  8
LAYER_1
 10
10.20602194920838
 20
8.989585037696745
 30
0.0
  0
VERTEX
  5
8DB
  8
LAYER_1
 10
10.20964844776683
 20
8.9807901722546
 30
0.0
  0
VERTEX
  5
8DC
  8
LAYER_1
 10
10.21359029402603
 20
8.972192399125417
 30
0.0
  0
VERTEX
  5
8DD
  8
LAYER_1
 10
10.21784748798596
 20
8.96379171830919
 30
0.0
  0
VERTEX
  5
8DE
  8
LAYER_1
 10
10.22242002964662
 20
8.955588129805925
 30
0.0
  0
VERTEX
  5
8DF
  8
LAYER_1
 10
10.22730791900802
 20
8.947581633615618
 30
0.0
  0
VERTEX
  5
8E0
  8
LAYER_1
 10
10.23246415713399
 20
8.939785874590708
 30
0.0
  0
VERTEX
  5
8E1
  8
LAYER_1
 10
10.23784174508835
 20
8.932214497583628
 30
0.0
  0
VERTEX
  5
8E2
  8
LAYER_1
 10
10.24344068287112
 20
8.92486750259438
 30
0.0
  0
VERTEX
  5
8E3
  8
LAYER_1
 10
10.24926097048229
 20
8.917744889622963
 30
0.0
  0
VERTEX
  5
8E4
  8
LAYER_1
 10
10.25530260792186
 20
8.910846658669376
 30
0.0
  0
VERTEX
  5
8E5
  8
LAYER_1
 10
10.26156559518983
 20
8.90417280973362
 30
0.0
  0
VERTEX
  5
8E6
  8
LAYER_1
 10
10.2680499322862
 20
8.897723342815695
 30
0.0
  0
VERTEX
  5
8E7
  8
LAYER_1
 10
10.27475561921097
 20
8.891498257915602
 30
0.0
  0
VERTEX
  5
8E8
  8
LAYER_1
 10
10.28168265596415
 20
8.88549755503334
 30
0.0
  0
VERTEX
  5
8E9
  8
LAYER_1
 10
10.28883104254572
 20
8.879721234168908
 30
0.0
  0
VERTEX
  5
8EA
  8
LAYER_1
 10
10.29620077895569
 20
8.874169295322307
 30
0.0
  0
VERTEX
  5
8EB
  8
LAYER_1
 10
10.30379186519407
 20
8.868841738493538
 30
0.0
  0
VERTEX
  5
8EC
  8
LAYER_1
 10
10.31160430126085
 20
8.863738563682599
 30
0.0
  0
VERTEX
  5
8ED
  8
LAYER_1
 10
10.31963808715602
 20
8.85885977088949
 30
0.0
  0
VERTEX
  5
8EE
  8
LAYER_1
 10
10.3278932228796
 20
8.854205360114213
 30
0.0
  0
VERTEX
  5
8EF
  8
LAYER_1
 10
10.33636970843158
 20
8.849775331356767
 30
0.0
  0
VERTEX
  5
8F0
  8
LAYER_1
 10
10.34508270475911
 20
8.845592426037879
 30
0.0
  0
VERTEX
  5
8F1
  8
LAYER_1
 10
10.35404737280934
 20
8.841679385578272
 30
0.0
  0
VERTEX
  5
8F2
  8
LAYER_1
 10
10.36326371258228
 20
8.83803620997795
 30
0.0
  0
VERTEX
  5
8F3
  8
LAYER_1
 10
10.37273172407791
 20
8.83466289923691
 30
0.0
  0
VERTEX
  5
8F4
  8
LAYER_1
 10
10.38245140729625
 20
8.831559453355155
 30
0.0
  0
VERTEX
  5
8F5
  8
LAYER_1
 10
10.39242276223729
 20
8.828725872332681
 30
0.0
  0
VERTEX
  5
8F6
  8
LAYER_1
 10
10.40264578890104
 20
8.826162156169492
 30
0.0
  0
VERTEX
  5
8F7
  8
LAYER_1
 10
10.41312048728748
 20
8.823868304865584
 30
0.0
  0
VERTEX
  5
8F8
  8
LAYER_1
 10
10.42384685739663
 20
8.821844318420961
 30
0.0
  0
VERTEX
  5
8F9
  8
LAYER_1
 10
10.43482489922848
 20
8.82009019683562
 30
0.0
  0
VERTEX
  5
8FA
  8
LAYER_1
 10
10.45753599806029
 20
8.817391548242789
 30
0.0
  0
VERTEX
  5
8FB
  8
LAYER_1
 10
10.48125378378291
 20
8.815772359087088
 30
0.0
  0
VERTEX
  5
8FC
  8
LAYER_1
 10
10.50597825639633
 20
8.815232629368522
 30
0.0
  0
VERTEX
  5
8FD
  8
LAYER_1
 10
10.53414123182355
 20
8.815790552223667
 30
0.0
  0
VERTEX
  5
8FE
  8
LAYER_1
 10
10.56351708302282
 20
8.81746432078911
 30
0.0
  0
VERTEX
  5
8FF
  8
LAYER_1
 10
10.59410580999415
 20
8.820253935064848
 30
0.0
  0
VERTEX
  5
900
  8
LAYER_1
 10
10.62590741273755
 20
8.824159395050877
 30
0.0
  0
VERTEX
  5
901
  8
LAYER_1
 10
10.64262690525538
 20
8.82665185476246
 30
0.0
  0
VERTEX
  5
902
  8
LAYER_1
 10
10.66037734217947
 20
8.829665851056024
 30
0.0
  0
VERTEX
  5
903
  8
LAYER_1
 10
10.6791587235098
 20
8.833201383931577
 30
0.0
  0
VERTEX
  5
904
  8
LAYER_1
 10
10.69897104924639
 20
8.837258453389115
 30
0.0
  0
VERTEX
  5
905
  8
LAYER_1
 10
10.74168853393832
 20
8.84693720205015
 30
0.0
  0
SEQEND
  5
C39
  8
LAYER_1
  0
POLYLINE
  5
84
  8
LAYER_1
 66
     1
 10
0.0
 20
0.0
 30
0.0
 70
     1
  0
VERTEX
  5
906
  8
LAYER_1
 10
11.57796637877312
 20
9.679964539815833
 30
0.0
  0
VERTEX
  5
907
  8
LAYER_1
 10
11.60887045344518
 20
9.679443003233846
 30
0.0
  0
VERTEX
  5
908
  8
LAYER_1
 10
11.63948343793196
 20
9.677878393487891
 30
0.0
  0
VERTEX
  5
909
  8
LAYER_1
 10
11.66980533223344
 20
9.675270710577966
 30
0.0
  0
VERTEX
  5
90A
  8
LAYER_1
 10
11.69983613634962
 20
9.671619954504067
 30
0.0
  0
VERTEX
  5
90B
  8
LAYER_1
 10
11.72957585028051
 20
9.666926125266198
 30
0.0
  0
VERTEX
  5
90C
  8
LAYER_1
 10
11.75902447402611
 20
9.661189222864358
 30
0.0
  0
VERTEX
  5
90D
  8
LAYER_1
 10
11.78818200758641
 20
9.654409247298547
 30
0.0
  0
VERTEX
  5
90E
  8
LAYER_1
 10
11.81704845096142
 20
9.646586198568764
 30
0.0
  0
VERTEX
  5
90F
  8
LAYER_1
 10
11.83129670909369
 20
9.642257748157228
 30
0.0
  0
VERTEX
  5
910
  8
LAYER_1
 10
11.84532058520812
 20
9.637616982234388
 30
0.0
  0
VERTEX
  5
911
  8
LAYER_1
 10
11.85912007930473
 20
9.632663900800239
 30
0.0
  0
VERTEX
  5
912
  8
LAYER_1
 10
11.8726951913835
 20
9.627398503854788
 30
0.0
  0
VERTEX
  5
913
  8
LAYER_1
 10
11.88604592144444
 20
9.62182079139803
 30
0.0
  0
VERTEX
  5
914
  8
LAYER_1
 10
11.89917226948755
 20
9.615930763429969
 30
0.0
  0
VERTEX
  5
915
  8
LAYER_1
 10
11.91207423551283
 20
9.6097284199506
 30
0.0
  0
VERTEX
  5
916
  8
LAYER_1
 10
11.92475181952027
 20
9.603213760959928
 30
0.0
  0
VERTEX
  5
917
  8
LAYER_1
 10
11.93720502150989
 20
9.596386786457948
 30
0.0
  0
VERTEX
  5
918
  8
LAYER_1
 10
11.94943384148168
 20
9.589247496444667
 30
0.0
  0
VERTEX
  5
919
  8
LAYER_1
 10
11.96143827943563
 20
9.581795890920077
 30
0.0
  0
VERTEX
  5
91A
  8
LAYER_1
 10
11.97321833537176
 20
9.574031969884183
 30
0.0
  0
VERTEX
  5
91B
  8
LAYER_1
 10
11.98477400929005
 20
9.565955733336985
 30
0.0
  0
VERTEX
  5
91C
  8
LAYER_1
 10
11.99610530119052
 20
9.55756718127848
 30
0.0
  0
VERTEX
  5
91D
  8
LAYER_1
 10
12.00721221107315
 20
9.54886631370867
 30
0.0
  0
VERTEX
  5
91E
  8
LAYER_1
 10
12.01809473893795
 20
9.539853130627556
 30
0.0
  0
VERTEX
  5
91F
  8
LAYER_1
 10
12.02869527318575
 20
9.530597372392029
 30
0.0
  0
VERTEX
  5
920
  8
LAYER_1
 10
12.03895620221737
 20
9.521168779358984
 30
0.0
  0
VERTEX
  5
921
  8
LAYER_1
 10
12.04887752603281
 20
9.51156735152842
 30
0.0
  0
VERTEX
  5
922
  8
LAYER_1
 10
12.05845924463208
 20
9.50179308890034
 30
0.0
  0
VERTEX
  5
923
  8
LAYER_1
 10
12.06770135801517
 20
9.49184599147474
 30
0.0
  0
VERTEX
  5
924
  8
LAYER_1
 10
12.07660386618209
 20
9.48172605925162
 30
0.0
  0
VERTEX
  5
925
  8
LAYER_1
 10
12.08516676913282
 20
9.471433292230984
 30
0.0
  0
VERTEX
  5
926
  8
LAYER_1
 10
12.09339006686739
 20
9.46096769041283
 30
0.0
  0
VERTEX
  5
927
  8
LAYER_1
 10
12.10127375938577
 20
9.450329253797154
 30
0.0
  0
VERTEX
  5
928
  8
LAYER_1
 10
12.10881784668798
 20
9.439517982383961
 30
0.0
  0
VERTEX
  5
929
  8
LAYER_1
 10
12.11602232877401
 20
9.428533876173251
 30
0.0
  0
VERTEX
  5
92A
  8
LAYER_1
 10
12.12288720564387
 20
9.417376935165022
 30
0.0
  0
VERTEX
  5
92B
  8
LAYER_1
 10
12.12941247729754
 20
9.406047159359272
 30
0.0
  0
VERTEX
  5
92C
  8
LAYER_1
 10
12.13559814373505
 20
9.394544548756006
 30
0.0
  0
VERTEX
  5
92D
  8
LAYER_1
 10
12.14144420495637
 20
9.38286910335522
 30
0.0
  0
VERTEX
  5
92E
  8
LAYER_1
 10
12.14695066096152
 20
9.371020823156918
 30
0.0
  0
VERTEX
  5
92F
  8
LAYER_1
 10
12.15212054393992
 20
9.35897393455094
 30
0.0
  0
VERTEX
  5
930
  8
LAYER_1
 10
12.15695688608101
 20
9.346702663927132
 30
0.0
  0
VERTEX
  5
931
  8
LAYER_1
 10
12.16145968738478
 20
9.334207011285491
 30
0.0
  0
VERTEX
  5
932
  8
LAYER_1
 10
12.16562894785123
 20
9.32148697662602
 30
0.0
  0
VERTEX
  5
933
  8
LAYER_1
 10
12.16946466748037
 20
9.308542559948718
 30
0.0
  0
VERTEX
  5
934
  8
LAYER_1
 10
12.17296684627219
 20
9.295373761253586
 30
0.0
  0
VERTEX
  5
935
  8
LAYER_1
 10
12.17613548422669
 20
9.281980580540623
 30
0.0
  0
VERTEX
  5
936
  8
LAYER_1
 10
12.17897058134388
 20
9.268363017809829
 30
0.0
  0
VERTEX
  5
937
  8
LAYER_1
 10
12.18147213762375
 20
9.254521073061204
 30
0.0
  0
VERTEX
  5
938
  8
LAYER_1
 10
12.18364015306631
 20
9.240454746294748
 30
0.0
  0
VERTEX
  5
939
  8
LAYER_1
 10
12.18547462767155
 20
9.22616403751046
 30
0.0
  0
VERTEX
  5
93A
  8
LAYER_1
 10
12.18697556143947
 20
9.21164894670834
 30
0.0
  0
VERTEX
  5
93B
  8
LAYER_1
 10
12.18814295437008
 20
9.196909473888391
 30
0.0
  0
VERTEX
  5
93C
  8
LAYER_1
 10
12.18897680646337
 20
9.181945619050612
 30
0.0
  0
VERTEX
  5
93D
  8
LAYER_1
 10
12.18947711771934
 20
9.166757382195001
 30
0.0
  0
VERTEX
  5
93E
  8
LAYER_1
 10
12.189643888138
 20
9.15134476332156
 30
0.0
  0
VERTEX
  5
93F
  8
LAYER_1
 10
12.18946044067748
 20
9.135127098154413
 30
0.0
  0
VERTEX
  5
940
  8
LAYER_1
 10
12.18891009829591
 20
9.119076203405925
 30
0.0
  0
VERTEX
  5
941
  8
LAYER_1
 10
12.18799286099329
 20
9.103192079076095
 30
0.0
  0
VERTEX
  5
942
  8
LAYER_1
 10
12.18670872876962
 20
9.087474725164924
 30
0.0
  0
VERTEX
  5
943
  8
LAYER_1
 10
12.1850577016249
 20
9.071924141672412
 30
0.0
  0
VERTEX
  5
944
  8
LAYER_1
 10
12.18303977955914
 20
9.056540328598555
 30
0.0
  0
VERTEX
  5
945
  8
LAYER_1
 10
12.18065496257233
 20
9.041323285943356
 30
0.0
  0
VERTEX
  5
946
  8
LAYER_1
 10
12.17790325066447
 20
9.026273013706817
 30
0.0
  0
VERTEX
  5
947
  8
LAYER_1
 10
12.17478464383556
 20
9.011389511888936
 30
0.0
  0
VERTEX
  5
948
  8
LAYER_1
 10
12.17129914208561
 20
8.996672780489714
 30
0.0
  0
VERTEX
  5
949
  8
LAYER_1
 10
12.1674467454146
 20
8.982122819509149
 30
0.0
  0
VERTEX
  5
94A
  8
LAYER_1
 10
12.16322745382255
 20
8.967739628947243
 30
0.0
  0
VERTEX
  5
94B
  8
LAYER_1
 10
12.15864126730945
 20
8.953523208803993
 30
0.0
  0
VERTEX
  5
94C
  8
LAYER_1
 10
12.15368818587531
 20
8.939473559079403
 30
0.0
  0
VERTEX
  5
94D
  8
LAYER_1
 10
12.14836820952011
 20
8.925590679773471
 30
0.0
  0
VERTEX
  5
94E
  8
LAYER_1
 10
12.14268133824387
 20
8.911874570886196
 30
0.0
  0
VERTEX
  5
94F
  8
LAYER_1
 10
12.13664879737259
 20
8.898370715259032
 30
0.0
  0
VERTEX
  5
950
  8
LAYER_1
 10
12.13029181223229
 20
8.88512459573343
 30
0.0
  0
VERTEX
  5
951
  8
LAYER_1
 10
12.12361038282296
 20
8.872136212309393
 30
0.0
  0
VERTEX
  5
952
  8
LAYER_1
 10
12.1166045091446
 20
8.859405564986915
 30
0.0
  0
VERTEX
  5
953
  8
LAYER_1
 10
12.10927419119722
 20
8.846932653766002
 30
0.0
  0
VERTEX
  5
954
  8
LAYER_1
 10
12.10161942898081
 20
8.834717478646652
 30
0.0
  0
VERTEX
  5
955
  8
LAYER_1
 10
12.09364022249537
 20
8.822760039628864
 30
0.0
  0
VERTEX
  5
956
  8
LAYER_1
 10
12.08533657174091
 20
8.81106033671264
 30
0.0
  0
VERTEX
  5
957
  8
LAYER_1
 10
12.07670847671743
 20
8.799618369897976
 30
0.0
  0
VERTEX
  5
958
  8
LAYER_1
 10
12.06775593742492
 20
8.788434139184876
 30
0.0
  0
VERTEX
  5
959
  8
LAYER_1
 10
12.05847895386338
 20
8.777507644573337
 30
0.0
  0
VERTEX
  5
95A
  8
LAYER_1
 10
12.04887752603281
 20
8.766838886063361
 30
0.0
  0
VERTEX
  5
95B
  8
LAYER_1
 10
12.03895165393323
 20
8.756427863654949
 30
0.0
  0
VERTEX
  5
95C
  8
LAYER_1
 10
12.02870133756461
 20
8.746274577348098
 30
0.0
  0
VERTEX
  5
95D
  8
LAYER_1
 10
12.01812657692697
 20
8.73637902714281
 30
0.0
  0
VERTEX
  5
95E
  8
LAYER_1
 10
12.0072273720203
 20
8.726741213039084
 30
0.0
  0
VERTEX
  5
95F
  8
LAYER_1
 10
11.99603252864419
 20
8.717391456931223
 30
0.0
  0
VERTEX
  5
960
  8
LAYER_1
 10
11.98457085259824
 20
8.708360080713526
 30
0.0
  0
VERTEX
  5
961
  8
LAYER_1
 10
11.97284234388242
 20
8.699647084385996
 30
0.0
  0
VERTEX
  5
962
  8
LAYER_1
 10
11.96084700249676
 20
8.69125246794863
 30
0.0
  0
VERTEX
  5
963
  8
LAYER_1
 10
11.94858482844124
 20
8.683176231401431
 30
0.0
  0
VERTEX
  5
964
  8
LAYER_1
 10
11.93605582171587
 20
8.675418374744396
 30
0.0
  0
VERTEX
  5
965
  8
LAYER_1
 10
11.92325998232064
 20
8.66797889797753
 30
0.0
  0
VERTEX
  5
966
  8
LAYER_1
 10
11.91019731025557
 20
8.660857801100828
 30
0.0
  0
VERTEX
  5
967
  8
LAYER_1
 10
11.89686780552064
 20
8.654055084114292
 30
0.0
  0
VERTEX
  5
968
  8
LAYER_1
 10
11.88327146811585
 20
8.64757074701792
 30
0.0
  0
VERTEX
  5
969
  8
LAYER_1
 10
11.86940829804121
 20
8.641404789811714
 30
0.0
  0
VERTEX
  5
96A
  8
LAYER_1
 10
11.85527829529673
 20
8.635557212495673
 30
0.0
  0
VERTEX
  5
96B
  8
LAYER_1
 10
11.84088145988238
 20
8.630028015069799
 30
0.0
  0
VERTEX
  5
96C
  8
LAYER_1
 10
11.82621779179819
 20
8.624817197534089
 30
0.0
  0
VERTEX
  5
96D
  8
LAYER_1
 10
11.81128729104414
 20
8.619924759888546
 30
0.0
  0
VERTEX
  5
96E
  8
LAYER_1
 10
11.79608995762024
 20
8.615350702133169
 30
0.0
  0
VERTEX
  5
96F
  8
LAYER_1
 10
11.76527078425222
 20
8.607072824988865
 30
0.0
  0
VERTEX
  5
970
  8
LAYER_1
 10
11.73413626318346
 20
8.599898664797136
 30
0.0
  0
VERTEX
  5
971
  8
LAYER_1
 10
11.70268639441396
 20
8.59382822155798
 30
0.0
  0
VERTEX
  5
972
  8
LAYER_1
 10
11.67092117794373
 20
8.588861495271397
 30
0.0
  0
VERTEX
  5
973
  8
LAYER_1
 10
11.63884061377277
 20
8.584998485937389
 30
0.0
  0
VERTEX
  5
974
  8
LAYER_1
 10
11.60644470190107
 20
8.582239193555953
 30
0.0
  0
VERTEX
  5
975
  8
LAYER_1
 10
11.57373344232863
 20
8.580583618127093
 30
0.0
  0
VERTEX
  5
976
  8
LAYER_1
 10
11.54070683505546
 20
8.580031759650806
 30
0.0
  0
VERTEX
  5
977
  8
LAYER_1
 10
11.50808047678707
 20
8.580571489369373
 30
0.0
  0
VERTEX
  5
978
  8
LAYER_1
 10
11.47579372373485
 20
8.582190678525073
 30
0.0
  0
VERTEX
  5
979
  8
LAYER_1
 10
11.44384657589881
 20
8.584889327117905
 30
0.0
  0
VERTEX
  5
97A
  8
LAYER_1
 10
11.41223903327895
 20
8.588667435147869
 30
0.0
  0
VERTEX
  5
97B
  8
LAYER_1
 10
11.38097109587527
 20
8.593525002614966
 30
0.0
  0
VERTEX
  5
97C
  8
LAYER_1
 10
11.35004276368776
 20
8.599462029519195
 30
0.0
  0
VERTEX
  5
97D
  8
LAYER_1
 10
11.31945403671643
 20
8.606478515860557
 30
0.0
  0
VERTEX
  5
97E
  8
LAYER_1
 10
11.28920491496127
 20
8.614574461639052
 30
0.0
  0
VERTEX
  5
97F
  8
LAYER_1
 10
11.27428805905966
 20
8.61905906980624
 30
0.0
  0
VERTEX
  5
980
  8
LAYER_1
 10
11.25961681050188
 20
8.623877218810746
 30
0.0
  0
VERTEX
  5
981
  8
LAYER_1
 10
11.24519116928795
 20
8.629028908652566
 30
0.0
  0
VERTEX
  5
982
  8
LAYER_1
 10
11.23101113541787
 20
8.634514139331703
 30
0.0
  0
VERTEX
  5
983
  8
LAYER_1
 10
11.21707670889162
 20
8.640332910848157
 30
0.0
  0
VERTEX
  5
984
  8
LAYER_1
 10
11.20338788970922
 20
8.646485223201928
 30
0.0
  0
VERTEX
  5
985
  8
LAYER_1
 10
11.18994467787066
 20
8.652971076393015
 30
0.0
  0
VERTEX
  5
986
  8
LAYER_1
 10
11.17674707337594
 20
8.659790470421417
 30
0.0
  0
VERTEX
  5
987
  8
LAYER_1
 10
11.16379507622507
 20
8.666943405287135
 30
0.0
  0
VERTEX
  5
988
  8
LAYER_1
 10
11.15108868641803
 20
8.674429880990171
 30
0.0
  0
VERTEX
  5
989
  8
LAYER_1
 10
11.13862790395484
 20
8.682249897530522
 30
0.0
  0
VERTEX
  5
98A
  8
LAYER_1
 10
11.12641272883548
 20
8.690403454908191
 30
0.0
  0
VERTEX
  5
98B
  8
LAYER_1
 10
11.11444316105998
 20
8.698890553123176
 30
0.0
  0
VERTEX
  5
98C
  8
LAYER_1
 10
11.10271920062831
 20
8.707711192175477
 30
0.0
  0
VERTEX
  5
98D
  8
LAYER_1
 10
11.09124084754048
 20
8.716865372065094
 30
0.0
  0
VERTEX
  5
98E
  8
LAYER_1
 10
11.0800081017965
 20
8.726353092792024
 30
0.0
  0
VERTEX
  5
98F
  8
LAYER_1
 10
11.06909980032154
 20
8.736075808199793
 30
0.0
  0
VERTEX
  5
990
  8
LAYER_1
 10
11.0585947800408
 20
8.74593497213192
 30
0.0
  0
VERTEX
  5
991
  8
LAYER_1
 10
11.04849304095426
 20
8.755930584588402
 30
0.0
  0
VERTEX
  5
992
  8
LAYER_1
 10
11.03879458306193
 20
8.766062645569242
 30
0.0
  0
VERTEX
  5
993
  8
LAYER_1
 10
11.02949940636381
 20
8.776331155074438
 30
0.0
  0
VERTEX
  5
994
  8
LAYER_1
 10
11.0206075108599
 20
8.786736113103991
 30
0.0
  0
VERTEX
  5
995
  8
LAYER_1
 10
11.0121188965502
 20
8.7972775196579
 30
0.0
  0
VERTEX
  5
996
  8
LAYER_1
 10
11.00403356343471
 20
8.807955374736167
 30
0.0
  0
VERTEX
  5
997
  8
LAYER_1
 10
10.99635151151343
 20
8.81876967833879
 30
0.0
  0
VERTEX
  5
998
  8
LAYER_1
 10
10.98907274078636
 20
8.82972043046577
 30
0.0
  0
VERTEX
  5
999
  8
LAYER_1
 10
10.9821972512535
 20
8.840807631117103
 30
0.0
  0
VERTEX
  5
99A
  8
LAYER_1
 10
10.97572504291485
 20
8.852031280292797
 30
0.0
  0
VERTEX
  5
99B
  8
LAYER_1
 10
10.96965611577041
 20
8.863391377992846
 30
0.0
  0
VERTEX
  5
99C
  8
LAYER_1
 10
10.96399046982018
 20
8.874887924217251
 30
0.0
  0
VERTEX
  5
99D
  8
LAYER_1
 10
10.95872810506416
 20
8.886520918966013
 30
0.0
  0
VERTEX
  5
99E
  8
LAYER_1
 10
10.95386902150235
 20
8.898290362239134
 30
0.0
  0
VERTEX
  5
99F
  8
LAYER_1
 10
10.94935712363029
 20
8.910209898889045
 30
0.0
  0
VERTEX
  5
9A0
  8
LAYER_1
 10
10.94513631594352
 20
8.922293173768185
 30
0.0
  0
VERTEX
  5
9A1
  8
LAYER_1
 10
10.94120659844205
 20
8.934540186876552
 30
0.0
  0
VERTEX
  5
9A2
  8
LAYER_1
 10
10.93756797112587
 20
8.946950938214147
 30
0.0
  0
VERTEX
  5
9A3
  8
LAYER_1
 10
10.93422043399499
 20
8.95952542778097
 30
0.0
  0
VERTEX
  5
9A4
  8
LAYER_1
 10
10.9311639870494
 20
8.972263655577024
 30
0.0
  0
VERTEX
  5
9A5
  8
LAYER_1
 10
10.92839863028911
 20
8.985165621602302
 30
0.0
  0
VERTEX
  5
9A6
  8
LAYER_1
 10
10.9259243637141
 20
8.99823132585681
 30
0.0
  0
VERTEX
  5
9A7
  8
LAYER_1
 10
10.9237411873244
 20
9.011460768340545
 30
0.0
  0
VERTEX
  5
9A8
  8
LAYER_1
 10
10.92184910111999
 20
9.024853949053508
 30
0.0
  0
VERTEX
  5
9A9
  8
LAYER_1
 10
10.92024810510087
 20
9.038410867995701
 30
0.0
  0
VERTEX
  5
9AA
  8
LAYER_1
 10
10.91893819926704
 20
9.05213152516712
 30
0.0
  0
VERTEX
  5
9AB
  8
LAYER_1
 10
10.91791938361852
 20
9.066015920567768
 30
0.0
  0
VERTEX
  5
9AC
  8
LAYER_1
 10
10.91719165815528
 20
9.080064054197642
 30
0.0
  0
VERTEX
  5
9AD
  8
LAYER_1
 10
10.91660947778469
 20
9.108651536145079
 30
0.0
  0
VERTEX
  5
9AE
  8
LAYER_1
 10
10.91691724501185
 20
9.129738897537045
 30
0.0
  0
VERTEX
  5
9AF
  8
LAYER_1
 10
10.91784054669333
 20
9.150501814659982
 30
0.0
  0
VERTEX
  5
9B0
  8
LAYER_1
 10
10.91937938282913
 20
9.170940287513893
 30
0.0
  0
VERTEX
  5
9B1
  8
LAYER_1
 10
10.92153375341925
 20
9.19105431609878
 30
0.0
  0
VERTEX
  5
9B2
  8
LAYER_1
 10
10.92430365846369
 20
9.210843900414643
 30
0.0
  0
VERTEX
  5
9B3
  8
LAYER_1
 10
10.92768909796245
 20
9.230309040461476
 30
0.0
  0
VERTEX
  5
9B4
  8
LAYER_1
 10
10.93169007191553
 20
9.249449736239285
 30
0.0
  0
VERTEX
  5
9B5
  8
LAYER_1
 10
10.93630658032293
 20
9.268265987748066
 30
0.0
  0
VERTEX
  5
9B6
  8
LAYER_1
 10
10.94153862318465
 20
9.286757794987825
 30
0.0
  0
VERTEX
  5
9B7
  8
LAYER_1
 10
10.94738620050069
 20
9.304925157958555
 30
0.0
  0
VERTEX
  5
9B8
  8
LAYER_1
 10
10.95384931227105
 20
9.322768076660262
 30
0.0
  0
VERTEX
  5
9B9
  8
LAYER_1
 10
10.96092795849573
 20
9.340286551092941
 30
0.0
  0
VERTEX
  5
9BA
  8
LAYER_1
 10
10.96862213917473
 20
9.357480581256596
 30
0.0
  0
VERTEX
  5
9BB
  8
LAYER_1
 10
10.97693185430805
 20
9.374350167151224
 30
0.0
  0
VERTEX
  5
9BC
  8
LAYER_1
 10
10.98585710389569
 20
9.390895308776827
 30
0.0
  0
VERTEX
  5
9BD
  8
LAYER_1
 10
10.99539788793765
 20
9.4071160061334
 30
0.0
  0
VERTEX
  5
9BE
  8
LAYER_1
 10
11.00554359377093
 20
9.422954647621777
 30
0.0
  0
VERTEX
  5
9BF
  8
LAYER_1
 10
11.01628360873251
 20
9.438353621642783
 30
0.0
  0
VERTEX
  5
9C0
  8
LAYER_1
 10
11.0276179328224
 20
9.453312928196418
 30
0.0
  0
VERTEX
  5
9C1
  8
LAYER_1
 10
11.03954656604061
 20
9.467832567282683
 30
0.0
  0
VERTEX
  5
9C2
  8
LAYER_1
 10
11.05206950838712
 20
9.481912538901575
 30
0.0
  0
VERTEX
  5
9C3
  8
LAYER_1
 10
11.06518675986194
 20
9.495552843053094
 30
0.0
  0
VERTEX
  5
9C4
  8
LAYER_1
 10
11.07889832046507
 20
9.508753479737244
 30
0.0
  0
VERTEX
  5
9C5
  8
LAYER_1
 10
11.09320419019651
 20
9.521514448954022
 30
0.0
  0
VERTEX
  5
9C6
  8
LAYER_1
 10
11.10810436905625
 20
9.533835750703428
 30
0.0
  0
VERTEX
  5
9C7
  8
LAYER_1
 10
11.12359885704431
 20
9.545717384985462
 30
0.0
  0
VERTEX
  5
9C8
  8
LAYER_1
 10
11.13968765416067
 20
9.557159351800125
 30
0.0
  0
VERTEX
  5
9C9
  8
LAYER_1
 10
11.15637076040535
 20
9.568161651147417
 30
0.0
  0
VERTEX
  5
9CA
  8
LAYER_1
 10
11.17364817577833
 20
9.578724283027338
 30
0.0
  0
VERTEX
  5
9CB
  8
LAYER_1
 10
11.19151990027962
 20
9.588847247439887
 30
0.0
  0
VERTEX
  5
9CC
  8
LAYER_1
 10
11.20998593390922
 20
9.598530544385063
 30
0.0
  0
VERTEX
  5
9CD
  8
LAYER_1
 10
11.22904627666713
 20
9.60777417386287
 30
0.0
  0
VERTEX
  5
9CE
  8
LAYER_1
 10
11.24855689955542
 20
9.616515975989987
 30
0.0
  0
VERTEX
  5
9CF
  8
LAYER_1
 10
11.26837377357615
 20
9.624693790883097
 30
0.0
  0
VERTEX
  5
9D0
  8
LAYER_1
 10
11.28849689872933
 20
9.6323076185422
 30
0.0
  0
VERTEX
  5
9D1
  8
LAYER_1
 10
11.30892627501495
 20
9.639357458967291
 30
0.0
  0
VERTEX
  5
9D2
  8
LAYER_1
 10
11.32966190243302
 20
9.64584331215838
 30
0.0
  0
VERTEX
  5
9D3
  8
LAYER_1
 10
11.35070378098353
 20
9.651765178115458
 30
0.0
  0
VERTEX
  5
9D4
  8
LAYER_1
 10
11.37205191066649
 20
9.657123056838529
 30
0.0
  0
VERTEX
  5
9D5
  8
LAYER_1
 10
11.39370629148189
 20
9.661916948327592
 30
0.0
  0
VERTEX
  5
9D6
  8
LAYER_1
 10
11.41566692342973
 20
9.66614685258265
 30
0.0
  0
VERTEX
  5
9D7
  8
LAYER_1
 10
11.43793380651002
 20
9.669812769603697
 30
0.0
  0
VERTEX
  5
9D8
  8
LAYER_1
 10
11.46050694072276
 20
9.67291469939074
 30
0.0
  0
VERTEX
  5
9D9
  8
LAYER_1
 10
11.48338632606794
 20
9.675452641943773
 30
0.0
  0
VERTEX
  5
9DA
  8
LAYER_1
 10
11.50657196254557
 20
9.6774265972628
 30
0.0
  0
VERTEX
  5
9DB
  8
LAYER_1
 10
11.53006385015564
 20
9.678836565347819
 30
0.0
  0
VERTEX
  5
9DC
  8
LAYER_1
 10
11.55386198889816
 20
9.67968254619883
 30
0.0
  0
SEQEND
  5
C3A
  8
LAYER_1
  0
POLYLINE
  5
85
  8
LAYER_1
 66
     1
 10
0.0
 20
0.0
 30
0.0
 70
     1
  0
VERTEX
  5
9DD
  8
LAYER_1
 10
11.56399404987899
 20
9.446316151086354
 30
0.0
  0
VERTEX
  5
9DE
  8
LAYER_1
 10
11.55290230094351
 20
9.44614483238355
 30
0.0
  0
VERTEX
  5
9DF
  8
LAYER_1
 10
11.54194396834296
 20
9.44563087627514
 30
0.0
  0
VERTEX
  5
9E0
  8
LAYER_1
 10
11.53111905207733
 20
9.444774282761124
 30
0.0
  0
VERTEX
  5
9E1
  8
LAYER_1
 10
11.52042755214663
 20
9.4435750518415
 30
0.0
  0
VERTEX
  5
9E2
  8
LAYER_1
 10
11.50986946855085
 20
9.44203318351627
 30
0.0
  0
VERTEX
  5
9E3
  8
LAYER_1
 10
11.49944480129001
 20
9.440148677785432
 30
0.0
  0
VERTEX
  5
9E4
  8
LAYER_1
 10
11.48915355036408
 20
9.437921534648988
 30
0.0
  0
VERTEX
  5
9E5
  8
LAYER_1
 10
11.47899571577309
 20
9.435351754106938
 30
0.0
  0
VERTEX
  5
9E6
  8
LAYER_1
 10
11.46897129751702
 20
9.432439336159282
 30
0.0
  0
VERTEX
  5
9E7
  8
LAYER_1
 10
11.45908029559588
 20
9.429184280806018
 30
0.0
  0
VERTEX
  5
9E8
  8
LAYER_1
 10
11.44932271000966
 20
9.425586588047146
 30
0.0
  0
VERTEX
  5
9E9
  8
LAYER_1
 10
11.43969854075837
 20
9.421646257882669
 30
0.0
  0
VERTEX
  5
9EA
  8
LAYER_1
 10
11.43020778784201
 20
9.417363290312586
 30
0.0
  0
VERTEX
  5
9EB
  8
LAYER_1
 10
11.42085045126057
 20
9.412737685336896
 30
0.0
  0
VERTEX
  5
9EC
  8
LAYER_1
 10
11.41162653101406
 20
9.407769442955598
 30
0.0
  0
VERTEX
  5
9ED
  8
LAYER_1
 10
11.40253602710248
 20
9.402458563168693
 30
0.0
  0
VERTEX
  5
9EE
  8
LAYER_1
 10
11.39364261550385
 20
9.396842948344059
 30
0.0
  0
VERTEX
  5
9EF
  8
LAYER_1
 10
11.38500997219622
 20
9.390960500849573
 30
0.0
  0
VERTEX
  5
9F0
  8
LAYER_1
 10
11.37663809717958
 20
9.384811220685231
 30
0.0
  0
VERTEX
  5
9F1
  8
LAYER_1
 10
11.36852699045394
 20
9.37839510785104
 30
0.0
  0
VERTEX
  5
9F2
  8
LAYER_1
 10
11.36067665201928
 20
9.371712162346993
 30
0.0
  0
VERTEX
  5
9F3
  8
LAYER_1
 10
11.35308708187562
 20
9.364762384173094
 30
0.0
  0
VERTEX
  5
9F4
  8
LAYER_1
 10
11.34575828002296
 20
9.35754577332934
 30
0.0
  0
VERTEX
  5
9F5
  8
LAYER_1
 10
11.33869024646128
 20
9.350062329815737
 30
0.0
  0
VERTEX
  5
9F6
  8
LAYER_1
 10
11.3318829811906
 20
9.342312053632279
 30
0.0
  0
VERTEX
  5
9F7
  8
LAYER_1
 10
11.32533648421091
 20
9.334294944778968
 30
0.0
  0
VERTEX
  5
9F8
  8
LAYER_1
 10
11.31905075552221
 20
9.326011003255802
 30
0.0
  0
VERTEX
  5
9F9
  8
LAYER_1
 10
11.31302579512451
 20
9.317460229062785
 30
0.0
  0
VERTEX
  5
9FA
  8
LAYER_1
 10
11.3072616030178
 20
9.308642622199914
 30
0.0
  0
VERTEX
  5
9FB
  8
LAYER_1
 10
11.30175817920208
 20
9.299558182667191
 30
0.0
  0
VERTEX
  5
9FC
  8
LAYER_1
 10
11.29651552367736
 20
9.290206910464613
 30
0.0
  0
VERTEX
  5
9FD
  8
LAYER_1
 10
11.29153363644362
 20
9.280588805592187
 30
0.0
  0
VERTEX
  5
9FE
  8
LAYER_1
 10
11.28683374282689
 20
9.270793317638097
 30
0.0
  0
VERTEX
  5
9FF
  8
LAYER_1
 10
11.28243706815318
 20
9.260909896190528
 30
0.0
  0
VERTEX
  5
A00
  8
LAYER_1
 10
11.27834361242248
 20
9.250938541249486
 30
0.0
  0
VERTEX
  5
A01
  8
LAYER_1
 10
11.27455337563479
 20
9.240879252814969
 30
0.0
  0
VERTEX
  5
A02
  8
LAYER_1
 10
11.27106635779012
 20
9.23073203088698
 30
0.0
  0
VERTEX
  5
A03
  8
LAYER_1
 10
11.26788255888847
 20
9.220496875465514
 30
0.0
  0
VERTEX
  5
A04
  8
LAYER_1
 10
11.26500197892983
 20
9.210173786550577
 30
0.0
  0
VERTEX
  5
A05
  8
LAYER_1
 10
11.2624246179142
 20
9.199762764142163
 30
0.0
  0
VERTEX
  5
A06
  8
LAYER_1
 10
11.26015047584159
 20
9.189263808240277
 30
0.0
  0
VERTEX
  5
A07
  8
LAYER_1
 10
11.258179552712
 20
9.178676918844914
 30
0.0
  0
VERTEX
  5
A08
  8
LAYER_1
 10
11.25651184852541
 20
9.168002095956078
 30
0.0
  0
VERTEX
  5
A09
  8
LAYER_1
 10
11.25514736328185
 20
9.157239339573767
 30
0.0
  0
VERTEX
  5
A0A
  8
LAYER_1
 10
11.25408609698129
 20
9.146388649697984
 30
0.0
  0
VERTEX
  5
A0B
  8
LAYER_1
 10
11.25332804962376
 20
9.135450026328726
 30
0.0
  0
VERTEX
  5
A0C
  8
LAYER_1
 10
11.25287322120924
 20
9.124423469465995
 30
0.0
  0
VERTEX
  5
A0D
  8
LAYER_1
 10
11.25272161173773
 20
9.113308979109785
 30
0.0
  0
VERTEX
  5
A0E
  8
LAYER_1
 10
11.25327347021402
 20
9.092956923654633
 30
0.0
  0
VERTEX
  5
A0F
  8
LAYER_1
 10
11.25492904564287
 20
9.07304150347742
 30
0.0
  0
VERTEX
  5
A10
  8
LAYER_1
 10
11.25768833802431
 20
9.05356271857815
 30
0.0
  0
VERTEX
  5
A11
  8
LAYER_1
 10
11.26155134735832
 20
9.034520568956822
 30
0.0
  0
VERTEX
  5
A12
  8
LAYER_1
 10
11.2665180736449
 20
9.015915054613433
 30
0.0
  0
VERTEX
  5
A13
  8
LAYER_1
 10
11.27258851688406
 20
8.997746175547988
 30
0.0
  0
VERTEX
  5
A14
  8
LAYER_1
 10
11.27976267707579
 20
8.980013931760482
 30
0.0
  0
VERTEX
  5
A15
  8
LAYER_1
 10
11.28804055422009
 20
8.962718323250918
 30
0.0
  0
VERTEX
  5
A16
  8
LAYER_1
 10
11.29259945102832
 20
8.954296417108683
 30
0.0
  0
VERTEX
  5
A17
  8
LAYER_1
 10
11.29744640583241
 20
8.94610798955257
 30
0.0
  0
VERTEX
  5
A18
  8
LAYER_1
 10
11.30258141863236
 20
8.938153040582574
 30
0.0
  0
VERTEX
  5
A19
  8
LAYER_1
 10
11.30800448942819
 20
8.930431570198703
 30
0.0
  0
VERTEX
  5
A1A
  8
LAYER_1
 10
11.31371561821987
 20
8.922943578400952
 30
0.0
  0
VERTEX
  5
A1B
  8
LAYER_1
 10
11.31971480500742
 20
8.915689065189323
 30
0.0
  0
VERTEX
  5
A1C
  8
LAYER_1
 10
11.32600204979083
 20
8.908668030563817
 30
0.0
  0
VERTEX
  5
A1D
  8
LAYER_1
 10
11.33257735257011
 20
8.901880474524429
 30
0.0
  0
VERTEX
  5
A1E
  8
LAYER_1
 10
11.33944071334524
 20
8.895326397071164
 30
0.0
  0
VERTEX
  5
A1F
  8
LAYER_1
 10
11.34659213211625
 20
8.889005798204021
 30
0.0
  0
VERTEX
  5
A20
  8
LAYER_1
 10
11.35403160888312
 20
8.882918677922998
 30
0.0
  0
VERTEX
  5
A21
  8
LAYER_1
 10
11.36175914364585
 20
8.877065036228098
 30
0.0
  0
VERTEX
  5
A22
  8
LAYER_1
 10
11.36977473640444
 20
8.87144487311932
 30
0.0
  0
VERTEX
  5
A23
  8
LAYER_1
 10
11.3780783871589
 20
8.866058188596663
 30
0.0
  0
VERTEX
  5
A24
  8
LAYER_1
 10
11.38667009590923
 20
8.860904982660125
 30
0.0
  0
VERTEX
  5
A25
  8
LAYER_1
 10
11.39554986265542
 20
8.85598525530971
 30
0.0
  0
VERTEX
  5
A26
  8
LAYER_1
 10
11.41373087047858
 20
8.84697965270217
 30
0.0
  0
VERTEX
  5
A27
  8
LAYER_1
 10
11.42292143664136
 20
8.842927131528779
 30
0.0
  0
VERTEX
  5
A28
  8
LAYER_1
 10
11.4321787109716
 20
8.83917479710897
 30
0.0
  0
VERTEX
  5
A29
  8
LAYER_1
 10
11.44150269346931
 20
8.835722649442747
 30
0.0
  0
VERTEX
  5
A2A
  8
LAYER_1
 10
11.45089338413448
 20
8.832570688530108
 30
0.0
  0
VERTEX
  5
A2B
  8
LAYER_1
 10
11.46035078296711
 20
8.829718914371053
 30
0.0
  0
VERTEX
  5
A2C
  8
LAYER_1
 10
11.4698748899672
 20
8.827167326965585
 30
0.0
  0
VERTEX
  5
A2D
  8
LAYER_1
 10
11.47946570513476
 20
8.824915926313698
 30
0.0
  0
VERTEX
  5
A2E
  8
LAYER_1
 10
11.48912322846978
 20
8.822964712415398
 30
0.0
  0
VERTEX
  5
A2F
  8
LAYER_1
 10
11.49884745997227
 20
8.821313685270683
 30
0.0
  0
VERTEX
  5
A30
  8
LAYER_1
 10
11.50863839964221
 20
8.819962844879552
 30
0.0
  0
VERTEX
  5
A31
  8
LAYER_1
 10
11.51849604747962
 20
8.818912191242005
 30
0.0
  0
VERTEX
  5
A32
  8
LAYER_1
 10
11.5284204034845
 20
8.818161724358044
 30
0.0
  0
VERTEX
  5
A33
  8
LAYER_1
 10
11.53841146765684
 20
8.817711444227667
 30
0.0
  0
VERTEX
  5
A34
  8
LAYER_1
 10
11.54846923999664
 20
8.817561350850875
 30
0.0
  0
VERTEX
  5
A35
  8
LAYER_1
 10
11.55918348134807
 20
8.817729637364248
 30
0.0
  0
VERTEX
  5
A36
  8
LAYER_1
 10
11.56978553169058
 20
8.818234496904369
 30
0.0
  0
VERTEX
  5
A37
  8
LAYER_1
 10
11.58027539102418
 20
8.819075929471236
 30
0.0
  0
VERTEX
  5
A38
  8
LAYER_1
 10
11.59065305934886
 20
8.820253935064848
 30
0.0
  0
VERTEX
  5
A39
  8
LAYER_1
 10
11.60091853666462
 20
8.821768513685207
 30
0.0
  0
VERTEX
  5
A3A
  8
LAYER_1
 10
11.61107182297147
 20
8.823619665332311
 30
0.0
  0
VERTEX
  5
A3B
  8
LAYER_1
 10
11.62111291826941
 20
8.825807390006164
 30
0.0
  0
VERTEX
  5
A3C
  8
LAYER_1
 10
11.63104182255843
 20
8.828331687706761
 30
0.0
  0
VERTEX
  5
A3D
  8
LAYER_1
 10
11.64085853583853
 20
8.831192558434106
 30
0.0
  0
VERTEX
  5
A3E
  8
LAYER_1
 10
11.65056305810972
 20
8.834390002188195
 30
0.0
  0
VERTEX
  5
A3F
  8
LAYER_1
 10
11.66015538937199
 20
8.837924018969034
 30
0.0
  0
VERTEX
  5
A40
  8
LAYER_1
 10
11.66963552962535
 20
8.841794608776617
 30
0.0
  0
VERTEX
  5
A41
  8
LAYER_1
 10
11.67900347886979
 20
8.846001771610947
 30
0.0
  0
VERTEX
  5
A42
  8
LAYER_1
 10
11.68825923710532
 20
8.850545507472022
 30
0.0
  0
VERTEX
  5
A43
  8
LAYER_1
 10
11.69740280433193
 20
8.855425816359846
 30
0.0
  0
VERTEX
  5
A44
  8
LAYER_1
 10
11.70643418054962
 20
8.860642698274416
 30
0.0
  0
VERTEX
  5
A45
  8
LAYER_1
 10
11.71527604492794
 20
8.866164315226717
 30
0.0
  0
VERTEX
  5
A46
  8
LAYER_1
 10
11.72385107663639
 20
8.87195882922773
 30
0.0
  0
VERTEX
  5
A47
  8
LAYER_1
 10
11.732159275675
 20
8.878026240277455
 30
0.0
  0
VERTEX
  5
A48
  8
LAYER_1
 10
11.74020064204375
 20
8.884366548375894
 30
0.0
  0
VERTEX
  5
A49
  8
LAYER_1
 10
11.74797517574265
 20
8.890979753523046
 30
0.0
  0
VERTEX
  5
A4A
  8
LAYER_1
 10
11.7554828767717
 20
8.897865855718912
 30
0.0
  0
VERTEX
  5
A4B
  8
LAYER_1
 10
11.76272374513089
 20
8.905024854963491
 30
0.0
  0
VERTEX
  5
A4C
  8
LAYER_1
 10
11.76969778082023
 20
8.912456751256784
 30
0.0
  0
VERTEX
  5
A4D
  8
LAYER_1
 10
11.77640498383972
 20
8.92016154459879
 30
0.0
  0
VERTEX
  5
A4E
  8
LAYER_1
 10
11.78284535418935
 20
8.928139234989509
 30
0.0
  0
VERTEX
  5
A4F
  8
LAYER_1
 10
11.78901889186913
 20
8.936389822428941
 30
0.0
  0
VERTEX
  5
A50
  8
LAYER_1
 10
11.79492559687906
 20
8.944913306917087
 30
0.0
  0
VERTEX
  5
A51
  8
LAYER_1
 10
11.80056546921914
 20
8.953709688453946
 30
0.0
  0
VERTEX
  5
A52
  8
LAYER_1
 10
11.80593850888936
 20
8.962778967039519
 30
0.0
  0
VERTEX
  5
A53
  8
LAYER_1
 10
11.81104471588973
 20
8.972121142673807
 30
0.0
  0
VERTEX
  5
A54
  8
LAYER_1
 10
11.81588409022025
 20
8.981736215356806
 30
0.0
  0
VERTEX
  5
A55
  8
LAYER_1
 10
11.82470776146198
 20
9.00135448096986
 30
0.0
  0
VERTEX
  5
A56
  8
LAYER_1
 10
11.83235494320481
 20
9.021203192979609
 30
0.0
  0
VERTEX
  5
A57
  8
LAYER_1
 10
11.83882563544875
 20
9.041282351386048
 30
0.0
  0
VERTEX
  5
A58
  8
LAYER_1
 10
11.84411983819378
 20
9.061591956189181
 30
0.0
  0
VERTEX
  5
A59
  8
LAYER_1
 10
11.84823755143992
 20
9.082132007389003
 30
0.0
  0
VERTEX
  5
A5A
  8
LAYER_1
 10
11.85117877518717
 20
9.102902504985515
 30
0.0
  0
VERTEX
  5
A5B
  8
LAYER_1
 10
11.85294350943551
 20
9.12390344897872
 30
0.0
  0
VERTEX
  5
A5C
  8
LAYER_1
 10
11.85353175418496
 20
9.145134839368618
 30
0.0
  0
VERTEX
  5
A5D
  8
LAYER_1
 10
11.85298596008754
 20
9.165699148083881
 30
0.0
  0
VERTEX
  5
A5E
  8
LAYER_1
 10
11.85134857779526
 20
9.185863207794366
 30
0.0
  0
VERTEX
  5
A5F
  8
LAYER_1
 10
11.84861960730812
 20
9.20562701850007
 30
0.0
  0
VERTEX
  5
A60
  8
LAYER_1
 10
11.84479904862614
 20
9.224990580200995
 30
0.0
  0
VERTEX
  5
A61
  8
LAYER_1
 10
11.8398869017493
 20
9.243953892897139
 30
0.0
  0
VERTEX
  5
A62
  8
LAYER_1
 10
11.8338831666776
 20
9.262516956588504
 30
0.0
  0
VERTEX
  5
A63
  8
LAYER_1
 10
11.82678784341106
 20
9.28067977127509
 30
0.0
  0
VERTEX
  5
A64
  8
LAYER_1
 10
11.81860093194966
 20
9.298442336956898
 30
0.0
  0
VERTEX
  5
A65
  8
LAYER_1
 10
11.81410722721418
 20
9.307100753874684
 30
0.0
  0
VERTEX
  5
A66
  8
LAYER_1
 10
11.80935881856657
 20
9.315513563448631
 30
0.0
  0
VERTEX
  5
A67
  8
LAYER_1
 10
11.80435570600683
 20
9.323680765678734
 30
0.0
  0
VERTEX
  5
A68
  8
LAYER_1
 10
11.79909788953495
 20
9.331602360564997
 30
0.0
  0
VERTEX
  5
A69
  8
LAYER_1
 10
11.79358536915094
 20
9.339278348107415
 30
0.0
  0
VERTEX
  5
A6A
  8
LAYER_1
 10
11.7878181448548
 20
9.346708728305993
 30
0.0
  0
VERTEX
  5
A6B
  8
LAYER_1
 10
11.78179621664652
 20
9.353893501160728
 30
0.0
  0
VERTEX
  5
A6C
  8
LAYER_1
 10
11.77551958452612
 20
9.360832666671623
 30
0.0
  0
VERTEX
  5
A6D
  8
LAYER_1
 10
11.76898824849358
 20
9.367526224838674
 30
0.0
  0
VERTEX
  5
A6E
  8
LAYER_1
 10
11.76220220854891
 20
9.373974175661884
 30
0.0
  0
VERTEX
  5
A6F
  8
LAYER_1
 10
11.7551614646921
 20
9.380176519141251
 30
0.0
  0
VERTEX
  5
A70
  8
LAYER_1
 10
11.74786601692317
 20
9.386133255276778
 30
0.0
  0
VERTEX
  5
A71
  8
LAYER_1
 10
11.7403158652421
 20
9.39184438406846
 30
0.0
  0
VERTEX
  5
A72
  8
LAYER_1
 10
11.7325110096489
 20
9.397309905516302
 30
0.0
  0
VERTEX
  5
A73
  8
LAYER_1
 10
11.72445145014357
 20
9.402529819620302
 30
0.0
  0
VERTEX
  5
A74
  8
LAYER_1
 10
11.7161371867261
 20
9.40750412638046
 30
0.0
  0
VERTEX
  5
A75
  8
LAYER_1
 10
11.7076288631851
 20
9.412204019997189
 30
0.0
  0
VERTEX
  5
A76
  8
LAYER_1
 10
11.69898712330918
 20
9.416600694670901
 30
0.0
  0
VERTEX
  5
A77
  8
LAYER_1
 10
11.69021196709833
 20
9.420694150401602
 30
0.0
  0
VERTEX
  5
A78
  8
LAYER_1
 10
11.68130339455256
 20
9.424484387189288
 30
0.0
  0
VERTEX
  5
A79
  8
LAYER_1
 10
11.67226140567186
 20
9.427971405033958
 30
0.0
  0
VERTEX
  5
A7A
  8
LAYER_1
 10
11.66308600045623
 20
9.431155203935614
 30
0.0
  0
VERTEX
  5
A7B
  8
LAYER_1
 10
11.65377717890568
 20
9.434035783894256
 30
0.0
  0
VERTEX
  5
A7C
  8
LAYER_1
 10
11.6443349410202
 20
9.436613144909881
 30
0.0
  0
VERTEX
  5
A7D
  8
LAYER_1
 10
11.63475928679979
 20
9.438887286982492
 30
0.0
  0
VERTEX
  5
A7E
  8
LAYER_1
 10
11.62505021624446
 20
9.440858210112086
 30
0.0
  0
VERTEX
  5
A7F
  8
LAYER_1
 10
11.61520772935419
 20
9.44252591429867
 30
0.0
  0
VERTEX
  5
A80
  8
LAYER_1
 10
11.60523182612901
 20
9.443890399542235
 30
0.0
  0
VERTEX
  5
A81
  8
LAYER_1
 10
11.59512250656889
 20
9.444951665842787
 30
0.0
  0
VERTEX
  5
A82
  8
LAYER_1
 10
11.58487977067385
 20
9.445709713200323
 30
0.0
  0
VERTEX
  5
A83
  8
LAYER_1
 10
11.57450361844389
 20
9.446164541614847
 30
0.0
  0
SEQEND
  5
C3B
  8
LAYER_1
  0
POLYLINE
  5
86
  8
LAYER_1
 66
     1
 10
0.0
 20
0.0
 30
0.0
 70
     1
  0
VERTEX
  5
A84
  8
LAYER_1
 10
12.95501701533823
 20
9.679964539815833
 30
0.0
  0
VERTEX
  5
A85
  8
LAYER_1
 10
12.98592109001029
 20
9.679443003233846
 30
0.0
  0
VERTEX
  5
A86
  8
LAYER_1
 10
13.01653407449707
 20
9.677878393487891
 30
0.0
  0
VERTEX
  5
A87
  8
LAYER_1
 10
13.04685596879855
 20
9.675270710577966
 30
0.0
  0
VERTEX
  5
A88
  8
LAYER_1
 10
13.07688677291473
 20
9.671619954504067
 30
0.0
  0
VERTEX
  5
A89
  8
LAYER_1
 10
13.10662648684562
 20
9.666926125266198
 30
0.0
  0
VERTEX
  5
A8A
  8
LAYER_1
 10
13.13607511059122
 20
9.661189222864358
 30
0.0
  0
VERTEX
  5
A8B
  8
LAYER_1
 10
13.16523264415152
 20
9.654409247298547
 30
0.0
  0
VERTEX
  5
A8C
  8
LAYER_1
 10
13.19409908752653
 20
9.646586198568764
 30
0.0
  0
VERTEX
  5
A8D
  8
LAYER_1
 10
13.2083473456588
 20
9.642257748157228
 30
0.0
  0
VERTEX
  5
A8E
  8
LAYER_1
 10
13.22237122177323
 20
9.637616982234388
 30
0.0
  0
VERTEX
  5
A8F
  8
LAYER_1
 10
13.23617071586983
 20
9.632663900800239
 30
0.0
  0
VERTEX
  5
A90
  8
LAYER_1
 10
13.2497458279486
 20
9.627398503854788
 30
0.0
  0
VERTEX
  5
A91
  8
LAYER_1
 10
13.26309655800955
 20
9.62182079139803
 30
0.0
  0
VERTEX
  5
A92
  8
LAYER_1
 10
13.27622290605266
 20
9.615930763429969
 30
0.0
  0
VERTEX
  5
A93
  8
LAYER_1
 10
13.28912487207793
 20
9.6097284199506
 30
0.0
  0
VERTEX
  5
A94
  8
LAYER_1
 10
13.30180245608538
 20
9.603213760959928
 30
0.0
  0
VERTEX
  5
A95
  8
LAYER_1
 10
13.314255658075
 20
9.596386786457948
 30
0.0
  0
VERTEX
  5
A96
  8
LAYER_1
 10
13.32648447804679
 20
9.589247496444667
 30
0.0
  0
VERTEX
  5
A97
  8
LAYER_1
 10
13.33848891600074
 20
9.581795890920077
 30
0.0
  0
VERTEX
  5
A98
  8
LAYER_1
 10
13.35026897193687
 20
9.574031969884183
 30
0.0
  0
VERTEX
  5
A99
  8
LAYER_1
 10
13.36182464585516
 20
9.565955733336985
 30
0.0
  0
VERTEX
  5
A9A
  8
LAYER_1
 10
13.37315593775563
 20
9.55756718127848
 30
0.0
  0
VERTEX
  5
A9B
  8
LAYER_1
 10
13.38426284763826
 20
9.54886631370867
 30
0.0
  0
VERTEX
  5
A9C
  8
LAYER_1
 10
13.39514537550306
 20
9.539853130627556
 30
0.0
  0
VERTEX
  5
A9D
  8
LAYER_1
 10
13.40574590975086
 20
9.530597372392029
 30
0.0
  0
VERTEX
  5
A9E
  8
LAYER_1
 10
13.41600683878248
 20
9.521168779358984
 30
0.0
  0
VERTEX
  5
A9F
  8
LAYER_1
 10
13.42592816259792
 20
9.51156735152842
 30
0.0
  0
VERTEX
  5
AA0
  8
LAYER_1
 10
13.43550988119719
 20
9.50179308890034
 30
0.0
  0
VERTEX
  5
AA1
  8
LAYER_1
 10
13.44475199458028
 20
9.49184599147474
 30
0.0
  0
VERTEX
  5
AA2
  8
LAYER_1
 10
13.4536545027472
 20
9.48172605925162
 30
0.0
  0
VERTEX
  5
AA3
  8
LAYER_1
 10
13.46221740569793
 20
9.471433292230984
 30
0.0
  0
VERTEX
  5
AA4
  8
LAYER_1
 10
13.47044070343249
 20
9.46096769041283
 30
0.0
  0
VERTEX
  5
AA5
  8
LAYER_1
 10
13.47832439595088
 20
9.450329253797154
 30
0.0
  0
VERTEX
  5
AA6
  8
LAYER_1
 10
13.48586848325309
 20
9.439517982383961
 30
0.0
  0
VERTEX
  5
AA7
  8
LAYER_1
 10
13.49307296533912
 20
9.428533876173251
 30
0.0
  0
VERTEX
  5
AA8
  8
LAYER_1
 10
13.49993784220897
 20
9.417376935165022
 30
0.0
  0
VERTEX
  5
AA9
  8
LAYER_1
 10
13.50646311386265
 20
9.406047159359272
 30
0.0
  0
VERTEX
  5
AAA
  8
LAYER_1
 10
13.51264878030015
 20
9.394544548756006
 30
0.0
  0
VERTEX
  5
AAB
  8
LAYER_1
 10
13.51849484152148
 20
9.38286910335522
 30
0.0
  0
VERTEX
  5
AAC
  8
LAYER_1
 10
13.52400129752663
 20
9.371020823156918
 30
0.0
  0
VERTEX
  5
AAD
  8
LAYER_1
 10
13.52917118050503
 20
9.35897393455094
 30
0.0
  0
VERTEX
  5
AAE
  8
LAYER_1
 10
13.53400752264611
 20
9.346702663927132
 30
0.0
  0
VERTEX
  5
AAF
  8
LAYER_1
 10
13.53851032394988
 20
9.334207011285491
 30
0.0
  0
VERTEX
  5
AB0
  8
LAYER_1
 10
13.54267958441634
 20
9.32148697662602
 30
0.0
  0
VERTEX
  5
AB1
  8
LAYER_1
 10
13.54651530404548
 20
9.308542559948718
 30
0.0
  0
VERTEX
  5
AB2
  8
LAYER_1
 10
13.5500174828373
 20
9.295373761253586
 30
0.0
  0
VERTEX
  5
AB3
  8
LAYER_1
 10
13.5531861207918
 20
9.281980580540623
 30
0.0
  0
VERTEX
  5
AB4
  8
LAYER_1
 10
13.55602121790899
 20
9.268363017809829
 30
0.0
  0
VERTEX
  5
AB5
  8
LAYER_1
 10
13.55852277418886
 20
9.254521073061204
 30
0.0
  0
VERTEX
  5
AB6
  8
LAYER_1
 10
13.56069078963142
 20
9.240454746294748
 30
0.0
  0
VERTEX
  5
AB7
  8
LAYER_1
 10
13.56252526423666
 20
9.22616403751046
 30
0.0
  0
VERTEX
  5
AB8
  8
LAYER_1
 10
13.56402619800458
 20
9.21164894670834
 30
0.0
  0
VERTEX
  5
AB9
  8
LAYER_1
 10
13.56519359093519
 20
9.196909473888391
 30
0.0
  0
VERTEX
  5
ABA
  8
LAYER_1
 10
13.56602744302848
 20
9.181945619050612
 30
0.0
  0
VERTEX
  5
ABB
  8
LAYER_1
 10
13.56652775428445
 20
9.166757382195001
 30
0.0
  0
VERTEX
  5
ABC
  8
LAYER_1
 10
13.56669452470311
 20
9.15134476332156
 30
0.0
  0
VERTEX
  5
ABD
  8
LAYER_1
 10
13.56651107724259
 20
9.135127098154413
 30
0.0
  0
VERTEX
  5
ABE
  8
LAYER_1
 10
13.56596073486102
 20
9.119076203405925
 30
0.0
  0
VERTEX
  5
ABF
  8
LAYER_1
 10
13.5650434975584
 20
9.103192079076095
 30
0.0
  0
VERTEX
  5
AC0
  8
LAYER_1
 10
13.56375936533473
 20
9.087474725164924
 30
0.0
  0
VERTEX
  5
AC1
  8
LAYER_1
 10
13.56210833819001
 20
9.071924141672412
 30
0.0
  0
VERTEX
  5
AC2
  8
LAYER_1
 10
13.56009041612425
 20
9.056540328598555
 30
0.0
  0
VERTEX
  5
AC3
  8
LAYER_1
 10
13.55770559913744
 20
9.041323285943356
 30
0.0
  0
VERTEX
  5
AC4
  8
LAYER_1
 10
13.55495388722958
 20
9.026273013706817
 30
0.0
  0
VERTEX
  5
AC5
  8
LAYER_1
 10
13.55183528040067
 20
9.011389511888936
 30
0.0
  0
VERTEX
  5
AC6
  8
LAYER_1
 10
13.54834977865072
 20
8.996672780489714
 30
0.0
  0
VERTEX
  5
AC7
  8
LAYER_1
 10
13.54449738197971
 20
8.982122819509149
 30
0.0
  0
VERTEX
  5
AC8
  8
LAYER_1
 10
13.54027809038766
 20
8.967739628947243
 30
0.0
  0
VERTEX
  5
AC9
  8
LAYER_1
 10
13.53569190387456
 20
8.953523208803993
 30
0.0
  0
VERTEX
  5
ACA
  8
LAYER_1
 10
13.53073882244042
 20
8.939473559079403
 30
0.0
  0
VERTEX
  5
ACB
  8
LAYER_1
 10
13.52541884608522
 20
8.925590679773471
 30
0.0
  0
VERTEX
  5
ACC
  8
LAYER_1
 10
13.51973197480898
 20
8.911874570886196
 30
0.0
  0
VERTEX
  5
ACD
  8
LAYER_1
 10
13.5136994339377
 20
8.898370715259032
 30
0.0
  0
VERTEX
  5
ACE
  8
LAYER_1
 10
13.5073424487974
 20
8.88512459573343
 30
0.0
  0
VERTEX
  5
ACF
  8
LAYER_1
 10
13.50066101938807
 20
8.872136212309393
 30
0.0
  0
VERTEX
  5
AD0
  8
LAYER_1
 10
13.49365514570971
 20
8.859405564986915
 30
0.0
  0
VERTEX
  5
AD1
  8
LAYER_1
 10
13.48632482776232
 20
8.846932653766002
 30
0.0
  0
VERTEX
  5
AD2
  8
LAYER_1
 10
13.47867006554592
 20
8.834717478646652
 30
0.0
  0
VERTEX
  5
AD3
  8
LAYER_1
 10
13.47069085906048
 20
8.822760039628864
 30
0.0
  0
VERTEX
  5
AD4
  8
LAYER_1
 10
13.46238720830602
 20
8.81106033671264
 30
0.0
  0
VERTEX
  5
AD5
  8
LAYER_1
 10
13.45375911328254
 20
8.799618369897976
 30
0.0
  0
VERTEX
  5
AD6
  8
LAYER_1
 10
13.44480657399003
 20
8.788434139184876
 30
0.0
  0
VERTEX
  5
AD7
  8
LAYER_1
 10
13.43552959042849
 20
8.777507644573337
 30
0.0
  0
VERTEX
  5
AD8
  8
LAYER_1
 10
13.42592816259792
 20
8.766838886063361
 30
0.0
  0
VERTEX
  5
AD9
  8
LAYER_1
 10
13.41600229049834
 20
8.756427863654949
 30
0.0
  0
VERTEX
  5
ADA
  8
LAYER_1
 10
13.40575197412972
 20
8.746274577348098
 30
0.0
  0
VERTEX
  5
ADB
  8
LAYER_1
 10
13.39517721349208
 20
8.73637902714281
 30
0.0
  0
VERTEX
  5
ADC
  8
LAYER_1
 10
13.38427800858541
 20
8.726741213039084
 30
0.0
  0
VERTEX
  5
ADD
  8
LAYER_1
 10
13.3730831652093
 20
8.717391456931223
 30
0.0
  0
VERTEX
  5
ADE
  8
LAYER_1
 10
13.36162148916334
 20
8.708360080713526
 30
0.0
  0
VERTEX
  5
ADF
  8
LAYER_1
 10
13.34989298044753
 20
8.699647084385996
 30
0.0
  0
VERTEX
  5
AE0
  8
LAYER_1
 10
13.33789763906187
 20
8.69125246794863
 30
0.0
  0
VERTEX
  5
AE1
  8
LAYER_1
 10
13.32563546500635
 20
8.683176231401431
 30
0.0
  0
VERTEX
  5
AE2
  8
LAYER_1
 10
13.31310645828098
 20
8.675418374744396
 30
0.0
  0
VERTEX
  5
AE3
  8
LAYER_1
 10
13.30031061888575
 20
8.66797889797753
 30
0.0
  0
VERTEX
  5
AE4
  8
LAYER_1
 10
13.28724794682067
 20
8.660857801100828
 30
0.0
  0
VERTEX
  5
AE5
  8
LAYER_1
 10
13.27391844208574
 20
8.654055084114292
 30
0.0
  0
VERTEX
  5
AE6
  8
LAYER_1
 10
13.26032210468096
 20
8.64757074701792
 30
0.0
  0
VERTEX
  5
AE7
  8
LAYER_1
 10
13.24645893460632
 20
8.641404789811714
 30
0.0
  0
VERTEX
  5
AE8
  8
LAYER_1
 10
13.23232893186183
 20
8.635557212495673
 30
0.0
  0
VERTEX
  5
AE9
  8
LAYER_1
 10
13.21793209644749
 20
8.630028015069799
 30
0.0
  0
VERTEX
  5
AEA
  8
LAYER_1
 10
13.2032684283633
 20
8.624817197534089
 30
0.0
  0
VERTEX
  5
AEB
  8
LAYER_1
 10
13.18833792760925
 20
8.619924759888546
 30
0.0
  0
VERTEX
  5
AEC
  8
LAYER_1
 10
13.17314059418535
 20
8.615350702133169
 30
0.0
  0
VERTEX
  5
AED
  8
LAYER_1
 10
13.14232142081732
 20
8.607072824988865
 30
0.0
  0
VERTEX
  5
AEE
  8
LAYER_1
 10
13.11118689974857
 20
8.599898664797136
 30
0.0
  0
VERTEX
  5
AEF
  8
LAYER_1
 10
13.07973703097907
 20
8.59382822155798
 30
0.0
  0
VERTEX
  5
AF0
  8
LAYER_1
 10
13.04797181450884
 20
8.588861495271397
 30
0.0
  0
VERTEX
  5
AF1
  8
LAYER_1
 10
13.01589125033787
 20
8.584998485937389
 30
0.0
  0
VERTEX
  5
AF2
  8
LAYER_1
 10
12.98349533846617
 20
8.582239193555953
 30
0.0
  0
VERTEX
  5
AF3
  8
LAYER_1
 10
12.95078407889374
 20
8.580583618127093
 30
0.0
  0
VERTEX
  5
AF4
  8
LAYER_1
 10
12.91775747162057
 20
8.580031759650806
 30
0.0
  0
VERTEX
  5
AF5
  8
LAYER_1
 10
12.88513111335218
 20
8.580571489369373
 30
0.0
  0
VERTEX
  5
AF6
  8
LAYER_1
 10
12.85284436029996
 20
8.582190678525073
 30
0.0
  0
VERTEX
  5
AF7
  8
LAYER_1
 10
12.82089721246392
 20
8.584889327117905
 30
0.0
  0
VERTEX
  5
AF8
  8
LAYER_1
 10
12.78928966984406
 20
8.588667435147869
 30
0.0
  0
VERTEX
  5
AF9
  8
LAYER_1
 10
12.75802173244037
 20
8.593525002614966
 30
0.0
  0
VERTEX
  5
AFA
  8
LAYER_1
 10
12.72709340025287
 20
8.599462029519195
 30
0.0
  0
VERTEX
  5
AFB
  8
LAYER_1
 10
12.69650467328153
 20
8.606478515860557
 30
0.0
  0
VERTEX
  5
AFC
  8
LAYER_1
 10
12.66625555152638
 20
8.614574461639052
 30
0.0
  0
VERTEX
  5
AFD
  8
LAYER_1
 10
12.65133869562476
 20
8.61905906980624
 30
0.0
  0
VERTEX
  5
AFE
  8
LAYER_1
 10
12.63666744706699
 20
8.623877218810746
 30
0.0
  0
VERTEX
  5
AFF
  8
LAYER_1
 10
12.62224180585306
 20
8.629028908652566
 30
0.0
  0
VERTEX
  5
B00
  8
LAYER_1
 10
12.60806177198298
 20
8.634514139331703
 30
0.0
  0
VERTEX
  5
B01
  8
LAYER_1
 10
12.59412734545673
 20
8.640332910848157
 30
0.0
  0
VERTEX
  5
B02
  8
LAYER_1
 10
12.58043852627433
 20
8.646485223201928
 30
0.0
  0
VERTEX
  5
B03
  8
LAYER_1
 10
12.56699531443577
 20
8.652971076393015
 30
0.0
  0
VERTEX
  5
B04
  8
LAYER_1
 10
12.55379770994105
 20
8.659790470421417
 30
0.0
  0
VERTEX
  5
B05
  8
LAYER_1
 10
12.54084571279017
 20
8.666943405287135
 30
0.0
  0
VERTEX
  5
B06
  8
LAYER_1
 10
12.52813932298314
 20
8.674429880990171
 30
0.0
  0
VERTEX
  5
B07
  8
LAYER_1
 10
12.51567854051994
 20
8.682249897530522
 30
0.0
  0
VERTEX
  5
B08
  8
LAYER_1
 10
12.50346336540059
 20
8.690403454908191
 30
0.0
  0
VERTEX
  5
B09
  8
LAYER_1
 10
12.49149379762508
 20
8.698890553123176
 30
0.0
  0
VERTEX
  5
B0A
  8
LAYER_1
 10
12.47976983719342
 20
8.707711192175477
 30
0.0
  0
VERTEX
  5
B0B
  8
LAYER_1
 10
12.46829148410559
 20
8.716865372065094
 30
0.0
  0
VERTEX
  5
B0C
  8
LAYER_1
 10
12.45705873836161
 20
8.726353092792024
 30
0.0
  0
VERTEX
  5
B0D
  8
LAYER_1
 10
12.44615043688665
 20
8.736075808199793
 30
0.0
  0
VERTEX
  5
B0E
  8
LAYER_1
 10
12.4356454166059
 20
8.74593497213192
 30
0.0
  0
VERTEX
  5
B0F
  8
LAYER_1
 10
12.42554367751937
 20
8.755930584588402
 30
0.0
  0
VERTEX
  5
B10
  8
LAYER_1
 10
12.41584521962704
 20
8.766062645569242
 30
0.0
  0
VERTEX
  5
B11
  8
LAYER_1
 10
12.40655004292892
 20
8.776331155074438
 30
0.0
  0
VERTEX
  5
B12
  8
LAYER_1
 10
12.39765814742501
 20
8.786736113103991
 30
0.0
  0
VERTEX
  5
B13
  8
LAYER_1
 10
12.38916953311531
 20
8.7972775196579
 30
0.0
  0
VERTEX
  5
B14
  8
LAYER_1
 10
12.38108419999982
 20
8.807955374736167
 30
0.0
  0
VERTEX
  5
B15
  8
LAYER_1
 10
12.37340214807854
 20
8.81876967833879
 30
0.0
  0
VERTEX
  5
B16
  8
LAYER_1
 10
12.36612337735147
 20
8.82972043046577
 30
0.0
  0
VERTEX
  5
B17
  8
LAYER_1
 10
12.35924788781861
 20
8.840807631117103
 30
0.0
  0
VERTEX
  5
B18
  8
LAYER_1
 10
12.35277567947996
 20
8.852031280292797
 30
0.0
  0
VERTEX
  5
B19
  8
LAYER_1
 10
12.34670675233552
 20
8.863391377992846
 30
0.0
  0
VERTEX
  5
B1A
  8
LAYER_1
 10
12.34104110638529
 20
8.874887924217251
 30
0.0
  0
VERTEX
  5
B1B
  8
LAYER_1
 10
12.33577874162927
 20
8.886520918966013
 30
0.0
  0
VERTEX
  5
B1C
  8
LAYER_1
 10
12.33091965806745
 20
8.898290362239134
 30
0.0
  0
VERTEX
  5
B1D
  8
LAYER_1
 10
12.32640776019539
 20
8.910209898889045
 30
0.0
  0
VERTEX
  5
B1E
  8
LAYER_1
 10
12.32218695250863
 20
8.922293173768185
 30
0.0
  0
VERTEX
  5
B1F
  8
LAYER_1
 10
12.31825723500716
 20
8.934540186876552
 30
0.0
  0
VERTEX
  5
B20
  8
LAYER_1
 10
12.31461860769098
 20
8.946950938214147
 30
0.0
  0
VERTEX
  5
B21
  8
LAYER_1
 10
12.3112710705601
 20
8.95952542778097
 30
0.0
  0
VERTEX
  5
B22
  8
LAYER_1
 10
12.30821462361451
 20
8.972263655577024
 30
0.0
  0
VERTEX
  5
B23
  8
LAYER_1
 10
12.30544926685421
 20
8.985165621602302
 30
0.0
  0
VERTEX
  5
B24
  8
LAYER_1
 10
12.30297500027921
 20
8.99823132585681
 30
0.0
  0
VERTEX
  5
B25
  8
LAYER_1
 10
12.30079182388951
 20
9.011460768340545
 30
0.0
  0
VERTEX
  5
B26
  8
LAYER_1
 10
12.2988997376851
 20
9.024853949053508
 30
0.0
  0
VERTEX
  5
B27
  8
LAYER_1
 10
12.29729874166598
 20
9.038410867995701
 30
0.0
  0
VERTEX
  5
B28
  8
LAYER_1
 10
12.29598883583215
 20
9.05213152516712
 30
0.0
  0
VERTEX
  5
B29
  8
LAYER_1
 10
12.29497002018362
 20
9.066015920567768
 30
0.0
  0
VERTEX
  5
B2A
  8
LAYER_1
 10
12.29424229472039
 20
9.080064054197642
 30
0.0
  0
VERTEX
  5
B2B
  8
LAYER_1
 10
12.2936601143498
 20
9.108651536145079
 30
0.0
  0
VERTEX
  5
B2C
  8
LAYER_1
 10
12.29396788157696
 20
9.129738897537045
 30
0.0
  0
VERTEX
  5
B2D
  8
LAYER_1
 10
12.29489118325844
 20
9.150501814659982
 30
0.0
  0
VERTEX
  5
B2E
  8
LAYER_1
 10
12.29643001939424
 20
9.170940287513893
 30
0.0
  0
VERTEX
  5
B2F
  8
LAYER_1
 10
12.29858438998436
 20
9.19105431609878
 30
0.0
  0
VERTEX
  5
B30
  8
LAYER_1
 10
12.3013542950288
 20
9.210843900414643
 30
0.0
  0
VERTEX
  5
B31
  8
LAYER_1
 10
12.30473973452756
 20
9.230309040461476
 30
0.0
  0
VERTEX
  5
B32
  8
LAYER_1
 10
12.30874070848064
 20
9.249449736239285
 30
0.0
  0
VERTEX
  5
B33
  8
LAYER_1
 10
12.31335721688804
 20
9.268265987748066
 30
0.0
  0
VERTEX
  5
B34
  8
LAYER_1
 10
12.31858925974976
 20
9.286757794987825
 30
0.0
  0
VERTEX
  5
B35
  8
LAYER_1
 10
12.3244368370658
 20
9.304925157958555
 30
0.0
  0
VERTEX
  5
B36
  8
LAYER_1
 10
12.33089994883616
 20
9.322768076660262
 30
0.0
  0
VERTEX
  5
B37
  8
LAYER_1
 10
12.33797859506084
 20
9.340286551092941
 30
0.0
  0
VERTEX
  5
B38
  8
LAYER_1
 10
12.34567277573984
 20
9.357480581256596
 30
0.0
  0
VERTEX
  5
B39
  8
LAYER_1
 10
12.35398249087316
 20
9.374350167151224
 30
0.0
  0
VERTEX
  5
B3A
  8
LAYER_1
 10
12.3629077404608
 20
9.390895308776827
 30
0.0
  0
VERTEX
  5
B3B
  8
LAYER_1
 10
12.37244852450276
 20
9.4071160061334
 30
0.0
  0
VERTEX
  5
B3C
  8
LAYER_1
 10
12.38259423033604
 20
9.422954647621777
 30
0.0
  0
VERTEX
  5
B3D
  8
LAYER_1
 10
12.39333424529762
 20
9.438353621642783
 30
0.0
  0
VERTEX
  5
B3E
  8
LAYER_1
 10
12.40466856938751
 20
9.453312928196418
 30
0.0
  0
VERTEX
  5
B3F
  8
LAYER_1
 10
12.41659720260571
 20
9.467832567282683
 30
0.0
  0
VERTEX
  5
B40
  8
LAYER_1
 10
12.42912014495223
 20
9.481912538901575
 30
0.0
  0
VERTEX
  5
B41
  8
LAYER_1
 10
12.44223739642705
 20
9.495552843053094
 30
0.0
  0
VERTEX
  5
B42
  8
LAYER_1
 10
12.45594895703018
 20
9.508753479737244
 30
0.0
  0
VERTEX
  5
B43
  8
LAYER_1
 10
12.47025482676161
 20
9.521514448954022
 30
0.0
  0
VERTEX
  5
B44
  8
LAYER_1
 10
12.48515500562136
 20
9.533835750703428
 30
0.0
  0
VERTEX
  5
B45
  8
LAYER_1
 10
12.50064949360942
 20
9.545717384985462
 30
0.0
  0
VERTEX
  5
B46
  8
LAYER_1
 10
12.51673829072578
 20
9.557159351800125
 30
0.0
  0
VERTEX
  5
B47
  8
LAYER_1
 10
12.53342139697046
 20
9.568161651147417
 30
0.0
  0
VERTEX
  5
B48
  8
LAYER_1
 10
12.55069881234344
 20
9.578724283027338
 30
0.0
  0
VERTEX
  5
B49
  8
LAYER_1
 10
12.56857053684473
 20
9.588847247439887
 30
0.0
  0
VERTEX
  5
B4A
  8
LAYER_1
 10
12.58703657047433
 20
9.598530544385063
 30
0.0
  0
VERTEX
  5
B4B
  8
LAYER_1
 10
12.60609691323224
 20
9.60777417386287
 30
0.0
  0
VERTEX
  5
B4C
  8
LAYER_1
 10
12.62560753612053
 20
9.616515975989987
 30
0.0
  0
VERTEX
  5
B4D
  8
LAYER_1
 10
12.64542441014126
 20
9.624693790883097
 30
0.0
  0
VERTEX
  5
B4E
  8
LAYER_1
 10
12.66554753529444
 20
9.6323076185422
 30
0.0
  0
VERTEX
  5
B4F
  8
LAYER_1
 10
12.68597691158006
 20
9.639357458967291
 30
0.0
  0
VERTEX
  5
B50
  8
LAYER_1
 10
12.70671253899813
 20
9.64584331215838
 30
0.0
  0
VERTEX
  5
B51
  8
LAYER_1
 10
12.72775441754864
 20
9.651765178115458
 30
0.0
  0
VERTEX
  5
B52
  8
LAYER_1
 10
12.74910254723159
 20
9.657123056838529
 30
0.0
  0
VERTEX
  5
B53
  8
LAYER_1
 10
12.770756928047
 20
9.661916948327592
 30
0.0
  0
VERTEX
  5
B54
  8
LAYER_1
 10
12.79271755999484
 20
9.66614685258265
 30
0.0
  0
VERTEX
  5
B55
  8
LAYER_1
 10
12.81498444307513
 20
9.669812769603697
 30
0.0
  0
VERTEX
  5
B56
  8
LAYER_1
 10
12.83755757728787
 20
9.67291469939074
 30
0.0
  0
VERTEX
  5
B57
  8
LAYER_1
 10
12.86043696263305
 20
9.675452641943773
 30
0.0
  0
VERTEX
  5
B58
  8
LAYER_1
 10
12.88362259911068
 20
9.6774265972628
 30
0.0
  0
VERTEX
  5
B59
  8
LAYER_1
 10
12.90711448672075
 20
9.678836565347819
 30
0.0
  0
VERTEX
  5
B5A
  8
LAYER_1
 10
12.93091262546326
 20
9.67968254619883
 30
0.0
  0
SEQEND
  5
C3C
  8
LAYER_1
  0
POLYLINE
  5
87
  8
LAYER_1
 66
     1
 10
0.0
 20
0.0
 30
0.0
 70
     1
  0
VERTEX
  5
B5B
  8
LAYER_1
 10
12.9410446864441
 20
9.446316151086354
 30
0.0
  0
VERTEX
  5
B5C
  8
LAYER_1
 10
12.92995293750862
 20
9.44614483238355
 30
0.0
  0
VERTEX
  5
B5D
  8
LAYER_1
 10
12.91899460490807
 20
9.44563087627514
 30
0.0
  0
VERTEX
  5
B5E
  8
LAYER_1
 10
12.90816968864244
 20
9.444774282761124
 30
0.0
  0
VERTEX
  5
B5F
  8
LAYER_1
 10
12.89747818871174
 20
9.4435750518415
 30
0.0
  0
VERTEX
  5
B60
  8
LAYER_1
 10
12.88692010511596
 20
9.44203318351627
 30
0.0
  0
VERTEX
  5
B61
  8
LAYER_1
 10
12.87649543785511
 20
9.440148677785432
 30
0.0
  0
VERTEX
  5
B62
  8
LAYER_1
 10
12.86620418692919
 20
9.437921534648988
 30
0.0
  0
VERTEX
  5
B63
  8
LAYER_1
 10
12.8560463523382
 20
9.435351754106938
 30
0.0
  0
VERTEX
  5
B64
  8
LAYER_1
 10
12.84602193408213
 20
9.432439336159282
 30
0.0
  0
VERTEX
  5
B65
  8
LAYER_1
 10
12.83613093216099
 20
9.429184280806018
 30
0.0
  0
VERTEX
  5
B66
  8
LAYER_1
 10
12.82637334657477
 20
9.425586588047146
 30
0.0
  0
VERTEX
  5
B67
  8
LAYER_1
 10
12.81674917732348
 20
9.421646257882669
 30
0.0
  0
VERTEX
  5
B68
  8
LAYER_1
 10
12.80725842440712
 20
9.417363290312586
 30
0.0
  0
VERTEX
  5
B69
  8
LAYER_1
 10
12.79790108782568
 20
9.412737685336896
 30
0.0
  0
VERTEX
  5
B6A
  8
LAYER_1
 10
12.78867716757917
 20
9.407769442955598
 30
0.0
  0
VERTEX
  5
B6B
  8
LAYER_1
 10
12.77958666366759
 20
9.402458563168693
 30
0.0
  0
VERTEX
  5
B6C
  8
LAYER_1
 10
12.77069325206896
 20
9.396842948344059
 30
0.0
  0
VERTEX
  5
B6D
  8
LAYER_1
 10
12.76206060876133
 20
9.390960500849573
 30
0.0
  0
VERTEX
  5
B6E
  8
LAYER_1
 10
12.75368873374469
 20
9.384811220685231
 30
0.0
  0
VERTEX
  5
B6F
  8
LAYER_1
 10
12.74557762701905
 20
9.37839510785104
 30
0.0
  0
VERTEX
  5
B70
  8
LAYER_1
 10
12.73772728858439
 20
9.371712162346993
 30
0.0
  0
VERTEX
  5
B71
  8
LAYER_1
 10
12.73013771844073
 20
9.364762384173094
 30
0.0
  0
VERTEX
  5
B72
  8
LAYER_1
 10
12.72280891658806
 20
9.35754577332934
 30
0.0
  0
VERTEX
  5
B73
  8
LAYER_1
 10
12.71574088302639
 20
9.350062329815737
 30
0.0
  0
VERTEX
  5
B74
  8
LAYER_1
 10
12.70893361775571
 20
9.342312053632279
 30
0.0
  0
VERTEX
  5
B75
  8
LAYER_1
 10
12.70238712077602
 20
9.334294944778968
 30
0.0
  0
VERTEX
  5
B76
  8
LAYER_1
 10
12.69610139208732
 20
9.326011003255802
 30
0.0
  0
VERTEX
  5
B77
  8
LAYER_1
 10
12.69007643168962
 20
9.317460229062785
 30
0.0
  0
VERTEX
  5
B78
  8
LAYER_1
 10
12.68431223958291
 20
9.308642622199914
 30
0.0
  0
VERTEX
  5
B79
  8
LAYER_1
 10
12.67880881576719
 20
9.299558182667191
 30
0.0
  0
VERTEX
  5
B7A
  8
LAYER_1
 10
12.67356616024247
 20
9.290206910464613
 30
0.0
  0
VERTEX
  5
B7B
  8
LAYER_1
 10
12.66858427300873
 20
9.280588805592187
 30
0.0
  0
VERTEX
  5
B7C
  8
LAYER_1
 10
12.663884379392
 20
9.270793317638097
 30
0.0
  0
VERTEX
  5
B7D
  8
LAYER_1
 10
12.65948770471829
 20
9.260909896190528
 30
0.0
  0
VERTEX
  5
B7E
  8
LAYER_1
 10
12.65539424898759
 20
9.250938541249486
 30
0.0
  0
VERTEX
  5
B7F
  8
LAYER_1
 10
12.6516040121999
 20
9.240879252814969
 30
0.0
  0
VERTEX
  5
B80
  8
LAYER_1
 10
12.64811699435523
 20
9.23073203088698
 30
0.0
  0
VERTEX
  5
B81
  8
LAYER_1
 10
12.64493319545358
 20
9.220496875465514
 30
0.0
  0
VERTEX
  5
B82
  8
LAYER_1
 10
12.64205261549494
 20
9.210173786550577
 30
0.0
  0
VERTEX
  5
B83
  8
LAYER_1
 10
12.63947525447931
 20
9.199762764142163
 30
0.0
  0
VERTEX
  5
B84
  8
LAYER_1
 10
12.6372011124067
 20
9.189263808240277
 30
0.0
  0
VERTEX
  5
B85
  8
LAYER_1
 10
12.6352301892771
 20
9.178676918844914
 30
0.0
  0
VERTEX
  5
B86
  8
LAYER_1
 10
12.63356248509052
 20
9.168002095956078
 30
0.0
  0
VERTEX
  5
B87
  8
LAYER_1
 10
12.63219799984696
 20
9.157239339573767
 30
0.0
  0
VERTEX
  5
B88
  8
LAYER_1
 10
12.6311367335464
 20
9.146388649697984
 30
0.0
  0
VERTEX
  5
B89
  8
LAYER_1
 10
12.63037868618887
 20
9.135450026328726
 30
0.0
  0
VERTEX
  5
B8A
  8
LAYER_1
 10
12.62992385777434
 20
9.124423469465995
 30
0.0
  0
VERTEX
  5
B8B
  8
LAYER_1
 10
12.62977224830284
 20
9.113308979109785
 30
0.0
  0
VERTEX
  5
B8C
  8
LAYER_1
 10
12.63032410677912
 20
9.092956923654633
 30
0.0
  0
VERTEX
  5
B8D
  8
LAYER_1
 10
12.63197968220798
 20
9.07304150347742
 30
0.0
  0
VERTEX
  5
B8E
  8
LAYER_1
 10
12.63473897458942
 20
9.05356271857815
 30
0.0
  0
VERTEX
  5
B8F
  8
LAYER_1
 10
12.63860198392343
 20
9.034520568956822
 30
0.0
  0
VERTEX
  5
B90
  8
LAYER_1
 10
12.64356871021001
 20
9.015915054613433
 30
0.0
  0
VERTEX
  5
B91
  8
LAYER_1
 10
12.64963915344917
 20
8.997746175547988
 30
0.0
  0
VERTEX
  5
B92
  8
LAYER_1
 10
12.6568133136409
 20
8.980013931760482
 30
0.0
  0
VERTEX
  5
B93
  8
LAYER_1
 10
12.6650911907852
 20
8.962718323250918
 30
0.0
  0
VERTEX
  5
B94
  8
LAYER_1
 10
12.66965008759343
 20
8.954296417108683
 30
0.0
  0
VERTEX
  5
B95
  8
LAYER_1
 10
12.67449704239752
 20
8.94610798955257
 30
0.0
  0
VERTEX
  5
B96
  8
LAYER_1
 10
12.67963205519747
 20
8.938153040582574
 30
0.0
  0
VERTEX
  5
B97
  8
LAYER_1
 10
12.68505512599329
 20
8.930431570198703
 30
0.0
  0
VERTEX
  5
B98
  8
LAYER_1
 10
12.69076625478498
 20
8.922943578400952
 30
0.0
  0
VERTEX
  5
B99
  8
LAYER_1
 10
12.69676544157253
 20
8.915689065189323
 30
0.0
  0
VERTEX
  5
B9A
  8
LAYER_1
 10
12.70305268635594
 20
8.908668030563817
 30
0.0
  0
VERTEX
  5
B9B
  8
LAYER_1
 10
12.70962798913521
 20
8.901880474524429
 30
0.0
  0
VERTEX
  5
B9C
  8
LAYER_1
 10
12.71649134991035
 20
8.895326397071164
 30
0.0
  0
VERTEX
  5
B9D
  8
LAYER_1
 10
12.72364276868136
 20
8.889005798204021
 30
0.0
  0
VERTEX
  5
B9E
  8
LAYER_1
 10
12.73108224544822
 20
8.882918677922998
 30
0.0
  0
VERTEX
  5
B9F
  8
LAYER_1
 10
12.73880978021096
 20
8.877065036228098
 30
0.0
  0
VERTEX
  5
BA0
  8
LAYER_1
 10
12.74682537296955
 20
8.87144487311932
 30
0.0
  0
VERTEX
  5
BA1
  8
LAYER_1
 10
12.75512902372401
 20
8.866058188596663
 30
0.0
  0
VERTEX
  5
BA2
  8
LAYER_1
 10
12.76372073247434
 20
8.860904982660125
 30
0.0
  0
VERTEX
  5
BA3
  8
LAYER_1
 10
12.77260049922053
 20
8.85598525530971
 30
0.0
  0
VERTEX
  5
BA4
  8
LAYER_1
 10
12.79078150704369
 20
8.84697965270217
 30
0.0
  0
VERTEX
  5
BA5
  8
LAYER_1
 10
12.79997207320647
 20
8.842927131528779
 30
0.0
  0
VERTEX
  5
BA6
  8
LAYER_1
 10
12.80922934753671
 20
8.83917479710897
 30
0.0
  0
VERTEX
  5
BA7
  8
LAYER_1
 10
12.81855333003442
 20
8.835722649442747
 30
0.0
  0
VERTEX
  5
BA8
  8
LAYER_1
 10
12.82794402069959
 20
8.832570688530108
 30
0.0
  0
VERTEX
  5
BA9
  8
LAYER_1
 10
12.83740141953222
 20
8.829718914371053
 30
0.0
  0
VERTEX
  5
BAA
  8
LAYER_1
 10
12.84692552653231
 20
8.827167326965585
 30
0.0
  0
VERTEX
  5
BAB
  8
LAYER_1
 10
12.85651634169987
 20
8.824915926313698
 30
0.0
  0
VERTEX
  5
BAC
  8
LAYER_1
 10
12.86617386503489
 20
8.822964712415398
 30
0.0
  0
VERTEX
  5
BAD
  8
LAYER_1
 10
12.87589809653737
 20
8.821313685270683
 30
0.0
  0
VERTEX
  5
BAE
  8
LAYER_1
 10
12.88568903620732
 20
8.819962844879552
 30
0.0
  0
VERTEX
  5
BAF
  8
LAYER_1
 10
12.89554668404473
 20
8.818912191242005
 30
0.0
  0
VERTEX
  5
BB0
  8
LAYER_1
 10
12.90547104004961
 20
8.818161724358044
 30
0.0
  0
VERTEX
  5
BB1
  8
LAYER_1
 10
12.91546210422194
 20
8.817711444227667
 30
0.0
  0
VERTEX
  5
BB2
  8
LAYER_1
 10
12.92551987656175
 20
8.817561350850875
 30
0.0
  0
VERTEX
  5
BB3
  8
LAYER_1
 10
12.93623411791318
 20
8.817729637364248
 30
0.0
  0
VERTEX
  5
BB4
  8
LAYER_1
 10
12.94683616825569
 20
8.818234496904369
 30
0.0
  0
VERTEX
  5
BB5
  8
LAYER_1
 10
12.95732602758928
 20
8.819075929471236
 30
0.0
  0
VERTEX
  5
BB6
  8
LAYER_1
 10
12.96770369591396
 20
8.820253935064848
 30
0.0
  0
VERTEX
  5
BB7
  8
LAYER_1
 10
12.97796917322973
 20
8.821768513685207
 30
0.0
  0
VERTEX
  5
BB8
  8
LAYER_1
 10
12.98812245953658
 20
8.823619665332311
 30
0.0
  0
VERTEX
  5
BB9
  8
LAYER_1
 10
12.99816355483452
 20
8.825807390006164
 30
0.0
  0
VERTEX
  5
BBA
  8
LAYER_1
 10
13.00809245912354
 20
8.828331687706761
 30
0.0
  0
VERTEX
  5
BBB
  8
LAYER_1
 10
13.01790917240364
 20
8.831192558434106
 30
0.0
  0
VERTEX
  5
BBC
  8
LAYER_1
 10
13.02761369467483
 20
8.834390002188195
 30
0.0
  0
VERTEX
  5
BBD
  8
LAYER_1
 10
13.0372060259371
 20
8.837924018969034
 30
0.0
  0
VERTEX
  5
BBE
  8
LAYER_1
 10
13.04668616619046
 20
8.841794608776617
 30
0.0
  0
VERTEX
  5
BBF
  8
LAYER_1
 10
13.0560541154349
 20
8.846001771610947
 30
0.0
  0
VERTEX
  5
BC0
  8
LAYER_1
 10
13.06530987367043
 20
8.850545507472022
 30
0.0
  0
VERTEX
  5
BC1
  8
LAYER_1
 10
13.07445344089704
 20
8.855425816359846
 30
0.0
  0
VERTEX
  5
BC2
  8
LAYER_1
 10
13.08348481711473
 20
8.860642698274416
 30
0.0
  0
VERTEX
  5
BC3
  8
LAYER_1
 10
13.09232668149305
 20
8.866164315226717
 30
0.0
  0
VERTEX
  5
BC4
  8
LAYER_1
 10
13.1009017132015
 20
8.87195882922773
 30
0.0
  0
VERTEX
  5
BC5
  8
LAYER_1
 10
13.10920991224011
 20
8.878026240277455
 30
0.0
  0
VERTEX
  5
BC6
  8
LAYER_1
 10
13.11725127860886
 20
8.884366548375894
 30
0.0
  0
VERTEX
  5
BC7
  8
LAYER_1
 10
13.12502581230776
 20
8.890979753523046
 30
0.0
  0
VERTEX
  5
BC8
  8
LAYER_1
 10
13.13253351333681
 20
8.897865855718912
 30
0.0
  0
VERTEX
  5
BC9
  8
LAYER_1
 10
13.139774381696
 20
8.905024854963491
 30
0.0
  0
VERTEX
  5
BCA
  8
LAYER_1
 10
13.14674841738534
 20
8.912456751256784
 30
0.0
  0
VERTEX
  5
BCB
  8
LAYER_1
 10
13.15345562040483
 20
8.92016154459879
 30
0.0
  0
VERTEX
  5
BCC
  8
LAYER_1
 10
13.15989599075446
 20
8.928139234989509
 30
0.0
  0
VERTEX
  5
BCD
  8
LAYER_1
 10
13.16606952843424
 20
8.936389822428941
 30
0.0
  0
VERTEX
  5
BCE
  8
LAYER_1
 10
13.17197623344417
 20
8.944913306917087
 30
0.0
  0
VERTEX
  5
BCF
  8
LAYER_1
 10
13.17761610578425
 20
8.953709688453946
 30
0.0
  0
VERTEX
  5
BD0
  8
LAYER_1
 10
13.18298914545447
 20
8.962778967039519
 30
0.0
  0
VERTEX
  5
BD1
  8
LAYER_1
 10
13.18809535245484
 20
8.972121142673807
 30
0.0
  0
VERTEX
  5
BD2
  8
LAYER_1
 10
13.19293472678535
 20
8.981736215356806
 30
0.0
  0
VERTEX
  5
BD3
  8
LAYER_1
 10
13.20175839802708
 20
9.00135448096986
 30
0.0
  0
VERTEX
  5
BD4
  8
LAYER_1
 10
13.20940557976992
 20
9.021203192979609
 30
0.0
  0
VERTEX
  5
BD5
  8
LAYER_1
 10
13.21587627201385
 20
9.041282351386048
 30
0.0
  0
VERTEX
  5
BD6
  8
LAYER_1
 10
13.22117047475889
 20
9.061591956189181
 30
0.0
  0
VERTEX
  5
BD7
  8
LAYER_1
 10
13.22528818800503
 20
9.082132007389003
 30
0.0
  0
VERTEX
  5
BD8
  8
LAYER_1
 10
13.22822941175228
 20
9.102902504985515
 30
0.0
  0
VERTEX
  5
BD9
  8
LAYER_1
 10
13.22999414600062
 20
9.12390344897872
 30
0.0
  0
VERTEX
  5
BDA
  8
LAYER_1
 10
13.23058239075007
 20
9.145134839368618
 30
0.0
  0
VERTEX
  5
BDB
  8
LAYER_1
 10
13.23003659665265
 20
9.165699148083881
 30
0.0
  0
VERTEX
  5
BDC
  8
LAYER_1
 10
13.22839921436037
 20
9.185863207794366
 30
0.0
  0
VERTEX
  5
BDD
  8
LAYER_1
 10
13.22567024387323
 20
9.20562701850007
 30
0.0
  0
VERTEX
  5
BDE
  8
LAYER_1
 10
13.22184968519124
 20
9.224990580200995
 30
0.0
  0
VERTEX
  5
BDF
  8
LAYER_1
 10
13.2169375383144
 20
9.243953892897139
 30
0.0
  0
VERTEX
  5
BE0
  8
LAYER_1
 10
13.21093380324271
 20
9.262516956588504
 30
0.0
  0
VERTEX
  5
BE1
  8
LAYER_1
 10
13.20383847997617
 20
9.28067977127509
 30
0.0
  0
VERTEX
  5
BE2
  8
LAYER_1
 10
13.19565156851477
 20
9.298442336956898
 30
0.0
  0
VERTEX
  5
BE3
  8
LAYER_1
 10
13.19115786377929
 20
9.307100753874684
 30
0.0
  0
VERTEX
  5
BE4
  8
LAYER_1
 10
13.18640945513168
 20
9.315513563448631
 30
0.0
  0
VERTEX
  5
BE5
  8
LAYER_1
 10
13.18140634257193
 20
9.323680765678734
 30
0.0
  0
VERTEX
  5
BE6
  8
LAYER_1
 10
13.17614852610006
 20
9.331602360564997
 30
0.0
  0
VERTEX
  5
BE7
  8
LAYER_1
 10
13.17063600571605
 20
9.339278348107415
 30
0.0
  0
VERTEX
  5
BE8
  8
LAYER_1
 10
13.16486878141991
 20
9.346708728305993
 30
0.0
  0
VERTEX
  5
BE9
  8
LAYER_1
 10
13.15884685321163
 20
9.353893501160728
 30
0.0
  0
VERTEX
  5
BEA
  8
LAYER_1
 10
13.15257022109122
 20
9.360832666671623
 30
0.0
  0
VERTEX
  5
BEB
  8
LAYER_1
 10
13.14603888505869
 20
9.367526224838674
 30
0.0
  0
VERTEX
  5
BEC
  8
LAYER_1
 10
13.13925284511402
 20
9.373974175661884
 30
0.0
  0
VERTEX
  5
BED
  8
LAYER_1
 10
13.13221210125721
 20
9.380176519141251
 30
0.0
  0
VERTEX
  5
BEE
  8
LAYER_1
 10
13.12491665348828
 20
9.386133255276778
 30
0.0
  0
VERTEX
  5
BEF
  8
LAYER_1
 10
13.11736650180721
 20
9.39184438406846
 30
0.0
  0
VERTEX
  5
BF0
  8
LAYER_1
 10
13.10956164621401
 20
9.397309905516302
 30
0.0
  0
VERTEX
  5
BF1
  8
LAYER_1
 10
13.10150208670867
 20
9.402529819620302
 30
0.0
  0
VERTEX
  5
BF2
  8
LAYER_1
 10
13.09318782329121
 20
9.40750412638046
 30
0.0
  0
VERTEX
  5
BF3
  8
LAYER_1
 10
13.08467949975021
 20
9.412204019997189
 30
0.0
  0
VERTEX
  5
BF4
  8
LAYER_1
 10
13.07603775987429
 20
9.416600694670901
 30
0.0
  0
VERTEX
  5
BF5
  8
LAYER_1
 10
13.06726260366344
 20
9.420694150401602
 30
0.0
  0
VERTEX
  5
BF6
  8
LAYER_1
 10
13.05835403111767
 20
9.424484387189288
 30
0.0
  0
VERTEX
  5
BF7
  8
LAYER_1
 10
13.04931204223697
 20
9.427971405033958
 30
0.0
  0
VERTEX
  5
BF8
  8
LAYER_1
 10
13.04013663702134
 20
9.431155203935614
 30
0.0
  0
VERTEX
  5
BF9
  8
LAYER_1
 10
13.03082781547078
 20
9.434035783894256
 30
0.0
  0
VERTEX
  5
BFA
  8
LAYER_1
 10
13.0213855775853
 20
9.436613144909881
 30
0.0
  0
VERTEX
  5
BFB
  8
LAYER_1
 10
13.0118099233649
 20
9.438887286982492
 30
0.0
  0
VERTEX
  5
BFC
  8
LAYER_1
 10
13.00210085280956
 20
9.440858210112086
 30
0.0
  0
VERTEX
  5
BFD
  8
LAYER_1
 10
12.9922583659193
 20
9.44252591429867
 30
0.0
  0
VERTEX
  5
BFE
  8
LAYER_1
 10
12.98228246269412
 20
9.443890399542235
 30
0.0
  0
VERTEX
  5
BFF
  8
LAYER_1
 10
12.972173143134
 20
9.444951665842787
 30
0.0
  0
VERTEX
  5
C00
  8
LAYER_1
 10
12.96193040723896
 20
9.445709713200323
 30
0.0
  0
VERTEX
  5
C01
  8
LAYER_1
 10
12.951554255009
 20
9.446164541614847
 30
0.0
  0
SEQEND
  5
C3D
  8
LAYER_1
  0
POLYLINE
  5
88
  8
LAYER_1
 66
     1
 10
0.0
 20
0.0
 30
0.0
 70
     1
  0
VERTEX
  5
C02
  8
LAYER_1
 10
13.68313059882079
 20
8.60021401249787
 30
0.0
  0
VERTEX
  5
C03
  8
LAYER_1
 10
13.6921938130275
 20
8.687589583117013
 30
0.0
  0
VERTEX
  5
C04
  8
LAYER_1
 10
13.69989254199065
 20
8.766523538362623
 30
0.0
  0
VERTEX
  5
C05
  8
LAYER_1
 10
13.70622678571023
 20
8.837015878234704
 30
0.0
  0
VERTEX
  5
C06
  8
LAYER_1
 10
13.71119654418624
 20
8.899066602733251
 30
0.0
  0
VERTEX
  5
C07
  8
LAYER_1
 10
13.7188717736813
 20
9.004465507325195
 30
0.0
  0
VERTEX
  5
C08
  8
LAYER_1
 10
13.72552363924369
 20
9.10952480670096
 30
0.0
  0
VERTEX
  5
C09
  8
LAYER_1
 10
13.7311521408734
 20
9.214244500860548
 30
0.0
  0
VERTEX
  5
C0A
  8
LAYER_1
 10
13.73575727857044
 20
9.318624589803962
 30
0.0
  0
VERTEX
  5
C0B
  8
LAYER_1
 10
13.7393390523348
 20
9.418104660628256
 30
0.0
  0
VERTEX
  5
C0C
  8
LAYER_1
 10
13.74189746216649
 20
9.508124300430488
 30
0.0
  0
VERTEX
  5
C0D
  8
LAYER_1
 10
13.7434325080655
 20
9.58868350921066
 30
0.0
  0
VERTEX
  5
C0E
  8
LAYER_1
 10
13.74394419003184
 20
9.659782286968769
 30
0.0
  0
VERTEX
  5
C0F
  8
LAYER_1
 10
13.84341819647727
 20
9.65861792622759
 30
0.0
  0
VERTEX
  5
C10
  8
LAYER_1
 10
13.9308726040216
 20
9.658229805980532
 30
0.0
  0
VERTEX
  5
C11
  8
LAYER_1
 10
13.99796889173191
 20
9.65861792622759
 30
0.0
  0
VERTEX
  5
C12
  8
LAYER_1
 10
14.08910437724444
 20
9.659782286968769
 30
0.0
  0
VERTEX
  5
C13
  8
LAYER_1
 10
14.07040183283929
 20
9.378783228098097
 30
0.0
  0
VERTEX
  5
C14
  8
LAYER_1
 10
14.04701758795398
 20
8.939431108427382
 30
0.0
  0
VERTEX
  5
C15
  8
LAYER_1
 10
14.04390049721979
 20
8.831533679744997
 30
0.0
  0
VERTEX
  5
C16
  8
LAYER_1
 10
14.15416606584712
 20
8.829787138633233
 30
0.0
  0
VERTEX
  5
C17
  8
LAYER_1
 10
14.2178390116908
 20
8.829204958262643
 30
0.0
  0
VERTEX
  5
C18
  8
LAYER_1
 10
14.31374413117695
 20
8.82954456347882
 30
0.0
  0
VERTEX
  5
C19
  8
LAYER_1
 10
14.39722333837835
 20
8.83056337912735
 30
0.0
  0
VERTEX
  5
C1A
  8
LAYER_1
 10
14.46827663329501
 20
8.832261405208232
 30
0.0
  0
VERTEX
  5
C1B
  8
LAYER_1
 10
14.52690401592692
 20
8.834638641721469
 30
0.0
  0
VERTEX
  5
C1C
  8
LAYER_1
 10
14.50982672505632
 20
8.60021401249787
 30
0.0
  0
VERTEX
  5
C1D
  8
LAYER_1
 10
14.31052697819156
 20
8.601378373239049
 30
0.0
  0
VERTEX
  5
C1E
  8
LAYER_1
 10
14.12093023750327
 20
8.601766493486107
 30
0.0
  0
VERTEX
  5
C1F
  8
LAYER_1
 10
13.88650560827967
 20
8.601378373239049
 30
0.0
  0
SEQEND
  5
C3E
  8
LAYER_1
  0
ENDSEC
  0
EOF
