  0
SECTION
  2
HEADER
  9
$ACADVER
  1
AC1021
  9
$ACADMAINTVER
 70
    25
  9
$DWGCODEPAGE
  3
ANSI_1252
  9
$INSBASE
 10
0.0
 20
0.0
 30
0.0
  9
$EXTMIN
 10
2.0186
 20
-14.9173
 30
0.0
  9
$EXTMAX
 10
42.08
 20
10.7559
 30
0.0
  9
$LIMMIN
 10
2.0186
 20
-14.9173
  9
$LIMMAX
 10
42.08
 20
10.7559
  9
$ORTHOMODE
 70
     0
  9
$REGENMODE
 70
     1
  9
$FILLMODE
 70
     1
  9
$QTEXTMODE
 70
     0
  9
$MIRRTEXT
 70
     1
  9
$LTSCALE
 40
1.0
  9
$ATTMODE
 70
     1
  9
$TEXTSIZE
 40
0.2
  9
$TRACEWID
 40
0.05
  9
$TEXTSTYLE
  7
STANDARD
  9
$CLAYER
  8
default
  9
$CELTYPE
  6
BYLAYER
  9
$CECOLOR
 62
   256
  9
$CELTSCALE
 40
1.0
  9
$DISPSILH
 70
     0
  9
$DIMSCALE
 40
1.0
  9
$DIMASZ
 40
0.18
  9
$DIMEXO
 40
0.0625
  9
$DIMDLI
 40
0.38
  9
$DIMRND
 40
0.0
  9
$DIMDLE
 40
0.0
  9
$DIMEXE
 40
0.18
  9
$DIMTP
 40
0.0
  9
$DIMTM
 40
0.0
  9
$DIMTXT
 40
0.18
  9
$DIMCEN
 40
0.09
  9
$DIMTSZ
 40
0.0
  9
$DIMTOL
 70
     0
  9
$DIMLIM
 70
     0
  9
$DIMTIH
 70
     1
  9
$DIMTOH
 70
     1
  9
$DIMSE1
 70
     0
  9
$DIMSE2
 70
     0
  9
$DIMTAD
 70
     0
  9
$DIMZIN
 70
     0
  9
$DIMBLK
  1

  9
$DIMASO
 70
     1
  9
$DIMSHO
 70
     1
  9
$DIMPOST
  1

  9
$DIMAPOST
  1

  9
$DIMALT
 70
     0
  9
$DIMALTD
 70
     2
  9
$DIMALTF
 40
25.4
  9
$DIMLFAC
 40
1.0
  9
$DIMTOFL
 70
     0
  9
$DIMTVP
 40
0.0
  9
$DIMTIX
 70
     0
  9
$DIMSOXD
 70
     0
  9
$DIMSAH
 70
     0
  9
$DIMBLK1
  1

  9
$DIMBLK2
  1

  9
$DIMSTYLE
  2
STANDARD
  9
$DIMCLRD
 70
     0
  9
$DIMCLRE
 70
     0
  9
$DIMCLRT
 70
     0
  9
$DIMTFAC
 40
1.0
  9
$DIMGAP
 40
0.09
  9
$DIMJUST
 70
     0
  9
$DIMSD1
 70
     0
  9
$DIMSD2
 70
     0
  9
$DIMTOLJ
 70
     1
  9
$DIMTZIN
 70
     0
  9
$DIMALTZ
 70
     0
  9
$DIMALTTZ
 70
     0
  9
$DIMUPT
 70
     0
  9
$DIMDEC
 70
     4
  9
$DIMTDEC
 70
     4
  9
$DIMALTU
 70
     2
  9
$DIMALTTD
 70
     2
  9
$DIMTXSTY
  7
STANDARD
  9
$DIMAUNIT
 70
     0
  9
$DIMADEC
 70
     0
  9
$DIMALTRND
 40
0.0
  9
$DIMAZIN
 70
     0
  9
$DIMDSEP
 70
    46
  9
$DIMATFIT
 70
     3
  9
$DIMFRAC
 70
     0
  9
$DIMLDRBLK
  1

  9
$DIMLUNIT
 70
     2
  9
$DIMLWD
 70
    -2
  9
$DIMLWE
 70
    -2
  9
$DIMTMOVE
 70
     2
  9
$DIMFXL
 40
1.0
  9
$DIMFXLON
 70
     0
  9
$DIMJOGANG
 40
0.7853981633974483
  9
$DIMTFILL
 70
     0
  9
$DIMTFILLCLR
 70
     0
  9
$DIMARCSYM
 70
     0
  9
$DIMLTYPE
  6

  9
$DIMLTEX1
  6

  9
$DIMLTEX2
  6

  9
$LUNITS
 70
     2
  9
$LUPREC
 70
     4
  9
$SKETCHINC
 40
0.1
  9
$FILLETRAD
 40
0.5
  9
$AUNITS
 70
     0
  9
$AUPREC
 70
     0
  9
$MENU
  1
.
  9
$ELEVATION
 40
0.0
  9
$PELEVATION
 40
0.0
  9
$THICKNESS
 40
0.0
  9
$LIMCHECK
 70
     0
  9
$CHAMFERA
 40
0.5
  9
$CHAMFERB
 40
0.5
  9
$CHAMFERC
 40
1.0
  9
$CHAMFERD
 40
0.0
  9
$SKPOLY
 70
     0
  9
$TDCREATE
 40
2454853.967754629
  9
$TDUCREATE
 40
2454853.884421296
  9
$TDUPDATE
 40
2454853.967754629
  9
$TDUUPDATE
 40
2454853.884421296
  9
$TDINDWG
 40
0.0
  9
$TDUSRTIMER
 40
0.0
  9
$USRTIMER
 70
     1
  9
$ANGBASE
 50
0.0
  9
$ANGDIR
 70
     0
  9
$PDMODE
 70
     0
  9
$PDSIZE
 40
0.0
  9
$PLINEWID
 40
0.0
  9
$SPLFRAME
 70
     0
  9
$SPLINETYPE
 70
     6
  9
$SPLINESEGS
 70
     8
  9
$HANDSEED
  5
257
  9
$SURFTAB1
 70
     6
  9
$SURFTAB2
 70
     6
  9
$SURFTYPE
 70
     6
  9
$SURFU
 70
     6
  9
$SURFV
 70
     6
  9
$UCSBASE
  2

  9
$UCSNAME
  2

  9
$UCSORG
 10
0.0
 20
0.0
 30
0.0
  9
$UCSXDIR
 10
1.0
 20
0.0
 30
0.0
  9
$UCSYDIR
 10
0.0
 20
1.0
 30
0.0
  9
$UCSORTHOREF
  2

  9
$UCSORTHOVIEW
 70
     0
  9
$UCSORGTOP
 10
0.0
 20
0.0
 30
0.0
  9
$UCSORGBOTTOM
 10
0.0
 20
0.0
 30
0.0
  9
$UCSORGLEFT
 10
0.0
 20
0.0
 30
0.0
  9
$UCSORGRIGHT
 10
0.0
 20
0.0
 30
0.0
  9
$UCSORGFRONT
 10
0.0
 20
0.0
 30
0.0
  9
$UCSORGBACK
 10
0.0
 20
0.0
 30
0.0
  9
$PUCSBASE
  2

  9
$PUCSNAME
  2

  9
$PUCSORG
 10
0.0
 20
0.0
 30
0.0
  9
$PUCSXDIR
 10
1.0
 20
0.0
 30
0.0
  9
$PUCSYDIR
 10
0.0
 20
1.0
 30
0.0
  9
$PUCSORTHOREF
  2

  9
$PUCSORTHOVIEW
 70
     0
  9
$PUCSORGTOP
 10
0.0
 20
0.0
 30
0.0
  9
$PUCSORGBOTTOM
 10
0.0
 20
0.0
 30
0.0
  9
$PUCSORGLEFT
 10
0.0
 20
0.0
 30
0.0
  9
$PUCSORGRIGHT
 10
0.0
 20
0.0
 30
0.0
  9
$PUCSORGFRONT
 10
0.0
 20
0.0
 30
0.0
  9
$PUCSORGBACK
 10
0.0
 20
0.0
 30
0.0
  9
$USERI1
 70
     0
  9
$USERI2
 70
     0
  9
$USERI3
 70
     0
  9
$USERI4
 70
     0
  9
$USERI5
 70
     0
  9
$USERR1
 40
0.0
  9
$USERR2
 40
0.0
  9
$USERR3
 40
0.0
  9
$USERR4
 40
0.0
  9
$USERR5
 40
0.0
  9
$WORLDVIEW
 70
     1
  9
$SHADEDGE
 70
     3
  9
$SHADEDIF
 70
    70
  9
$TILEMODE
 70
     1
  9
$MAXACTVP
 70
    48
  9
$PINSBASE
 10
0.0
 20
0.0
 30
0.0
  9
$PLIMCHECK
 70
     0
  9
$PEXTMIN
 10
1.000000000000000E+20
 20
1.000000000000000E+20
 30
1.000000000000000E+20
  9
$PEXTMAX
 10
-1.000000000000000E+20
 20
-1.000000000000000E+20
 30
-1.000000000000000E+20
  9
$PLIMMIN
 10
0.0
 20
0.0
  9
$PLIMMAX
 10
12.0
 20
9.0
  9
$UNITMODE
 70
     0
  9
$VISRETAIN
 70
     1
  9
$PLINEGEN
 70
     0
  9
$PSLTSCALE
 70
     1
  9
$TREEDEPTH
 70
  3020
  9
$CMLSTYLE
  2
STANDARD
  9
$CMLJUST
 70
     0
  9
$CMLSCALE
 40
1.0
  9
$PROXYGRAPHICS
 70
     1
  9
$MEASUREMENT
 70
     0
  9
$CELWEIGHT
370
    -1
  9
$ENDCAPS
280
     0
  9
$JOINSTYLE
280
     0
  9
$LWDISPLAY
290
     0
  9
$INSUNITS
 70
     0
  9
$HYPERLINKBASE
  1

  9
$STYLESHEET
  1

  9
$XEDIT
290
     1
  9
$CEPSNTYPE
380
     0
  9
$PSTYLEMODE
290
     1
  9
$FINGERPRINTGUID
  2
{072BE9CF-30D0-4F5B-AE33-C3E63B63CA5E}
  9
$VERSIONGUID
  2
{FAEB1C32-E019-11D5-929B-00C0DF256EC4}
  9
$EXTNAMES
290
     1
  9
$PSVPSCALE
 40
0.0
  9
$OLESTARTUP
290
     0
  9
$SORTENTS
280
   127
  9
$INDEXCTL
280
     0
  9
$HIDETEXT
280
     1
  9
$XCLIPFRAME
290
     0
  9
$HALOGAP
280
     0
  9
$OBSCOLOR
 70
   257
  9
$OBSLTYPE
280
     0
  9
$INTERSECTIONDISPLAY
280
     0
  9
$INTERSECTIONCOLOR
 70
   257
  9
$DIMASSOC
280
     2
  9
$PROJECTNAME
  1

  9
$CAMERADISPLAY
290
     0
  9
$LENSLENGTH
 40
50.0
  9
$CAMERAHEIGHT
 40
0.0
  9
$STEPSPERSEC
 40
2.0
  9
$STEPSIZE
 40
6.0
  9
$3DDWFPREC
 40
2.0
  9
$PSOLWIDTH
 40
0.25
  9
$PSOLHEIGHT
 40
4.0
  9
$LOFTANG1
 40
1.570796326794897
  9
$LOFTANG2
 40
1.570796326794897
  9
$LOFTMAG1
 40
0.0
  9
$LOFTMAG2
 40
0.0
  9
$LOFTPARAM
 70
     7
  9
$LOFTNORMALS
280
     1
  9
$LATITUDE
 40
37.795
  9
$LONGITUDE
 40
-122.394
  9
$NORTHDIRECTION
 40
0.0
  9
$TIMEZONE
 70
 -8000
  9
$LIGHTGLYPHDISPLAY
280
     1
  9
$TILEMODELIGHTSYNCH
280
     1
  9
$SOLIDHIST
280
     1
  9
$SHOWHIST
280
     1
  9
$DWFFRAME
280
     2
  9
$DGNFRAME
280
     2
  9
$REALWORLDSCALE
290
     1
  9
$INTERFERECOLOR
 62
   256
  9
$CSHADOW
280
     0
  9
$SHADOWPLANELOCATION
 40
0.0
  0
ENDSEC
  0
SECTION
  2
CLASSES
  0
CLASS
  1
SCALE
  2
AcDbScale
  3
ObjectDBX Classes
 90
     1153
 91
        4
280
     0
281
     0
  0
CLASS
  1
DICTIONARYVAR
  2
AcDbDictionaryVar
  3
ObjectDBX Classes
 90
        0
 91
        4
280
     0
281
     0
  0
ENDSEC
  0
SECTION
  2
TABLES
  0
TABLE
  2
VPORT
  5
8
330
0
100
AcDbSymbolTable
 70
     1
  0
VPORT
  5
1E
330
8
100
AcDbSymbolTableRecord
100
AcDbViewportTableRecord
  2
*ACTIVE
 70
     0
 10
0.0
 20
0.0
 11
1.0
 21
1.0
 12
22.0493
 22
-2.0807
 13
0.0
 23
0.0
 14
0.1
 24
0.1
 15
0.1
 25
0.1
 16
0.0
 26
0.0
 36
1.0
 17
0.0
 27
0.0
 37
0.0
 40
25.6732
 41
1.5604
 42
50.0
 43
0.0
 44
0.0
 50
0.0
 51
0.0
 71
     0
 72
   100
 73
     1
 74
     1
 75
     0
 76
     0
 77
     0
 78
     0
281
     0
 65
     1
110
0.0
120
0.0
130
0.0
111
1.0
121
0.0
131
0.0
112
0.0
122
1.0
132
0.0
 79
     0
146
0.0
 60
     3
 61
     5
292
     1
282
     1
141
0.0
142
0.0
 63
   250
  0
ENDTAB
  0
TABLE
  2
LTYPE
  5
5
330
0
100
AcDbSymbolTable
 70
     3
  0
LTYPE
  5
12
330
5
100
AcDbSymbolTableRecord
100
AcDbLinetypeTableRecord
  2
BYBLOCK
 70
     0
  3

 72
    65
 73
     0
 40
0.0
  0
LTYPE
  5
13
330
5
100
AcDbSymbolTableRecord
100
AcDbLinetypeTableRecord
  2
BYLAYER
 70
     0
  3

 72
    65
 73
     0
 40
0.0
  0
LTYPE
  5
14
330
5
100
AcDbSymbolTableRecord
100
AcDbLinetypeTableRecord
  2
CONTINUOUS
 70
     0
  3
Solid line
 72
    65
 73
     0
 40
0.0
  0
LTYPE
  5
20
330
5
100
AcDbSymbolTableRecord
100
AcDbLinetypeTableRecord
  2
HIDDEN
 70
     0
  3
_ _ _ _ _ _ _ _ _ _ _ _ _ _ _ _ _ _ _ _ _ _ _
 72
    65
 73
     2
 40
0.375
 49
0.25
 74
     0
 49
-0.125
 74
     0
  0
LTYPE
  5
21
330
5
100
AcDbSymbolTableRecord
100
AcDbLinetypeTableRecord
  2
CENTER
 70
     0
  3
____ _ ____ _ ____ _ ____ _ ____ _ ____ _ ____
 72
    65
 73
     4
 40
2.0
 49
1.25
 74
     0
 49
-0.25
 74
     0
 49
0.25
 74
     0
 49
-0.25
 74
     0
  0
ENDTAB
  0
TABLE
  2
LAYER
  5
2
330
0
100
AcDbSymbolTable
 70
     2
  0
LAYER
  5
E
330
2
100
AcDbSymbolTableRecord
100
AcDbLayerTableRecord
  2
0
 70
     0
 62
     7
  6
CONTINUOUS
370
    -3
390
0
347
0
  0
LAYER
  5
22
330
2
100
AcDbSymbolTableRecord
100
AcDbLayerTableRecord
  2
default
 70
     0
 62
     7
  6
CONTINUOUS
370
    -3
390
0
347
0
  0
ENDTAB
  0
TABLE
  2
STYLE
  5
3
330
0
100
AcDbSymbolTable
 70
     3
  0
STYLE
  5
F
330
3
100
AcDbSymbolTableRecord
100
AcDbTextStyleTableRecord
  2
STANDARD
 70
     0
 40
0.0
 41
1.0
 50
0.0
 71
     0
 42
0.2
  3
txt
  4

  0
STYLE
  5
23
330
3
100
AcDbSymbolTableRecord
100
AcDbTextStyleTableRecord
  2
Arial
 70
     0
 40
0.0
 41
1.0
 50
0.0
 71
     0
 42
0.2
  3
ARIAL.TTF
  4

  0
STYLE
  5
24
330
3
100
AcDbSymbolTableRecord
100
AcDbTextStyleTableRecord
  2
Arial_Bold
 70
     0
 40
0.0
 41
1.0
 50
0.0
 71
     0
 42
0.2
  3
ARIALBD.TTF
  4

  0
ENDTAB
  0
TABLE
  2
VIEW
  5
6
330
0
100
AcDbSymbolTable
 70
     0
  0
ENDTAB
  0
TABLE
  2
UCS
  5
7
330
0
100
AcDbSymbolTable
 70
     0
  0
ENDTAB
  0
TABLE
  2
APPID
  5
9
330
0
100
AcDbSymbolTable
 70
     1
  0
APPID
  5
10
330
9
100
AcDbSymbolTableRecord
100
AcDbRegAppTableRecord
  2
ACAD
 70
     0
  0
ENDTAB
  0
TABLE
  2
DIMSTYLE
  5
A
330
0
100
AcDbSymbolTable
 70
     1
100
AcDbDimStyleTable
  0
DIMSTYLE
105
1D
330
A
100
AcDbSymbolTableRecord
100
AcDbDimStyleTableRecord
  2
STANDARD
 70
     0
340
F
  0
ENDTAB
  0
TABLE
  2
BLOCK_RECORD
  5
1
330
0
100
AcDbSymbolTable
 70
     5
  0
BLOCK_RECORD
  5
18
330
1
100
AcDbSymbolTableRecord
100
AcDbBlockTableRecord
  2
*MODEL_SPACE
340
22E
 70
     0
280
     1
281
     0
  0
BLOCK_RECORD
  5
15
330
1
100
AcDbSymbolTableRecord
100
AcDbBlockTableRecord
  2
*PAPER_SPACE
340
22F
 70
     0
280
     1
281
     0
  0
BLOCK_RECORD
  5
25
330
1
100
AcDbSymbolTableRecord
100
AcDbBlockTableRecord
  2
Group1
340
0
102
{BLKREFS
331
50
331
51
331
52
331
53
331
54
331
55
331
56
331
57
331
58
331
59
331
5A
331
5B
331
5C
331
5D
331
5E
331
5F
331
60
331
61
331
62
102
}
 70
     0
280
     1
281
     0
  0
BLOCK_RECORD
  5
26
330
1
100
AcDbSymbolTableRecord
100
AcDbBlockTableRecord
  2
Group2
340
0
102
{BLKREFS
331
84
331
85
102
}
 70
     0
280
     1
281
     0
  0
BLOCK_RECORD
  5
27
330
1
100
AcDbSymbolTableRecord
100
AcDbBlockTableRecord
  2
m6 nut
340
0
102
{BLKREFS
331
B5
102
}
 70
     0
280
     1
281
     0
  0
BLOCK_RECORD
  5
28
330
1
100
AcDbSymbolTableRecord
100
AcDbBlockTableRecord
  2
Group4
340
0
102
{BLKREFS
331
11C
331
147
331
171
102
}
 70
     0
280
     1
281
     0
  0
BLOCK_RECORD
  5
29
330
1
100
AcDbSymbolTableRecord
100
AcDbBlockTableRecord
  2
nut
340
0
102
{BLKREFS
331
F0
331
19F
331
1A7
331
1A8
331
1A9
331
21A
331
21B
331
21C
102
}
 70
     0
280
     1
281
     0
  0
ENDTAB
  0
ENDSEC
  0
SECTION
  2
BLOCKS
  0
BLOCK
  5
19
330
18
100
AcDbEntity
  8
0
100
AcDbBlockBegin
  2
*MODEL_SPACE
 70
     0
 10
0.0
 20
0.0
 30
0.0
  3
*MODEL_SPACE
  1
     0
  0
ENDBLK
  5
1A
330
18
100
AcDbEntity
  8
0
100
AcDbBlockEnd
  0
BLOCK
  5
16
330
15
100
AcDbEntity
 67
     1
  8
0
100
AcDbBlockBegin
  2
*PAPER_SPACE
 70
     0
 10
0.0
 20
0.0
 30
0.0
  3
*PAPER_SPACE
  1
     0
  0
ENDBLK
  5
17
330
15
100
AcDbEntity
 67
     1
  8
0
100
AcDbBlockEnd
  0
BLOCK
  5
2A
330
25
100
AcDbEntity
  8
default
  6
Continuous
 62
     7
100
AcDbBlockBegin
  2
Group1
 70
     0
 10
0.0
 20
0.0
 30
0.0
  3
Group1
  1

  0
LINE
  5
2B
330
25
100
AcDbEntity
  8
default
 62
   254
100
AcDbLine
 10
-1.19
 20
-0.1845
 30
0.0
 11
-1.19
 21
-0.3005
 31
0.0
  0
LINE
  5
2C
330
25
100
AcDbEntity
  8
default
 62
   254
100
AcDbLine
 10
1.19
 20
-0.1845
 30
0.0
 11
1.19
 21
-0.3005
 31
0.0
  0
LINE
  5
2D
330
25
100
AcDbEntity
  8
default
 62
   254
100
AcDbLine
 10
-1.19
 20
-0.1845
 30
0.0
 11
1.19
 21
-0.1845
 31
0.0
  0
LINE
  5
2E
330
25
100
AcDbEntity
  8
default
 62
   254
100
AcDbLine
 10
-1.19
 20
-0.3005
 30
0.0
 11
1.19
 21
-0.3005
 31
0.0
  0
LINE
  5
2F
330
25
100
AcDbEntity
  8
default
 62
     8
100
AcDbLine
 10
-0.6
 20
0.3005
 30
0.0
 11
-0.6
 21
-0.1845
 31
0.0
  0
LINE
  5
30
330
25
100
AcDbEntity
  8
default
 62
     8
100
AcDbLine
 10
0.6
 20
0.3005
 30
0.0
 11
0.6
 21
-0.1845
 31
0.0
  0
LINE
  5
31
330
25
100
AcDbEntity
  8
default
 62
     8
100
AcDbLine
 10
-0.6
 20
0.3005
 30
0.0
 11
0.6
 21
0.3005
 31
0.0
  0
LINE
  5
32
330
25
100
AcDbEntity
  8
default
 62
     8
100
AcDbLine
 10
-0.6
 20
-0.1845
 30
0.0
 11
0.6
 21
-0.1845
 31
0.0
  0
LINE
  5
33
330
25
100
AcDbEntity
  8
default
 62
     8
100
AcDbLine
 10
0.31
 20
-0.1846
 30
0.0
 11
0.31
 21
0.3004
 31
0.0
  0
LINE
  5
34
330
25
100
AcDbEntity
  8
default
 62
     8
100
AcDbLine
 10
-0.31
 20
-0.1845
 30
0.0
 11
-0.31
 21
0.3005
 31
0.0
  0
ENDBLK
  5
35
330
25
100
AcDbEntity
  8
default
  6
Continuous
 62
     7
100
AcDbBlockEnd
  0
BLOCK
  5
36
330
26
100
AcDbEntity
  8
default
  6
Continuous
 62
     7
100
AcDbBlockBegin
  2
Group2
 70
     0
 10
0.0
 20
0.0
 30
0.0
  3
Group2
  1

  0
CIRCLE
  5
37
330
26
100
AcDbEntity
  8
default
100
AcDbCircle
 10
0.0
 20
0.0
 30
0.0
 40
0.25
  0
CIRCLE
  5
38
330
26
100
AcDbEntity
  8
default
 62
   254
100
AcDbCircle
 10
0.0
 20
0.0
 30
0.0
 40
1.19
  0
LINE
  5
39
330
26
100
AcDbEntity
  8
default
 62
     3
100
AcDbLine
 10
0.2996
 20
0.5175
 30
0.0
 11
0.598
 21
-0.0007
 31
0.0
  0
LINE
  5
3A
330
26
100
AcDbEntity
  8
default
 62
     3
100
AcDbLine
 10
-0.2984
 20
0.5181
 30
0.0
 11
0.2996
 21
0.5175
 31
0.0
  0
LINE
  5
3B
330
26
100
AcDbEntity
  8
default
 62
     3
100
AcDbLine
 10
-0.598
 20
0.0005
 30
0.0
 11
-0.2984
 21
0.5181
 31
0.0
  0
LINE
  5
3C
330
26
100
AcDbEntity
  8
default
 62
     3
100
AcDbLine
 10
-0.2995
 20
-0.5176
 30
0.0
 11
-0.598
 21
0.0005
 31
0.0
  0
LINE
  5
3D
330
26
100
AcDbEntity
  8
default
 62
     3
100
AcDbLine
 10
0.2985
 20
-0.5182
 30
0.0
 11
-0.2995
 21
-0.5176
 31
0.0
  0
LINE
  5
3E
330
26
100
AcDbEntity
  8
default
 62
     3
100
AcDbLine
 10
0.598
 20
-0.0007
 30
0.0
 11
0.2985
 21
-0.5182
 31
0.0
  0
CIRCLE
  5
3F
330
26
100
AcDbEntity
  8
default
 62
   190
100
AcDbCircle
 10
0.0
 20
0.0
 30
0.0
 40
1.9135
  0
CIRCLE
  5
40
330
26
100
AcDbEntity
  8
default
 62
   190
100
AcDbCircle
 10
0.0
 20
0.0
 30
0.0
 40
2.063
  0
CIRCLE
  5
41
330
26
100
AcDbEntity
  8
default
 62
   230
100
AcDbCircle
 10
0.0
 20
0.0
 30
0.0
 40
1.5875
  0
CIRCLE
  5
42
330
26
100
AcDbEntity
  8
default
 62
   230
100
AcDbCircle
 10
0.0
 20
0.0
 30
0.0
 40
1.4375
  0
ENDBLK
  5
43
330
26
100
AcDbEntity
  8
default
  6
Continuous
 62
     7
100
AcDbBlockEnd
  0
BLOCK
  5
44
330
27
100
AcDbEntity
  8
default
  6
Continuous
 62
     7
100
AcDbBlockBegin
  2
m6 nut
 70
     0
 10
0.0
 20
0.0
 30
0.0
  3
m6 nut
  1

  0
ELLIPSE
  5
45
330
27
100
AcDbEntity
  8
default
  6
HIDDEN
100
AcDbEllipse
 10
0.0
 20
0.0
 30
0.0
 11
0.0
 21
0.3454
 31
0.0
210
0.0
220
0.0
230
1.0
 40
0.999855
 41
0.0
 42
6.283185307179586
  0
ELLIPSE
  5
46
330
27
100
AcDbEntity
  8
default
  6
HIDDEN
100
AcDbEllipse
 10
0.0
 20
0.0
 30
0.0
 11
0.0
 21
0.2802
 31
0.0
210
0.0
220
0.0
230
1.0
 40
0.9998219999999999
 41
0.0
 42
6.283185307179586
  0
ELLIPSE
  5
47
330
27
100
AcDbEntity
  8
default
100
AcDbEllipse
 10
0.0
 20
0.0
 30
0.0
 11
0.518
 21
0.0
 31
0.0
210
0.0
220
0.0
230
1.0
 40
0.999903
 41
0.0
 42
6.283185307179586
  0
LINE
  5
48
330
27
100
AcDbEntity
  8
default
100
AcDbLine
 10
-0.5978
 20
0.0002
 30
0.0
 11
-0.2989
 21
0.5179
 31
0.0
  0
LINE
  5
49
330
27
100
AcDbEntity
  8
default
100
AcDbLine
 10
-0.2989
 20
0.5179
 30
0.0
 11
0.2991
 21
0.5179
 31
0.0
  0
LINE
  5
4A
330
27
100
AcDbEntity
  8
default
100
AcDbLine
 10
0.2991
 20
0.5179
 30
0.0
 11
0.5978
 21
0.0004
 31
0.0
  0
LINE
  5
4B
330
27
100
AcDbEntity
  8
default
100
AcDbLine
 10
0.2985
 20
-0.5175
 30
0.0
 11
0.5978
 21
0.0004
 31
0.0
  0
LINE
  5
4C
330
27
100
AcDbEntity
  8
default
100
AcDbLine
 10
-0.299
 20
-0.5175
 30
0.0
 11
0.2985
 21
-0.5175
 31
0.0
  0
LINE
  5
4D
330
27
100
AcDbEntity
  8
default
100
AcDbLine
 10
-0.5978
 20
0.0002
 30
0.0
 11
-0.299
 21
-0.5175
 31
0.0
  0
ENDBLK
  5
4E
330
27
100
AcDbEntity
  8
default
  6
Continuous
 62
     7
100
AcDbBlockEnd
  0
BLOCK
  5
4F
330
28
100
AcDbEntity
  8
default
  6
Continuous
 62
     7
100
AcDbBlockBegin
  2
Group4
 70
     0
 10
0.0
 20
0.0
 30
0.0
  3
Group4
  1

  0
INSERT
  5
50
330
28
100
AcDbEntity
  8
default
100
AcDbBlockReference
  2
Group1
 10
0.0
 20
-5.467
 30
0.0
  0
INSERT
  5
51
330
28
100
AcDbEntity
  8
default
100
AcDbBlockReference
  2
Group1
 10
0.0
 20
-4.866
 30
0.0
  0
INSERT
  5
52
330
28
100
AcDbEntity
  8
default
100
AcDbBlockReference
  2
Group1
 10
0.0
 20
-4.265
 30
0.0
  0
INSERT
  5
53
330
28
100
AcDbEntity
  8
default
100
AcDbBlockReference
  2
Group1
 10
0.0
 20
-3.664
 30
0.0
  0
INSERT
  5
54
330
28
100
AcDbEntity
  8
default
100
AcDbBlockReference
  2
Group1
 10
0.0
 20
-3.063
 30
0.0
  0
INSERT
  5
55
330
28
100
AcDbEntity
  8
default
100
AcDbBlockReference
  2
Group1
 10
0.0
 20
-2.462
 30
0.0
  0
INSERT
  5
56
330
28
100
AcDbEntity
  8
default
100
AcDbBlockReference
  2
Group1
 10
0.0
 20
-1.861
 30
0.0
  0
INSERT
  5
57
330
28
100
AcDbEntity
  8
default
100
AcDbBlockReference
  2
Group1
 10
0.0
 20
-1.26
 30
0.0
  0
INSERT
  5
58
330
28
100
AcDbEntity
  8
default
100
AcDbBlockReference
  2
Group1
 10
0.0
 20
-0.659
 30
0.0
  0
INSERT
  5
59
330
28
100
AcDbEntity
  8
default
100
AcDbBlockReference
  2
Group1
 10
0.0
 20
-0.058
 30
0.0
  0
INSERT
  5
5A
330
28
100
AcDbEntity
  8
default
100
AcDbBlockReference
  2
Group1
 10
0.0
 20
0.543
 30
0.0
  0
INSERT
  5
5B
330
28
100
AcDbEntity
  8
default
100
AcDbBlockReference
  2
Group1
 10
0.0
 20
1.144
 30
0.0
  0
INSERT
  5
5C
330
28
100
AcDbEntity
  8
default
100
AcDbBlockReference
  2
Group1
 10
0.0
 20
1.745
 30
0.0
  0
INSERT
  5
5D
330
28
100
AcDbEntity
  8
default
100
AcDbBlockReference
  2
Group1
 10
0.0
 20
2.346
 30
0.0
  0
INSERT
  5
5E
330
28
100
AcDbEntity
  8
default
100
AcDbBlockReference
  2
Group1
 10
0.0
 20
2.947
 30
0.0
  0
INSERT
  5
5F
330
28
100
AcDbEntity
  8
default
100
AcDbBlockReference
  2
Group1
 10
0.0
 20
3.548
 30
0.0
  0
INSERT
  5
60
330
28
100
AcDbEntity
  8
default
100
AcDbBlockReference
  2
Group1
 10
0.0
 20
4.149
 30
0.0
  0
INSERT
  5
61
330
28
100
AcDbEntity
  8
default
100
AcDbBlockReference
  2
Group1
 10
0.0
 20
4.75
 30
0.0
  0
INSERT
  5
62
330
28
100
AcDbEntity
  8
default
100
AcDbBlockReference
  2
Group1
 10
0.0
 20
5.351
 30
0.0
  0
LINE
  5
63
330
28
100
AcDbEntity
  8
default
 62
   254
100
AcDbLine
 10
-1.19
 20
5.7675
 30
0.0
 11
-1.19
 21
5.6515
 31
0.0
  0
LINE
  5
64
330
28
100
AcDbEntity
  8
default
 62
   254
100
AcDbLine
 10
1.19
 20
5.7675
 30
0.0
 11
1.19
 21
5.6515
 31
0.0
  0
LINE
  5
65
330
28
100
AcDbEntity
  8
default
 62
   254
100
AcDbLine
 10
-1.19
 20
5.7675
 30
0.0
 11
1.19
 21
5.7675
 31
0.0
  0
LINE
  5
66
330
28
100
AcDbEntity
  8
default
 62
   254
100
AcDbLine
 10
-1.19
 20
5.6515
 30
0.0
 11
1.19
 21
5.6515
 31
0.0
  0
ENDBLK
  5
67
330
28
100
AcDbEntity
  8
default
  6
Continuous
 62
     7
100
AcDbBlockEnd
  0
BLOCK
  5
68
330
29
100
AcDbEntity
  8
default
  6
Continuous
 62
     7
100
AcDbBlockBegin
  2
nut
 70
     0
 10
0.0
 20
0.0
 30
0.0
  3
nut
  1

  0
LINE
  5
69
330
29
100
AcDbEntity
  8
default
100
AcDbLine
 10
-0.6
 20
0.2426
 30
0.0
 11
-0.6
 21
-0.2424
 31
0.0
  0
LINE
  5
6A
330
29
100
AcDbEntity
  8
default
100
AcDbLine
 10
0.6
 20
0.2426
 30
0.0
 11
0.6
 21
-0.2424
 31
0.0
  0
LINE
  5
6B
330
29
100
AcDbEntity
  8
default
100
AcDbLine
 10
-0.6
 20
0.2426
 30
0.0
 11
0.6
 21
0.2426
 31
0.0
  0
LINE
  5
6C
330
29
100
AcDbEntity
  8
default
100
AcDbLine
 10
-0.6
 20
-0.2424
 30
0.0
 11
0.6
 21
-0.2424
 31
0.0
  0
LINE
  5
6D
330
29
100
AcDbEntity
  8
default
100
AcDbLine
 10
0.31
 20
-0.2425
 30
0.0
 11
0.31
 21
0.2425
 31
0.0
  0
LINE
  5
6E
330
29
100
AcDbEntity
  8
default
100
AcDbLine
 10
-0.31
 20
-0.2424
 30
0.0
 11
-0.31
 21
0.2426
 31
0.0
  0
ENDBLK
  5
6F
330
29
100
AcDbEntity
  8
default
  6
Continuous
 62
     7
100
AcDbBlockEnd
  0
ENDSEC
  0
SECTION
  2
ENTITIES
  0
CIRCLE
  5
70
330
18
100
AcDbEntity
  8
default
 62
    52
100
AcDbCircle
 10
19.1799
 20
4.035
 30
0.0
 40
1.4375
  0
TEXT
  5
71
330
18
100
AcDbEntity
  8
default
 62
   150
100
AcDbText
 10
17.4363
 20
8.9364
 30
0.0
 40
0.4813
  1
End piece
  7
Arial
100
AcDbText
  0
LINE
  5
72
330
18
100
AcDbEntity
  8
default
  6
HIDDEN
100
AcDbLine
 10
16.7049
 20
-8.8816
 30
0.0
 11
16.7049
 21
6.6184
 31
0.0
  0
LINE
  5
73
330
18
100
AcDbEntity
  8
default
 62
   161
100
AcDbLine
 10
16.7049
 20
6.6184
 30
0.0
 11
16.7049
 21
-8.8816
 31
0.0
  0
LINE
  5
74
330
18
100
AcDbEntity
  8
default
 62
   161
100
AcDbLine
 10
21.6549
 20
6.6184
 30
0.0
 11
21.6549
 21
-8.8816
 31
0.0
  0
LINE
  5
75
330
18
100
AcDbEntity
  8
default
 62
   161
100
AcDbLine
 10
16.7049
 20
6.6184
 30
0.0
 11
21.6549
 21
6.6184
 31
0.0
  0
LINE
  5
76
330
18
100
AcDbEntity
  8
default
 62
   161
100
AcDbLine
 10
16.7049
 20
-8.8816
 30
0.0
 11
21.6549
 21
-8.8816
 31
0.0
  0
LINE
  5
77
330
18
100
AcDbEntity
  8
default
  6
HIDDEN
100
AcDbLine
 10
16.7049
 20
4.035
 30
0.0
 11
21.6549
 21
4.035
 31
0.0
  0
LINE
  5
78
330
18
100
AcDbEntity
  8
default
  6
HIDDEN
100
AcDbLine
 10
16.7049
 20
1.4517
 30
0.0
 11
21.6549
 21
1.4517
 31
0.0
  0
LINE
  5
79
330
18
100
AcDbEntity
  8
default
  6
HIDDEN
100
AcDbLine
 10
16.7049
 20
-1.1316
 30
0.0
 11
21.6549
 21
-1.1316
 31
0.0
  0
LINE
  5
7A
330
18
100
AcDbEntity
  8
default
  6
HIDDEN
100
AcDbLine
 10
16.7049
 20
-3.7149
 30
0.0
 11
21.6549
 21
-3.7149
 31
0.0
  0
LINE
  5
7B
330
18
100
AcDbEntity
  8
default
  6
HIDDEN
100
AcDbLine
 10
16.7049
 20
-6.2982
 30
0.0
 11
21.6549
 21
-6.2982
 31
0.0
  0
SOLID
  5
7C
330
18
100
AcDbEntity
  8
default
100
AcDbTrace
 10
16.9513
 20
8.4966
 30
0.0
 11
16.9513
 21
8.3736
 31
0.0
 12
16.7049
 22
8.4351
 32
0.0
 13
16.7049
 23
8.4351
 33
0.0
  0
SOLID
  5
7D
330
18
100
AcDbEntity
  8
default
100
AcDbTrace
 10
21.4085
 20
8.3736
 30
0.0
 11
21.4085
 21
8.4966
 31
0.0
 12
21.6549
 22
8.4351
 32
0.0
 13
21.6549
 23
8.4351
 33
0.0
  0
LINE
  5
7E
330
18
100
AcDbEntity
  8
default
100
AcDbLine
 10
16.7049
 20
8.4351
 30
0.0
 11
18.5223
 21
8.4351
 31
0.0
  0
LINE
  5
7F
330
18
100
AcDbEntity
  8
default
100
AcDbLine
 10
19.6941
 20
8.4351
 30
0.0
 11
21.6549
 21
8.4351
 31
0.0
  0
TEXT
  5
80
330
18
100
AcDbEntity
  8
default
100
AcDbText
 10
18.6812
 20
8.2714
 30
0.0
 40
0.3208
  1
4.95
  7
Arial
100
AcDbText
  0
LINE
  5
81
330
18
100
AcDbEntity
  8
default
100
AcDbLine
 10
16.7049
 20
6.7772
 30
0.0
 11
16.7049
 21
8.7526
 31
0.0
  0
LINE
  5
82
330
18
100
AcDbEntity
  8
default
100
AcDbLine
 10
21.6549
 20
6.7772
 30
0.0
 11
21.6549
 21
8.7526
 31
0.0
  0
LINE
  5
83
330
18
100
AcDbEntity
  8
default
  6
HIDDEN
100
AcDbLine
 10
19.1799
 20
-8.8816
 30
0.0
 11
19.1799
 21
6.6184
 31
0.0
  0
INSERT
  5
84
330
18
100
AcDbEntity
  8
default
100
AcDbBlockReference
  2
Group2
 10
19.1799
 20
-1.1316
 30
0.0
 41
-1.0
 50
180.0
  0
INSERT
  5
85
330
18
100
AcDbEntity
  8
default
100
AcDbBlockReference
  2
Group2
 10
19.1799
 20
-6.2982
 30
0.0
  0
SOLID
  5
86
330
18
100
AcDbEntity
  8
default
100
AcDbTrace
 10
19.4263
 20
7.398
 30
0.0
 11
19.4263
 21
7.275
 31
0.0
 12
19.1799
 22
7.3365
 32
0.0
 13
19.1799
 23
7.3365
 33
0.0
  0
SOLID
  5
87
330
18
100
AcDbEntity
  8
default
100
AcDbTrace
 10
21.4085
 20
7.275
 30
0.0
 11
21.4085
 21
7.398
 31
0.0
 12
21.6549
 22
7.3365
 32
0.0
 13
21.6549
 23
7.3365
 33
0.0
  0
LINE
  5
88
330
18
100
AcDbEntity
  8
default
100
AcDbLine
 10
19.1799
 20
7.3365
 30
0.0
 11
19.576
 21
7.3365
 31
0.0
  0
LINE
  5
89
330
18
100
AcDbEntity
  8
default
100
AcDbLine
 10
20.9912
 20
7.3365
 30
0.0
 11
21.6549
 21
7.3365
 31
0.0
  0
TEXT
  5
8A
330
18
100
AcDbEntity
  8
default
100
AcDbText
 10
19.7349
 20
7.1728
 30
0.0
 40
0.3208
  1
2.475
  7
Arial
100
AcDbText
  0
LINE
  5
8B
330
18
100
AcDbEntity
  8
default
100
AcDbLine
 10
19.1799
 20
6.7772
 30
0.0
 11
19.1799
 21
7.654
 31
0.0
  0
LINE
  5
8C
330
18
100
AcDbEntity
  8
default
100
AcDbLine
 10
21.6549
 20
6.7772
 30
0.0
 11
21.6549
 21
7.654
 31
0.0
  0
SOLID
  5
8D
330
18
100
AcDbEntity
  8
default
100
AcDbTrace
 10
22.8161
 20
6.372
 30
0.0
 11
22.6927
 21
6.372
 31
0.0
 12
22.7544
 22
6.6184
 32
0.0
 13
22.7544
 23
6.6184
 33
0.0
  0
SOLID
  5
8E
330
18
100
AcDbEntity
  8
default
100
AcDbTrace
 10
22.6927
 20
4.2814
 30
0.0
 11
22.8161
 21
4.2814
 31
0.0
 12
22.7544
 22
4.035
 32
0.0
 13
22.7544
 23
4.035
 33
0.0
  0
LINE
  5
8F
330
18
100
AcDbEntity
  8
default
100
AcDbLine
 10
22.7544
 20
5.5943
 30
0.0
 11
22.7544
 21
6.6184
 31
0.0
  0
LINE
  5
90
330
18
100
AcDbEntity
  8
default
100
AcDbLine
 10
22.7544
 20
4.035
 30
0.0
 11
22.7544
 21
4.8533
 31
0.0
  0
TEXT
  5
91
330
18
100
AcDbEntity
  8
default
100
AcDbText
 10
22.3321
 20
5.0601
 30
0.0
 40
0.3208
  1
2.58
  7
Arial
100
AcDbText
  0
LINE
  5
92
330
18
100
AcDbEntity
  8
default
100
AcDbLine
 10
21.8137
 20
6.6184
 30
0.0
 11
23.0719
 21
6.6184
 31
0.0
  0
LINE
  5
93
330
18
100
AcDbEntity
  8
default
100
AcDbLine
 10
21.8137
 20
4.035
 30
0.0
 11
23.0719
 21
4.035
 31
0.0
  0
SOLID
  5
94
330
18
100
AcDbEntity
  8
default
100
AcDbTrace
 10
22.9417
 20
3.7886
 30
0.0
 11
22.8183
 21
3.7886
 31
0.0
 12
22.88
 22
4.035
 32
0.0
 13
22.88
 23
4.035
 33
0.0
  0
SOLID
  5
95
330
18
100
AcDbEntity
  8
default
100
AcDbTrace
 10
22.8183
 20
-0.8852
 30
0.0
 11
22.9417
 21
-0.8852
 31
0.0
 12
22.88
 22
-1.1316
 32
0.0
 13
22.88
 23
-1.1316
 33
0.0
  0
LINE
  5
96
330
18
100
AcDbEntity
  8
default
100
AcDbLine
 10
22.88
 20
1.6223
 30
0.0
 11
22.88
 21
4.035
 31
0.0
  0
LINE
  5
97
330
18
100
AcDbEntity
  8
default
100
AcDbLine
 10
22.88
 20
-1.1316
 30
0.0
 11
22.88
 21
0.8813
 31
0.0
  0
TEXT
  5
98
330
18
100
AcDbEntity
  8
default
100
AcDbText
 10
22.4608
 20
1.0881
 30
0.0
 40
0.3208
  1
5.17
  7
Arial
100
AcDbText
  0
LINE
  5
99
330
18
100
AcDbEntity
  8
default
100
AcDbLine
 10
21.8137
 20
4.035
 30
0.0
 11
23.1975
 21
4.035
 31
0.0
  0
LINE
  5
9A
330
18
100
AcDbEntity
  8
default
100
AcDbLine
 10
21.8137
 20
-1.1316
 30
0.0
 11
23.1975
 21
-1.1316
 31
0.0
  0
SOLID
  5
9B
330
18
100
AcDbEntity
  8
default
100
AcDbTrace
 10
22.8998
 20
-6.5446
 30
0.0
 11
22.7764
 21
-6.5446
 31
0.0
 12
22.8381
 22
-6.2982
 32
0.0
 13
22.8381
 23
-6.2982
 33
0.0
  0
SOLID
  5
9C
330
18
100
AcDbEntity
  8
default
100
AcDbTrace
 10
22.7764
 20
-8.6352
 30
0.0
 11
22.8998
 21
-8.6352
 31
0.0
 12
22.8381
 22
-8.8816
 32
0.0
 13
22.8381
 23
-8.8816
 33
0.0
  0
LINE
  5
9D
330
18
100
AcDbEntity
  8
default
100
AcDbLine
 10
22.8381
 20
-7.1245
 30
0.0
 11
22.8381
 21
-6.2982
 31
0.0
  0
LINE
  5
9E
330
18
100
AcDbEntity
  8
default
100
AcDbLine
 10
22.8381
 20
-8.8816
 30
0.0
 11
22.8381
 21
-7.8655
 31
0.0
  0
TEXT
  5
9F
330
18
100
AcDbEntity
  8
default
100
AcDbText
 10
22.4158
 20
-7.6587
 30
0.0
 40
0.3208
  1
2.58
  7
Arial
100
AcDbText
  0
LINE
  5
A0
330
18
100
AcDbEntity
  8
default
100
AcDbLine
 10
21.8137
 20
-8.8816
 30
0.0
 11
23.1556
 21
-8.8816
 31
0.0
  0
LINE
  5
A1
330
18
100
AcDbEntity
  8
default
100
AcDbLine
 10
21.8137
 20
-6.2982
 30
0.0
 11
23.1556
 21
-6.2982
 31
0.0
  0
SOLID
  5
A2
330
18
100
AcDbEntity
  8
default
100
AcDbTrace
 10
22.9836
 20
-1.378
 30
0.0
 11
22.8602
 21
-1.378
 31
0.0
 12
22.9219
 22
-1.1316
 32
0.0
 13
22.9219
 23
-1.1316
 33
0.0
  0
SOLID
  5
A3
330
18
100
AcDbEntity
  8
default
100
AcDbTrace
 10
22.8602
 20
-6.0518
 30
0.0
 11
22.9836
 21
-6.0518
 31
0.0
 12
22.9219
 22
-6.2982
 32
0.0
 13
22.9219
 23
-6.2982
 33
0.0
  0
LINE
  5
A4
330
18
100
AcDbEntity
  8
default
100
AcDbLine
 10
22.9219
 20
-3.237
 30
0.0
 11
22.9219
 21
-1.1316
 31
0.0
  0
LINE
  5
A5
330
18
100
AcDbEntity
  8
default
100
AcDbLine
 10
22.9219
 20
-6.2982
 30
0.0
 11
22.9219
 21
-3.978
 31
0.0
  0
TEXT
  5
A6
330
18
100
AcDbEntity
  8
default
100
AcDbText
 10
22.5027
 20
-3.7712
 30
0.0
 40
0.3208
  1
5.17
  7
Arial
100
AcDbText
  0
LINE
  5
A7
330
18
100
AcDbEntity
  8
default
100
AcDbLine
 10
21.8137
 20
-6.2982
 30
0.0
 11
23.2394
 21
-6.2982
 31
0.0
  0
LINE
  5
A8
330
18
100
AcDbEntity
  8
default
100
AcDbLine
 10
21.8137
 20
-1.1316
 30
0.0
 11
23.2394
 21
-1.1316
 31
0.0
  0
CIRCLE
  5
A9
330
18
100
AcDbEntity
  8
default
100
AcDbCircle
 10
19.1799
 20
4.035
 30
0.0
 40
0.25
  0
CIRCLE
  5
AA
330
18
100
AcDbEntity
  8
default
 62
   254
100
AcDbCircle
 10
19.1799
 20
4.035
 30
0.0
 40
1.19
  0
LINE
  5
AB
330
18
100
AcDbEntity
  8
default
 62
     3
100
AcDbLine
 10
19.4795
 20
4.5525
 30
0.0
 11
19.7779
 21
4.0343
 31
0.0
  0
LINE
  5
AC
330
18
100
AcDbEntity
  8
default
 62
     3
100
AcDbLine
 10
18.8815
 20
4.5531
 30
0.0
 11
19.4795
 21
4.5525
 31
0.0
  0
LINE
  5
AD
330
18
100
AcDbEntity
  8
default
 62
     3
100
AcDbLine
 10
18.5819
 20
4.0355
 30
0.0
 11
18.8815
 21
4.5531
 31
0.0
  0
LINE
  5
AE
330
18
100
AcDbEntity
  8
default
 62
     3
100
AcDbLine
 10
18.8804
 20
3.5174
 30
0.0
 11
18.5819
 21
4.0355
 31
0.0
  0
LINE
  5
AF
330
18
100
AcDbEntity
  8
default
 62
     3
100
AcDbLine
 10
19.4784
 20
3.5168
 30
0.0
 11
18.8804
 21
3.5174
 31
0.0
  0
LINE
  5
B0
330
18
100
AcDbEntity
  8
default
 62
     3
100
AcDbLine
 10
19.7779
 20
4.0343
 30
0.0
 11
19.4784
 21
3.5168
 31
0.0
  0
CIRCLE
  5
B1
330
18
100
AcDbEntity
  8
default
 62
   190
100
AcDbCircle
 10
19.1799
 20
4.035
 30
0.0
 40
1.9135
  0
CIRCLE
  5
B2
330
18
100
AcDbEntity
  8
default
 62
   190
100
AcDbCircle
 10
19.1799
 20
4.035
 30
0.0
 40
2.063
  0
CIRCLE
  5
B3
330
18
100
AcDbEntity
  8
default
 62
    52
100
AcDbCircle
 10
19.1799
 20
4.035
 30
0.0
 40
1.5875
  0
CIRCLE
  5
B4
330
18
100
AcDbEntity
  8
default
100
AcDbCircle
 10
7.515
 20
7.48
 30
0.0
 40
0.3
  0
INSERT
  5
B5
330
18
100
AcDbEntity
  8
default
100
AcDbBlockReference
  2
m6 nut
 10
5.4885
 20
1.8397
 30
0.0
  0
CIRCLE
  5
B6
330
18
100
AcDbEntity
  8
default
100
AcDbCircle
 10
5.6651
 20
-1.2622
 30
0.0
 40
1.19
  0
CIRCLE
  5
B7
330
18
100
AcDbEntity
  8
default
100
AcDbCircle
 10
5.6651
 20
-1.2622
 30
0.0
 40
0.3
  0
LINE
  5
B8
330
18
100
AcDbEntity
  8
default
100
AcDbLine
 10
7.214
 20
-1.1822
 30
0.0
 11
7.214
 21
-1.2982
 31
0.0
  0
LINE
  5
B9
330
18
100
AcDbEntity
  8
default
100
AcDbLine
 10
9.594
 20
-1.1822
 30
0.0
 11
9.594
 21
-1.2982
 31
0.0
  0
LINE
  5
BA
330
18
100
AcDbEntity
  8
default
100
AcDbLine
 10
7.214
 20
-1.1822
 30
0.0
 11
9.594
 21
-1.1822
 31
0.0
  0
LINE
  5
BB
330
18
100
AcDbEntity
  8
default
100
AcDbLine
 10
7.214
 20
-1.2982
 30
0.0
 11
9.594
 21
-1.2982
 31
0.0
  0
TEXT
  5
BC
330
18
100
AcDbEntity
  8
default
100
AcDbText
 10
5.5915
 20
2.7636
 30
0.0
 40
0.3208
  1
M6 nut
  7
Arial
100
AcDbText
  0
TEXT
  5
BD
330
18
100
AcDbEntity
  8
default
100
AcDbText
 10
4.9365
 20
0.1611
 30
0.0
 40
0.3208
  1
M6 x 24 fender washer
  7
Arial
100
AcDbText
  0
CIRCLE
  5
BE
330
18
100
AcDbEntity
  8
default
 62
   254
100
AcDbCircle
 10
7.515
 20
7.48
 30
0.0
 40
1.19
  0
SOLID
  5
BF
330
18
100
AcDbEntity
  8
default
100
AcDbTrace
 10
7.9681
 20
7.1685
 30
0.0
 11
7.8872
 21
7.0756
 31
0.0
 12
7.7415
 22
7.2834
 32
0.0
 13
7.7415
 23
7.2834
 33
0.0
  0
TEXT
  5
C0
330
18
100
AcDbEntity
  8
default
100
AcDbText
 10
10.6281
 20
5.1661
 30
0.0
 40
0.3208
  1
.60 DIA
  7
Arial
100
AcDbText
  0
LINE
  5
C1
330
18
100
AcDbEntity
  8
default
100
AcDbLine
 10
7.7415
 20
7.2834
 30
0.0
 11
9.993
 21
5.3298
 31
0.0
  0
LINE
  5
C2
330
18
100
AcDbEntity
  8
default
100
AcDbLine
 10
9.993
 20
5.3298
 30
0.0
 11
10.4693
 21
5.3298
 31
0.0
  0
SOLID
  5
C3
330
18
100
AcDbEntity
  8
default
100
AcDbTrace
 10
8.7655
 20
6.7704
 30
0.0
 11
8.7001
 21
6.6662
 31
0.0
 12
8.5238
 22
6.8489
 32
0.0
 13
8.5238
 23
6.8489
 33
0.0
  0
TEXT
  5
C4
330
18
100
AcDbEntity
  8
default
100
AcDbText
 10
10.65
 20
5.7524
 30
0.0
 40
0.3208
  1
2.38 DIA
  7
Arial
100
AcDbText
  0
LINE
  5
C5
330
18
100
AcDbEntity
  8
default
100
AcDbLine
 10
8.5238
 20
6.8489
 30
0.0
 11
10.0149
 21
5.9161
 31
0.0
  0
LINE
  5
C6
330
18
100
AcDbEntity
  8
default
100
AcDbLine
 10
10.0149
 20
5.9161
 30
0.0
 11
10.4912
 21
5.9161
 31
0.0
  0
CIRCLE
  5
C7
330
18
100
AcDbEntity
  8
default
 62
   230
100
AcDbCircle
 10
7.515
 20
7.48
 30
0.0
 40
1.585
  0
CIRCLE
  5
C8
330
18
100
AcDbEntity
  8
default
 62
   230
100
AcDbCircle
 10
7.515
 20
7.48
 30
0.0
 40
1.4675
  0
SOLID
  5
C9
330
18
100
AcDbEntity
  8
default
100
AcDbTrace
 10
9.3386
 20
7.6586
 30
0.0
 11
9.3466
 21
7.5359
 31
0.0
 12
9.0967
 22
7.5813
 32
0.0
 13
9.0967
 23
7.5813
 33
0.0
  0
TEXT
  5
CA
330
18
100
AcDbEntity
  8
default
100
AcDbText
 10
10.5481
 20
7.4699
 30
0.0
 40
0.3208
  1
3.17 DIA
  7
Arial
100
AcDbText
  0
LINE
  5
CB
330
18
100
AcDbEntity
  8
default
100
AcDbLine
 10
9.0967
 20
7.5813
 30
0.0
 11
9.913
 21
7.6336
 31
0.0
  0
LINE
  5
CC
330
18
100
AcDbEntity
  8
default
100
AcDbLine
 10
9.913
 20
7.6336
 30
0.0
 11
10.3893
 21
7.6336
 31
0.0
  0
SOLID
  5
CD
330
18
100
AcDbEntity
  8
default
100
AcDbTrace
 10
9.2204
 20
7.2991
 30
0.0
 11
9.203
 21
7.1774
 31
0.0
 12
8.9678
 22
7.273
 32
0.0
 13
8.9678
 23
7.273
 33
0.0
  0
TEXT
  5
CE
330
18
100
AcDbEntity
  8
default
100
AcDbText
 10
10.5595
 20
6.9729
 30
0.0
 40
0.3208
  1
2.94 DIA
  7
Arial
100
AcDbText
  0
LINE
  5
CF
330
18
100
AcDbEntity
  8
default
100
AcDbLine
 10
8.9678
 20
7.273
 30
0.0
 11
9.9244
 21
7.1366
 31
0.0
  0
LINE
  5
D0
330
18
100
AcDbEntity
  8
default
100
AcDbLine
 10
9.9244
 20
7.1366
 30
0.0
 11
10.4007
 21
7.1366
 31
0.0
  0
CIRCLE
  5
D1
330
18
100
AcDbEntity
  8
default
 62
   190
100
AcDbCircle
 10
7.515
 20
7.48
 30
0.0
 40
2.06
  0
CIRCLE
  5
D2
330
18
100
AcDbEntity
  8
default
 62
   190
100
AcDbCircle
 10
7.515
 20
7.48
 30
0.0
 40
1.9435
  0
SOLID
  5
D3
330
18
100
AcDbEntity
  8
default
100
AcDbTrace
 10
9.3687
 20
8.8534
 30
0.0
 11
9.4395
 21
8.7527
 31
0.0
 12
9.2023
 22
8.6617
 32
0.0
 13
9.2023
 23
8.6617
 33
0.0
  0
TEXT
  5
D4
330
18
100
AcDbEntity
  8
default
100
AcDbText
 10
10.5481
 20
8.9957
 30
0.0
 40
0.3208
  1
4.12 DIA
  7
Arial
100
AcDbText
  0
LINE
  5
D5
330
18
100
AcDbEntity
  8
default
100
AcDbLine
 10
9.2023
 20
8.6617
 30
0.0
 11
9.913
 21
9.1594
 31
0.0
  0
LINE
  5
D6
330
18
100
AcDbEntity
  8
default
100
AcDbLine
 10
9.913
 20
9.1594
 30
0.0
 11
10.3893
 21
9.1594
 31
0.0
  0
SOLID
  5
D7
330
18
100
AcDbEntity
  8
default
100
AcDbTrace
 10
9.4199
 20
8.5615
 30
0.0
 11
9.4779
 21
8.453
 31
0.0
 12
9.2314
 22
8.3916
 32
0.0
 13
9.2314
 23
8.3916
 33
0.0
  0
TEXT
  5
D8
330
18
100
AcDbEntity
  8
default
100
AcDbText
 10
10.5939
 20
8.6143
 30
0.0
 40
0.3208
  1
3.89 DIA
  7
Arial
100
AcDbText
  0
LINE
  5
D9
330
18
100
AcDbEntity
  8
default
100
AcDbLine
 10
9.2314
 20
8.3916
 30
0.0
 11
9.9588
 21
8.778
 31
0.0
  0
LINE
  5
DA
330
18
100
AcDbEntity
  8
default
100
AcDbLine
 10
9.9588
 20
8.778
 30
0.0
 11
10.4351
 21
8.778
 31
0.0
  0
LINE
  5
DB
330
18
100
AcDbEntity
  8
default
 62
     3
100
AcDbLine
 10
7.8146
 20
7.9975
 30
0.0
 11
8.113
 21
7.4793
 31
0.0
  0
LINE
  5
DC
330
18
100
AcDbEntity
  8
default
 62
     3
100
AcDbLine
 10
7.2166
 20
7.9981
 30
0.0
 11
7.8146
 21
7.9975
 31
0.0
  0
LINE
  5
DD
330
18
100
AcDbEntity
  8
default
 62
     3
100
AcDbLine
 10
6.917
 20
7.4805
 30
0.0
 11
7.2166
 21
7.9981
 31
0.0
  0
LINE
  5
DE
330
18
100
AcDbEntity
  8
default
 62
     3
100
AcDbLine
 10
7.2155
 20
6.9624
 30
0.0
 11
6.917
 21
7.4805
 31
0.0
  0
LINE
  5
DF
330
18
100
AcDbEntity
  8
default
 62
     3
100
AcDbLine
 10
7.8135
 20
6.9618
 30
0.0
 11
7.2155
 21
6.9624
 31
0.0
  0
LINE
  5
E0
330
18
100
AcDbEntity
  8
default
 62
     3
100
AcDbLine
 10
8.113
 20
7.4793
 30
0.0
 11
7.8135
 21
6.9618
 31
0.0
  0
SOLID
  5
E1
330
18
100
AcDbEntity
  8
default
100
AcDbTrace
 10
8.3204
 20
2.4082
 30
0.0
 11
8.4438
 21
2.4082
 31
0.0
 12
8.3821
 22
2.1618
 32
0.0
 13
8.3821
 23
2.1618
 33
0.0
  0
SOLID
  5
E2
330
18
100
AcDbEntity
  8
default
100
AcDbTrace
 10
8.4438
 20
1.4304
 30
0.0
 11
8.3204
 21
1.4304
 31
0.0
 12
8.3821
 22
1.6768
 32
0.0
 13
8.3821
 23
1.6768
 33
0.0
  0
LINE
  5
E3
330
18
100
AcDbEntity
  8
default
100
AcDbLine
 10
8.3821
 20
2.1618
 30
0.0
 11
8.3821
 21
3.1143
 31
0.0
  0
LINE
  5
E4
330
18
100
AcDbEntity
  8
default
100
AcDbLine
 10
8.3821
 20
0.7243
 30
0.0
 11
8.3821
 21
1.6768
 31
0.0
  0
TEXT
  5
E5
330
18
100
AcDbEntity
  8
default
100
AcDbText
 10
8.0409
 20
1.8093
 30
0.0
 40
0.2674
  1
.485
  7
Arial
100
AcDbText
  0
LINE
  5
E6
330
18
100
AcDbEntity
  8
default
100
AcDbLine
 10
7.9337
 20
2.1618
 30
0.0
 11
8.6996
 21
2.1618
 31
0.0
  0
LINE
  5
E7
330
18
100
AcDbEntity
  8
default
100
AcDbLine
 10
7.9337
 20
1.6768
 30
0.0
 11
8.6996
 21
1.6768
 31
0.0
  0
SOLID
  5
E8
330
18
100
AcDbEntity
  8
default
100
AcDbTrace
 10
9.8204
 20
-0.9358
 30
0.0
 11
9.9438
 21
-0.9358
 31
0.0
 12
9.8821
 22
-1.1822
 32
0.0
 13
9.8821
 23
-1.1822
 33
0.0
  0
SOLID
  5
E9
330
18
100
AcDbEntity
  8
default
100
AcDbTrace
 10
9.9438
 20
-1.5446
 30
0.0
 11
9.8204
 21
-1.5446
 31
0.0
 12
9.8821
 22
-1.2982
 32
0.0
 13
9.8821
 23
-1.2982
 33
0.0
  0
LINE
  5
EA
330
18
100
AcDbEntity
  8
default
100
AcDbLine
 10
9.8821
 20
-1.1822
 30
0.0
 11
9.8821
 21
-0.3165
 31
0.0
  0
LINE
  5
EB
330
18
100
AcDbEntity
  8
default
100
AcDbLine
 10
9.8821
 20
-2.2507
 30
0.0
 11
9.8821
 21
-1.2982
 31
0.0
  0
LINE
  5
EC
330
18
100
AcDbEntity
  8
default
100
AcDbLine
 10
9.8821
 20
-0.3165
 30
0.0
 11
10.3584
 21
-0.3165
 31
0.0
  0
TEXT
  5
ED
330
18
100
AcDbEntity
  8
default
100
AcDbText
 10
10.5172
 20
-0.4529
 30
0.0
 40
0.2674
  1
.116
  7
Arial
100
AcDbText
  0
LINE
  5
EE
330
18
100
AcDbEntity
  8
default
100
AcDbLine
 10
9.7528
 20
-1.2982
 30
0.0
 11
10.1996
 21
-1.2982
 31
0.0
  0
LINE
  5
EF
330
18
100
AcDbEntity
  8
default
100
AcDbLine
 10
9.7528
 20
-1.1822
 30
0.0
 11
10.1996
 21
-1.1822
 31
0.0
  0
INSERT
  5
F0
330
18
100
AcDbEntity
  8
default
100
AcDbBlockReference
  2
nut
 10
7.1749
 20
1.9192
 30
0.0
  0
LINE
  5
F1
330
18
100
AcDbEntity
  8
default
  6
HIDDEN
 62
     9
100
AcDbLine
 10
5.386
 20
-8.8581
 30
0.0
 11
5.386
 21
-11.8562
 31
0.0
  0
LINE
  5
F2
330
18
100
AcDbEntity
  8
default
  6
HIDDEN
 62
     9
100
AcDbLine
 10
9.2404
 20
-8.8581
 30
0.0
 11
9.2404
 21
-11.8562
 31
0.0
  0
LINE
  5
F3
330
18
100
AcDbEntity
  8
default
  6
HIDDEN
 62
     9
100
AcDbLine
 10
5.386
 20
-8.8581
 30
0.0
 11
9.2404
 21
-8.8581
 31
0.0
  0
LINE
  5
F4
330
18
100
AcDbEntity
  8
default
  6
HIDDEN
 62
     9
100
AcDbLine
 10
5.386
 20
-11.8562
 30
0.0
 11
9.2404
 21
-11.8562
 31
0.0
  0
TEXT
  5
F5
330
18
100
AcDbEntity
  8
default
100
AcDbText
 10
5.9985
 20
-10.0912
 30
0.0
 40
0.1337
  1
total area of 30 washers
  7
Arial
100
AcDbText
  0
TEXT
  5
F6
330
18
100
AcDbEntity
  8
default
100
AcDbText
 10
5.9985
 20
-10.2953
 30
0.0
 40
0.1337
  1
=237.208 cm²
  7
Arial
100
AcDbText
  0
TEXT
  5
F7
330
18
100
AcDbEntity
  8
default
100
AcDbText
 10
5.65
 20
-9.2778
 30
0.0
 40
0.1872
  1
total area of 
  7
Arial
100
AcDbText
  0
TEXT
  5
F8
330
18
100
AcDbEntity
  8
default
100
AcDbText
 10
5.65
 20
-9.5635
 30
0.0
 40
0.1872
  1
center electrode= 289.4425 cm²
  7
Arial
100
AcDbText
  0
TEXT
  5
F9
330
18
100
AcDbEntity
  8
default
100
AcDbText
 10
5.9249
 20
-10.6101
 30
0.0
 40
0.1337
  1
washer - center hole
  7
Arial
100
AcDbText
  0
TEXT
  5
FA
330
18
100
AcDbEntity
  8
default
100
AcDbText
 10
5.9249
 20
-10.8142
 30
0.0
 40
0.1337
  1
= 7.90693  cm² for 2 sides plus edge
  7
Arial
100
AcDbText
  0
TEXT
  5
FB
330
18
100
AcDbEntity
  8
default
100
AcDbText
 10
5.9249
 20
-11.0183
 30
0.0
 40
0.1337
  1

  7
Arial
100
AcDbText
  0
TEXT
  5
FC
330
18
100
AcDbEntity
  8
default
100
AcDbText
 10
5.7812
 20
-11.2583
 30
0.0
 40
0.1337
  1
surface area of  30 nuts flat faces
  7
Arial
100
AcDbText
  0
TEXT
  5
FD
330
18
100
AcDbEntity
  8
default
100
AcDbText
 10
5.7812
 20
-11.4624
 30
0.0
 40
0.1337
  1
=52,2345 cm²
  7
Arial
100
AcDbText
  0
TEXT
  5
FE
330
18
100
AcDbEntity
  8
default
100
AcDbText
 10
2.2483
 20
-4.4881
 30
0.0
 40
0.5347
  1
Total area of 3 tube array = 2046.9  cm²
  7
Arial_Bold
100
AcDbText
  0
TEXT
  5
FF
330
18
100
AcDbEntity
  8
default
100
AcDbText
 10
4.2192
 20
-7.7467
 30
0.0
 40
0.3743
  1
Total area of tubes= 392.85 cm²
  7
Arial
100
AcDbText
  0
TEXT
  5
100
330
18
100
AcDbEntity
  8
default
100
AcDbText
 10
2.5027
 20
-6.235
 30
0.0
 40
0.4278
  1
Total wetted area of 1 tube array= 682.3 cm²
  7
Arial
100
AcDbText
  0
LINE
  5
101
330
18
100
AcDbEntity
  8
default
 62
     9
100
AcDbLine
 10
25.2094
 20
10.7431
 30
0.0
 11
25.2094
 21
-14.2569
 31
0.0
  0
LINE
  5
102
330
18
100
AcDbEntity
  8
default
 62
     9
100
AcDbLine
 10
25.8094
 20
10.7431
 30
0.0
 11
25.8094
 21
-14.2569
 31
0.0
  0
LINE
  5
103
330
18
100
AcDbEntity
  8
default
 62
     9
100
AcDbLine
 10
25.2094
 20
10.7431
 30
0.0
 11
25.8094
 21
10.7431
 31
0.0
  0
LINE
  5
104
330
18
100
AcDbEntity
  8
default
 62
     9
100
AcDbLine
 10
25.2094
 20
-14.2569
 30
0.0
 11
25.8094
 21
-14.2569
 31
0.0
  0
LINE
  5
105
330
18
100
AcDbEntity
  8
default
 62
   161
100
AcDbLine
 10
25.0088
 20
9.564
 30
0.0
 11
25.0088
 21
8.064
 31
0.0
  0
LINE
  5
106
330
18
100
AcDbEntity
  8
default
 62
   161
100
AcDbLine
 10
39.8588
 20
9.564
 30
0.0
 11
39.8588
 21
8.064
 31
0.0
  0
LINE
  5
107
330
18
100
AcDbEntity
  8
default
 62
   161
100
AcDbLine
 10
25.0088
 20
9.564
 30
0.0
 11
39.8588
 21
9.564
 31
0.0
  0
LINE
  5
108
330
18
100
AcDbEntity
  8
default
 62
   161
100
AcDbLine
 10
25.0088
 20
8.064
 30
0.0
 11
39.8588
 21
8.064
 31
0.0
  0
LINE
  5
109
330
18
100
AcDbEntity
  8
default
 62
   230
100
AcDbLine
 10
25.8999
 20
-11.7589
 30
0.0
 11
25.8999
 21
0.7411
 31
0.0
  0
LINE
  5
10A
330
18
100
AcDbEntity
  8
default
 62
   230
100
AcDbLine
 10
26.0193
 20
-11.7589
 30
0.0
 11
26.0193
 21
0.7411
 31
0.0
  0
LINE
  5
10B
330
18
100
AcDbEntity
  8
default
 62
   230
100
AcDbLine
 10
28.9543
 20
-11.7589
 30
0.0
 11
28.9543
 21
0.7411
 31
0.0
  0
LINE
  5
10C
330
18
100
AcDbEntity
  8
default
 62
   230
100
AcDbLine
 10
29.0699
 20
-11.7589
 30
0.0
 11
29.0699
 21
0.7411
 31
0.0
  0
LINE
  5
10D
330
18
100
AcDbEntity
  8
default
  6
HIDDEN
 62
   230
100
AcDbLine
 10
25.8999
 20
0.7411
 30
0.0
 11
26.0193
 21
0.7411
 31
0.0
  0
LINE
  5
10E
330
18
100
AcDbEntity
  8
default
 62
   230
100
AcDbLine
 10
25.8999
 20
0.7411
 30
0.0
 11
26.0193
 21
0.7411
 31
0.0
  0
LINE
  5
10F
330
18
100
AcDbEntity
  8
default
 62
   230
100
AcDbLine
 10
28.9543
 20
0.7411
 30
0.0
 11
29.0699
 21
0.7411
 31
0.0
  0
LINE
  5
110
330
18
100
AcDbEntity
  8
default
 62
   190
100
AcDbLine
 10
25.4214
 20
-11.7569
 30
0.0
 11
25.4214
 21
8.2431
 31
0.0
  0
LINE
  5
111
330
18
100
AcDbEntity
  8
default
 62
   190
100
AcDbLine
 10
29.5484
 20
-11.7569
 30
0.0
 11
29.5484
 21
8.2431
 31
0.0
  0
LINE
  5
112
330
18
100
AcDbEntity
  8
default
 62
   190
100
AcDbLine
 10
29.4284
 20
-11.7569
 30
0.0
 11
29.4284
 21
8.2431
 31
0.0
  0
LINE
  5
113
330
18
100
AcDbEntity
  8
default
 62
   190
100
AcDbLine
 10
25.5414
 20
-11.7569
 30
0.0
 11
25.5414
 21
8.2431
 31
0.0
  0
CIRCLE
  5
114
330
18
100
AcDbEntity
  8
default
100
AcDbCircle
 10
25.4852
 20
-11.8127
 30
0.0
 40
0.08
  0
CIRCLE
  5
115
330
18
100
AcDbEntity
  8
default
100
AcDbCircle
 10
25.9571
 20
-11.8203
 30
0.0
 40
0.08
  0
CIRCLE
  5
116
330
18
100
AcDbEntity
  8
default
100
AcDbCircle
 10
29.4824
 20
-11.8127
 30
0.0
 40
0.08
  0
CIRCLE
  5
117
330
18
100
AcDbEntity
  8
default
100
AcDbCircle
 10
29.0105
 20
-11.8203
 30
0.0
 40
0.08
  0
LINE
  5
118
330
18
100
AcDbEntity
  8
default
 62
   254
100
AcDbLine
 10
26.9833
 20
-11.2734
 30
0.0
 11
26.9833
 21
-11.5734
 31
0.0
  0
LINE
  5
119
330
18
100
AcDbEntity
  8
default
 62
   254
100
AcDbLine
 10
27.9833
 20
-11.2734
 30
0.0
 11
27.9833
 21
-11.5734
 31
0.0
  0
LINE
  5
11A
330
18
100
AcDbEntity
  8
default
 62
   254
100
AcDbLine
 10
26.9833
 20
-11.2734
 30
0.0
 11
27.9833
 21
-11.2734
 31
0.0
  0
LINE
  5
11B
330
18
100
AcDbEntity
  8
default
 62
   254
100
AcDbLine
 10
26.9833
 20
-11.5734
 30
0.0
 11
27.9833
 21
-11.5734
 31
0.0
  0
INSERT
  5
11C
330
18
100
AcDbEntity
  8
default
100
AcDbBlockReference
  2
Group4
 10
27.4834
 20
-5.5009
 30
0.0
  0
LINE
  5
11D
330
18
100
AcDbEntity
  8
default
 62
   254
100
AcDbLine
 10
27.0088
 20
0.5317
 30
0.0
 11
27.0088
 21
0.2669
 31
0.0
  0
LINE
  5
11E
330
18
100
AcDbEntity
  8
default
 62
   254
100
AcDbLine
 10
27.9586
 20
0.5317
 30
0.0
 11
27.9586
 21
0.2669
 31
0.0
  0
LINE
  5
11F
330
18
100
AcDbEntity
  8
default
 62
   254
100
AcDbLine
 10
27.0088
 20
0.5317
 30
0.0
 11
27.9586
 21
0.5317
 31
0.0
  0
LINE
  5
120
330
18
100
AcDbEntity
  8
default
 62
   254
100
AcDbLine
 10
27.0088
 20
0.2669
 30
0.0
 11
27.9586
 21
0.2669
 31
0.0
  0
LINE
  5
121
330
18
100
AcDbEntity
  8
default
 62
   253
100
AcDbLine
 10
27.1831
 20
3.0955
 30
0.0
 11
27.1831
 21
-14.9045
 31
0.0
  0
LINE
  5
122
330
18
100
AcDbEntity
  8
default
 62
   253
100
AcDbLine
 10
27.7831
 20
3.0955
 30
0.0
 11
27.7831
 21
-14.9045
 31
0.0
  0
LINE
  5
123
330
18
100
AcDbEntity
  8
default
 62
   253
100
AcDbLine
 10
27.1831
 20
3.0955
 30
0.0
 11
27.7831
 21
3.0955
 31
0.0
  0
LINE
  5
124
330
18
100
AcDbEntity
  8
default
 62
   253
100
AcDbLine
 10
27.1831
 20
-14.9045
 30
0.0
 11
27.7831
 21
-14.9045
 31
0.0
  0
LINE
  5
125
330
18
100
AcDbEntity
  8
default
 62
   152
100
AcDbLine
 10
25.8999
 20
0.5427
 30
0.0
 11
25.5414
 21
0.5427
 31
0.0
  0
LINE
  5
126
330
18
100
AcDbEntity
  8
default
 62
   152
100
AcDbLine
 10
25.8999
 20
0.7411
 30
0.0
 11
25.8999
 21
0.5427
 31
0.0
  0
LINE
  5
127
330
18
100
AcDbEntity
  8
default
 62
   152
100
AcDbLine
 10
26.0193
 20
0.7411
 30
0.0
 11
25.8999
 21
0.7411
 31
0.0
  0
LINE
  5
128
330
18
100
AcDbEntity
  8
default
 62
   152
100
AcDbLine
 10
26.0193
 20
0.5427
 30
0.0
 11
26.0193
 21
0.7411
 31
0.0
  0
LINE
  5
129
330
18
100
AcDbEntity
  8
default
 62
   152
100
AcDbLine
 10
28.9543
 20
0.5427
 30
0.0
 11
26.0193
 21
0.5427
 31
0.0
  0
LINE
  5
12A
330
18
100
AcDbEntity
  8
default
 62
   152
100
AcDbLine
 10
28.9543
 20
0.7411
 30
0.0
 11
28.9543
 21
0.5427
 31
0.0
  0
LINE
  5
12B
330
18
100
AcDbEntity
  8
default
 62
   152
100
AcDbLine
 10
29.0699
 20
0.7411
 30
0.0
 11
28.9543
 21
0.7411
 31
0.0
  0
LINE
  5
12C
330
18
100
AcDbEntity
  8
default
 62
   152
100
AcDbLine
 10
29.0699
 20
0.5427
 30
0.0
 11
29.0699
 21
0.7411
 31
0.0
  0
LINE
  5
12D
330
18
100
AcDbEntity
  8
default
 62
   152
100
AcDbLine
 10
29.4284
 20
0.5427
 30
0.0
 11
29.0699
 21
0.5427
 31
0.0
  0
LINE
  5
12E
330
18
100
AcDbEntity
  8
default
 62
   152
100
AcDbLine
 10
29.4284
 20
2.0427
 30
0.0
 11
29.4284
 21
0.5427
 31
0.0
  0
LINE
  5
12F
330
18
100
AcDbEntity
  8
default
 62
   152
100
AcDbLine
 10
25.5414
 20
2.0427
 30
0.0
 11
29.4284
 21
2.0427
 31
0.0
  0
LINE
  5
130
330
18
100
AcDbEntity
  8
default
 62
   152
100
AcDbLine
 10
25.5414
 20
0.5427
 30
0.0
 11
25.5414
 21
2.0427
 31
0.0
  0
LINE
  5
131
330
18
100
AcDbEntity
  8
default
  6
CENTER
100
AcDbLine
 10
28.5649
 20
0.7629
 30
0.0
 11
28.5649
 21
2.0427
 31
0.0
  0
LINE
  5
132
330
18
100
AcDbEntity
  8
default
  6
CENTER
100
AcDbLine
 10
28.5649
 20
0.5427
 30
0.0
 11
28.5649
 21
0.7629
 31
0.0
  0
LINE
  5
133
330
18
100
AcDbEntity
  8
default
  6
CENTER
100
AcDbLine
 10
26.3961
 20
0.5427
 30
0.0
 11
26.3961
 21
2.0427
 31
0.0
  0
LINE
  5
134
330
18
100
AcDbEntity
  8
default
 62
   230
100
AcDbLine
 10
30.8499
 20
-11.7589
 30
0.0
 11
30.8499
 21
0.7411
 31
0.0
  0
LINE
  5
135
330
18
100
AcDbEntity
  8
default
 62
   230
100
AcDbLine
 10
30.9693
 20
-11.7589
 30
0.0
 11
30.9693
 21
0.7411
 31
0.0
  0
LINE
  5
136
330
18
100
AcDbEntity
  8
default
 62
   230
100
AcDbLine
 10
33.9043
 20
-11.7589
 30
0.0
 11
33.9043
 21
0.7411
 31
0.0
  0
LINE
  5
137
330
18
100
AcDbEntity
  8
default
 62
   230
100
AcDbLine
 10
34.0199
 20
-11.7589
 30
0.0
 11
34.0199
 21
0.7411
 31
0.0
  0
LINE
  5
138
330
18
100
AcDbEntity
  8
default
  6
HIDDEN
 62
   230
100
AcDbLine
 10
30.8499
 20
0.7411
 30
0.0
 11
30.9693
 21
0.7411
 31
0.0
  0
LINE
  5
139
330
18
100
AcDbEntity
  8
default
 62
   230
100
AcDbLine
 10
30.8499
 20
0.7411
 30
0.0
 11
30.9693
 21
0.7411
 31
0.0
  0
LINE
  5
13A
330
18
100
AcDbEntity
  8
default
 62
   230
100
AcDbLine
 10
33.9043
 20
0.7411
 30
0.0
 11
34.0199
 21
0.7411
 31
0.0
  0
LINE
  5
13B
330
18
100
AcDbEntity
  8
default
 62
   190
100
AcDbLine
 10
30.3714
 20
-11.7569
 30
0.0
 11
30.3714
 21
8.2431
 31
0.0
  0
LINE
  5
13C
330
18
100
AcDbEntity
  8
default
 62
   190
100
AcDbLine
 10
34.4984
 20
-11.7569
 30
0.0
 11
34.4984
 21
8.2431
 31
0.0
  0
LINE
  5
13D
330
18
100
AcDbEntity
  8
default
 62
   190
100
AcDbLine
 10
34.3784
 20
-11.7569
 30
0.0
 11
34.3784
 21
8.2431
 31
0.0
  0
LINE
  5
13E
330
18
100
AcDbEntity
  8
default
 62
   190
100
AcDbLine
 10
30.4914
 20
-11.7569
 30
0.0
 11
30.4914
 21
8.2431
 31
0.0
  0
CIRCLE
  5
13F
330
18
100
AcDbEntity
  8
default
100
AcDbCircle
 10
30.4352
 20
-11.8127
 30
0.0
 40
0.08
  0
CIRCLE
  5
140
330
18
100
AcDbEntity
  8
default
100
AcDbCircle
 10
30.9071
 20
-11.8203
 30
0.0
 40
0.08
  0
CIRCLE
  5
141
330
18
100
AcDbEntity
  8
default
100
AcDbCircle
 10
34.4324
 20
-11.8127
 30
0.0
 40
0.08
  0
CIRCLE
  5
142
330
18
100
AcDbEntity
  8
default
100
AcDbCircle
 10
33.9605
 20
-11.8203
 30
0.0
 40
0.08
  0
LINE
  5
143
330
18
100
AcDbEntity
  8
default
 62
   254
100
AcDbLine
 10
31.9333
 20
-11.2734
 30
0.0
 11
31.9333
 21
-11.5734
 31
0.0
  0
LINE
  5
144
330
18
100
AcDbEntity
  8
default
 62
   254
100
AcDbLine
 10
32.9333
 20
-11.2734
 30
0.0
 11
32.9333
 21
-11.5734
 31
0.0
  0
LINE
  5
145
330
18
100
AcDbEntity
  8
default
 62
   254
100
AcDbLine
 10
31.9333
 20
-11.2734
 30
0.0
 11
32.9333
 21
-11.2734
 31
0.0
  0
LINE
  5
146
330
18
100
AcDbEntity
  8
default
 62
   254
100
AcDbLine
 10
31.9333
 20
-11.5734
 30
0.0
 11
32.9333
 21
-11.5734
 31
0.0
  0
INSERT
  5
147
330
18
100
AcDbEntity
  8
default
100
AcDbBlockReference
  2
Group4
 10
32.4334
 20
-5.5009
 30
0.0
  0
LINE
  5
148
330
18
100
AcDbEntity
  8
default
 62
   254
100
AcDbLine
 10
31.9588
 20
0.5317
 30
0.0
 11
31.9588
 21
0.2669
 31
0.0
  0
LINE
  5
149
330
18
100
AcDbEntity
  8
default
 62
   254
100
AcDbLine
 10
32.9086
 20
0.5317
 30
0.0
 11
32.9086
 21
0.2669
 31
0.0
  0
LINE
  5
14A
330
18
100
AcDbEntity
  8
default
 62
   254
100
AcDbLine
 10
31.9588
 20
0.5317
 30
0.0
 11
32.9086
 21
0.5317
 31
0.0
  0
LINE
  5
14B
330
18
100
AcDbEntity
  8
default
 62
   254
100
AcDbLine
 10
31.9588
 20
0.2669
 30
0.0
 11
32.9086
 21
0.2669
 31
0.0
  0
LINE
  5
14C
330
18
100
AcDbEntity
  8
default
 62
   253
100
AcDbLine
 10
32.1331
 20
3.0955
 30
0.0
 11
32.1331
 21
-14.9045
 31
0.0
  0
LINE
  5
14D
330
18
100
AcDbEntity
  8
default
 62
   253
100
AcDbLine
 10
32.7331
 20
3.0955
 30
0.0
 11
32.7331
 21
-14.9045
 31
0.0
  0
LINE
  5
14E
330
18
100
AcDbEntity
  8
default
 62
   253
100
AcDbLine
 10
32.1331
 20
3.0955
 30
0.0
 11
32.7331
 21
3.0955
 31
0.0
  0
LINE
  5
14F
330
18
100
AcDbEntity
  8
default
 62
   253
100
AcDbLine
 10
32.1331
 20
-14.9045
 30
0.0
 11
32.7331
 21
-14.9045
 31
0.0
  0
LINE
  5
150
330
18
100
AcDbEntity
  8
default
 62
   152
100
AcDbLine
 10
30.8499
 20
0.5427
 30
0.0
 11
30.4914
 21
0.5427
 31
0.0
  0
LINE
  5
151
330
18
100
AcDbEntity
  8
default
 62
   152
100
AcDbLine
 10
30.8499
 20
0.7411
 30
0.0
 11
30.8499
 21
0.5427
 31
0.0
  0
LINE
  5
152
330
18
100
AcDbEntity
  8
default
 62
   152
100
AcDbLine
 10
30.9693
 20
0.7411
 30
0.0
 11
30.8499
 21
0.7411
 31
0.0
  0
LINE
  5
153
330
18
100
AcDbEntity
  8
default
 62
   152
100
AcDbLine
 10
30.9693
 20
0.5427
 30
0.0
 11
30.9693
 21
0.7411
 31
0.0
  0
LINE
  5
154
330
18
100
AcDbEntity
  8
default
 62
   152
100
AcDbLine
 10
33.9043
 20
0.5427
 30
0.0
 11
30.9693
 21
0.5427
 31
0.0
  0
LINE
  5
155
330
18
100
AcDbEntity
  8
default
 62
   152
100
AcDbLine
 10
33.9043
 20
0.7411
 30
0.0
 11
33.9043
 21
0.5427
 31
0.0
  0
LINE
  5
156
330
18
100
AcDbEntity
  8
default
 62
   152
100
AcDbLine
 10
34.0199
 20
0.7411
 30
0.0
 11
33.9043
 21
0.7411
 31
0.0
  0
LINE
  5
157
330
18
100
AcDbEntity
  8
default
 62
   152
100
AcDbLine
 10
34.0199
 20
0.5427
 30
0.0
 11
34.0199
 21
0.7411
 31
0.0
  0
LINE
  5
158
330
18
100
AcDbEntity
  8
default
 62
   152
100
AcDbLine
 10
34.3784
 20
0.5427
 30
0.0
 11
34.0199
 21
0.5427
 31
0.0
  0
LINE
  5
159
330
18
100
AcDbEntity
  8
default
 62
   152
100
AcDbLine
 10
34.3784
 20
2.0427
 30
0.0
 11
34.3784
 21
0.5427
 31
0.0
  0
LINE
  5
15A
330
18
100
AcDbEntity
  8
default
 62
   152
100
AcDbLine
 10
30.4914
 20
2.0427
 30
0.0
 11
34.3784
 21
2.0427
 31
0.0
  0
LINE
  5
15B
330
18
100
AcDbEntity
  8
default
 62
   152
100
AcDbLine
 10
30.4914
 20
0.5427
 30
0.0
 11
30.4914
 21
2.0427
 31
0.0
  0
LINE
  5
15C
330
18
100
AcDbEntity
  8
default
  6
CENTER
100
AcDbLine
 10
33.5149
 20
0.7629
 30
0.0
 11
33.5149
 21
2.0427
 31
0.0
  0
LINE
  5
15D
330
18
100
AcDbEntity
  8
default
  6
CENTER
100
AcDbLine
 10
33.5149
 20
0.5427
 30
0.0
 11
33.5149
 21
0.7629
 31
0.0
  0
LINE
  5
15E
330
18
100
AcDbEntity
  8
default
  6
CENTER
100
AcDbLine
 10
31.3461
 20
0.5427
 30
0.0
 11
31.3461
 21
2.0427
 31
0.0
  0
LINE
  5
15F
330
18
100
AcDbEntity
  8
default
 62
   230
100
AcDbLine
 10
35.7999
 20
-11.7589
 30
0.0
 11
35.7999
 21
0.7411
 31
0.0
  0
LINE
  5
160
330
18
100
AcDbEntity
  8
default
 62
   230
100
AcDbLine
 10
35.9193
 20
-11.7589
 30
0.0
 11
35.9193
 21
0.7411
 31
0.0
  0
LINE
  5
161
330
18
100
AcDbEntity
  8
default
 62
   230
100
AcDbLine
 10
38.8543
 20
-11.7589
 30
0.0
 11
38.8543
 21
0.7411
 31
0.0
  0
LINE
  5
162
330
18
100
AcDbEntity
  8
default
 62
   230
100
AcDbLine
 10
38.9699
 20
-11.7589
 30
0.0
 11
38.9699
 21
0.7411
 31
0.0
  0
LINE
  5
163
330
18
100
AcDbEntity
  8
default
  6
HIDDEN
 62
   230
100
AcDbLine
 10
35.7999
 20
0.7411
 30
0.0
 11
35.9193
 21
0.7411
 31
0.0
  0
LINE
  5
164
330
18
100
AcDbEntity
  8
default
 62
   230
100
AcDbLine
 10
35.7999
 20
0.7411
 30
0.0
 11
35.9193
 21
0.7411
 31
0.0
  0
LINE
  5
165
330
18
100
AcDbEntity
  8
default
 62
   230
100
AcDbLine
 10
38.8543
 20
0.7411
 30
0.0
 11
38.9699
 21
0.7411
 31
0.0
  0
LINE
  5
166
330
18
100
AcDbEntity
  8
default
 62
   190
100
AcDbLine
 10
35.3214
 20
-11.7569
 30
0.0
 11
35.3214
 21
8.2431
 31
0.0
  0
LINE
  5
167
330
18
100
AcDbEntity
  8
default
 62
   190
100
AcDbLine
 10
39.4484
 20
-11.7569
 30
0.0
 11
39.4484
 21
8.2431
 31
0.0
  0
LINE
  5
168
330
18
100
AcDbEntity
  8
default
 62
   190
100
AcDbLine
 10
39.3284
 20
-11.7569
 30
0.0
 11
39.3284
 21
8.2431
 31
0.0
  0
CIRCLE
  5
169
330
18
100
AcDbEntity
  8
default
100
AcDbCircle
 10
35.3852
 20
-11.8127
 30
0.0
 40
0.08
  0
CIRCLE
  5
16A
330
18
100
AcDbEntity
  8
default
100
AcDbCircle
 10
35.8571
 20
-11.8203
 30
0.0
 40
0.08
  0
CIRCLE
  5
16B
330
18
100
AcDbEntity
  8
default
100
AcDbCircle
 10
39.3824
 20
-11.8127
 30
0.0
 40
0.08
  0
CIRCLE
  5
16C
330
18
100
AcDbEntity
  8
default
100
AcDbCircle
 10
38.9105
 20
-11.8203
 30
0.0
 40
0.08
  0
LINE
  5
16D
330
18
100
AcDbEntity
  8
default
 62
   254
100
AcDbLine
 10
36.8833
 20
-11.2734
 30
0.0
 11
36.8833
 21
-11.5734
 31
0.0
  0
LINE
  5
16E
330
18
100
AcDbEntity
  8
default
 62
   254
100
AcDbLine
 10
37.8833
 20
-11.2734
 30
0.0
 11
37.8833
 21
-11.5734
 31
0.0
  0
LINE
  5
16F
330
18
100
AcDbEntity
  8
default
 62
   254
100
AcDbLine
 10
36.8833
 20
-11.2734
 30
0.0
 11
37.8833
 21
-11.2734
 31
0.0
  0
LINE
  5
170
330
18
100
AcDbEntity
  8
default
 62
   254
100
AcDbLine
 10
36.8833
 20
-11.5734
 30
0.0
 11
37.8833
 21
-11.5734
 31
0.0
  0
INSERT
  5
171
330
18
100
AcDbEntity
  8
default
100
AcDbBlockReference
  2
Group4
 10
37.3834
 20
-5.5009
 30
0.0
  0
LINE
  5
172
330
18
100
AcDbEntity
  8
default
 62
   254
100
AcDbLine
 10
36.9088
 20
0.5317
 30
0.0
 11
36.9088
 21
0.2669
 31
0.0
  0
LINE
  5
173
330
18
100
AcDbEntity
  8
default
 62
   254
100
AcDbLine
 10
37.8586
 20
0.5317
 30
0.0
 11
37.8586
 21
0.2669
 31
0.0
  0
LINE
  5
174
330
18
100
AcDbEntity
  8
default
 62
   254
100
AcDbLine
 10
36.9088
 20
0.5317
 30
0.0
 11
37.8586
 21
0.5317
 31
0.0
  0
LINE
  5
175
330
18
100
AcDbEntity
  8
default
 62
   254
100
AcDbLine
 10
36.9088
 20
0.2669
 30
0.0
 11
37.8586
 21
0.2669
 31
0.0
  0
LINE
  5
176
330
18
100
AcDbEntity
  8
default
 62
   253
100
AcDbLine
 10
37.0831
 20
3.0955
 30
0.0
 11
37.0831
 21
-14.9045
 31
0.0
  0
LINE
  5
177
330
18
100
AcDbEntity
  8
default
 62
   253
100
AcDbLine
 10
37.6831
 20
3.0955
 30
0.0
 11
37.6831
 21
-14.9045
 31
0.0
  0
LINE
  5
178
330
18
100
AcDbEntity
  8
default
 62
   253
100
AcDbLine
 10
37.0831
 20
3.0955
 30
0.0
 11
37.6831
 21
3.0955
 31
0.0
  0
LINE
  5
179
330
18
100
AcDbEntity
  8
default
 62
   253
100
AcDbLine
 10
37.0831
 20
-14.9045
 30
0.0
 11
37.6831
 21
-14.9045
 31
0.0
  0
LINE
  5
17A
330
18
100
AcDbEntity
  8
default
 62
   152
100
AcDbLine
 10
35.7999
 20
0.5427
 30
0.0
 11
35.4414
 21
0.5427
 31
0.0
  0
LINE
  5
17B
330
18
100
AcDbEntity
  8
default
 62
   152
100
AcDbLine
 10
35.7999
 20
0.7411
 30
0.0
 11
35.7999
 21
0.5427
 31
0.0
  0
LINE
  5
17C
330
18
100
AcDbEntity
  8
default
 62
   152
100
AcDbLine
 10
35.9193
 20
0.7411
 30
0.0
 11
35.7999
 21
0.7411
 31
0.0
  0
LINE
  5
17D
330
18
100
AcDbEntity
  8
default
 62
   152
100
AcDbLine
 10
35.9193
 20
0.5427
 30
0.0
 11
35.9193
 21
0.7411
 31
0.0
  0
LINE
  5
17E
330
18
100
AcDbEntity
  8
default
 62
   152
100
AcDbLine
 10
38.8543
 20
0.5427
 30
0.0
 11
35.9193
 21
0.5427
 31
0.0
  0
LINE
  5
17F
330
18
100
AcDbEntity
  8
default
 62
   152
100
AcDbLine
 10
38.8543
 20
0.7411
 30
0.0
 11
38.8543
 21
0.5427
 31
0.0
  0
LINE
  5
180
330
18
100
AcDbEntity
  8
default
 62
   152
100
AcDbLine
 10
38.9699
 20
0.7411
 30
0.0
 11
38.8543
 21
0.7411
 31
0.0
  0
LINE
  5
181
330
18
100
AcDbEntity
  8
default
 62
   152
100
AcDbLine
 10
38.9699
 20
0.5427
 30
0.0
 11
38.9699
 21
0.7411
 31
0.0
  0
LINE
  5
182
330
18
100
AcDbEntity
  8
default
 62
   152
100
AcDbLine
 10
39.3284
 20
0.5427
 30
0.0
 11
38.9699
 21
0.5427
 31
0.0
  0
LINE
  5
183
330
18
100
AcDbEntity
  8
default
 62
   152
100
AcDbLine
 10
39.3284
 20
2.0427
 30
0.0
 11
39.3284
 21
0.5427
 31
0.0
  0
LINE
  5
184
330
18
100
AcDbEntity
  8
default
 62
   152
100
AcDbLine
 10
35.4414
 20
2.0427
 30
0.0
 11
39.3284
 21
2.0427
 31
0.0
  0
LINE
  5
185
330
18
100
AcDbEntity
  8
default
 62
   152
100
AcDbLine
 10
35.4414
 20
0.5427
 30
0.0
 11
35.4414
 21
2.0427
 31
0.0
  0
LINE
  5
186
330
18
100
AcDbEntity
  8
default
  6
CENTER
100
AcDbLine
 10
38.4649
 20
0.7629
 30
0.0
 11
38.4649
 21
2.0427
 31
0.0
  0
LINE
  5
187
330
18
100
AcDbEntity
  8
default
  6
CENTER
100
AcDbLine
 10
38.4649
 20
0.5427
 30
0.0
 11
38.4649
 21
0.7629
 31
0.0
  0
LINE
  5
188
330
18
100
AcDbEntity
  8
default
  6
CENTER
100
AcDbLine
 10
36.2961
 20
0.5427
 30
0.0
 11
36.2961
 21
2.0427
 31
0.0
  0
LINE
  5
189
330
18
100
AcDbEntity
  8
default
 62
   190
100
AcDbLine
 10
35.4414
 20
-11.7569
 30
0.0
 11
35.4414
 21
8.2431
 31
0.0
  0
LINE
  5
18A
330
18
100
AcDbEntity
  8
default
 62
   161
100
AcDbLine
 10
25.0088
 20
9.564
 30
0.0
 11
25.0088
 21
9.564
 31
0.0
  0
LINE
  5
18B
330
18
100
AcDbEntity
  8
default
 62
   161
100
AcDbLine
 10
39.8588
 20
9.564
 30
0.0
 11
39.8588
 21
9.564
 31
0.0
  0
LINE
  5
18C
330
18
100
AcDbEntity
  8
default
 62
   161
100
AcDbLine
 10
25.0088
 20
9.564
 30
0.0
 11
39.8588
 21
9.564
 31
0.0
  0
LINE
  5
18D
330
18
100
AcDbEntity
  8
default
 62
   161
100
AcDbLine
 10
25.0088
 20
9.564
 30
0.0
 11
39.8588
 21
9.564
 31
0.0
  0
LINE
  5
18E
330
18
100
AcDbEntity
  8
default
 62
   161
100
AcDbLine
 10
39.2984
 20
-11.8778
 30
0.0
 11
39.4784
 21
-11.8778
 31
0.0
  0
LINE
  5
18F
330
18
100
AcDbEntity
  8
default
 62
   161
100
AcDbLine
 10
38.8243
 20
-11.8778
 30
0.0
 11
39.0043
 21
-11.8778
 31
0.0
  0
CIRCLE
  5
190
330
18
100
AcDbEntity
  8
default
100
AcDbCircle
 10
25.4879
 20
8.2827
 30
0.0
 40
0.08
  0
CIRCLE
  5
191
330
18
100
AcDbEntity
  8
default
100
AcDbCircle
 10
29.4884
 20
8.302
 30
0.0
 40
0.08
  0
CIRCLE
  5
192
330
18
100
AcDbEntity
  8
default
100
AcDbCircle
 10
30.4314
 20
8.301
 30
0.0
 40
0.08
  0
CIRCLE
  5
193
330
18
100
AcDbEntity
  8
default
100
AcDbCircle
 10
34.4384
 20
8.301
 30
0.0
 40
0.08
  0
CIRCLE
  5
194
330
18
100
AcDbEntity
  8
default
100
AcDbCircle
 10
35.3814
 20
8.301
 30
0.0
 40
0.08
  0
CIRCLE
  5
195
330
18
100
AcDbEntity
  8
default
100
AcDbCircle
 10
39.3884
 20
8.301
 30
0.0
 40
0.08
  0
LINE
  5
196
330
18
100
AcDbEntity
  8
default
 62
   161
100
AcDbLine
 10
25.0088
 20
-11.5778
 30
0.0
 11
25.0088
 21
-13.0778
 31
0.0
  0
LINE
  5
197
330
18
100
AcDbEntity
  8
default
 62
   161
100
AcDbLine
 10
39.8588
 20
-11.5778
 30
0.0
 11
39.8588
 21
-13.0778
 31
0.0
  0
LINE
  5
198
330
18
100
AcDbEntity
  8
default
 62
   161
100
AcDbLine
 10
25.0088
 20
-11.5778
 30
0.0
 11
39.8588
 21
-11.5778
 31
0.0
  0
LINE
  5
199
330
18
100
AcDbEntity
  8
default
 62
   161
100
AcDbLine
 10
25.0088
 20
-13.0778
 30
0.0
 11
39.8588
 21
-13.0778
 31
0.0
  0
LINE
  5
19A
330
18
100
AcDbEntity
  8
default
 62
     9
100
AcDbLine
 10
24.6967
 20
9.6997
 30
0.0
 11
24.6967
 21
9.5768
 31
0.0
  0
LINE
  5
19B
330
18
100
AcDbEntity
  8
default
 62
     9
100
AcDbLine
 10
26.264
 20
9.6997
 30
0.0
 11
26.264
 21
9.5768
 31
0.0
  0
LINE
  5
19C
330
18
100
AcDbEntity
  8
default
 62
     9
100
AcDbLine
 10
24.6967
 20
9.6997
 30
0.0
 11
26.264
 21
9.6997
 31
0.0
  0
LINE
  5
19D
330
18
100
AcDbEntity
  8
default
 62
     9
100
AcDbLine
 10
24.6967
 20
9.5768
 30
0.0
 11
26.264
 21
9.5768
 31
0.0
  0
LINE
  5
19E
330
18
100
AcDbEntity
  8
default
  6
CENTER
100
AcDbLine
 10
25.5094
 20
9.029
 30
0.0
 11
25.5094
 21
10.7431
 31
0.0
  0
INSERT
  5
19F
330
18
100
AcDbEntity
  8
default
100
AcDbBlockReference
  2
nut
 10
25.5096
 20
9.947
 30
0.0
  0
SOLID
  5
1A0
330
18
100
AcDbEntity
  8
default
100
AcDbTrace
 10
41.4748
 20
9.3176
 30
0.0
 11
41.3514
 21
9.3176
 31
0.0
 12
41.4131
 22
9.564
 32
0.0
 13
41.4131
 23
9.564
 33
0.0
  0
SOLID
  5
1A1
330
18
100
AcDbEntity
  8
default
100
AcDbTrace
 10
41.3514
 20
8.3104
 30
0.0
 11
41.4748
 21
8.3104
 31
0.0
 12
41.4131
 22
8.064
 32
0.0
 13
41.4131
 23
8.064
 33
0.0
  0
LINE
  5
1A2
330
18
100
AcDbEntity
  8
default
100
AcDbLine
 10
41.4131
 20
9.1477
 30
0.0
 11
41.4131
 21
9.564
 31
0.0
  0
LINE
  5
1A3
330
18
100
AcDbEntity
  8
default
100
AcDbLine
 10
41.4131
 20
8.064
 30
0.0
 11
41.4131
 21
8.4067
 31
0.0
  0
TEXT
  5
1A4
330
18
100
AcDbEntity
  8
default
100
AcDbText
 10
41.0096
 20
8.6135
 30
0.0
 40
0.3208
  1
1.50
  7
Arial
100
AcDbText
  0
LINE
  5
1A5
330
18
100
AcDbEntity
  8
default
100
AcDbLine
 10
40.0176
 20
8.064
 30
0.0
 11
41.7306
 21
8.064
 31
0.0
  0
LINE
  5
1A6
330
18
100
AcDbEntity
  8
default
100
AcDbLine
 10
40.0176
 20
9.564
 30
0.0
 11
41.7306
 21
9.564
 31
0.0
  0
INSERT
  5
1A7
330
18
100
AcDbEntity
  8
default
100
AcDbBlockReference
  2
nut
 10
27.4719
 20
2.3027
 30
0.0
  0
INSERT
  5
1A8
330
18
100
AcDbEntity
  8
default
100
AcDbBlockReference
  2
nut
 10
32.4182
 20
2.3027
 30
0.0
  0
INSERT
  5
1A9
330
18
100
AcDbEntity
  8
default
100
AcDbBlockReference
  2
nut
 10
37.378
 20
2.2959
 30
0.0
  0
CIRCLE
  5
1AA
330
18
100
AcDbEntity
  8
default
 62
     8
100
AcDbCircle
 10
17.3049
 20
6.0184
 30
0.0
 40
0.3
  0
CIRCLE
  5
1AB
330
18
100
AcDbEntity
  8
default
 62
     8
100
AcDbCircle
 10
21.0549
 20
-8.2816
 30
0.0
 40
0.3
  0
CIRCLE
  5
1AC
330
18
100
AcDbEntity
  8
default
 62
     8
100
AcDbCircle
 10
21.0549
 20
6.0184
 30
0.0
 40
0.3
  0
CIRCLE
  5
1AD
330
18
100
AcDbEntity
  8
default
 62
     8
100
AcDbCircle
 10
17.3049
 20
-8.2816
 30
0.0
 40
0.3
  0
CIRCLE
  5
1AE
330
18
100
AcDbEntity
  8
default
 62
     8
100
AcDbCircle
 10
21.0549
 20
1.4517
 30
0.0
 40
0.3
  0
CIRCLE
  5
1AF
330
18
100
AcDbEntity
  8
default
 62
     8
100
AcDbCircle
 10
17.3049
 20
1.4517
 30
0.0
 40
0.3
  0
CIRCLE
  5
1B0
330
18
100
AcDbEntity
  8
default
 62
     8
100
AcDbCircle
 10
17.3049
 20
-3.7149
 30
0.0
 40
0.3
  0
CIRCLE
  5
1B1
330
18
100
AcDbEntity
  8
default
 62
     8
100
AcDbCircle
 10
21.0549
 20
-3.7149
 30
0.0
 40
0.3
  0
SOLID
  5
1B2
330
18
100
AcDbEntity
  8
default
100
AcDbTrace
 10
15.635
 20
6.372
 30
0.0
 11
15.5116
 21
6.372
 31
0.0
 12
15.5733
 22
6.6184
 32
0.0
 13
15.5733
 23
6.6184
 33
0.0
  0
SOLID
  5
1B3
330
18
100
AcDbEntity
  8
default
100
AcDbTrace
 10
15.5116
 20
1.6981
 30
0.0
 11
15.635
 21
1.6981
 31
0.0
 12
15.5733
 22
1.4517
 32
0.0
 13
15.5733
 23
1.4517
 33
0.0
  0
LINE
  5
1B4
330
18
100
AcDbEntity
  8
default
100
AcDbLine
 10
15.5733
 20
3.7836
 30
0.0
 11
15.5733
 21
6.6184
 31
0.0
  0
LINE
  5
1B5
330
18
100
AcDbEntity
  8
default
100
AcDbLine
 10
15.5733
 20
1.4517
 30
0.0
 11
15.5733
 21
3.0426
 31
0.0
  0
TEXT
  5
1B6
330
18
100
AcDbEntity
  8
default
100
AcDbText
 10
15.1541
 20
3.2494
 30
0.0
 40
0.3208
  1
5.17
  7
Arial
100
AcDbText
  0
LINE
  5
1B7
330
18
100
AcDbEntity
  8
default
100
AcDbLine
 10
15.2558
 20
6.6184
 30
0.0
 11
16.5461
 21
6.6184
 31
0.0
  0
LINE
  5
1B8
330
18
100
AcDbEntity
  8
default
100
AcDbLine
 10
15.2558
 20
1.4517
 30
0.0
 11
16.5461
 21
1.4517
 31
0.0
  0
SOLID
  5
1B9
330
18
100
AcDbEntity
  8
default
100
AcDbTrace
 10
15.635
 20
1.2053
 30
0.0
 11
15.5116
 21
1.2053
 31
0.0
 12
15.5733
 22
1.4517
 32
0.0
 13
15.5733
 23
1.4517
 33
0.0
  0
SOLID
  5
1BA
330
18
100
AcDbEntity
  8
default
100
AcDbTrace
 10
15.5116
 20
-3.4685
 30
0.0
 11
15.635
 21
-3.4685
 31
0.0
 12
15.5733
 22
-3.7149
 32
0.0
 13
15.5733
 23
-3.7149
 33
0.0
  0
LINE
  5
1BB
330
18
100
AcDbEntity
  8
default
100
AcDbLine
 10
15.5733
 20
-0.8602
 30
0.0
 11
15.5733
 21
1.4517
 31
0.0
  0
LINE
  5
1BC
330
18
100
AcDbEntity
  8
default
100
AcDbLine
 10
15.5733
 20
-3.7149
 30
0.0
 11
15.5733
 21
-1.6012
 31
0.0
  0
TEXT
  5
1BD
330
18
100
AcDbEntity
  8
default
100
AcDbText
 10
15.1541
 20
-1.3944
 30
0.0
 40
0.3208
  1
5.17
  7
Arial
100
AcDbText
  0
LINE
  5
1BE
330
18
100
AcDbEntity
  8
default
100
AcDbLine
 10
15.2558
 20
1.4517
 30
0.0
 11
16.5461
 21
1.4517
 31
0.0
  0
LINE
  5
1BF
330
18
100
AcDbEntity
  8
default
100
AcDbLine
 10
15.2558
 20
-3.7149
 30
0.0
 11
16.5461
 21
-3.7149
 31
0.0
  0
SOLID
  5
1C0
330
18
100
AcDbEntity
  8
default
100
AcDbTrace
 10
15.635
 20
-3.9613
 30
0.0
 11
15.5116
 21
-3.9613
 31
0.0
 12
15.5733
 22
-3.7149
 32
0.0
 13
15.5733
 23
-3.7149
 33
0.0
  0
SOLID
  5
1C1
330
18
100
AcDbEntity
  8
default
100
AcDbTrace
 10
15.5116
 20
-8.6352
 30
0.0
 11
15.635
 21
-8.6352
 31
0.0
 12
15.5733
 22
-8.8816
 32
0.0
 13
15.5733
 23
-8.8816
 33
0.0
  0
LINE
  5
1C2
330
18
100
AcDbEntity
  8
default
100
AcDbLine
 10
15.5733
 20
-5.6054
 30
0.0
 11
15.5733
 21
-3.7149
 31
0.0
  0
LINE
  5
1C3
330
18
100
AcDbEntity
  8
default
100
AcDbLine
 10
15.5733
 20
-8.8816
 30
0.0
 11
15.5733
 21
-6.3464
 31
0.0
  0
TEXT
  5
1C4
330
18
100
AcDbEntity
  8
default
100
AcDbText
 10
15.1541
 20
-6.1396
 30
0.0
 40
0.3208
  1
5.17
  7
Arial
100
AcDbText
  0
LINE
  5
1C5
330
18
100
AcDbEntity
  8
default
100
AcDbLine
 10
15.2558
 20
-3.7149
 30
0.0
 11
16.5461
 21
-3.7149
 31
0.0
  0
LINE
  5
1C6
330
18
100
AcDbEntity
  8
default
100
AcDbLine
 10
15.2558
 20
-8.8816
 30
0.0
 11
16.5461
 21
-8.8816
 31
0.0
  0
LINE
  5
1C7
330
18
100
AcDbEntity
  8
default
  6
HIDDEN
100
AcDbLine
 10
7.515
 20
7.48
 30
0.0
 11
9.575
 21
7.48
 31
0.0
  0
SOLID
  5
1C8
330
18
100
AcDbEntity
  8
default
100
AcDbTrace
 10
8.8536
 20
7.2111
 30
0.0
 11
8.8536
 21
7.3341
 31
0.0
 12
9.1
 22
7.2726
 32
0.0
 13
9.1
 23
7.2726
 33
0.0
  0
SOLID
  5
1C9
330
18
100
AcDbEntity
  8
default
100
AcDbTrace
 10
9.7049
 20
7.3341
 30
0.0
 11
9.7049
 21
7.2111
 31
0.0
 12
9.4585
 22
7.2726
 32
0.0
 13
9.4585
 23
7.2726
 33
0.0
  0
LINE
  5
1CA
330
18
100
AcDbEntity
  8
default
100
AcDbLine
 10
9.4585
 20
7.2726
 30
0.0
 11
10.411
 21
7.2726
 31
0.0
  0
LINE
  5
1CB
330
18
100
AcDbEntity
  8
default
100
AcDbLine
 10
8.1475
 20
7.2726
 30
0.0
 11
9.1
 21
7.2726
 31
0.0
  0
TEXT
  5
1CC
330
18
100
AcDbEntity
  8
default
100
AcDbText
 10
9.6914
 20
7.218
 30
0.0
 40
0.1069
  1
.36
  7
Arial
100
AcDbText
  0
LINE
  5
1CD
330
18
100
AcDbEntity
  8
default
100
AcDbLine
 10
9.4585
 20
6.9551
 30
0.0
 11
9.4585
 21
7.3212
 31
0.0
  0
LINE
  5
1CE
330
18
100
AcDbEntity
  8
default
100
AcDbLine
 10
9.1
 20
6.9551
 30
0.0
 11
9.1
 21
7.3212
 31
0.0
  0
SOLID
  5
1CF
330
18
100
AcDbEntity
  8
default
100
AcDbTrace
 10
8.4586
 20
7.7944
 30
0.0
 11
8.4586
 21
7.9174
 31
0.0
 12
8.705
 22
7.8559
 32
0.0
 13
8.705
 23
7.8559
 33
0.0
  0
SOLID
  5
1D0
330
18
100
AcDbEntity
  8
default
100
AcDbTrace
 10
9.2289
 20
7.9174
 30
0.0
 11
9.2289
 21
7.7944
 31
0.0
 12
8.9825
 22
7.8559
 32
0.0
 13
8.9825
 23
7.8559
 33
0.0
  0
LINE
  5
1D1
330
18
100
AcDbEntity
  8
default
100
AcDbLine
 10
7.7525
 20
7.8559
 30
0.0
 11
8.705
 21
7.8559
 31
0.0
  0
LINE
  5
1D2
330
18
100
AcDbEntity
  8
default
100
AcDbLine
 10
8.9825
 20
7.8559
 30
0.0
 11
9.935
 21
7.8559
 31
0.0
  0
TEXT
  5
1D3
330
18
100
AcDbEntity
  8
default
100
AcDbText
 10
8.6711
 20
7.8013
 30
0.0
 40
0.1069
  1
.28
  7
Arial
100
AcDbText
  0
LINE
  5
1D4
330
18
100
AcDbEntity
  8
default
100
AcDbLine
 10
8.9825
 20
7.6388
 30
0.0
 11
8.9825
 21
8.1734
 31
0.0
  0
LINE
  5
1D5
330
18
100
AcDbEntity
  8
default
100
AcDbLine
 10
8.705
 20
7.6388
 30
0.0
 11
8.705
 21
8.1734
 31
0.0
  0
CIRCLE
  5
1D6
330
18
100
AcDbEntity
  8
default
100
AcDbCircle
 10
19.4954
 20
5.2811
 30
0.0
 40
0.15
  0
CIRCLE
  5
1D7
330
18
100
AcDbEntity
  8
default
100
AcDbCircle
 10
19.883
 20
5.1111
 30
0.0
 40
0.15
  0
CIRCLE
  5
1D8
330
18
100
AcDbEntity
  8
default
100
AcDbCircle
 10
20.1943
 20
4.8245
 30
0.0
 40
0.15
  0
CIRCLE
  5
1D9
330
18
100
AcDbEntity
  8
default
100
AcDbCircle
 10
20.3957
 20
4.4524
 30
0.0
 40
0.15
  0
CIRCLE
  5
1DA
330
18
100
AcDbEntity
  8
default
100
AcDbCircle
 10
20.4654
 20
4.035
 30
0.0
 40
0.15
  0
CIRCLE
  5
1DB
330
18
100
AcDbEntity
  8
default
100
AcDbCircle
 10
20.3957
 20
3.6176
 30
0.0
 40
0.15
  0
CIRCLE
  5
1DC
330
18
100
AcDbEntity
  8
default
100
AcDbCircle
 10
20.1943
 20
3.2455
 30
0.0
 40
0.15
  0
CIRCLE
  5
1DD
330
18
100
AcDbEntity
  8
default
100
AcDbCircle
 10
19.883
 20
2.9589
 30
0.0
 40
0.15
  0
CIRCLE
  5
1DE
330
18
100
AcDbEntity
  8
default
100
AcDbCircle
 10
19.4954
 20
2.7889
 30
0.0
 40
0.15
  0
CIRCLE
  5
1DF
330
18
100
AcDbEntity
  8
default
100
AcDbCircle
 10
19.0738
 20
5.3161
 30
0.0
 40
0.15
  0
CIRCLE
  5
1E0
330
18
100
AcDbEntity
  8
default
100
AcDbCircle
 10
18.6636
 20
5.2122
 30
0.0
 40
0.15
  0
CIRCLE
  5
1E1
330
18
100
AcDbEntity
  8
default
100
AcDbCircle
 10
18.3093
 20
4.9807
 30
0.0
 40
0.15
  0
CIRCLE
  5
1E2
330
18
100
AcDbEntity
  8
default
100
AcDbCircle
 10
18.0494
 20
4.6468
 30
0.0
 40
0.15
  0
CIRCLE
  5
1E3
330
18
100
AcDbEntity
  8
default
100
AcDbCircle
 10
17.912
 20
4.2465
 30
0.0
 40
0.15
  0
CIRCLE
  5
1E4
330
18
100
AcDbEntity
  8
default
100
AcDbCircle
 10
17.912
 20
3.8235
 30
0.0
 40
0.15
  0
CIRCLE
  5
1E5
330
18
100
AcDbEntity
  8
default
100
AcDbCircle
 10
18.0494
 20
3.4232
 30
0.0
 40
0.15
  0
CIRCLE
  5
1E6
330
18
100
AcDbEntity
  8
default
100
AcDbCircle
 10
18.3093
 20
3.0893
 30
0.0
 40
0.15
  0
CIRCLE
  5
1E7
330
18
100
AcDbEntity
  8
default
100
AcDbCircle
 10
18.6636
 20
2.8578
 30
0.0
 40
0.15
  0
CIRCLE
  5
1E8
330
18
100
AcDbEntity
  8
default
100
AcDbCircle
 10
19.0738
 20
2.7539
 30
0.0
 40
0.15
  0
ARC
  5
1E9
330
18
100
AcDbEntity
  8
default
100
AcDbCircle
 10
20.1674
 20
5.6343
 30
0.0
 40
0.2836
100
AcDbArc
 50
147.5769
 51
327.5769
  0
ARC
  5
1EA
330
18
100
AcDbEntity
  8
default
100
AcDbCircle
 10
20.726
 20
5.1064
 30
0.0
 40
0.2944
100
AcDbArc
 50
124.8724
 51
304.8995
  0
ARC
  5
1EB
330
18
100
AcDbEntity
  8
default
100
AcDbCircle
 10
19.4226
 20
5.9071
 30
0.0
 40
0.3217
100
AcDbArc
 50
172.8197
 51
352.8374
  0
ARC
  5
1EC
330
18
100
AcDbEntity
  8
default
100
AcDbCircle
 10
18.6201
 20
5.8311
 30
0.0
 40
0.2932
100
AcDbArc
 50
197.7365
 51
17.7551
  0
ARC
  5
1ED
330
18
100
AcDbEntity
  8
default
100
AcDbCircle
 10
17.924
 20
5.4508
 30
0.0
 40
0.2934
100
AcDbArc
 50
220.9488
 51
40.9636
  0
ARC
  5
1EE
330
18
100
AcDbEntity
  8
default
100
AcDbCircle
 10
17.4674
 20
4.8335
 30
0.0
 40
0.3016
100
AcDbArc
 50
244.7605
 51
64.7776
  0
ARC
  5
1EF
330
18
100
AcDbEntity
  8
default
100
AcDbCircle
 10
17.2856
 20
4.1044
 30
0.0
 40
0.3047
100
AcDbArc
 50
266.6877
 51
86.6689
  0
ARC
  5
1F0
330
18
100
AcDbEntity
  8
default
100
AcDbCircle
 10
17.4142
 20
3.3662
 30
0.0
 40
0.2829
100
AcDbArc
 50
291.1204
 51
111.1204
  0
ARC
  5
1F1
330
18
100
AcDbEntity
  8
default
100
AcDbCircle
 10
17.7644
 20
2.7891
 30
0.0
 40
0.2774
100
AcDbArc
 50
312.15
 51
132.1361
  0
ARC
  5
1F2
330
18
100
AcDbEntity
  8
default
100
AcDbCircle
 10
18.3363
 20
2.3508
 30
0.0
 40
0.2782
100
AcDbArc
 50
335.3054
 51
155.2867
  0
ARC
  5
1F3
330
18
100
AcDbEntity
  8
default
100
AcDbCircle
 10
19.0368
 20
2.1629
 30
0.0
 40
0.2887
100
AcDbArc
 50
356.4645
 51
176.4447
  0
ARC
  5
1F4
330
18
100
AcDbEntity
  8
default
100
AcDbCircle
 10
19.7861
 20
2.2613
 30
0.0
 40
0.2806
100
AcDbArc
 50
18.5835
 51
198.5835
  0
ARC
  5
1F5
330
18
100
AcDbEntity
  8
default
100
AcDbCircle
 10
20.3979
 20
2.6147
 30
0.0
 40
0.2684
100
AcDbArc
 50
40.5411
 51
220.5573
  0
ARC
  5
1F6
330
18
100
AcDbEntity
  8
default
100
AcDbCircle
 10
20.828
 20
3.1515
 30
0.0
 40
0.2697
100
AcDbArc
 50
61.5337
 51
241.5337
  0
ARC
  5
1F7
330
18
100
AcDbEntity
  8
default
100
AcDbCircle
 10
21.0471
 20
3.7789
 30
0.0
 40
0.2602
100
AcDbArc
 50
79.77
 51
259.7917
  0
ARC
  5
1F8
330
18
100
AcDbEntity
  8
default
100
AcDbCircle
 10
21.0009
 20
4.4891
 30
0.0
 40
0.2776
100
AcDbArc
 50
104.7824
 51
284.7824
  0
SOLID
  5
1F9
330
18
100
AcDbEntity
  8
default
100
AcDbTrace
 10
20.6548
 20
6.3469
 30
0.0
 11
20.7184
 21
6.4523
 31
0.0
 12
20.8977
 22
6.2727
 32
0.0
 13
20.8977
 23
6.2727
 33
0.0
  0
TEXT
  5
1FA
330
18
100
AcDbEntity
  8
default
100
AcDbText
 10
19.0451
 20
6.3952
 30
0.0
 40
0.1872
  1
.60 DIA
  7
Arial
100
AcDbText
  0
LINE
  5
1FB
330
18
100
AcDbEntity
  8
default
100
AcDbLine
 10
20.5343
 20
6.4907
 30
0.0
 11
20.8977
 21
6.2727
 31
0.0
  0
LINE
  5
1FC
330
18
100
AcDbEntity
  8
default
100
AcDbLine
 10
20.058
 20
6.4907
 30
0.0
 11
20.5343
 21
6.4907
 31
0.0
  0
LINE
  5
1FD
330
18
100
AcDbEntity
  8
default
100
AcDbLine
 10
20.6019
 20
5.0348
 30
0.0
 11
20.9832
 21
5.5001
 31
0.0
  0
TEXT
  5
1FE
330
18
100
AcDbEntity
  8
default
100
AcDbText
 10
21.0718
 20
5.4319
 30
0.0
 40
0.1337
  1
used a 6mm dia 
  7
Arial
100
AcDbText
  0
TEXT
  5
1FF
330
18
100
AcDbEntity
  8
default
100
AcDbText
 10
21.0718
 20
5.2278
 30
0.0
 40
0.1337
  1
rotary file
  7
Arial
100
AcDbText
  0
SOLID
  5
200
330
18
100
AcDbEntity
  8
default
100
AcDbTrace
 10
17.2061
 20
6.8648
 30
0.0
 11
17.3295
 21
6.8648
 31
0.0
 12
17.2678
 22
6.6184
 32
0.0
 13
17.2678
 23
6.6184
 33
0.0
  0
SOLID
  5
201
330
18
100
AcDbEntity
  8
default
100
AcDbTrace
 10
17.3295
 20
5.772
 30
0.0
 11
17.2061
 21
5.772
 31
0.0
 12
17.2678
 22
6.0184
 32
0.0
 13
17.2678
 23
6.0184
 33
0.0
  0
LINE
  5
202
330
18
100
AcDbEntity
  8
default
100
AcDbLine
 10
17.2678
 20
6.6184
 30
0.0
 11
17.2678
 21
6.9093
 31
0.0
  0
LINE
  5
203
330
18
100
AcDbEntity
  8
default
100
AcDbLine
 10
17.2678
 20
5.0659
 30
0.0
 11
17.2678
 21
6.0184
 31
0.0
  0
LINE
  5
204
330
18
100
AcDbEntity
  8
default
100
AcDbLine
 10
17.2678
 20
6.9093
 30
0.0
 11
17.7441
 21
6.9093
 31
0.0
  0
TEXT
  5
205
330
18
100
AcDbEntity
  8
default
100
AcDbText
 10
17.9029
 20
6.7456
 30
0.0
 40
0.3208
  1
.60
  7
Arial
100
AcDbText
  0
LINE
  5
206
330
18
100
AcDbEntity
  8
default
100
AcDbLine
 10
16.9503
 20
6.0184
 30
0.0
 11
17.1461
 21
6.0184
 31
0.0
  0
SOLID
  5
207
330
18
100
AcDbEntity
  8
default
100
AcDbTrace
 10
16.4585
 20
5.971
 30
0.0
 11
16.4585
 21
6.094
 31
0.0
 12
16.7049
 22
6.0325
 32
0.0
 13
16.7049
 23
6.0325
 33
0.0
  0
SOLID
  5
208
330
18
100
AcDbEntity
  8
default
100
AcDbTrace
 10
17.5513
 20
6.094
 30
0.0
 11
17.5513
 21
5.971
 31
0.0
 12
17.3049
 22
6.0325
 32
0.0
 13
17.3049
 23
6.0325
 33
0.0
  0
LINE
  5
209
330
18
100
AcDbEntity
  8
default
100
AcDbLine
 10
15.7524
 20
6.0325
 30
0.0
 11
16.7049
 21
6.0325
 31
0.0
  0
LINE
  5
20A
330
18
100
AcDbEntity
  8
default
100
AcDbLine
 10
17.3049
 20
6.0325
 30
0.0
 11
18.2574
 21
6.0325
 31
0.0
  0
TEXT
  5
20B
330
18
100
AcDbEntity
  8
default
100
AcDbText
 10
15.1782
 20
5.8688
 30
0.0
 40
0.3208
  1
.60
  7
Arial
100
AcDbText
  0
LINE
  5
20C
330
18
100
AcDbEntity
  8
default
100
AcDbLine
 10
17.3049
 20
6.1772
 30
0.0
 11
17.3049
 21
6.35
 31
0.0
  0
CIRCLE
  5
20D
330
18
100
AcDbEntity
  8
default
100
AcDbCircle
 10
25.9574
 20
0.8199
 30
0.0
 40
0.0736
  0
CIRCLE
  5
20E
330
18
100
AcDbEntity
  8
default
100
AcDbCircle
 10
29.0053
 20
0.8146
 30
0.0
 40
0.0736
  0
CIRCLE
  5
20F
330
18
100
AcDbEntity
  8
default
100
AcDbCircle
 10
30.9017
 20
0.8093
 30
0.0
 40
0.0736
  0
CIRCLE
  5
210
330
18
100
AcDbEntity
  8
default
100
AcDbCircle
 10
33.9496
 20
0.8041
 30
0.0
 40
0.0736
  0
CIRCLE
  5
211
330
18
100
AcDbEntity
  8
default
100
AcDbCircle
 10
35.8512
 20
0.8093
 30
0.0
 40
0.0736
  0
CIRCLE
  5
212
330
18
100
AcDbEntity
  8
default
100
AcDbCircle
 10
38.9043
 20
0.8199
 30
0.0
 40
0.0736
  0
SOLID
  5
213
330
18
100
AcDbEntity
  8
default
100
AcDbTrace
 10
24.6442
 20
0.2963
 30
0.0
 11
24.5208
 21
0.2963
 31
0.0
 12
24.5825
 22
0.5427
 32
0.0
 13
24.5825
 23
0.5427
 33
0.0
  0
SOLID
  5
214
330
18
100
AcDbEntity
  8
default
100
AcDbTrace
 10
24.5208
 20
-11.3314
 30
0.0
 11
24.6442
 21
-11.3314
 31
0.0
 12
24.5825
 22
-11.5778
 32
0.0
 13
24.5825
 23
-11.5778
 33
0.0
  0
LINE
  5
215
330
18
100
AcDbEntity
  8
default
100
AcDbLine
 10
24.5825
 20
-4.9059
 30
0.0
 11
24.5825
 21
0.5427
 31
0.0
  0
LINE
  5
216
330
18
100
AcDbEntity
  8
default
100
AcDbLine
 10
24.5825
 20
-11.5778
 30
0.0
 11
24.5825
 21
-5.6469
 31
0.0
  0
TEXT
  5
217
330
18
100
AcDbEntity
  8
default
100
AcDbText
 10
24.0547
 20
-5.4401
 30
0.0
 40
0.3208
  1
12.12
  7
Arial
100
AcDbText
  0
LINE
  5
218
330
18
100
AcDbEntity
  8
default
100
AcDbLine
 10
24.265
 20
0.5427
 30
0.0
 11
25.8605
 21
0.5427
 31
0.0
  0
LINE
  5
219
330
18
100
AcDbEntity
  8
default
100
AcDbLine
 10
24.265
 20
-11.5778
 30
0.0
 11
24.85
 21
-11.5778
 31
0.0
  0
INSERT
  5
21A
330
18
100
AcDbEntity
  8
default
100
AcDbBlockReference
  2
nut
 10
27.4565
 20
2.8288
 30
0.0
  0
INSERT
  5
21B
330
18
100
AcDbEntity
  8
default
100
AcDbBlockReference
  2
nut
 10
37.3751
 20
2.8288
 30
0.0
  0
INSERT
  5
21C
330
18
100
AcDbEntity
  8
default
100
AcDbBlockReference
  2
nut
 10
32.4317
 20
2.8288
 30
0.0
  0
TEXT
  5
21D
330
18
100
AcDbEntity
  8
default
100
AcDbText
 10
12.7636
 20
-12.838
 30
0.0
 40
0.3208
  1
110ml per tube = 330ml total
  7
Arial
100
AcDbText
  0
TEXT
  5
21E
330
18
100
AcDbEntity
  8
default
100
AcDbText
 10
12.6817
 20
-10.4351
 30
0.0
 40
0.3743
  1
inside of center tube is 111.57cm² at 0.0775A  per cm²
  7
Arial_Bold
100
AcDbText
  0
TEXT
  5
21F
330
18
100
AcDbEntity
  8
default
100
AcDbText
 10
12.6817
 20
-11.0065
 30
0.0
 40
0.3743
  1
gives a max target amps of  8.65A
  7
Arial_Bold
100
AcDbText
  0
SOLID
  5
220
330
18
100
AcDbEntity
  8
default
100
AcDbTrace
 10
41.5181
 20
2.8491
 30
0.0
 11
41.3947
 21
2.8491
 31
0.0
 12
41.4564
 22
3.0955
 32
0.0
 13
41.4564
 23
3.0955
 33
0.0
  0
SOLID
  5
221
330
18
100
AcDbEntity
  8
default
100
AcDbTrace
 10
41.3947
 20
-14.6581
 30
0.0
 11
41.5181
 21
-14.6581
 31
0.0
 12
41.4564
 22
-14.9045
 32
0.0
 13
41.4564
 23
-14.9045
 33
0.0
  0
LINE
  5
222
330
18
100
AcDbEntity
  8
default
100
AcDbLine
 10
41.4564
 20
-5.0848
 30
0.0
 11
41.4564
 21
3.0955
 31
0.0
  0
LINE
  5
223
330
18
100
AcDbEntity
  8
default
100
AcDbLine
 10
41.4564
 20
-14.9045
 30
0.0
 11
41.4564
 21
-5.8964
 31
0.0
  0
TEXT
  5
224
330
18
100
AcDbEntity
  8
default
100
AcDbText
 10
40.8394
 20
-5.6816
 30
0.0
 40
0.3743
  1
18.00
  7
Arial
100
AcDbText
  0
LINE
  5
225
330
18
100
AcDbEntity
  8
default
100
AcDbLine
 10
32.2919
 20
3.0955
 30
0.0
 11
41.7739
 21
3.0955
 31
0.0
  0
LINE
  5
226
330
18
100
AcDbEntity
  8
default
100
AcDbLine
 10
32.8919
 20
-14.9045
 30
0.0
 11
41.7739
 21
-14.9045
 31
0.0
  0
SOLID
  5
227
330
18
100
AcDbEntity
  8
default
100
AcDbTrace
 10
27.4309
 20
7.8176
 30
0.0
 11
27.3075
 21
7.8176
 31
0.0
 12
27.3692
 22
8.064
 32
0.0
 13
27.3692
 23
8.064
 33
0.0
  0
SOLID
  5
228
330
18
100
AcDbEntity
  8
default
100
AcDbTrace
 10
27.3075
 20
2.2891
 30
0.0
 11
27.4309
 21
2.2891
 31
0.0
 12
27.3692
 22
2.0427
 32
0.0
 13
27.3692
 23
2.0427
 33
0.0
  0
LINE
  5
229
330
18
100
AcDbEntity
  8
default
100
AcDbLine
 10
27.3692
 20
6.003
 30
0.0
 11
27.3692
 21
8.064
 31
0.0
  0
LINE
  5
22A
330
18
100
AcDbEntity
  8
default
100
AcDbLine
 10
27.3692
 20
2.0427
 30
0.0
 11
27.3692
 21
5.1914
 31
0.0
  0
TEXT
  5
22B
330
18
100
AcDbEntity
  8
default
100
AcDbText
 10
26.8811
 20
5.4062
 30
0.0
 40
0.3743
  1
6.02
  7
Arial
100
AcDbText
  0
LINE
  5
22C
330
18
100
AcDbEntity
  8
default
100
AcDbLine
 10
27.0517
 20
2.0427
 30
0.0
 11
28.4061
 21
2.0427
 31
0.0
  0
ENDSEC
  0
SECTION
  2
OBJECTS
  0
DICTIONARY
  5
C
330
0
100
AcDbDictionary
281
     1
  3
ACAD_GROUP
350
D
  3
ACAD_LAYOUT
350
22D
  3
ACAD_MLEADERSTYLE
350
256
  3
ACAD_MLINESTYLE
350
1B
  3
ACAD_SCALELIST
350
230
  3
ACAD_TABLESTYLE
350
255
  3
AcDbVariableDictionary
350
252
  0
DICTIONARY
  5
D
102
{ACAD_REACTORS
330
C
102
}
330
C
100
AcDbDictionary
281
     1
  0
DICTIONARY
  5
22D
102
{ACAD_REACTORS
330
C
102
}
330
C
100
AcDbDictionary
281
     1
  3
Layout1
350
22F
  3
Model
350
22E
  0
DICTIONARY
  5
256
102
{ACAD_REACTORS
330
C
102
}
330
C
100
AcDbDictionary
281
     1
  0
DICTIONARY
  5
1B
102
{ACAD_REACTORS
330
C
102
}
330
C
100
AcDbDictionary
281
     1
  3
STANDARD
350
1C
  0
DICTIONARY
  5
230
102
{ACAD_REACTORS
330
C
102
}
330
C
100
AcDbDictionary
281
     1
  3
A0
350
231
  3
A1
350
232
  3
A2
350
233
  3
A3
350
234
  3
A4
350
235
  3
A5
350
236
  3
A6
350
237
  3
A7
350
238
  3
A8
350
239
  3
A9
350
23A
  3
B0
350
23B
  3
B1
350
23C
  3
B2
350
23D
  3
B3
350
23E
  3
B4
350
23F
  3
B5
350
240
  3
B6
350
241
  3
B7
350
242
  3
B8
350
243
  3
B9
350
244
  3
C0
350
245
  3
C1
350
246
  3
C2
350
247
  3
C3
350
248
  3
C4
350
249
  3
C5
350
24A
  3
C6
350
24B
  3
C7
350
24C
  3
C8
350
24D
  3
C9
350
24E
  3
D0
350
24F
  3
D1
350
250
  3
D2
350
251
  0
DICTIONARY
  5
255
102
{ACAD_REACTORS
330
C
102
}
330
C
100
AcDbDictionary
281
     1
  0
DICTIONARY
  5
252
102
{ACAD_REACTORS
330
C
102
}
330
C
100
AcDbDictionary
281
     1
  3
CANNOSCALE
350
253
  3
LIGHTINGUNITS
350
254
  0
LAYOUT
  5
22F
102
{ACAD_REACTORS
330
22D
102
}
330
22D
100
AcDbPlotSettings
  1

  2
none_device
  4

  6

 40
0.0
 41
0.0
 42
0.0
 43
0.0
 44
0.0
 45
0.0
 46
0.0
 47
0.0
 48
0.0
 49
0.0
140
0.0
141
0.0
142
1.0
143
1.0
 70
   688
 72
     0
 73
     0
 74
     5
  7

 75
    16
 76
     0
 77
     2
 78
   300
147
1.0
148
0.0
149
0.0
100
AcDbLayout
  1
Layout1
 70
     1
 71
     1
 10
0.0
 20
0.0
 11
0.0
 21
0.0
 12
0.0
 22
0.0
 32
0.0
 14
0.0
 24
0.0
 34
0.0
 15
0.0
 25
0.0
 35
0.0
146
0.0
 13
0.0
 23
0.0
 33
0.0
 16
1.0
 26
0.0
 36
0.0
 17
0.0
 27
1.0
 37
0.0
 76
     0
330
15
  0
LAYOUT
  5
22E
102
{ACAD_REACTORS
330
22D
102
}
330
22D
100
AcDbPlotSettings
  1

  2
none_device
  4

  6

 40
0.0
 41
0.0
 42
0.0
 43
0.0
 44
0.0
 45
0.0
 46
0.0
 47
0.0
 48
0.0
 49
0.0
140
0.0
141
0.0
142
1.0
143
1.0
 70
   688
 72
     0
 73
     0
 74
     5
  7

 75
    16
 76
     0
 77
     2
 78
   300
147
1.0
148
0.0
149
0.0
100
AcDbLayout
  1
Model
 70
     1
 71
     0
 10
0.0
 20
0.0
 11
0.0
 21
0.0
 12
0.0
 22
0.0
 32
0.0
 14
0.0
 24
0.0
 34
0.0
 15
0.0
 25
0.0
 35
0.0
146
0.0
 13
0.0
 23
0.0
 33
0.0
 16
1.0
 26
0.0
 36
0.0
 17
0.0
 27
1.0
 37
0.0
 76
     0
330
18
331
1E
  0
MLINESTYLE
  5
1C
102
{ACAD_REACTORS
330
1B
102
}
330
1B
100
AcDbMlineStyle
  2
STANDARD
 70
     0
  3

 62
   256
 51
90.0
 52
90.0
 71
     2
 49
0.5
 62
   256
  6
BYLAYER
 49
-0.5
 62
   256
  6
BYLAYER
  0
SCALE
  5
231
102
{ACAD_REACTORS
330
230
102
}
330
230
100
AcDbScale
 70
     0
300
1:1
140
1.0
141
1.0
290
     1
  0
SCALE
  5
232
102
{ACAD_REACTORS
330
230
102
}
330
230
100
AcDbScale
 70
     0
300
1:2
140
1.0
141
2.0
290
     0
  0
SCALE
  5
233
102
{ACAD_REACTORS
330
230
102
}
330
230
100
AcDbScale
 70
     0
300
1:4
140
1.0
141
4.0
290
     0
  0
SCALE
  5
234
102
{ACAD_REACTORS
330
230
102
}
330
230
100
AcDbScale
 70
     0
300
1:5
140
1.0
141
5.0
290
     0
  0
SCALE
  5
235
102
{ACAD_REACTORS
330
230
102
}
330
230
100
AcDbScale
 70
     0
300
1:8
140
1.0
141
8.0
290
     0
  0
SCALE
  5
236
102
{ACAD_REACTORS
330
230
102
}
330
230
100
AcDbScale
 70
     0
300
1:10
140
1.0
141
10.0
290
     0
  0
SCALE
  5
237
102
{ACAD_REACTORS
330
230
102
}
330
230
100
AcDbScale
 70
     0
300
1:16
140
1.0
141
16.0
290
     0
  0
SCALE
  5
238
102
{ACAD_REACTORS
330
230
102
}
330
230
100
AcDbScale
 70
     0
300
1:20
140
1.0
141
20.0
290
     0
  0
SCALE
  5
239
102
{ACAD_REACTORS
330
230
102
}
330
230
100
AcDbScale
 70
     0
300
1:30
140
1.0
141
30.0
290
     0
  0
SCALE
  5
23A
102
{ACAD_REACTORS
330
230
102
}
330
230
100
AcDbScale
 70
     0
300
1:40
140
1.0
141
40.0
290
     0
  0
SCALE
  5
23B
102
{ACAD_REACTORS
330
230
102
}
330
230
100
AcDbScale
 70
     0
300
1:50
140
1.0
141
50.0
290
     0
  0
SCALE
  5
23C
102
{ACAD_REACTORS
330
230
102
}
330
230
100
AcDbScale
 70
     0
300
1:100
140
1.0
141
100.0
290
     0
  0
SCALE
  5
23D
102
{ACAD_REACTORS
330
230
102
}
330
230
100
AcDbScale
 70
     0
300
2:1
140
2.0
141
1.0
290
     0
  0
SCALE
  5
23E
102
{ACAD_REACTORS
330
230
102
}
330
230
100
AcDbScale
 70
     0
300
4:1
140
4.0
141
1.0
290
     0
  0
SCALE
  5
23F
102
{ACAD_REACTORS
330
230
102
}
330
230
100
AcDbScale
 70
     0
300
8:1
140
8.0
141
1.0
290
     0
  0
SCALE
  5
240
102
{ACAD_REACTORS
330
230
102
}
330
230
100
AcDbScale
 70
     0
300
10:1
140
10.0
141
1.0
290
     0
  0
SCALE
  5
241
102
{ACAD_REACTORS
330
230
102
}
330
230
100
AcDbScale
 70
     0
300
100:1
140
100.0
141
1.0
290
     0
  0
SCALE
  5
242
102
{ACAD_REACTORS
330
230
102
}
330
230
100
AcDbScale
 70
     0
300
1/128" = 1'-0"
140
0.0078125
141
12.0
290
     0
  0
SCALE
  5
243
102
{ACAD_REACTORS
330
230
102
}
330
230
100
AcDbScale
 70
     0
300
1/64" = 1'-0"
140
0.015625
141
12.0
290
     0
  0
SCALE
  5
244
102
{ACAD_REACTORS
330
230
102
}
330
230
100
AcDbScale
 70
     0
300
1/32" = 1'-0"
140
0.03125
141
12.0
290
     0
  0
SCALE
  5
245
102
{ACAD_REACTORS
330
230
102
}
330
230
100
AcDbScale
 70
     0
300
1/16" = 1'-0"
140
0.0625
141
12.0
290
     0
  0
SCALE
  5
246
102
{ACAD_REACTORS
330
230
102
}
330
230
100
AcDbScale
 70
     0
300
3/32" = 1'-0"
140
0.09375
141
12.0
290
     0
  0
SCALE
  5
247
102
{ACAD_REACTORS
330
230
102
}
330
230
100
AcDbScale
 70
     0
300
1/8" = 1'-0"
140
0.125
141
12.0
290
     0
  0
SCALE
  5
248
102
{ACAD_REACTORS
330
230
102
}
330
230
100
AcDbScale
 70
     0
300
3/16" = 1'-0"
140
0.1875
141
12.0
290
     0
  0
SCALE
  5
249
102
{ACAD_REACTORS
330
230
102
}
330
230
100
AcDbScale
 70
     0
300
1/4" = 1'-0"
140
0.25
141
12.0
290
     0
  0
SCALE
  5
24A
102
{ACAD_REACTORS
330
230
102
}
330
230
100
AcDbScale
 70
     0
300
3/8" = 1'-0"
140
0.375
141
12.0
290
     0
  0
SCALE
  5
24B
102
{ACAD_REACTORS
330
230
102
}
330
230
100
AcDbScale
 70
     0
300
1/2" = 1'-0"
140
0.5
141
12.0
290
     0
  0
SCALE
  5
24C
102
{ACAD_REACTORS
330
230
102
}
330
230
100
AcDbScale
 70
     0
300
3/4" = 1'-0"
140
0.75
141
12.0
290
     0
  0
SCALE
  5
24D
102
{ACAD_REACTORS
330
230
102
}
330
230
100
AcDbScale
 70
     0
300
1" = 1'-0"
140
1.0
141
12.0
290
     0
  0
SCALE
  5
24E
102
{ACAD_REACTORS
330
230
102
}
330
230
100
AcDbScale
 70
     0
300
1-1/2" = 1'-0"
140
1.5
141
12.0
290
     0
  0
SCALE
  5
24F
102
{ACAD_REACTORS
330
230
102
}
330
230
100
AcDbScale
 70
     0
300
3" = 1'-0"
140
3.0
141
12.0
290
     0
  0
SCALE
  5
250
102
{ACAD_REACTORS
330
230
102
}
330
230
100
AcDbScale
 70
     0
300
6" = 1'-0"
140
6.0
141
12.0
290
     0
  0
SCALE
  5
251
102
{ACAD_REACTORS
330
230
102
}
330
230
100
AcDbScale
 70
     0
300
1'-0" = 1'-0"
140
12.0
141
12.0
290
     0
  0
DICTIONARYVAR
  5
253
102
{ACAD_REACTORS
330
252
102
}
330
252
100
DictionaryVariables
280
     0
  1
1:1
  0
DICTIONARYVAR
  5
254
102
{ACAD_REACTORS
330
252
102
}
330
252
100
DictionaryVariables
280
     0
  1
0
  0
ENDSEC
  0
EOF
