ISO-10303-21;
HEADER;
/* Generated by software containing ST-Developer
 * from STEP Tools, Inc. (www.steptools.com) 
 */

FILE_DESCRIPTION(
/* description */ (''),
/* implementation_level */ '2;1');

FILE_NAME(
/* name */ 
'C:\\Users\\Mark\\Desktop\\Inventor Projects\\Burr_Puzzle\\Part3.stp',
/* time_stamp */ '2018-12-15T12:19:14-05:00',
/* author */ ('Mark'),
/* organization */ (''),
/* preprocessor_version */ 'ST-DEVELOPER v16.1',
/* originating_system */ 'Autodesk Inventor 2016',
/* authorisation */ '');

FILE_SCHEMA (('AUTOMOTIVE_DESIGN { 1 0 10303 214 3 1 1 }'));
ENDSEC;

DATA;
#10=MECHANICAL_DESIGN_GEOMETRIC_PRESENTATION_REPRESENTATION('',(#13),#626);
#11=SHAPE_REPRESENTATION_RELATIONSHIP('SRR','None',#638,#12);
#12=ADVANCED_BREP_SHAPE_REPRESENTATION('',(#14),#625);
#13=STYLED_ITEM('',(#647),#14);
#14=MANIFOLD_SOLID_BREP('Solid1',#381);
#15=PLANE('',#391);
#16=PLANE('',#392);
#17=PLANE('',#393);
#18=PLANE('',#402);
#19=PLANE('',#403);
#20=PLANE('',#404);
#21=PLANE('',#405);
#22=PLANE('',#406);
#23=PLANE('',#407);
#24=PLANE('',#408);
#25=PLANE('',#409);
#26=PLANE('',#410);
#27=PLANE('',#411);
#28=PLANE('',#412);
#29=FACE_OUTER_BOUND('',#51,.T.);
#30=FACE_OUTER_BOUND('',#52,.T.);
#31=FACE_OUTER_BOUND('',#53,.T.);
#32=FACE_OUTER_BOUND('',#54,.T.);
#33=FACE_OUTER_BOUND('',#55,.T.);
#34=FACE_OUTER_BOUND('',#56,.T.);
#35=FACE_OUTER_BOUND('',#57,.T.);
#36=FACE_OUTER_BOUND('',#58,.T.);
#37=FACE_OUTER_BOUND('',#59,.T.);
#38=FACE_OUTER_BOUND('',#60,.T.);
#39=FACE_OUTER_BOUND('',#61,.T.);
#40=FACE_OUTER_BOUND('',#62,.T.);
#41=FACE_OUTER_BOUND('',#63,.T.);
#42=FACE_OUTER_BOUND('',#64,.T.);
#43=FACE_OUTER_BOUND('',#65,.T.);
#44=FACE_OUTER_BOUND('',#66,.T.);
#45=FACE_OUTER_BOUND('',#67,.T.);
#46=FACE_OUTER_BOUND('',#68,.T.);
#47=FACE_OUTER_BOUND('',#69,.T.);
#48=FACE_OUTER_BOUND('',#70,.T.);
#49=FACE_OUTER_BOUND('',#71,.T.);
#50=FACE_OUTER_BOUND('',#72,.T.);
#51=EDGE_LOOP('',(#249,#250,#251,#252));
#52=EDGE_LOOP('',(#253,#254,#255,#256));
#53=EDGE_LOOP('',(#257,#258,#259,#260));
#54=EDGE_LOOP('',(#261,#262,#263,#264));
#55=EDGE_LOOP('',(#265,#266,#267,#268));
#56=EDGE_LOOP('',(#269,#270,#271,#272,#273,#274,#275,#276));
#57=EDGE_LOOP('',(#277,#278,#279,#280));
#58=EDGE_LOOP('',(#281,#282,#283,#284));
#59=EDGE_LOOP('',(#285,#286,#287,#288));
#60=EDGE_LOOP('',(#289,#290,#291,#292));
#61=EDGE_LOOP('',(#293,#294,#295,#296));
#62=EDGE_LOOP('',(#297,#298,#299,#300,#301,#302,#303,#304));
#63=EDGE_LOOP('',(#305,#306,#307,#308));
#64=EDGE_LOOP('',(#309,#310,#311,#312));
#65=EDGE_LOOP('',(#313,#314,#315,#316,#317));
#66=EDGE_LOOP('',(#318,#319,#320,#321));
#67=EDGE_LOOP('',(#322,#323,#324,#325,#326,#327));
#68=EDGE_LOOP('',(#328,#329,#330,#331,#332,#333));
#69=EDGE_LOOP('',(#334,#335,#336,#337));
#70=EDGE_LOOP('',(#338,#339,#340,#341,#342));
#71=EDGE_LOOP('',(#343,#344,#345,#346));
#72=EDGE_LOOP('',(#347,#348,#349,#350));
#73=ELLIPSE('',#384,0.265165042944955,0.1875);
#74=ELLIPSE('',#385,0.265165042944955,0.1875);
#75=ELLIPSE('',#387,0.265165042944955,0.1875);
#76=ELLIPSE('',#389,0.265165042944955,0.1875);
#77=ELLIPSE('',#395,0.265165042944955,0.1875);
#78=ELLIPSE('',#396,0.265165042944955,0.1875);
#79=ELLIPSE('',#398,0.265165042944955,0.1875);
#80=ELLIPSE('',#400,0.265165042944955,0.1875);
#81=LINE('',#522,#124);
#82=LINE('',#526,#125);
#83=LINE('',#530,#126);
#84=LINE('',#533,#127);
#85=LINE('',#536,#128);
#86=LINE('',#539,#129);
#87=LINE('',#541,#130);
#88=LINE('',#542,#131);
#89=LINE('',#545,#132);
#90=LINE('',#547,#133);
#91=LINE('',#548,#134);
#92=LINE('',#551,#135);
#93=LINE('',#553,#136);
#94=LINE('',#555,#137);
#95=LINE('',#557,#138);
#96=LINE('',#559,#139);
#97=LINE('',#560,#140);
#98=LINE('',#566,#141);
#99=LINE('',#570,#142);
#100=LINE('',#573,#143);
#101=LINE('',#576,#144);
#102=LINE('',#578,#145);
#103=LINE('',#581,#146);
#104=LINE('',#582,#147);
#105=LINE('',#585,#148);
#106=LINE('',#587,#149);
#107=LINE('',#589,#150);
#108=LINE('',#591,#151);
#109=LINE('',#592,#152);
#110=LINE('',#596,#153);
#111=LINE('',#597,#154);
#112=LINE('',#600,#155);
#113=LINE('',#602,#156);
#114=LINE('',#603,#157);
#115=LINE('',#606,#158);
#116=LINE('',#607,#159);
#117=LINE('',#610,#160);
#118=LINE('',#612,#161);
#119=LINE('',#613,#162);
#120=LINE('',#615,#163);
#121=LINE('',#617,#164);
#122=LINE('',#619,#165);
#123=LINE('',#621,#166);
#124=VECTOR('',#417,0.375);
#125=VECTOR('',#420,0.75);
#126=VECTOR('',#425,0.375);
#127=VECTOR('',#428,0.75);
#128=VECTOR('',#431,0.375);
#129=VECTOR('',#434,0.75);
#130=VECTOR('',#437,0.75);
#131=VECTOR('',#438,0.375);
#132=VECTOR('',#441,0.562499999999999);
#133=VECTOR('',#442,0.75);
#134=VECTOR('',#443,0.5625);
#135=VECTOR('',#446,1.875);
#136=VECTOR('',#447,0.75);
#137=VECTOR('',#448,0.9375);
#138=VECTOR('',#449,0.375);
#139=VECTOR('',#450,0.375);
#140=VECTOR('',#451,0.375);
#141=VECTOR('',#458,0.375);
#142=VECTOR('',#463,0.375);
#143=VECTOR('',#466,0.75);
#144=VECTOR('',#469,0.75);
#145=VECTOR('',#470,0.375);
#146=VECTOR('',#475,0.75);
#147=VECTOR('',#476,0.375);
#148=VECTOR('',#479,0.9375);
#149=VECTOR('',#480,0.375);
#150=VECTOR('',#481,0.38);
#151=VECTOR('',#482,0.375);
#152=VECTOR('',#483,0.5575);
#153=VECTOR('',#488,0.75);
#154=VECTOR('',#489,0.375);
#155=VECTOR('',#492,0.375);
#156=VECTOR('',#493,0.375);
#157=VECTOR('',#494,0.375);
#158=VECTOR('',#497,0.375);
#159=VECTOR('',#498,0.375);
#160=VECTOR('',#501,0.5575);
#161=VECTOR('',#502,0.375);
#162=VECTOR('',#503,0.38);
#163=VECTOR('',#506,0.375);
#164=VECTOR('',#509,0.375);
#165=VECTOR('',#512,0.75);
#166=VECTOR('',#515,0.75);
#167=VERTEX_POINT('',#520);
#168=VERTEX_POINT('',#521);
#169=VERTEX_POINT('',#523);
#170=VERTEX_POINT('',#525);
#171=VERTEX_POINT('',#529);
#172=VERTEX_POINT('',#531);
#173=VERTEX_POINT('',#535);
#174=VERTEX_POINT('',#537);
#175=VERTEX_POINT('',#544);
#176=VERTEX_POINT('',#546);
#177=VERTEX_POINT('',#550);
#178=VERTEX_POINT('',#552);
#179=VERTEX_POINT('',#554);
#180=VERTEX_POINT('',#556);
#181=VERTEX_POINT('',#558);
#182=VERTEX_POINT('',#563);
#183=VERTEX_POINT('',#565);
#184=VERTEX_POINT('',#569);
#185=VERTEX_POINT('',#571);
#186=VERTEX_POINT('',#575);
#187=VERTEX_POINT('',#577);
#188=VERTEX_POINT('',#584);
#189=VERTEX_POINT('',#586);
#190=VERTEX_POINT('',#588);
#191=VERTEX_POINT('',#590);
#192=VERTEX_POINT('',#595);
#193=VERTEX_POINT('',#599);
#194=VERTEX_POINT('',#601);
#195=VERTEX_POINT('',#605);
#196=VERTEX_POINT('',#609);
#197=VERTEX_POINT('',#611);
#198=EDGE_CURVE('',#167,#168,#81,.T.);
#199=EDGE_CURVE('',#168,#169,#73,.T.);
#200=EDGE_CURVE('',#169,#170,#82,.T.);
#201=EDGE_CURVE('',#167,#170,#74,.T.);
#202=EDGE_CURVE('',#168,#171,#83,.T.);
#203=EDGE_CURVE('',#171,#172,#75,.T.);
#204=EDGE_CURVE('',#172,#169,#84,.T.);
#205=EDGE_CURVE('',#171,#173,#85,.T.);
#206=EDGE_CURVE('',#173,#174,#76,.T.);
#207=EDGE_CURVE('',#174,#172,#86,.T.);
#208=EDGE_CURVE('',#170,#174,#87,.T.);
#209=EDGE_CURVE('',#173,#167,#88,.T.);
#210=EDGE_CURVE('',#175,#170,#89,.T.);
#211=EDGE_CURVE('',#175,#176,#90,.T.);
#212=EDGE_CURVE('',#176,#174,#91,.T.);
#213=EDGE_CURVE('',#177,#169,#92,.T.);
#214=EDGE_CURVE('',#178,#177,#93,.T.);
#215=EDGE_CURVE('',#178,#179,#94,.T.);
#216=EDGE_CURVE('',#179,#180,#95,.T.);
#217=EDGE_CURVE('',#180,#181,#96,.T.);
#218=EDGE_CURVE('',#181,#175,#97,.T.);
#219=EDGE_CURVE('',#177,#182,#77,.T.);
#220=EDGE_CURVE('',#182,#183,#98,.T.);
#221=EDGE_CURVE('',#183,#178,#78,.T.);
#222=EDGE_CURVE('',#183,#184,#99,.T.);
#223=EDGE_CURVE('',#184,#185,#79,.T.);
#224=EDGE_CURVE('',#185,#178,#100,.T.);
#225=EDGE_CURVE('',#186,#185,#101,.T.);
#226=EDGE_CURVE('',#184,#187,#102,.T.);
#227=EDGE_CURVE('',#187,#186,#80,.T.);
#228=EDGE_CURVE('',#177,#186,#103,.T.);
#229=EDGE_CURVE('',#187,#182,#104,.T.);
#230=EDGE_CURVE('',#188,#172,#105,.T.);
#231=EDGE_CURVE('',#188,#189,#106,.T.);
#232=EDGE_CURVE('',#189,#190,#107,.T.);
#233=EDGE_CURVE('',#190,#191,#108,.T.);
#234=EDGE_CURVE('',#186,#191,#109,.T.);
#235=EDGE_CURVE('',#192,#181,#110,.T.);
#236=EDGE_CURVE('',#176,#192,#111,.T.);
#237=EDGE_CURVE('',#193,#180,#112,.T.);
#238=EDGE_CURVE('',#194,#193,#113,.T.);
#239=EDGE_CURVE('',#192,#194,#114,.T.);
#240=EDGE_CURVE('',#195,#179,#115,.T.);
#241=EDGE_CURVE('',#195,#193,#116,.T.);
#242=EDGE_CURVE('',#185,#196,#117,.T.);
#243=EDGE_CURVE('',#196,#197,#118,.T.);
#244=EDGE_CURVE('',#197,#195,#119,.T.);
#245=EDGE_CURVE('',#194,#188,#120,.T.);
#246=EDGE_CURVE('',#193,#189,#121,.T.);
#247=EDGE_CURVE('',#197,#190,#122,.T.);
#248=EDGE_CURVE('',#191,#196,#123,.T.);
#249=ORIENTED_EDGE('',*,*,#198,.T.);
#250=ORIENTED_EDGE('',*,*,#199,.T.);
#251=ORIENTED_EDGE('',*,*,#200,.T.);
#252=ORIENTED_EDGE('',*,*,#201,.F.);
#253=ORIENTED_EDGE('',*,*,#202,.T.);
#254=ORIENTED_EDGE('',*,*,#203,.T.);
#255=ORIENTED_EDGE('',*,*,#204,.T.);
#256=ORIENTED_EDGE('',*,*,#199,.F.);
#257=ORIENTED_EDGE('',*,*,#205,.T.);
#258=ORIENTED_EDGE('',*,*,#206,.T.);
#259=ORIENTED_EDGE('',*,*,#207,.T.);
#260=ORIENTED_EDGE('',*,*,#203,.F.);
#261=ORIENTED_EDGE('',*,*,#208,.T.);
#262=ORIENTED_EDGE('',*,*,#206,.F.);
#263=ORIENTED_EDGE('',*,*,#209,.T.);
#264=ORIENTED_EDGE('',*,*,#201,.T.);
#265=ORIENTED_EDGE('',*,*,#208,.F.);
#266=ORIENTED_EDGE('',*,*,#210,.F.);
#267=ORIENTED_EDGE('',*,*,#211,.T.);
#268=ORIENTED_EDGE('',*,*,#212,.T.);
#269=ORIENTED_EDGE('',*,*,#200,.F.);
#270=ORIENTED_EDGE('',*,*,#213,.F.);
#271=ORIENTED_EDGE('',*,*,#214,.F.);
#272=ORIENTED_EDGE('',*,*,#215,.T.);
#273=ORIENTED_EDGE('',*,*,#216,.T.);
#274=ORIENTED_EDGE('',*,*,#217,.T.);
#275=ORIENTED_EDGE('',*,*,#218,.T.);
#276=ORIENTED_EDGE('',*,*,#210,.T.);
#277=ORIENTED_EDGE('',*,*,#198,.F.);
#278=ORIENTED_EDGE('',*,*,#209,.F.);
#279=ORIENTED_EDGE('',*,*,#205,.F.);
#280=ORIENTED_EDGE('',*,*,#202,.F.);
#281=ORIENTED_EDGE('',*,*,#214,.T.);
#282=ORIENTED_EDGE('',*,*,#219,.T.);
#283=ORIENTED_EDGE('',*,*,#220,.T.);
#284=ORIENTED_EDGE('',*,*,#221,.T.);
#285=ORIENTED_EDGE('',*,*,#222,.T.);
#286=ORIENTED_EDGE('',*,*,#223,.T.);
#287=ORIENTED_EDGE('',*,*,#224,.T.);
#288=ORIENTED_EDGE('',*,*,#221,.F.);
#289=ORIENTED_EDGE('',*,*,#225,.T.);
#290=ORIENTED_EDGE('',*,*,#223,.F.);
#291=ORIENTED_EDGE('',*,*,#226,.T.);
#292=ORIENTED_EDGE('',*,*,#227,.T.);
#293=ORIENTED_EDGE('',*,*,#228,.T.);
#294=ORIENTED_EDGE('',*,*,#227,.F.);
#295=ORIENTED_EDGE('',*,*,#229,.T.);
#296=ORIENTED_EDGE('',*,*,#219,.F.);
#297=ORIENTED_EDGE('',*,*,#204,.F.);
#298=ORIENTED_EDGE('',*,*,#230,.F.);
#299=ORIENTED_EDGE('',*,*,#231,.T.);
#300=ORIENTED_EDGE('',*,*,#232,.T.);
#301=ORIENTED_EDGE('',*,*,#233,.T.);
#302=ORIENTED_EDGE('',*,*,#234,.F.);
#303=ORIENTED_EDGE('',*,*,#228,.F.);
#304=ORIENTED_EDGE('',*,*,#213,.T.);
#305=ORIENTED_EDGE('',*,*,#220,.F.);
#306=ORIENTED_EDGE('',*,*,#229,.F.);
#307=ORIENTED_EDGE('',*,*,#226,.F.);
#308=ORIENTED_EDGE('',*,*,#222,.F.);
#309=ORIENTED_EDGE('',*,*,#218,.F.);
#310=ORIENTED_EDGE('',*,*,#235,.F.);
#311=ORIENTED_EDGE('',*,*,#236,.F.);
#312=ORIENTED_EDGE('',*,*,#211,.F.);
#313=ORIENTED_EDGE('',*,*,#217,.F.);
#314=ORIENTED_EDGE('',*,*,#237,.F.);
#315=ORIENTED_EDGE('',*,*,#238,.F.);
#316=ORIENTED_EDGE('',*,*,#239,.F.);
#317=ORIENTED_EDGE('',*,*,#235,.T.);
#318=ORIENTED_EDGE('',*,*,#216,.F.);
#319=ORIENTED_EDGE('',*,*,#240,.F.);
#320=ORIENTED_EDGE('',*,*,#241,.T.);
#321=ORIENTED_EDGE('',*,*,#237,.T.);
#322=ORIENTED_EDGE('',*,*,#224,.F.);
#323=ORIENTED_EDGE('',*,*,#242,.T.);
#324=ORIENTED_EDGE('',*,*,#243,.T.);
#325=ORIENTED_EDGE('',*,*,#244,.T.);
#326=ORIENTED_EDGE('',*,*,#240,.T.);
#327=ORIENTED_EDGE('',*,*,#215,.F.);
#328=ORIENTED_EDGE('',*,*,#207,.F.);
#329=ORIENTED_EDGE('',*,*,#212,.F.);
#330=ORIENTED_EDGE('',*,*,#236,.T.);
#331=ORIENTED_EDGE('',*,*,#239,.T.);
#332=ORIENTED_EDGE('',*,*,#245,.T.);
#333=ORIENTED_EDGE('',*,*,#230,.T.);
#334=ORIENTED_EDGE('',*,*,#238,.T.);
#335=ORIENTED_EDGE('',*,*,#246,.T.);
#336=ORIENTED_EDGE('',*,*,#231,.F.);
#337=ORIENTED_EDGE('',*,*,#245,.F.);
#338=ORIENTED_EDGE('',*,*,#232,.F.);
#339=ORIENTED_EDGE('',*,*,#246,.F.);
#340=ORIENTED_EDGE('',*,*,#241,.F.);
#341=ORIENTED_EDGE('',*,*,#244,.F.);
#342=ORIENTED_EDGE('',*,*,#247,.T.);
#343=ORIENTED_EDGE('',*,*,#233,.F.);
#344=ORIENTED_EDGE('',*,*,#247,.F.);
#345=ORIENTED_EDGE('',*,*,#243,.F.);
#346=ORIENTED_EDGE('',*,*,#248,.F.);
#347=ORIENTED_EDGE('',*,*,#225,.F.);
#348=ORIENTED_EDGE('',*,*,#234,.T.);
#349=ORIENTED_EDGE('',*,*,#248,.T.);
#350=ORIENTED_EDGE('',*,*,#242,.F.);
#351=CYLINDRICAL_SURFACE('',#383,0.1875);
#352=CYLINDRICAL_SURFACE('',#386,0.1875);
#353=CYLINDRICAL_SURFACE('',#388,0.1875);
#354=CYLINDRICAL_SURFACE('',#390,0.1875);
#355=CYLINDRICAL_SURFACE('',#394,0.1875);
#356=CYLINDRICAL_SURFACE('',#397,0.1875);
#357=CYLINDRICAL_SURFACE('',#399,0.1875);
#358=CYLINDRICAL_SURFACE('',#401,0.1875);
#359=ADVANCED_FACE('',(#29),#351,.T.);
#360=ADVANCED_FACE('',(#30),#352,.T.);
#361=ADVANCED_FACE('',(#31),#353,.T.);
#362=ADVANCED_FACE('',(#32),#354,.T.);
#363=ADVANCED_FACE('',(#33),#15,.T.);
#364=ADVANCED_FACE('',(#34),#16,.T.);
#365=ADVANCED_FACE('',(#35),#17,.T.);
#366=ADVANCED_FACE('',(#36),#355,.T.);
#367=ADVANCED_FACE('',(#37),#356,.T.);
#368=ADVANCED_FACE('',(#38),#357,.T.);
#369=ADVANCED_FACE('',(#39),#358,.T.);
#370=ADVANCED_FACE('',(#40),#18,.T.);
#371=ADVANCED_FACE('',(#41),#19,.F.);
#372=ADVANCED_FACE('',(#42),#20,.F.);
#373=ADVANCED_FACE('',(#43),#21,.F.);
#374=ADVANCED_FACE('',(#44),#22,.F.);
#375=ADVANCED_FACE('',(#45),#23,.T.);
#376=ADVANCED_FACE('',(#46),#24,.T.);
#377=ADVANCED_FACE('',(#47),#25,.F.);
#378=ADVANCED_FACE('',(#48),#26,.F.);
#379=ADVANCED_FACE('',(#49),#27,.F.);
#380=ADVANCED_FACE('',(#50),#28,.T.);
#381=CLOSED_SHELL('',(#359,#360,#361,#362,#363,#364,#365,#366,#367,#368,
#369,#370,#371,#372,#373,#374,#375,#376,#377,#378,#379,#380));
#382=AXIS2_PLACEMENT_3D('placement',#518,#413,#414);
#383=AXIS2_PLACEMENT_3D('',#519,#415,#416);
#384=AXIS2_PLACEMENT_3D('',#524,#418,#419);
#385=AXIS2_PLACEMENT_3D('',#527,#421,#422);
#386=AXIS2_PLACEMENT_3D('',#528,#423,#424);
#387=AXIS2_PLACEMENT_3D('',#532,#426,#427);
#388=AXIS2_PLACEMENT_3D('',#534,#429,#430);
#389=AXIS2_PLACEMENT_3D('',#538,#432,#433);
#390=AXIS2_PLACEMENT_3D('',#540,#435,#436);
#391=AXIS2_PLACEMENT_3D('',#543,#439,#440);
#392=AXIS2_PLACEMENT_3D('',#549,#444,#445);
#393=AXIS2_PLACEMENT_3D('',#561,#452,#453);
#394=AXIS2_PLACEMENT_3D('',#562,#454,#455);
#395=AXIS2_PLACEMENT_3D('',#564,#456,#457);
#396=AXIS2_PLACEMENT_3D('',#567,#459,#460);
#397=AXIS2_PLACEMENT_3D('',#568,#461,#462);
#398=AXIS2_PLACEMENT_3D('',#572,#464,#465);
#399=AXIS2_PLACEMENT_3D('',#574,#467,#468);
#400=AXIS2_PLACEMENT_3D('',#579,#471,#472);
#401=AXIS2_PLACEMENT_3D('',#580,#473,#474);
#402=AXIS2_PLACEMENT_3D('',#583,#477,#478);
#403=AXIS2_PLACEMENT_3D('',#593,#484,#485);
#404=AXIS2_PLACEMENT_3D('',#594,#486,#487);
#405=AXIS2_PLACEMENT_3D('',#598,#490,#491);
#406=AXIS2_PLACEMENT_3D('',#604,#495,#496);
#407=AXIS2_PLACEMENT_3D('',#608,#499,#500);
#408=AXIS2_PLACEMENT_3D('',#614,#504,#505);
#409=AXIS2_PLACEMENT_3D('',#616,#507,#508);
#410=AXIS2_PLACEMENT_3D('',#618,#510,#511);
#411=AXIS2_PLACEMENT_3D('',#620,#513,#514);
#412=AXIS2_PLACEMENT_3D('',#622,#516,#517);
#413=DIRECTION('axis',(0.,0.,1.));
#414=DIRECTION('refdir',(1.,0.,0.));
#415=DIRECTION('center_axis',(1.,0.,0.));
#416=DIRECTION('ref_axis',(0.,-0.707106781186547,0.707106781186548));
#417=DIRECTION('',(-1.,0.,0.));
#418=DIRECTION('center_axis',(0.707106781186548,-0.707106781186548,8.24195516369435E-17));
#419=DIRECTION('ref_axis',(-0.707106781186548,-0.707106781186548,8.24195516369435E-17));
#420=DIRECTION('',(1.,0.,0.));
#421=DIRECTION('center_axis',(0.707106781186547,0.707106781186548,0.));
#422=DIRECTION('ref_axis',(0.707106781186548,-0.707106781186547,0.));
#423=DIRECTION('center_axis',(0.,-1.,0.));
#424=DIRECTION('ref_axis',(-0.707106781186547,0.,0.707106781186548));
#425=DIRECTION('',(0.,1.,0.));
#426=DIRECTION('center_axis',(-0.707106781186548,-0.707106781186547,8.24195516369435E-17));
#427=DIRECTION('ref_axis',(-0.707106781186548,0.707106781186548,8.24195516369435E-17));
#428=DIRECTION('',(0.,-1.,0.));
#429=DIRECTION('center_axis',(-1.,0.,0.));
#430=DIRECTION('ref_axis',(0.,0.707106781186547,0.707106781186548));
#431=DIRECTION('',(1.,0.,0.));
#432=DIRECTION('center_axis',(-0.707106781186548,0.707106781186548,0.));
#433=DIRECTION('ref_axis',(0.707106781186547,0.707106781186547,0.));
#434=DIRECTION('',(-1.,0.,0.));
#435=DIRECTION('center_axis',(0.,1.,0.));
#436=DIRECTION('ref_axis',(0.707106781186547,0.,0.707106781186548));
#437=DIRECTION('',(0.,1.,0.));
#438=DIRECTION('',(0.,-1.,0.));
#439=DIRECTION('center_axis',(1.,0.,0.));
#440=DIRECTION('ref_axis',(0.,1.,0.));
#441=DIRECTION('',(0.,0.,1.));
#442=DIRECTION('',(0.,1.,0.));
#443=DIRECTION('',(0.,0.,1.));
#444=DIRECTION('center_axis',(0.,-1.,0.));
#445=DIRECTION('ref_axis',(1.,0.,0.));
#446=DIRECTION('',(0.,0.,1.));
#447=DIRECTION('',(-1.,0.,0.));
#448=DIRECTION('',(0.,0.,1.));
#449=DIRECTION('',(-1.,0.,4.662353909187E-16));
#450=DIRECTION('',(0.,0.,1.));
#451=DIRECTION('',(1.,0.,-4.662353909187E-16));
#452=DIRECTION('center_axis',(0.,0.,1.));
#453=DIRECTION('ref_axis',(1.,0.,0.));
#454=DIRECTION('center_axis',(1.,0.,0.));
#455=DIRECTION('ref_axis',(0.,-0.707106781186548,-0.707106781186547));
#456=DIRECTION('center_axis',(0.707106781186548,-0.707106781186548,0.));
#457=DIRECTION('ref_axis',(-0.707106781186548,-0.707106781186548,0.));
#458=DIRECTION('',(1.,0.,0.));
#459=DIRECTION('center_axis',(-0.707106781186548,-0.707106781186548,0.));
#460=DIRECTION('ref_axis',(-0.707106781186548,0.707106781186548,0.));
#461=DIRECTION('center_axis',(0.,1.,0.));
#462=DIRECTION('ref_axis',(0.707106781186547,0.,-0.707106781186548));
#463=DIRECTION('',(0.,1.,0.));
#464=DIRECTION('center_axis',(0.707106781186548,-0.707106781186548,0.));
#465=DIRECTION('ref_axis',(-0.707106781186547,-0.707106781186547,0.));
#466=DIRECTION('',(0.,-1.,0.));
#467=DIRECTION('center_axis',(-1.,0.,0.));
#468=DIRECTION('ref_axis',(0.,0.707106781186547,-0.707106781186548));
#469=DIRECTION('',(1.,0.,0.));
#470=DIRECTION('',(-1.,0.,0.));
#471=DIRECTION('center_axis',(0.707106781186548,0.707106781186548,0.));
#472=DIRECTION('ref_axis',(0.707106781186547,-0.707106781186547,0.));
#473=DIRECTION('center_axis',(0.,-1.,0.));
#474=DIRECTION('ref_axis',(-0.707106781186548,0.,-0.707106781186547));
#475=DIRECTION('',(0.,1.,0.));
#476=DIRECTION('',(0.,-1.,0.));
#477=DIRECTION('center_axis',(-1.,0.,0.));
#478=DIRECTION('ref_axis',(0.,-1.,0.));
#479=DIRECTION('',(0.,0.,1.));
#480=DIRECTION('',(0.,-1.,0.));
#481=DIRECTION('',(0.,1.15025178680601E-16,-1.));
#482=DIRECTION('',(0.,1.,0.));
#483=DIRECTION('',(0.,0.,1.));
#484=DIRECTION('center_axis',(0.,0.,1.));
#485=DIRECTION('ref_axis',(1.,0.,0.));
#486=DIRECTION('center_axis',(4.662353909187E-16,0.,1.));
#487=DIRECTION('ref_axis',(-1.,0.,5.6399329650958E-16));
#488=DIRECTION('',(0.,-1.,0.));
#489=DIRECTION('',(-1.,0.,4.662353909187E-16));
#490=DIRECTION('center_axis',(-1.,0.,0.));
#491=DIRECTION('ref_axis',(0.,0.,-1.));
#492=DIRECTION('',(0.,-1.,0.));
#493=DIRECTION('',(0.,-1.,0.));
#494=DIRECTION('',(0.,0.,-1.));
#495=DIRECTION('center_axis',(-4.662353909187E-16,0.,-1.));
#496=DIRECTION('ref_axis',(1.,0.,-5.6399329650958E-16));
#497=DIRECTION('',(0.,-1.,0.));
#498=DIRECTION('',(-1.,0.,0.));
#499=DIRECTION('center_axis',(1.,0.,0.));
#500=DIRECTION('ref_axis',(0.,1.,0.));
#501=DIRECTION('',(0.,0.,1.));
#502=DIRECTION('',(0.,-1.,0.));
#503=DIRECTION('',(0.,-1.15025178680601E-16,1.));
#504=DIRECTION('center_axis',(0.,1.,0.));
#505=DIRECTION('ref_axis',(-1.,0.,0.));
#506=DIRECTION('',(-1.,0.,0.));
#507=DIRECTION('center_axis',(0.,0.,1.));
#508=DIRECTION('ref_axis',(0.,1.,0.));
#509=DIRECTION('',(-1.,0.,0.));
#510=DIRECTION('center_axis',(0.,-1.,-1.15025178680601E-16));
#511=DIRECTION('ref_axis',(0.,-1.40998324127395E-16,1.));
#512=DIRECTION('',(-1.,0.,0.));
#513=DIRECTION('center_axis',(0.,0.,-1.));
#514=DIRECTION('ref_axis',(0.,-1.,0.));
#515=DIRECTION('',(1.,0.,0.));
#516=DIRECTION('center_axis',(0.,1.,0.));
#517=DIRECTION('ref_axis',(-1.,0.,0.));
#518=CARTESIAN_POINT('',(0.,0.,0.));
#519=CARTESIAN_POINT('Origin',(0.1875,0.1875,2.0625));
#520=CARTESIAN_POINT('',(0.5625,0.1875,2.25));
#521=CARTESIAN_POINT('',(0.1875,0.1875,2.25));
#522=CARTESIAN_POINT('',(0.1875,0.1875,2.25));
#523=CARTESIAN_POINT('',(0.,0.,2.0625));
#524=CARTESIAN_POINT('Origin',(0.1875,0.1875,2.0625));
#525=CARTESIAN_POINT('',(0.75,0.,2.0625));
#526=CARTESIAN_POINT('',(0.1875,0.,2.0625));
#527=CARTESIAN_POINT('Origin',(0.5625,0.1875,2.0625));
#528=CARTESIAN_POINT('Origin',(0.1875,0.5625,2.0625));
#529=CARTESIAN_POINT('',(0.1875,0.5625,2.25));
#530=CARTESIAN_POINT('',(0.1875,0.5625,2.25));
#531=CARTESIAN_POINT('',(0.,0.75,2.0625));
#532=CARTESIAN_POINT('Origin',(0.1875,0.5625,2.0625));
#533=CARTESIAN_POINT('',(0.,0.5625,2.0625));
#534=CARTESIAN_POINT('Origin',(0.5625,0.5625,2.0625));
#535=CARTESIAN_POINT('',(0.5625,0.5625,2.25));
#536=CARTESIAN_POINT('',(0.5625,0.5625,2.25));
#537=CARTESIAN_POINT('',(0.75,0.75,2.0625));
#538=CARTESIAN_POINT('Origin',(0.5625,0.5625,2.0625));
#539=CARTESIAN_POINT('',(0.5625,0.75,2.0625));
#540=CARTESIAN_POINT('Origin',(0.5625,0.1875,2.0625));
#541=CARTESIAN_POINT('',(0.75,0.1875,2.0625));
#542=CARTESIAN_POINT('',(0.5625,0.1875,2.25));
#543=CARTESIAN_POINT('Origin',(0.75,0.,0.));
#544=CARTESIAN_POINT('',(0.75,0.,1.5));
#545=CARTESIAN_POINT('',(0.75,0.,0.));
#546=CARTESIAN_POINT('',(0.75,0.75,1.5));
#547=CARTESIAN_POINT('',(0.75,0.375,1.5));
#548=CARTESIAN_POINT('',(0.75,0.75,0.));
#549=CARTESIAN_POINT('Origin',(0.,0.,0.));
#550=CARTESIAN_POINT('',(0.,0.,0.1875));
#551=CARTESIAN_POINT('',(0.,0.,0.));
#552=CARTESIAN_POINT('',(0.75,0.,0.1875));
#553=CARTESIAN_POINT('',(0.1875,0.,0.1875));
#554=CARTESIAN_POINT('',(0.75,0.,1.125));
#555=CARTESIAN_POINT('',(0.75,0.,0.));
#556=CARTESIAN_POINT('',(0.375,0.,1.125));
#557=CARTESIAN_POINT('',(0.1875,0.,1.125));
#558=CARTESIAN_POINT('',(0.375,0.,1.5));
#559=CARTESIAN_POINT('',(0.375,0.,0.75));
#560=CARTESIAN_POINT('',(0.375,0.,1.5));
#561=CARTESIAN_POINT('Origin',(0.375,0.375,2.25));
#562=CARTESIAN_POINT('Origin',(0.1875,0.1875,0.1875));
#563=CARTESIAN_POINT('',(0.1875,0.1875,0.));
#564=CARTESIAN_POINT('Origin',(0.1875,0.1875,0.1875));
#565=CARTESIAN_POINT('',(0.5625,0.1875,0.));
#566=CARTESIAN_POINT('',(0.1875,0.1875,0.));
#567=CARTESIAN_POINT('Origin',(0.5625,0.1875,0.1875));
#568=CARTESIAN_POINT('Origin',(0.5625,0.1875,0.1875));
#569=CARTESIAN_POINT('',(0.5625,0.5625,0.));
#570=CARTESIAN_POINT('',(0.5625,0.1875,0.));
#571=CARTESIAN_POINT('',(0.75,0.75,0.1875));
#572=CARTESIAN_POINT('Origin',(0.5625,0.5625,0.1875));
#573=CARTESIAN_POINT('',(0.75,0.1875,0.1875));
#574=CARTESIAN_POINT('Origin',(0.5625,0.5625,0.1875));
#575=CARTESIAN_POINT('',(0.,0.75,0.1875));
#576=CARTESIAN_POINT('',(0.5625,0.75,0.1875));
#577=CARTESIAN_POINT('',(0.1875,0.5625,0.));
#578=CARTESIAN_POINT('',(0.5625,0.5625,0.));
#579=CARTESIAN_POINT('Origin',(0.1875,0.5625,0.1875));
#580=CARTESIAN_POINT('Origin',(0.1875,0.5625,0.1875));
#581=CARTESIAN_POINT('',(0.,0.5625,0.1875));
#582=CARTESIAN_POINT('',(0.1875,0.5625,0.));
#583=CARTESIAN_POINT('Origin',(0.,0.75,0.));
#584=CARTESIAN_POINT('',(0.,0.75,1.125));
#585=CARTESIAN_POINT('',(0.,0.75,0.));
#586=CARTESIAN_POINT('',(0.,0.375,1.125));
#587=CARTESIAN_POINT('',(0.,0.5625,1.125));
#588=CARTESIAN_POINT('',(0.,0.375,0.745));
#589=CARTESIAN_POINT('',(0.,0.375,0.3725));
#590=CARTESIAN_POINT('',(0.,0.75,0.745));
#591=CARTESIAN_POINT('',(0.,0.75,0.745));
#592=CARTESIAN_POINT('',(0.,0.75,0.));
#593=CARTESIAN_POINT('Origin',(0.375,0.375,0.));
#594=CARTESIAN_POINT('Origin',(0.75,0.75,1.5));
#595=CARTESIAN_POINT('',(0.375,0.75,1.5));
#596=CARTESIAN_POINT('',(0.375,0.75,1.5));
#597=CARTESIAN_POINT('',(0.75,0.75,1.5));
#598=CARTESIAN_POINT('Origin',(0.375,0.75,1.5));
#599=CARTESIAN_POINT('',(0.375,0.375,1.125));
#600=CARTESIAN_POINT('',(0.375,0.75,1.125));
#601=CARTESIAN_POINT('',(0.375,0.75,1.125));
#602=CARTESIAN_POINT('',(0.375,0.5625,1.125));
#603=CARTESIAN_POINT('',(0.375,0.75,0.75));
#604=CARTESIAN_POINT('Origin',(0.375,0.75,1.125));
#605=CARTESIAN_POINT('',(0.75,0.375,1.125));
#606=CARTESIAN_POINT('',(0.75,0.375,1.125));
#607=CARTESIAN_POINT('',(0.75,0.375,1.125));
#608=CARTESIAN_POINT('Origin',(0.75,0.,0.));
#609=CARTESIAN_POINT('',(0.75,0.75,0.745));
#610=CARTESIAN_POINT('',(0.75,0.75,0.));
#611=CARTESIAN_POINT('',(0.75,0.375,0.745));
#612=CARTESIAN_POINT('',(0.75,0.375,0.745));
#613=CARTESIAN_POINT('',(0.75,0.375,0.3725));
#614=CARTESIAN_POINT('Origin',(0.75,0.75,0.));
#615=CARTESIAN_POINT('',(0.75,0.75,1.125));
#616=CARTESIAN_POINT('Origin',(0.75,0.375,1.125));
#617=CARTESIAN_POINT('',(0.75,0.375,1.125));
#618=CARTESIAN_POINT('Origin',(0.75,0.375,0.745));
#619=CARTESIAN_POINT('',(0.75,0.375,0.745));
#620=CARTESIAN_POINT('Origin',(0.75,0.75,0.745));
#621=CARTESIAN_POINT('',(0.75,0.75,0.745));
#622=CARTESIAN_POINT('Origin',(0.75,0.75,0.));
#623=UNCERTAINTY_MEASURE_WITH_UNIT(LENGTH_MEASURE(0.000393700787401575),
#627,'DISTANCE_ACCURACY_VALUE',
'Maximum model space distance between geometric entities at asserted c
onnectivities');
#624=UNCERTAINTY_MEASURE_WITH_UNIT(LENGTH_MEASURE(1.E-6),#628,
'DISTANCE_ACCURACY_VALUE',
'Maximum model space distance between geometric entities at asserted c
onnectivities');
#625=(
GEOMETRIC_REPRESENTATION_CONTEXT(3)
GLOBAL_UNCERTAINTY_ASSIGNED_CONTEXT((#623))
GLOBAL_UNIT_ASSIGNED_CONTEXT((#627,#633,#630))
REPRESENTATION_CONTEXT('','3D')
);
#626=(
GEOMETRIC_REPRESENTATION_CONTEXT(3)
GLOBAL_UNCERTAINTY_ASSIGNED_CONTEXT((#624))
GLOBAL_UNIT_ASSIGNED_CONTEXT((#628,#633,#630))
REPRESENTATION_CONTEXT('','3D')
);
#627=(
CONVERSION_BASED_UNIT('__CONSTANT UNIT inch',#629)
LENGTH_UNIT()
NAMED_UNIT(#632)
);
#628=(
LENGTH_UNIT()
NAMED_UNIT(*)
SI_UNIT(.MILLI.,.METRE.)
);
#629=LENGTH_MEASURE_WITH_UNIT(LENGTH_MEASURE(25.4),#628);
#630=(
NAMED_UNIT(*)
SI_UNIT($,.STERADIAN.)
SOLID_ANGLE_UNIT()
);
#631=DIMENSIONAL_EXPONENTS(0.,0.,0.,0.,0.,0.,0.);
#632=DIMENSIONAL_EXPONENTS(1.,0.,0.,0.,0.,0.,0.);
#633=(
CONVERSION_BASED_UNIT('degree',#635)
NAMED_UNIT(#631)
PLANE_ANGLE_UNIT()
);
#634=(
NAMED_UNIT(*)
PLANE_ANGLE_UNIT()
SI_UNIT($,.RADIAN.)
);
#635=PLANE_ANGLE_MEASURE_WITH_UNIT(PLANE_ANGLE_MEASURE(0.01745329252),#634);
#636=SHAPE_DEFINITION_REPRESENTATION(#637,#638);
#637=PRODUCT_DEFINITION_SHAPE('',$,#640);
#638=SHAPE_REPRESENTATION('',(#382),#625);
#639=PRODUCT_DEFINITION_CONTEXT('part definition',#644,'design');
#640=PRODUCT_DEFINITION('Part3','Part3',#641,#639);
#641=PRODUCT_DEFINITION_FORMATION('',$,#646);
#642=PRODUCT_RELATED_PRODUCT_CATEGORY('Part3','Part3',(#646));
#643=APPLICATION_PROTOCOL_DEFINITION('international standard',
'automotive_design',2009,#644);
#644=APPLICATION_CONTEXT(
'Core Data for Automotive Mechanical Design Process');
#645=PRODUCT_CONTEXT('part definition',#644,'mechanical');
#646=PRODUCT('Part3','Part3',$,(#645));
#647=PRESENTATION_STYLE_ASSIGNMENT((#648));
#648=SURFACE_STYLE_USAGE(.BOTH.,#649);
#649=SURFACE_SIDE_STYLE('',(#650));
#650=SURFACE_STYLE_FILL_AREA(#651);
#651=FILL_AREA_STYLE('',(#652));
#652=FILL_AREA_STYLE_COLOUR('',#653);
#653=COLOUR_RGB('',0.,0.737254901960784,0.729411764705882);
ENDSEC;
END-ISO-10303-21;
