  0
SECTION
  2
HEADER
  9
$ACADVER
  1
AC1018
  9
$ACADMAINTVER
 70
     0
  9
$DWGCODEPAGE
  3
ANSI_1252
  9
$INSBASE
 10
0.0
 20
0.0
 30
0.0
  9
$EXTMIN
 10
1.000000000000000E+20
 20
1.000000000000000E+20
 30
1.000000000000000E+20
  9
$EXTMAX
 10
-1.000000000000000E+20
 20
-1.000000000000000E+20
 30
-1.000000000000000E+20
  9
$LIMMIN
 10
0.0
 20
0.0
  9
$LIMMAX
 10
12.0
 20
9.0
  9
$ORTHOMODE
 70
     0
  9
$REGENMODE
 70
     1
  9
$FILLMODE
 70
     1
  9
$QTEXTMODE
 70
     0
  9
$MIRRTEXT
 70
     1
  9
$LTSCALE
 40
1.0
  9
$ATTMODE
 70
     1
  9
$TEXTSIZE
 40
0.2
  9
$TRACEWID
 40
0.05
  9
$TEXTSTYLE
  7
Standard
  9
$CLAYER
  8
0
  9
$CELTYPE
  6
ByLayer
  9
$CECOLOR
 62
   256
  9
$CELTSCALE
 40
1.0
  9
$DISPSILH
 70
     0
  9
$DIMSCALE
 40
1.0
  9
$DIMASZ
 40
0.18
  9
$DIMEXO
 40
0.0625
  9
$DIMDLI
 40
0.38
  9
$DIMRND
 40
0.0
  9
$DIMDLE
 40
0.0
  9
$DIMEXE
 40
0.18
  9
$DIMTP
 40
0.0
  9
$DIMTM
 40
0.0
  9
$DIMTXT
 40
0.18
  9
$DIMCEN
 40
0.09
  9
$DIMTSZ
 40
0.0
  9
$DIMTOL
 70
     0
  9
$DIMLIM
 70
     0
  9
$DIMTIH
 70
     1
  9
$DIMTOH
 70
     1
  9
$DIMSE1
 70
     0
  9
$DIMSE2
 70
     0
  9
$DIMTAD
 70
     0
  9
$DIMZIN
 70
     0
  9
$DIMBLK
  1

  9
$DIMASO
 70
     1
  9
$DIMSHO
 70
     1
  9
$DIMPOST
  1

  9
$DIMAPOST
  1

  9
$DIMALT
 70
     0
  9
$DIMALTD
 70
     2
  9
$DIMALTF
 40
25.4
  9
$DIMLFAC
 40
1.0
  9
$DIMTOFL
 70
     0
  9
$DIMTVP
 40
0.0
  9
$DIMTIX
 70
     0
  9
$DIMSOXD
 70
     0
  9
$DIMSAH
 70
     0
  9
$DIMBLK1
  1

  9
$DIMBLK2
  1

  9
$DIMSTYLE
  2
Standard
  9
$DIMCLRD
 70
     0
  9
$DIMCLRE
 70
     0
  9
$DIMCLRT
 70
     0
  9
$DIMTFAC
 40
1.0
  9
$DIMGAP
 40
0.09
  9
$DIMJUST
 70
     0
  9
$DIMSD1
 70
     0
  9
$DIMSD2
 70
     0
  9
$DIMTOLJ
 70
     1
  9
$DIMTZIN
 70
     0
  9
$DIMALTZ
 70
     0
  9
$DIMALTTZ
 70
     0
  9
$DIMUPT
 70
     0
  9
$DIMDEC
 70
     4
  9
$DIMTDEC
 70
     4
  9
$DIMALTU
 70
     2
  9
$DIMALTTD
 70
     2
  9
$DIMTXSTY
  7
Standard
  9
$DIMAUNIT
 70
     0
  9
$DIMADEC
 70
     0
  9
$DIMALTRND
 40
0.0
  9
$DIMAZIN
 70
     0
  9
$DIMDSEP
 70
    46
  9
$DIMATFIT
 70
     3
  9
$DIMFRAC
 70
     0
  9
$DIMLDRBLK
  1

  9
$DIMLUNIT
 70
     2
  9
$DIMLWD
 70
    -2
  9
$DIMLWE
 70
    -2
  9
$DIMTMOVE
 70
     0
  9
$LUNITS
 70
     2
  9
$LUPREC
 70
     4
  9
$SKETCHINC
 40
0.1
  9
$FILLETRAD
 40
0.5
  9
$AUNITS
 70
     0
  9
$AUPREC
 70
     0
  9
$MENU
  1
.
  9
$ELEVATION
 40
0.0
  9
$PELEVATION
 40
0.0
  9
$THICKNESS
 40
0.0
  9
$LIMCHECK
 70
     0
  9
$CHAMFERA
 40
0.5
  9
$CHAMFERB
 40
0.5
  9
$CHAMFERC
 40
1.0
  9
$CHAMFERD
 40
0.0
  9
$SKPOLY
 70
     0
  9
$TDCREATE
 40
2458854.97212412
  9
$TDUCREATE
 40
2458855.22212412
  9
$TDUPDATE
 40
2458854.97212412
  9
$TDUUPDATE
 40
2458855.22212412
  9
$TDINDWG
 40
0.0000000116
  9
$TDUSRTIMER
 40
0.0000000116
  9
$USRTIMER
 70
     1
  9
$ANGBASE
 50
0.0
  9
$ANGDIR
 70
     0
  9
$PDMODE
 70
     0
  9
$PDSIZE
 40
0.0
  9
$PLINEWID
 40
0.0
  9
$SPLFRAME
 70
     0
  9
$SPLINETYPE
 70
     6
  9
$SPLINESEGS
 70
     8
  9
$HANDSEED
  5
23A
  9
$SURFTAB1
 70
     6
  9
$SURFTAB2
 70
     6
  9
$SURFTYPE
 70
     6
  9
$SURFU
 70
     6
  9
$SURFV
 70
     6
  9
$UCSBASE
  2

  9
$UCSNAME
  2

  9
$UCSORG
 10
0.0
 20
0.0
 30
0.0
  9
$UCSXDIR
 10
1.0
 20
0.0
 30
0.0
  9
$UCSYDIR
 10
0.0
 20
1.0
 30
0.0
  9
$UCSORTHOREF
  2

  9
$UCSORTHOVIEW
 70
     0
  9
$UCSORGTOP
 10
0.0
 20
0.0
 30
0.0
  9
$UCSORGBOTTOM
 10
0.0
 20
0.0
 30
0.0
  9
$UCSORGLEFT
 10
0.0
 20
0.0
 30
0.0
  9
$UCSORGRIGHT
 10
0.0
 20
0.0
 30
0.0
  9
$UCSORGFRONT
 10
0.0
 20
0.0
 30
0.0
  9
$UCSORGBACK
 10
0.0
 20
0.0
 30
0.0
  9
$PUCSBASE
  2

  9
$PUCSNAME
  2

  9
$PUCSORG
 10
0.0
 20
0.0
 30
0.0
  9
$PUCSXDIR
 10
1.0
 20
0.0
 30
0.0
  9
$PUCSYDIR
 10
0.0
 20
1.0
 30
0.0
  9
$PUCSORTHOREF
  2

  9
$PUCSORTHOVIEW
 70
     0
  9
$PUCSORGTOP
 10
0.0
 20
0.0
 30
0.0
  9
$PUCSORGBOTTOM
 10
0.0
 20
0.0
 30
0.0
  9
$PUCSORGLEFT
 10
0.0
 20
0.0
 30
0.0
  9
$PUCSORGRIGHT
 10
0.0
 20
0.0
 30
0.0
  9
$PUCSORGFRONT
 10
0.0
 20
0.0
 30
0.0
  9
$PUCSORGBACK
 10
0.0
 20
0.0
 30
0.0
  9
$USERI1
 70
     0
  9
$USERI2
 70
     0
  9
$USERI3
 70
     0
  9
$USERI4
 70
     0
  9
$USERI5
 70
     0
  9
$USERR1
 40
0.0
  9
$USERR2
 40
0.0
  9
$USERR3
 40
0.0
  9
$USERR4
 40
0.0
  9
$USERR5
 40
0.0
  9
$WORLDVIEW
 70
     1
  9
$SHADEDGE
 70
     3
  9
$SHADEDIF
 70
    70
  9
$TILEMODE
 70
     1
  9
$MAXACTVP
 70
    64
  9
$PINSBASE
 10
0.0
 20
0.0
 30
0.0
  9
$PLIMCHECK
 70
     0
  9
$PEXTMIN
 10
1.000000000000000E+20
 20
1.000000000000000E+20
 30
1.000000000000000E+20
  9
$PEXTMAX
 10
-1.000000000000000E+20
 20
-1.000000000000000E+20
 30
-1.000000000000000E+20
  9
$PLIMMIN
 10
0.0
 20
0.0
  9
$PLIMMAX
 10
12.0
 20
9.0
  9
$UNITMODE
 70
     0
  9
$VISRETAIN
 70
     1
  9
$PLINEGEN
 70
     0
  9
$PSLTSCALE
 70
     1
  9
$TREEDEPTH
 70
  3020
  9
$CMLSTYLE
  2
Standard
  9
$CMLJUST
 70
     0
  9
$CMLSCALE
 40
1.0
  9
$PROXYGRAPHICS
 70
     1
  9
$MEASUREMENT
 70
     0
  9
$CELWEIGHT
370
    -1
  9
$ENDCAPS
280
     0
  9
$JOINSTYLE
280
     0
  9
$LWDISPLAY
290
     1
  9
$INSUNITS
 70
     1
  9
$HYPERLINKBASE
  1

  9
$STYLESHEET
  1

  9
$XEDIT
290
     1
  9
$CEPSNTYPE
380
     0
  9
$PSTYLEMODE
290
     1
  9
$FINGERPRINTGUID
  2
{6DE99AEA-CC54-4E59-B0A4-1F28CFFFB62D}
  9
$VERSIONGUID
  2
{FAEB1C32-E019-11D5-929B-00C0DF256EC4}
  9
$EXTNAMES
290
     1
  9
$PSVPSCALE
 40
0.0
  9
$OLESTARTUP
290
     0
  9
$SORTENTS
280
   127
  9
$INDEXCTL
280
     0
  9
$HIDETEXT
280
     1
  9
$XCLIPFRAME
290
     0
  9
$HALOGAP
280
     0
  9
$OBSCOLOR
 70
   257
  9
$OBSLTYPE
280
     0
  9
$INTERSECTIONDISPLAY
280
     0
  9
$INTERSECTIONCOLOR
 70
   257
  9
$DIMASSOC
280
     2
  9
$PROJECTNAME
  1

  0
ENDSEC
  0
SECTION
  2
CLASSES
  0
CLASS
  1
ACDBDICTIONARYWDFLT
  2
AcDbDictionaryWithDefault
  3
ObjectDBX Classes
 90
        0
 91
        4
280
     0
281
     0
  0
CLASS
  1
VISUALSTYLE
  2
AcDbVisualStyle
  3
ObjectDBX Classes
 90
     4095
 91
        4
280
     0
281
     0
  0
CLASS
  1
MATERIAL
  2
AcDbMaterial
  3
ObjectDBX Classes
 90
     1153
 91
        4
280
     0
281
     0
  0
CLASS
  1
SUN
  2
AcDbSun
  3
SCENEOE
 90
     1024
 91
        4
280
     0
281
     0
  0
ENDSEC
  0
SECTION
  2
TABLES
  0
TABLE
  2
VPORT
  5
8
330
0
100
AcDbSymbolTable
 70
     1
  0
VPORT
  5
29
330
8
100
AcDbSymbolTableRecord
100
AcDbViewportTableRecord
  2
*Active
 70
     0
 10
0.0
 20
0.0
 11
1.0
 21
1.0
 12
0.0
 22
0.0
 13
0.0
 23
0.0
 14
0.5
 24
0.5
 15
0.5
 25
0.5
 16
0.0
 26
0.0
 36
1.0
 17
299.9999999249995
 27
-199.9999999499937
 37
0.0
 40
399.9999998999874
 41
1.500000000000045
 42
50.0
 43
0.0
 44
0.0
 50
0.0
 51
0.0
 71
     0
 72
   100
 73
     1
 74
     3
 75
     0
 76
     0
 77
     0
 78
     0
281
     0
 65
     1
110
0.0
120
0.0
130
0.0
111
1.0
121
0.0
131
0.0
112
0.0
122
1.0
132
0.0
 79
     0
146
0.0
  0
ENDTAB
  0
TABLE
  2
LTYPE
  5
5
330
0
100
AcDbSymbolTable
 70
     1
  0
LTYPE
  5
14
330
5
100
AcDbSymbolTableRecord
100
AcDbLinetypeTableRecord
  2
ByBlock
 70
     0
  3

 72
    65
 73
     0
 40
0.0
  0
LTYPE
  5
15
330
5
100
AcDbSymbolTableRecord
100
AcDbLinetypeTableRecord
  2
ByLayer
 70
     0
  3

 72
    65
 73
     0
 40
0.0
  0
LTYPE
  5
16
330
5
100
AcDbSymbolTableRecord
100
AcDbLinetypeTableRecord
  2
Continuous
 70
     0
  3
Solid line
 72
    65
 73
     0
 40
0.0
  0
ENDTAB
  0
TABLE
  2
LAYER
  5
2
330
0
100
AcDbSymbolTable
 70
     2
  0
LAYER
  5
10
330
2
100
AcDbSymbolTableRecord
100
AcDbLayerTableRecord
  2
0
 70
     0
 62
     7
  6
Continuous
370
    -3
390
F
  0
LAYER
  5
40
330
2
100
AcDbSymbolTableRecord
100
AcDbLayerTableRecord
  2
Capa 1
 70
     0
 62
     7
  6
Continuous
370
    -3
390
F
  0
ENDTAB
  0
TABLE
  2
STYLE
  5
3
330
0
100
AcDbSymbolTable
 70
     1
  0
STYLE
  5
11
330
3
100
AcDbSymbolTableRecord
100
AcDbTextStyleTableRecord
  2
Standard
 70
     0
 40
0.0
 41
1.0
 50
0.0
 71
     0
 42
0.2
  3
txt
  4

  0
ENDTAB
  0
TABLE
  2
VIEW
  5
6
330
0
100
AcDbSymbolTable
 70
     0
  0
ENDTAB
  0
TABLE
  2
UCS
  5
7
330
0
100
AcDbSymbolTable
 70
     0
  0
ENDTAB
  0
TABLE
  2
APPID
  5
9
330
0
100
AcDbSymbolTable
 70
     1
  0
APPID
  5
12
330
9
100
AcDbSymbolTableRecord
100
AcDbRegAppTableRecord
  2
ACAD
 70
     0
  0
ENDTAB
  0
TABLE
  2
DIMSTYLE
  5
A
330
0
100
AcDbSymbolTable
 70
     1
100
AcDbDimStyleTable
  0
DIMSTYLE
105
27
330
A
100
AcDbSymbolTableRecord
100
AcDbDimStyleTableRecord
  2
Standard
 70
     0
178
     0
340
11
  0
ENDTAB
  0
TABLE
  2
BLOCK_RECORD
  5
1
330
0
100
AcDbSymbolTable
 70
    31
  0
BLOCK_RECORD
  5
1F
330
1
100
AcDbSymbolTableRecord
100
AcDbBlockTableRecord
  2
*Model_Space
340
22
  0
BLOCK_RECORD
  5
1B
330
1
100
AcDbSymbolTableRecord
100
AcDbBlockTableRecord
  2
*Paper_Space
340
1E
  0
BLOCK_RECORD
  5
23
330
1
100
AcDbSymbolTableRecord
100
AcDbBlockTableRecord
  2
*Paper_Space0
340
26
  0
BLOCK_RECORD
  5
41
330
1
100
AcDbSymbolTableRecord
100
AcDbBlockTableRecord
  2
block 2
340
0
102
{BLKREFS
331
42
102
}
  0
BLOCK_RECORD
  5
46
330
1
100
AcDbSymbolTableRecord
100
AcDbBlockTableRecord
  2
block 3
340
0
102
{BLKREFS
331
47
102
}
  0
BLOCK_RECORD
  5
4B
330
1
100
AcDbSymbolTableRecord
100
AcDbBlockTableRecord
  2
block 4
340
0
102
{BLKREFS
331
4C
102
}
  0
BLOCK_RECORD
  5
50
330
1
100
AcDbSymbolTableRecord
100
AcDbBlockTableRecord
  2
block 5
340
0
102
{BLKREFS
331
51
102
}
  0
BLOCK_RECORD
  5
55
330
1
100
AcDbSymbolTableRecord
100
AcDbBlockTableRecord
  2
block 6
340
0
102
{BLKREFS
331
56
102
}
  0
BLOCK_RECORD
  5
5A
330
1
100
AcDbSymbolTableRecord
100
AcDbBlockTableRecord
  2
block 7
340
0
102
{BLKREFS
331
5B
102
}
  0
BLOCK_RECORD
  5
80
330
1
100
AcDbSymbolTableRecord
100
AcDbBlockTableRecord
  2
block 8
340
0
102
{BLKREFS
331
81
102
}
  0
BLOCK_RECORD
  5
85
330
1
100
AcDbSymbolTableRecord
100
AcDbBlockTableRecord
  2
block 9
340
0
102
{BLKREFS
331
86
102
}
  0
BLOCK_RECORD
  5
8A
330
1
100
AcDbSymbolTableRecord
100
AcDbBlockTableRecord
  2
block 10
340
0
102
{BLKREFS
331
8B
102
}
  0
BLOCK_RECORD
  5
8F
330
1
100
AcDbSymbolTableRecord
100
AcDbBlockTableRecord
  2
block 11
340
0
102
{BLKREFS
331
90
102
}
  0
BLOCK_RECORD
  5
94
330
1
100
AcDbSymbolTableRecord
100
AcDbBlockTableRecord
  2
block 12
340
0
102
{BLKREFS
331
95
102
}
  0
BLOCK_RECORD
  5
99
330
1
100
AcDbSymbolTableRecord
100
AcDbBlockTableRecord
  2
block 13
340
0
102
{BLKREFS
331
9A
102
}
  0
BLOCK_RECORD
  5
A4
330
1
100
AcDbSymbolTableRecord
100
AcDbBlockTableRecord
  2
block 14
340
0
102
{BLKREFS
331
A5
102
}
  0
BLOCK_RECORD
  5
AF
330
1
100
AcDbSymbolTableRecord
100
AcDbBlockTableRecord
  2
block 15
340
0
102
{BLKREFS
331
B0
102
}
  0
BLOCK_RECORD
  5
B4
330
1
100
AcDbSymbolTableRecord
100
AcDbBlockTableRecord
  2
block 16
340
0
102
{BLKREFS
331
B5
102
}
  0
BLOCK_RECORD
  5
B9
330
1
100
AcDbSymbolTableRecord
100
AcDbBlockTableRecord
  2
block 17
340
0
102
{BLKREFS
331
BA
102
}
  0
BLOCK_RECORD
  5
BE
330
1
100
AcDbSymbolTableRecord
100
AcDbBlockTableRecord
  2
block 18
340
0
102
{BLKREFS
331
BF
102
}
  0
BLOCK_RECORD
  5
C9
330
1
100
AcDbSymbolTableRecord
100
AcDbBlockTableRecord
  2
block 19
340
0
102
{BLKREFS
331
CA
102
}
  0
BLOCK_RECORD
  5
D4
330
1
100
AcDbSymbolTableRecord
100
AcDbBlockTableRecord
  2
block 20
340
0
102
{BLKREFS
331
D5
102
}
  0
BLOCK_RECORD
  5
D9
330
1
100
AcDbSymbolTableRecord
100
AcDbBlockTableRecord
  2
block 21
340
0
102
{BLKREFS
331
DA
102
}
  0
BLOCK_RECORD
  5
114
330
1
100
AcDbSymbolTableRecord
100
AcDbBlockTableRecord
  2
block 22
340
0
102
{BLKREFS
331
115
102
}
  0
BLOCK_RECORD
  5
11F
330
1
100
AcDbSymbolTableRecord
100
AcDbBlockTableRecord
  2
block 23
340
0
102
{BLKREFS
331
120
102
}
  0
BLOCK_RECORD
  5
124
330
1
100
AcDbSymbolTableRecord
100
AcDbBlockTableRecord
  2
block 24
340
0
102
{BLKREFS
331
125
102
}
  0
BLOCK_RECORD
  5
129
330
1
100
AcDbSymbolTableRecord
100
AcDbBlockTableRecord
  2
block 25
340
0
102
{BLKREFS
331
12A
102
}
  0
BLOCK_RECORD
  5
12E
330
1
100
AcDbSymbolTableRecord
100
AcDbBlockTableRecord
  2
block 26
340
0
102
{BLKREFS
331
12F
102
}
  0
BLOCK_RECORD
  5
133
330
1
100
AcDbSymbolTableRecord
100
AcDbBlockTableRecord
  2
block 27
340
0
102
{BLKREFS
331
134
102
}
  0
BLOCK_RECORD
  5
138
330
1
100
AcDbSymbolTableRecord
100
AcDbBlockTableRecord
  2
block 28
340
0
102
{BLKREFS
331
139
102
}
  0
BLOCK_RECORD
  5
16B
330
1
100
AcDbSymbolTableRecord
100
AcDbBlockTableRecord
  2
block 29
340
0
102
{BLKREFS
331
16C
102
}
  0
BLOCK_RECORD
  5
19E
330
1
100
AcDbSymbolTableRecord
100
AcDbBlockTableRecord
  2
block 30
340
0
102
{BLKREFS
331
19F
102
}
  0
BLOCK_RECORD
  5
1D1
330
1
100
AcDbSymbolTableRecord
100
AcDbBlockTableRecord
  2
block 31
340
0
102
{BLKREFS
331
1D2
102
}
  0
ENDTAB
  0
ENDSEC
  0
SECTION
  2
BLOCKS
  0
BLOCK
  5
20
330
1F
100
AcDbEntity
  8
0
100
AcDbBlockBegin
  2
*Model_Space
 70
     0
 10
0.0
 20
0.0
 30
0.0
  3
*Model_Space
  1

  0
ENDBLK
  5
21
330
1F
100
AcDbEntity
  8
0
100
AcDbBlockEnd
  0
BLOCK
  5
1C
330
1B
100
AcDbEntity
 67
     1
  8
0
100
AcDbBlockBegin
  2
*Paper_Space
 70
     0
 10
0.0
 20
0.0
 30
0.0
  3
*Paper_Space
  1

  0
ENDBLK
  5
1D
330
1B
100
AcDbEntity
 67
     1
  8
0
100
AcDbBlockEnd
  0
BLOCK
  5
24
330
23
100
AcDbEntity
  8
0
100
AcDbBlockBegin
  2
*Paper_Space0
 70
     0
 10
0.0
 20
0.0
 30
0.0
  3
*Paper_Space0
  1

  0
ENDBLK
  5
25
330
23
100
AcDbEntity
  8
0
100
AcDbBlockEnd
  0
BLOCK
  5
43
330
41
100
AcDbEntity
  8
0
100
AcDbBlockBegin
  2
block 2
 70
     0
 10
0.0
 20
0.0
 30
0.0
  3
block 2
  1

  0
SPLINE
  5
45
330
41
100
AcDbEntity
  8
Capa 1
 62
     7
370
    25
100
AcDbSpline
210
0.0
220
0.0
230
1.0
 70
    11
 71
     3
 72
    65
 73
    61
 74
     0
 42
0.0000000001
 43
0.0000000001
 12
1.0
 22
0.0
 32
0.0
 13
1.0
 23
0.0
 33
0.0
 40
0.0
 40
0.0
 40
0.0
 40
0.0
 40
1.0
 40
1.0
 40
1.0
 40
2.0
 40
2.0
 40
2.0
 40
3.0
 40
3.0
 40
3.0
 40
4.0
 40
4.0
 40
4.0
 40
5.0
 40
5.0
 40
5.0
 40
6.0
 40
6.0
 40
6.0
 40
7.0
 40
7.0
 40
7.0
 40
8.0
 40
8.0
 40
8.0
 40
9.0
 40
9.0
 40
9.0
 40
10.0
 40
10.0
 40
10.0
 40
11.0
 40
11.0
 40
11.0
 40
12.0
 40
12.0
 40
12.0
 40
13.0
 40
13.0
 40
13.0
 40
14.0
 40
14.0
 40
14.0
 40
15.0
 40
15.0
 40
15.0
 40
16.0
 40
16.0
 40
16.0
 40
17.0
 40
17.0
 40
17.0
 40
18.0
 40
18.0
 40
18.0
 40
19.0
 40
19.0
 40
19.0
 40
20.0
 40
20.0
 40
20.0
 40
20.0
 10
314.8423332417419
 20
-38.97822220629933
 30
0.0
 10
314.8423332417419
 20
-38.97822220629933
 30
0.0
 10
314.8423332408454
 20
-48.97822220629968
 30
0.0
 10
314.8423332408454
 20
-48.97822220629968
 30
0.0
 10
314.8423332408454
 20
-48.97822220629968
 30
0.0
 10
311.842333240846
 20
-48.97822220603017
 30
0.0
 10
311.842333240846
 20
-48.97822220603017
 30
0.0
 10
311.8423332405951
 20
-51.73964595518431
 30
0.0
 10
314.0809094912415
 20
-53.97822220623056
 30
0.0
 10
316.8423332403944
 20
-53.9782222064789
 30
0.0
 10
316.8423332403944
 20
-53.9782222064789
 30
0.0
 10
390.8423332403944
 20
-53.97822221312305
 30
0.0
 10
390.8423332403944
 20
-53.97822221312305
 30
0.0
 10
393.6037569895498
 20
-53.97822221337138
 30
0.0
 10
395.8423332405955
 20
-51.73964596272716
 30
0.0
 10
395.8423332408457
 20
-48.9782222135727
 30
0.0
 10
395.8423332408457
 20
-48.9782222135727
 30
0.0
 10
392.8423332408424
 20
-48.97822221330319
 30
0.0
 10
392.8423332408424
 20
-48.97822221330319
 30
0.0
 10
392.8423332408424
 20
-48.97822221330319
 30
0.0
 10
392.842333241742
 20
-38.97822221330284
 30
0.0
 10
392.842333241742
 20
-38.97822221330284
 30
0.0
 10
392.842333241742
 20
-38.97822221330284
 30
0.0
 10
395.8423332417415
 20
-38.97822221357235
 30
0.0
 10
395.8423332417415
 20
-38.97822221357235
 30
0.0
 10
395.8423332417415
 20
-38.97822221357235
 30
0.0
 10
395.8423332426412
 20
-28.97822221357264
 30
0.0
 10
395.8423332426412
 20
-28.97822221357264
 30
0.0
 10
395.8423332426412
 20
-28.97822221357264
 30
0.0
 10
392.8423332426411
 20
-28.97822221330312
 30
0.0
 10
392.8423332426411
 20
-28.97822221330312
 30
0.0
 10
392.8423332426411
 20
-28.97822221330312
 30
0.0
 10
392.8423332435376
 20
-18.97822221330277
 30
0.0
 10
392.8423332435376
 20
-18.97822221330277
 30
0.0
 10
392.8423332435376
 20
-18.97822221330277
 30
0.0
 10
395.8423332435377
 20
-18.97822221357228
 30
0.0
 10
395.8423332435377
 20
-18.97822221357228
 30
0.0
 10
395.842333243784
 20
-16.21679846441879
 30
0.0
 10
393.6037569931414
 20
-13.97822221337126
 30
0.0
 10
390.8423332439854
 20
-13.97822221312292
 30
0.0
 10
390.8423332439854
 20
-13.97822221312292
 30
0.0
 10
316.8423332439892
 20
-13.97822220647877
 30
0.0
 10
316.8423332439892
 20
-13.97822220647877
 30
0.0
 10
314.0809094948331
 20
-13.97822220623043
 30
0.0
 10
311.8423332437843
 20
-16.21679845687626
 30
0.0
 10
311.8423332435373
 20
-18.97822220602975
 30
0.0
 10
311.8423332435373
 20
-18.97822220602975
 30
0.0
 10
314.8423332435373
 20
-18.97822220629927
 30
0.0
 10
314.8423332435373
 20
-18.97822220629927
 30
0.0
 10
314.8423332435373
 20
-18.97822220629927
 30
0.0
 10
314.8423332426415
 20
-28.97822220629962
 30
0.0
 10
314.8423332426415
 20
-28.97822220629962
 30
0.0
 10
314.8423332426415
 20
-28.97822220629962
 30
0.0
 10
311.8423332426414
 20
-28.97822220603011
 30
0.0
 10
311.8423332426414
 20
-28.97822220603011
 30
0.0
 10
311.8423332426414
 20
-28.97822220603011
 30
0.0
 10
311.8423332417418
 20
-38.97822220602982
 30
0.0
 10
311.8423332417418
 20
-38.97822220602982
 30
0.0
 10
311.8423332417418
 20
-38.97822220602982
 30
0.0
 10
314.8423332417419
 20
-38.97822220629933
 30
0.0
 10
314.8423332417419
 20
-38.97822220629933
 30
0.0
  0
ENDBLK
  5
44
330
41
100
AcDbEntity
  8
0
100
AcDbBlockEnd
  0
BLOCK
  5
48
330
46
100
AcDbEntity
  8
0
100
AcDbBlockBegin
  2
block 3
 70
     0
 10
0.0
 20
0.0
 30
0.0
  3
block 3
  1

  0
SPLINE
  5
4A
330
46
100
AcDbEntity
  8
Capa 1
 62
     7
370
    25
100
AcDbSpline
210
0.0
220
0.0
230
1.0
 70
    11
 71
     3
 72
    20
 73
    16
 74
     0
 42
0.0000000001
 43
0.0000000001
 12
1.0
 22
0.0
 32
0.0
 13
1.0
 23
0.0
 33
0.0
 40
0.0
 40
0.0
 40
0.0
 40
0.0
 40
1.0
 40
1.0
 40
1.0
 40
2.0
 40
2.0
 40
2.0
 40
3.0
 40
3.0
 40
3.0
 40
4.0
 40
4.0
 40
4.0
 40
5.0
 40
5.0
 40
5.0
 40
5.0
 10
323.9243840492561
 20
-39.47822220711463
 30
0.0
 10
323.9243840492311
 20
-39.75436458202979
 30
0.0
 10
323.700526424126
 20
-39.97822220709443
 30
0.0
 10
323.4243840492134
 20
-39.97822220706941
 30
0.0
 10
323.148241674297
 20
-39.97822220704502
 30
0.0
 10
322.924384049231
 20
-39.75436458193995
 30
0.0
 10
322.924384049256
 20
-39.47822220702479
 30
0.0
 10
322.9243840492804
 20
-39.20207983210963
 30
0.0
 10
323.1482416743855
 20
-38.97822220704499
 30
0.0
 10
323.424384049302
 20
-38.97822220706937
 30
0.0
 10
323.7005264242184
 20
-38.9782222070944
 30
0.0
 10
323.9243840492805
 20
-39.20207983219947
 30
0.0
 10
323.9243840492561
 20
-39.47822220711463
 30
0.0
 10
323.9243840492561
 20
-39.47822220711463
 30
0.0
 10
323.9243840492561
 20
-39.47822220711463
 30
0.0
 10
323.9243840492561
 20
-39.47822220711463
 30
0.0
  0
ENDBLK
  5
49
330
46
100
AcDbEntity
  8
0
100
AcDbBlockEnd
  0
BLOCK
  5
4D
330
4B
100
AcDbEntity
  8
0
100
AcDbBlockBegin
  2
block 4
 70
     0
 10
0.0
 20
0.0
 30
0.0
  3
block 4
  1

  0
SPLINE
  5
4F
330
4B
100
AcDbEntity
  8
Capa 1
 62
     7
370
    25
100
AcDbSpline
210
0.0
220
0.0
230
1.0
 70
    11
 71
     3
 72
    20
 73
    16
 74
     0
 42
0.0000000001
 43
0.0000000001
 12
1.0
 22
0.0
 32
0.0
 13
1.0
 23
0.0
 33
0.0
 40
0.0
 40
0.0
 40
0.0
 40
0.0
 40
1.0
 40
1.0
 40
1.0
 40
2.0
 40
2.0
 40
2.0
 40
3.0
 40
3.0
 40
3.0
 40
4.0
 40
4.0
 40
4.0
 40
5.0
 40
5.0
 40
5.0
 40
5.0
 10
323.9243840501558
 20
-29.47822220711427
 30
0.0
 10
323.9243840501308
 20
-29.75436458202943
 30
0.0
 10
323.7005264250257
 20
-29.97822220709472
 30
0.0
 10
323.4243840501098
 20
-29.9782222070697
 30
0.0
 10
323.1482416751934
 20
-29.97822220704531
 30
0.0
 10
322.9243840501307
 20
-29.75436458193959
 30
0.0
 10
322.9243840501557
 20
-29.47822220702444
 30
0.0
 10
322.9243840501801
 20
-29.20207983210928
 30
0.0
 10
323.1482416752852
 20
-28.97822220704527
 30
0.0
 10
323.4243840502016
 20
-28.97822220706966
 30
0.0
 10
323.7005264251142
 20
-28.97822220709469
 30
0.0
 10
323.9243840501802
 20
-29.20207983219912
 30
0.0
 10
323.9243840501558
 20
-29.47822220711427
 30
0.0
 10
323.9243840501558
 20
-29.47822220711427
 30
0.0
 10
323.9243840501558
 20
-29.47822220711427
 30
0.0
 10
323.9243840501558
 20
-29.47822220711427
 30
0.0
  0
ENDBLK
  5
4E
330
4B
100
AcDbEntity
  8
0
100
AcDbBlockEnd
  0
BLOCK
  5
52
330
50
100
AcDbEntity
  8
0
100
AcDbBlockBegin
  2
block 5
 70
     0
 10
0.0
 20
0.0
 30
0.0
  3
block 5
  1

  0
SPLINE
  5
54
330
50
100
AcDbEntity
  8
Capa 1
 62
     7
370
    25
100
AcDbSpline
210
0.0
220
0.0
230
1.0
 70
    11
 71
     3
 72
    20
 73
    16
 74
     0
 42
0.0000000001
 43
0.0000000001
 12
1.0
 22
0.0
 32
0.0
 13
1.0
 23
0.0
 33
0.0
 40
0.0
 40
0.0
 40
0.0
 40
0.0
 40
1.0
 40
1.0
 40
1.0
 40
2.0
 40
2.0
 40
2.0
 40
3.0
 40
3.0
 40
3.0
 40
4.0
 40
4.0
 40
4.0
 40
5.0
 40
5.0
 40
5.0
 40
5.0
 10
372.0602824350145
 20
-29.47822221143676
 30
0.0
 10
372.0602824349895
 20
-29.75436458635192
 30
0.0
 10
371.836424809885
 20
-29.9782222114172
 30
0.0
 10
371.5602824349718
 20
-29.97822221139218
 30
0.0
 10
371.284140060056
 20
-29.97822221136779
 30
0.0
 10
371.0602824349894
 20
-29.75436458626208
 30
0.0
 10
371.0602824350144
 20
-29.47822221134692
 30
0.0
 10
371.0602824350388
 20
-29.20207983643176
 30
0.0
 10
371.2841400601439
 20
-28.97822221136776
 30
0.0
 10
371.5602824350603
 20
-28.97822221139214
 30
0.0
 10
371.8364248099761
 20
-28.97822221141717
 30
0.0
 10
372.0602824350389
 20
-29.2020798365216
 30
0.0
 10
372.0602824350145
 20
-29.47822221143676
 30
0.0
 10
372.0602824350145
 20
-29.47822221143676
 30
0.0
 10
372.0602824350145
 20
-29.47822221143676
 30
0.0
 10
372.0602824350145
 20
-29.47822221143676
 30
0.0
  0
ENDBLK
  5
53
330
50
100
AcDbEntity
  8
0
100
AcDbBlockEnd
  0
BLOCK
  5
57
330
55
100
AcDbEntity
  8
0
100
AcDbBlockBegin
  2
block 6
 70
     0
 10
0.0
 20
0.0
 30
0.0
  3
block 6
  1

  0
SPLINE
  5
59
330
55
100
AcDbEntity
  8
Capa 1
 62
     7
370
    25
100
AcDbSpline
210
0.0
220
0.0
230
1.0
 70
    11
 71
     3
 72
    20
 73
    16
 74
     0
 42
0.0000000001
 43
0.0000000001
 12
1.0
 22
0.0
 32
0.0
 13
1.0
 23
0.0
 33
0.0
 40
0.0
 40
0.0
 40
0.0
 40
0.0
 40
1.0
 40
1.0
 40
1.0
 40
2.0
 40
2.0
 40
2.0
 40
3.0
 40
3.0
 40
3.0
 40
4.0
 40
4.0
 40
4.0
 40
5.0
 40
5.0
 40
5.0
 40
5.0
 10
372.1488911545621
 20
-39.42923798586472
 30
0.0
 10
372.148891154537
 20
-39.70538036077988
 30
0.0
 10
371.9250335294326
 20
-39.92923798584517
 30
0.0
 10
371.6488911545161
 20
-39.92923798582014
 30
0.0
 10
371.3727487795997
 20
-39.92923798579512
 30
0.0
 10
371.148891154537
 20
-39.70538036069069
 30
0.0
 10
371.148891154562
 20
-39.42923798577553
 30
0.0
 10
371.1488911545864
 20
-39.15309561085973
 30
0.0
 10
371.3727487796915
 20
-38.92923798579572
 30
0.0
 10
371.648891154608
 20
-38.92923798582076
 30
0.0
 10
371.9250335295205
 20
-38.92923798584578
 30
0.0
 10
372.1488911545865
 20
-39.15309561094893
 30
0.0
 10
372.1488911545621
 20
-39.42923798586472
 30
0.0
 10
372.1488911545621
 20
-39.42923798586472
 30
0.0
 10
372.1488911545621
 20
-39.42923798586472
 30
0.0
 10
372.1488911545621
 20
-39.42923798586472
 30
0.0
  0
ENDBLK
  5
58
330
55
100
AcDbEntity
  8
0
100
AcDbBlockEnd
  0
BLOCK
  5
5C
330
5A
100
AcDbEntity
  8
0
100
AcDbBlockBegin
  2
block 7
 70
     0
 10
0.0
 20
0.0
 30
0.0
  3
block 7
  1

  0
POLYLINE
  5
5E
330
5A
100
AcDbEntity
  8
Capa 1
 62
     7
370
    25
100
AcDb2dPolyline
 66
     1
 10
0.0
 20
0.0
 30
0.0
  0
VERTEX
  5
5F
330
5E
100
AcDbEntity
  8
Capa 1
 62
     7
370
    25
100
AcDbVertex
100
AcDb2dVertex
 10
368.3423332412481
 20
-44.47822221110297
 30
0.0
  0
VERTEX
  5
60
330
5E
100
AcDbEntity
  8
Capa 1
 62
     7
370
    25
100
AcDbVertex
100
AcDb2dVertex
 10
327.3423332412479
 20
-44.47822220742154
 30
0.0
  0
VERTEX
  5
61
330
5E
100
AcDbEntity
  8
Capa 1
 62
     7
370
    25
100
AcDbVertex
100
AcDb2dVertex
 10
327.3423332431351
 20
-23.47822220742144
 30
0.0
  0
VERTEX
  5
62
330
5E
100
AcDbEntity
  8
Capa 1
 62
     7
370
    25
100
AcDbVertex
100
AcDb2dVertex
 10
368.3423332431315
 20
-23.47822221110286
 30
0.0
  0
VERTEX
  5
63
330
5E
100
AcDbEntity
  8
Capa 1
 62
     7
370
    25
100
AcDbVertex
100
AcDb2dVertex
 10
368.3423332412481
 20
-44.47822221110297
 30
0.0
  0
SEQEND
  5
64
330
5E
100
AcDbEntity
  8
Capa 1
 62
     7
370
    25
  0
ENDBLK
  5
5D
330
5A
100
AcDbEntity
  8
0
100
AcDbBlockEnd
  0
BLOCK
  5
82
330
80
100
AcDbEntity
  8
0
100
AcDbBlockBegin
  2
block 8
 70
     0
 10
0.0
 20
0.0
 30
0.0
  3
block 8
  1

  0
SPLINE
  5
84
330
80
100
AcDbEntity
  8
Capa 1
 62
     7
370
    25
100
AcDbSpline
210
0.0
220
0.0
230
1.0
 70
    11
 71
     3
 72
    20
 73
    16
 74
     0
 42
0.0000000001
 43
0.0000000001
 12
1.0
 22
0.0
 32
0.0
 13
1.0
 23
0.0
 33
0.0
 40
0.0
 40
0.0
 40
0.0
 40
0.0
 40
1.0
 40
1.0
 40
1.0
 40
2.0
 40
2.0
 40
2.0
 40
3.0
 40
3.0
 40
3.0
 40
4.0
 40
4.0
 40
4.0
 40
5.0
 40
5.0
 40
5.0
 40
5.0
 10
515.4700939331545
 20
-37.22034004900684
 30
0.0
 10
515.4700939331545
 20
-31.14520780086761
 30
0.0
 10
520.394961685017
 20
-26.22034004900645
 30
0.0
 10
526.470093933155
 20
-26.22034004900645
 30
0.0
 10
532.5452261812954
 20
-26.22034004900645
 30
0.0
 10
537.4700939331548
 20
-31.14520780086761
 30
0.0
 10
537.4700939331548
 20
-37.22034004900684
 30
0.0
 10
537.4700939331548
 20
-43.29547229714542
 30
0.0
 10
532.5452261812954
 20
-48.22034004900658
 30
0.0
 10
526.470093933155
 20
-48.22034004900658
 30
0.0
 10
520.394961685017
 20
-48.22034004900658
 30
0.0
 10
515.4700939331545
 20
-43.29547229714542
 30
0.0
 10
515.4700939331545
 20
-37.22034004900684
 30
0.0
 10
515.4700939331545
 20
-37.22034004900684
 30
0.0
 10
515.4700939331545
 20
-37.22034004900684
 30
0.0
 10
515.4700939331545
 20
-37.22034004900684
 30
0.0
  0
ENDBLK
  5
83
330
80
100
AcDbEntity
  8
0
100
AcDbBlockEnd
  0
BLOCK
  5
87
330
85
100
AcDbEntity
  8
0
100
AcDbBlockBegin
  2
block 9
 70
     0
 10
0.0
 20
0.0
 30
0.0
  3
block 9
  1

  0
SPLINE
  5
89
330
85
100
AcDbEntity
  8
Capa 1
 62
     7
370
    25
100
AcDbSpline
210
0.0
220
0.0
230
1.0
 70
    11
 71
     3
 72
    26
 73
    22
 74
     0
 42
0.0000000001
 43
0.0000000001
 12
1.0
 22
0.0
 32
0.0
 13
1.0
 23
0.0
 33
0.0
 40
0.0
 40
0.0
 40
0.0
 40
0.0
 40
1.0
 40
1.0
 40
1.0
 40
2.0
 40
2.0
 40
2.0
 40
3.0
 40
3.0
 40
3.0
 40
4.0
 40
4.0
 40
4.0
 40
5.0
 40
5.0
 40
5.0
 40
6.0
 40
6.0
 40
6.0
 40
7.0
 40
7.0
 40
7.0
 40
7.0
 10
527.470093933155
 20
-57.19532440444456
 30
0.0
 10
538.5019731707738
 20
-56.6430396546136
 30
0.0
 10
546.997363038425
 20
-47.25221928662339
 30
0.0
 10
546.4450782885928
 20
-36.22034004900615
 30
0.0
 10
545.9314696513762
 20
-25.96101555575678
 30
0.0
 10
537.7294184264063
 20
-17.75896433078682
 30
0.0
 10
527.470093933155
 20
-17.24535569356847
 30
0.0
 10
527.470093933155
 20
-17.24535569356847
 30
0.0
 10
427.7200939331549
 20
-12.25160960470679
 30
0.0
 10
427.7200939331549
 20
-12.25160960470679
 30
0.0
 10
413.9302448861342
 20
-11.56125366742019
 30
0.0
 10
402.1917194261463
 20
-22.18049100198468
 30
0.0
 10
401.5013634888552
 20
-35.97034004900599
 30
0.0
 10
400.811007551568
 20
-49.76018909602729
 30
0.0
 10
411.4302448861345
 20
-61.49871455601577
 30
0.0
 10
425.2200939331544
 20
-62.18907049330431
 30
0.0
 10
426.0529057810957
 20
-62.2307632342409
 30
0.0
 10
426.8872820852175
 20
-62.2307632342409
 30
0.0
 10
427.7200939331549
 20
-62.18907049330623
 30
0.0
 10
427.7200939331549
 20
-62.18907049330623
 30
0.0
 10
527.470093933155
 20
-57.19532440444456
 30
0.0
 10
527.470093933155
 20
-57.19532440444456
 30
0.0
  0
ENDBLK
  5
88
330
85
100
AcDbEntity
  8
0
100
AcDbBlockEnd
  0
BLOCK
  5
8C
330
8A
100
AcDbEntity
  8
0
100
AcDbBlockBegin
  2
block 10
 70
     0
 10
0.0
 20
0.0
 30
0.0
  3
block 10
  1

  0
SPLINE
  5
8E
330
8A
100
AcDbEntity
  8
Capa 1
 62
     7
370
    25
100
AcDbSpline
210
0.0
220
0.0
230
1.0
 70
    11
 71
     3
 72
    20
 73
    16
 74
     0
 42
0.0000000001
 43
0.0000000001
 12
1.0
 22
0.0
 32
0.0
 13
1.0
 23
0.0
 33
0.0
 40
0.0
 40
0.0
 40
0.0
 40
0.0
 40
1.0
 40
1.0
 40
1.0
 40
2.0
 40
2.0
 40
2.0
 40
3.0
 40
3.0
 40
3.0
 40
4.0
 40
4.0
 40
4.0
 40
5.0
 40
5.0
 40
5.0
 40
5.0
 10
422.4700939331545
 20
-37.22034004900684
 30
0.0
 10
422.4700939331545
 20
-35.01120104968301
 30
0.0
 10
424.2609549338315
 20
-33.22034004900669
 30
0.0
 10
426.4700939331547
 20
-33.22034004900669
 30
0.0
 10
428.6792329324778
 20
-33.22034004900669
 30
0.0
 10
430.4700939331548
 20
-35.01120104968301
 30
0.0
 10
430.4700939331548
 20
-37.22034004900684
 30
0.0
 10
430.4700939331548
 20
-39.42947904832937
 30
0.0
 10
428.6792329324778
 20
-41.22034004900633
 30
0.0
 10
426.4700939331547
 20
-41.22034004900633
 30
0.0
 10
424.2609549338315
 20
-41.22034004900633
 30
0.0
 10
422.4700939331545
 20
-39.42947904832937
 30
0.0
 10
422.4700939331545
 20
-37.22034004900684
 30
0.0
 10
422.4700939331545
 20
-37.22034004900684
 30
0.0
 10
422.4700939331545
 20
-37.22034004900684
 30
0.0
 10
422.4700939331545
 20
-37.22034004900684
 30
0.0
  0
ENDBLK
  5
8D
330
8A
100
AcDbEntity
  8
0
100
AcDbBlockEnd
  0
BLOCK
  5
91
330
8F
100
AcDbEntity
  8
0
100
AcDbBlockBegin
  2
block 11
 70
     0
 10
0.0
 20
0.0
 30
0.0
  3
block 11
  1

  0
SPLINE
  5
93
330
8F
100
AcDbEntity
  8
Capa 1
 62
     7
370
    25
100
AcDbSpline
210
0.0
220
0.0
230
1.0
 70
    11
 71
     3
 72
    20
 73
    16
 74
     0
 42
0.0000000001
 43
0.0000000001
 12
1.0
 22
0.0
 32
0.0
 13
1.0
 23
0.0
 33
0.0
 40
0.0
 40
0.0
 40
0.0
 40
0.0
 40
1.0
 40
1.0
 40
1.0
 40
2.0
 40
2.0
 40
2.0
 40
3.0
 40
3.0
 40
3.0
 40
4.0
 40
4.0
 40
4.0
 40
5.0
 40
5.0
 40
5.0
 40
5.0
 10
510.9380812967535
 20
-103.7554726728433
 30
0.0
 10
510.9380812967535
 20
-97.68034042470373
 30
0.0
 10
515.8629490486128
 20
-92.75547267284257
 30
0.0
 10
521.9380812967532
 20
-92.75547267284257
 30
0.0
 10
528.0132135448912
 20
-92.75547267284257
 30
0.0
 10
532.9380812967537
 20
-97.68034042470373
 30
0.0
 10
532.9380812967537
 20
-103.7554726728433
 30
0.0
 10
532.9380812967537
 20
-109.8306049209815
 30
0.0
 10
528.0132135448912
 20
-114.7554726728427
 30
0.0
 10
521.9380812967532
 20
-114.7554726728427
 30
0.0
 10
515.8629490486128
 20
-114.7554726728427
 30
0.0
 10
510.9380812967535
 20
-109.8306049209815
 30
0.0
 10
510.9380812967535
 20
-103.7554726728433
 30
0.0
 10
510.9380812967535
 20
-103.7554726728433
 30
0.0
 10
510.9380812967535
 20
-103.7554726728433
 30
0.0
 10
510.9380812967535
 20
-103.7554726728433
 30
0.0
  0
ENDBLK
  5
92
330
8F
100
AcDbEntity
  8
0
100
AcDbBlockEnd
  0
BLOCK
  5
96
330
94
100
AcDbEntity
  8
0
100
AcDbBlockBegin
  2
block 12
 70
     0
 10
0.0
 20
0.0
 30
0.0
  3
block 12
  1

  0
SPLINE
  5
98
330
94
100
AcDbEntity
  8
Capa 1
 62
     7
370
    25
100
AcDbSpline
210
0.0
220
0.0
230
1.0
 70
    11
 71
     3
 72
    20
 73
    16
 74
     0
 42
0.0000000001
 43
0.0000000001
 12
1.0
 22
0.0
 32
0.0
 13
1.0
 23
0.0
 33
0.0
 40
0.0
 40
0.0
 40
0.0
 40
0.0
 40
1.0
 40
1.0
 40
1.0
 40
2.0
 40
2.0
 40
2.0
 40
3.0
 40
3.0
 40
3.0
 40
4.0
 40
4.0
 40
4.0
 40
5.0
 40
5.0
 40
5.0
 40
5.0
 10
397.9380812967534
 20
-103.7554726728433
 30
0.0
 10
397.9380812967534
 20
-101.5463336735198
 30
0.0
 10
399.7289422974303
 20
-99.75547267284281
 30
0.0
 10
401.9380812967535
 20
-99.75547267284281
 30
0.0
 10
404.1472202960767
 20
-99.75547267284281
 30
0.0
 10
405.9380812967536
 20
-101.5463336735198
 30
0.0
 10
405.9380812967536
 20
-103.7554726728433
 30
0.0
 10
405.9380812967536
 20
-105.9646116721661
 30
0.0
 10
404.1472202960767
 20
-107.7554726728425
 30
0.0
 10
401.9380812967535
 20
-107.7554726728425
 30
0.0
 10
399.7289422974303
 20
-107.7554726728425
 30
0.0
 10
397.9380812967534
 20
-105.9646116721661
 30
0.0
 10
397.9380812967534
 20
-103.7554726728433
 30
0.0
 10
397.9380812967534
 20
-103.7554726728433
 30
0.0
 10
397.9380812967534
 20
-103.7554726728433
 30
0.0
 10
397.9380812967534
 20
-103.7554726728433
 30
0.0
  0
ENDBLK
  5
97
330
94
100
AcDbEntity
  8
0
100
AcDbBlockEnd
  0
BLOCK
  5
9B
330
99
100
AcDbEntity
  8
0
100
AcDbBlockBegin
  2
block 13
 70
     0
 10
0.0
 20
0.0
 30
0.0
  3
block 13
  1

  0
POLYLINE
  5
9D
330
99
100
AcDbEntity
  8
Capa 1
 62
     7
370
    25
100
AcDb2dPolyline
 66
     1
 10
0.0
 20
0.0
 30
0.0
  0
VERTEX
  5
9E
330
9D
100
AcDbEntity
  8
Capa 1
 62
     7
370
    25
100
AcDbVertex
100
AcDb2dVertex
 10
445.4380812967535
 20
-118.7554726728428
 30
0.0
  0
VERTEX
  5
9F
330
9D
100
AcDbEntity
  8
Capa 1
 62
     7
370
    25
100
AcDbVertex
100
AcDb2dVertex
 10
445.4380812967535
 20
-108.7554726728431
 30
0.0
  0
VERTEX
  5
A0
330
9D
100
AcDbEntity
  8
Capa 1
 62
     7
370
    25
100
AcDbVertex
100
AcDb2dVertex
 10
448.4380812967535
 20
-108.7554726728431
 30
0.0
  0
VERTEX
  5
A1
330
9D
100
AcDbEntity
  8
Capa 1
 62
     7
370
    25
100
AcDbVertex
100
AcDb2dVertex
 10
448.4380812967535
 20
-118.7554726728428
 30
0.0
  0
VERTEX
  5
A2
330
9D
100
AcDbEntity
  8
Capa 1
 62
     7
370
    25
100
AcDbVertex
100
AcDb2dVertex
 10
445.4380812967535
 20
-118.7554726728428
 30
0.0
  0
SEQEND
  5
A3
330
9D
100
AcDbEntity
  8
Capa 1
 62
     7
370
    25
  0
ENDBLK
  5
9C
330
99
100
AcDbEntity
  8
0
100
AcDbBlockEnd
  0
BLOCK
  5
A6
330
A4
100
AcDbEntity
  8
0
100
AcDbBlockBegin
  2
block 14
 70
     0
 10
0.0
 20
0.0
 30
0.0
  3
block 14
  1

  0
POLYLINE
  5
A8
330
A4
100
AcDbEntity
  8
Capa 1
 62
     7
370
    25
100
AcDb2dPolyline
 66
     1
 10
0.0
 20
0.0
 30
0.0
  0
VERTEX
  5
A9
330
A8
100
AcDbEntity
  8
Capa 1
 62
     7
370
    25
100
AcDbVertex
100
AcDb2dVertex
 10
445.4380812967535
 20
-98.75547267284279
 30
0.0
  0
VERTEX
  5
AA
330
A8
100
AcDbEntity
  8
Capa 1
 62
     7
370
    25
100
AcDbVertex
100
AcDb2dVertex
 10
445.4380812967535
 20
-88.75547267284243
 30
0.0
  0
VERTEX
  5
AB
330
A8
100
AcDbEntity
  8
Capa 1
 62
     7
370
    25
100
AcDbVertex
100
AcDb2dVertex
 10
448.4380812967535
 20
-88.75547267284243
 30
0.0
  0
VERTEX
  5
AC
330
A8
100
AcDbEntity
  8
Capa 1
 62
     7
370
    25
100
AcDbVertex
100
AcDb2dVertex
 10
448.4380812967535
 20
-98.75547267284279
 30
0.0
  0
VERTEX
  5
AD
330
A8
100
AcDbEntity
  8
Capa 1
 62
     7
370
    25
100
AcDbVertex
100
AcDb2dVertex
 10
445.4380812967535
 20
-98.75547267284279
 30
0.0
  0
SEQEND
  5
AE
330
A8
100
AcDbEntity
  8
Capa 1
 62
     7
370
    25
  0
ENDBLK
  5
A7
330
A4
100
AcDbEntity
  8
0
100
AcDbBlockEnd
  0
BLOCK
  5
B1
330
AF
100
AcDbEntity
  8
0
100
AcDbBlockBegin
  2
block 15
 70
     0
 10
0.0
 20
0.0
 30
0.0
  3
block 15
  1

  0
SPLINE
  5
B3
330
AF
100
AcDbEntity
  8
Capa 1
 62
     7
370
    25
100
AcDbSpline
210
0.0
220
0.0
230
1.0
 70
    11
 71
     3
 72
    50
 73
    46
 74
     0
 42
0.0000000001
 43
0.0000000001
 12
1.0
 22
0.0
 32
0.0
 13
1.0
 23
0.0
 33
0.0
 40
0.0
 40
0.0
 40
0.0
 40
0.0
 40
1.0
 40
1.0
 40
1.0
 40
2.0
 40
2.0
 40
2.0
 40
3.0
 40
3.0
 40
3.0
 40
4.0
 40
4.0
 40
4.0
 40
5.0
 40
5.0
 40
5.0
 40
6.0
 40
6.0
 40
6.0
 40
7.0
 40
7.0
 40
7.0
 40
8.0
 40
8.0
 40
8.0
 40
9.0
 40
9.0
 40
9.0
 40
10.0
 40
10.0
 40
10.0
 40
11.0
 40
11.0
 40
11.0
 40
12.0
 40
12.0
 40
12.0
 40
13.0
 40
13.0
 40
13.0
 40
14.0
 40
14.0
 40
14.0
 40
15.0
 40
15.0
 40
15.0
 40
15.0
 10
364.8570888612506
 20
-118.7554726728428
 30
0.0
 10
364.8570888612506
 20
-118.7554726728428
 30
0.0
 10
367.4380812967532
 20
-118.7554726728428
 30
0.0
 10
367.4380812967532
 20
-118.7554726728428
 30
0.0
 10
367.4380812967532
 20
-118.7554726728428
 30
0.0
 10
367.4380812967532
 20
-108.7554726728431
 30
0.0
 10
367.4380812967532
 20
-108.7554726728431
 30
0.0
 10
367.4380812967532
 20
-108.7554726728431
 30
0.0
 10
364.4380812967538
 20
-108.7554726728431
 30
0.0
 10
364.4380812967538
 20
-108.7554726728431
 30
0.0
 10
364.4380812967538
 20
-108.7554726728431
 30
0.0
 10
364.4380812967538
 20
-117.6748835799432
 30
0.0
 10
364.4380812967538
 20
-117.6748835799432
 30
0.0
 10
361.1047479634203
 20
-108.694618478574
 30
0.0
 10
361.1047479634203
 20
-98.81632686711092
 30
0.0
 10
364.4380812967538
 20
-89.83606176579275
 30
0.0
 10
364.4380812967538
 20
-89.83606176579275
 30
0.0
 10
364.4380812967538
 20
-98.75547267284279
 30
0.0
 10
364.4380812967538
 20
-98.75547267284279
 30
0.0
 10
364.4380812967538
 20
-98.75547267284279
 30
0.0
 10
367.4380812967532
 20
-98.75547267284279
 30
0.0
 10
367.4380812967532
 20
-98.75547267284279
 30
0.0
 10
367.4380812967532
 20
-98.75547267284279
 30
0.0
 10
367.4380812967532
 20
-88.75547267284243
 30
0.0
 10
367.4380812967532
 20
-88.75547267284243
 30
0.0
 10
367.4380812967532
 20
-88.75547267284243
 30
0.0
 10
364.8570888612647
 20
-88.75547267287003
 30
0.0
 10
364.8570888612647
 20
-88.75547267287003
 30
0.0
 10
371.8972341507786
 20
-71.35176772448835
 30
0.0
 10
390.093609644577
 20
-61.18598732349113
 30
0.0
 10
408.6047479634024
 20
-64.31494078554284
 30
0.0
 10
408.6047479634024
 20
-64.31494078554284
 30
0.0
 10
525.2714146301008
 20
-84.03520672917942
 30
0.0
 10
525.2714146301008
 20
-84.03520672917942
 30
0.0
 10
533.6643005776452
 20
-85.4538633827897
 30
0.0
 10
540.2396905868065
 20
-92.02925339195038
 30
0.0
 10
541.6583472404155
 20
-100.422139339496
 30
0.0
 10
543.4992964065242
 20
-111.3133414827889
 30
0.0
 10
536.1626167733937
 20
-121.6347894503958
 30
0.0
 10
525.2714146300514
 20
-123.4757386165434
 30
0.0
 10
525.2714146300514
 20
-123.4757386165434
 30
0.0
 10
408.6047479634486
 20
-143.1960045601691
 30
0.0
 10
408.6047479634486
 20
-143.1960045601691
 30
0.0
 10
390.093609644577
 20
-146.3249580221942
 30
0.0
 10
371.8972341507786
 20
-136.1591776211982
 30
0.0
 10
364.8570888612506
 20
-118.7554726728428
 30
0.0
  0
ENDBLK
  5
B2
330
AF
100
AcDbEntity
  8
0
100
AcDbBlockEnd
  0
BLOCK
  5
B6
330
B4
100
AcDbEntity
  8
0
100
AcDbBlockBegin
  2
block 16
 70
     0
 10
0.0
 20
0.0
 30
0.0
  3
block 16
  1

  0
SPLINE
  5
B8
330
B4
100
AcDbEntity
  8
Capa 1
 62
     7
370
    25
100
AcDbSpline
210
0.0
220
0.0
230
1.0
 70
    11
 71
     3
 72
    20
 73
    16
 74
     0
 42
0.0000000001
 43
0.0000000001
 12
1.0
 22
0.0
 32
0.0
 13
1.0
 23
0.0
 33
0.0
 40
0.0
 40
0.0
 40
0.0
 40
0.0
 40
1.0
 40
1.0
 40
1.0
 40
2.0
 40
2.0
 40
2.0
 40
3.0
 40
3.0
 40
3.0
 40
4.0
 40
4.0
 40
4.0
 40
5.0
 40
5.0
 40
5.0
 40
5.0
 10
201.4743332468656
 20
-98.75422219234126
 30
0.0
 10
201.4743332471374
 20
-92.67908994420269
 30
0.0
 10
196.5494654954982
 20
-87.75422219212014
 30
0.0
 10
190.4743332473597
 20
-87.75422219184742
 30
0.0
 10
184.3992009992211
 20
-87.75422219157468
 30
0.0
 10
179.4743332471379
 20
-92.67908994321446
 30
0.0
 10
179.4743332468658
 20
-98.75422219135369
 30
0.0
 10
179.4743332465924
 20
-104.8293544394923
 30
0.0
 10
184.3992009982328
 20
-109.7542221915748
 30
0.0
 10
190.4743332463714
 20
-109.7542221918469
 30
0.0
 10
196.54946549451
 20
-109.7542221921203
 30
0.0
 10
201.4743332465919
 20
-104.8293544404798
 30
0.0
 10
201.4743332468656
 20
-98.75422219234126
 30
0.0
 10
201.4743332468656
 20
-98.75422219234126
 30
0.0
 10
201.4743332468656
 20
-98.75422219234126
 30
0.0
 10
201.4743332468656
 20
-98.75422219234126
 30
0.0
  0
ENDBLK
  5
B7
330
B4
100
AcDbEntity
  8
0
100
AcDbBlockEnd
  0
BLOCK
  5
BB
330
B9
100
AcDbEntity
  8
0
100
AcDbBlockBegin
  2
block 17
 70
     0
 10
0.0
 20
0.0
 30
0.0
  3
block 17
  1

  0
SPLINE
  5
BD
330
B9
100
AcDbEntity
  8
Capa 1
 62
     7
370
    25
100
AcDbSpline
210
0.0
220
0.0
230
1.0
 70
    11
 71
     3
 72
    20
 73
    16
 74
     0
 42
0.0000000001
 43
0.0000000001
 12
1.0
 22
0.0
 32
0.0
 13
1.0
 23
0.0
 33
0.0
 40
0.0
 40
0.0
 40
0.0
 40
0.0
 40
1.0
 40
1.0
 40
1.0
 40
2.0
 40
2.0
 40
2.0
 40
3.0
 40
3.0
 40
3.0
 40
4.0
 40
4.0
 40
4.0
 40
5.0
 40
5.0
 40
5.0
 40
5.0
 10
314.4743332468641
 20
-98.75422219741453
 30
0.0
 10
314.4743332469662
 20
-96.54508319809136
 30
0.0
 10
312.6834722463675
 20
-94.75422219733419
 30
0.0
 10
310.4743332470443
 20
-94.75422219723472
 30
0.0
 10
308.2651942477205
 20
-94.7542221971359
 30
0.0
 10
306.4743332469665
 20
-96.54508319773296
 30
0.0
 10
306.4743332468639
 20
-98.75422219705519
 30
0.0
 10
306.474333246765
 20
-100.963361196379
 30
0.0
 10
308.2651942473611
 20
-102.7542221971355
 30
0.0
 10
310.4743332466843
 20
-102.754222197235
 30
0.0
 10
312.6834722460075
 20
-102.7542221973338
 30
0.0
 10
314.4743332467653
 20
-100.963361196738
 30
0.0
 10
314.4743332468641
 20
-98.75422219741453
 30
0.0
 10
314.4743332468641
 20
-98.75422219741453
 30
0.0
 10
314.4743332468641
 20
-98.75422219741453
 30
0.0
 10
314.4743332468641
 20
-98.75422219741453
 30
0.0
  0
ENDBLK
  5
BC
330
B9
100
AcDbEntity
  8
0
100
AcDbBlockEnd
  0
BLOCK
  5
C0
330
BE
100
AcDbEntity
  8
0
100
AcDbBlockBegin
  2
block 18
 70
     0
 10
0.0
 20
0.0
 30
0.0
  3
block 18
  1

  0
POLYLINE
  5
C2
330
BE
100
AcDbEntity
  8
Capa 1
 62
     7
370
    25
100
AcDb2dPolyline
 66
     1
 10
0.0
 20
0.0
 30
0.0
  0
VERTEX
  5
C3
330
C2
100
AcDbEntity
  8
Capa 1
 62
     7
370
    25
100
AcDbVertex
100
AcDb2dVertex
 10
266.9743332461922
 20
-113.7542221952821
 30
0.0
  0
VERTEX
  5
C4
330
C2
100
AcDbEntity
  8
Capa 1
 62
     7
370
    25
100
AcDbVertex
100
AcDb2dVertex
 10
266.9743332466401
 20
-103.7542221952824
 30
0.0
  0
VERTEX
  5
C5
330
C2
100
AcDbEntity
  8
Capa 1
 62
     7
370
    25
100
AcDbVertex
100
AcDb2dVertex
 10
263.9743332466406
 20
-103.7542221951476
 30
0.0
  0
VERTEX
  5
C6
330
C2
100
AcDbEntity
  8
Capa 1
 62
     7
370
    25
100
AcDbVertex
100
AcDb2dVertex
 10
263.9743332461915
 20
-113.7542221951473
 30
0.0
  0
VERTEX
  5
C7
330
C2
100
AcDbEntity
  8
Capa 1
 62
     7
370
    25
100
AcDbVertex
100
AcDb2dVertex
 10
266.9743332461922
 20
-113.7542221952821
 30
0.0
  0
SEQEND
  5
C8
330
C2
100
AcDbEntity
  8
Capa 1
 62
     7
370
    25
  0
ENDBLK
  5
C1
330
BE
100
AcDbEntity
  8
0
100
AcDbBlockEnd
  0
BLOCK
  5
CB
330
C9
100
AcDbEntity
  8
0
100
AcDbBlockBegin
  2
block 19
 70
     0
 10
0.0
 20
0.0
 30
0.0
  3
block 19
  1

  0
POLYLINE
  5
CD
330
C9
100
AcDbEntity
  8
Capa 1
 62
     7
370
    25
100
AcDb2dPolyline
 66
     1
 10
0.0
 20
0.0
 30
0.0
  0
VERTEX
  5
CE
330
CD
100
AcDbEntity
  8
Capa 1
 62
     7
370
    25
100
AcDbVertex
100
AcDb2dVertex
 10
266.9743332470893
 20
-93.754222195282
 30
0.0
  0
VERTEX
  5
CF
330
CD
100
AcDbEntity
  8
Capa 1
 62
     7
370
    25
100
AcDbVertex
100
AcDb2dVertex
 10
266.9743332475385
 20
-83.75422219528164
 30
0.0
  0
VERTEX
  5
D0
330
CD
100
AcDbEntity
  8
Capa 1
 62
     7
370
    25
100
AcDbVertex
100
AcDb2dVertex
 10
263.9743332475391
 20
-83.75422219514688
 30
0.0
  0
VERTEX
  5
D1
330
CD
100
AcDbEntity
  8
Capa 1
 62
     7
370
    25
100
AcDbVertex
100
AcDb2dVertex
 10
263.9743332470898
 20
-93.75422219514724
 30
0.0
  0
VERTEX
  5
D2
330
CD
100
AcDbEntity
  8
Capa 1
 62
     7
370
    25
100
AcDbVertex
100
AcDb2dVertex
 10
266.9743332470893
 20
-93.754222195282
 30
0.0
  0
SEQEND
  5
D3
330
CD
100
AcDbEntity
  8
Capa 1
 62
     7
370
    25
  0
ENDBLK
  5
CC
330
C9
100
AcDbEntity
  8
0
100
AcDbBlockEnd
  0
BLOCK
  5
D6
330
D4
100
AcDbEntity
  8
0
100
AcDbBlockBegin
  2
block 20
 70
     0
 10
0.0
 20
0.0
 30
0.0
  3
block 20
  1

  0
SPLINE
  5
D8
330
D4
100
AcDbEntity
  8
Capa 1
 62
     7
370
    25
100
AcDbSpline
210
0.0
220
0.0
230
1.0
 70
    11
 71
     3
 72
    50
 73
    46
 74
     0
 42
0.0000000001
 43
0.0000000001
 12
1.0
 22
0.0
 32
0.0
 13
1.0
 23
0.0
 33
0.0
 40
0.0
 40
0.0
 40
0.0
 40
0.0
 40
1.0
 40
1.0
 40
1.0
 40
2.0
 40
2.0
 40
2.0
 40
3.0
 40
3.0
 40
3.0
 40
4.0
 40
4.0
 40
4.0
 40
5.0
 40
5.0
 40
5.0
 40
6.0
 40
6.0
 40
6.0
 40
7.0
 40
7.0
 40
7.0
 40
8.0
 40
8.0
 40
8.0
 40
9.0
 40
9.0
 40
9.0
 40
10.0
 40
10.0
 40
10.0
 40
11.0
 40
11.0
 40
11.0
 40
12.0
 40
12.0
 40
12.0
 40
13.0
 40
13.0
 40
13.0
 40
14.0
 40
14.0
 40
14.0
 40
15.0
 40
15.0
 40
15.0
 40
15.0
 10
347.5553256816925
 20
-113.7542221989
 30
0.0
 10
347.5553256816925
 20
-113.7542221989
 30
0.0
 10
344.9743332461937
 20
-113.7542221987838
 30
0.0
 10
344.9743332461937
 20
-113.7542221987838
 30
0.0
 10
344.9743332461937
 20
-113.7542221987838
 30
0.0
 10
344.9743332466415
 20
-103.7542221987835
 30
0.0
 10
344.9743332466415
 20
-103.7542221987835
 30
0.0
 10
344.9743332466415
 20
-103.7542221987835
 30
0.0
 10
347.9743332466385
 20
-103.7542221989182
 30
0.0
 10
347.9743332466385
 20
-103.7542221989182
 30
0.0
 10
347.9743332466385
 20
-103.7542221989182
 30
0.0
 10
347.9743332462393
 20
-112.6736331060189
 30
0.0
 10
347.9743332462393
 20
-112.6736331060189
 30
0.0
 10
351.3076665799751
 20
-103.6933680047993
 30
0.0
 10
351.3076665804198
 20
-93.81507639333648
 30
0.0
 10
347.9743332474887
 20
-84.83481129186848
 30
0.0
 10
347.9743332474887
 20
-84.83481129186848
 30
0.0
 10
347.9743332470896
 20
-93.7542221989185
 30
0.0
 10
347.9743332470896
 20
-93.7542221989185
 30
0.0
 10
347.9743332470896
 20
-93.7542221989185
 30
0.0
 10
344.9743332470901
 20
-93.75422219878375
 30
0.0
 10
344.9743332470901
 20
-93.75422219878375
 30
0.0
 10
344.9743332470901
 20
-93.75422219878375
 30
0.0
 10
344.974333247538
 20
-83.75422219878403
 30
0.0
 10
344.974333247538
 20
-83.75422219878403
 30
0.0
 10
344.974333247538
 20
-83.75422219878403
 30
0.0
 10
347.5553256830298
 20
-83.7542221989265
 30
0.0
 10
347.5553256830298
 20
-83.7542221989265
 30
0.0
 10
340.5151803942923
 20
-66.35051725022846
 30
0.0
 10
322.3188049009528
 20
-56.184736848415
 30
0.0
 10
303.8076665819855
 20
-59.31369030963572
 30
0.0
 10
303.8076665819855
 20
-59.31369030963572
 30
0.0
 10
187.1409999144035
 20
-79.03395624803476
 30
0.0
 10
187.1409999144035
 20
-79.03395624803476
 30
0.0
 10
178.748113966795
 20
-80.45261290126771
 30
0.0
 10
172.1727239573385
 20
-87.02800291013321
 30
0.0
 10
170.7540673033515
 20
-95.42088885761532
 30
0.0
 10
168.9131181367525
 20
-106.3120910008248
 30
0.0
 10
176.249797769423
 20
-116.6335389687615
 30
0.0
 10
187.1409999126799
 20
-118.4744881353977
 30
0.0
 10
187.1409999126799
 20
-118.4744881353977
 30
0.0
 10
303.807666578401
 20
-138.1947540842616
 30
0.0
 10
303.807666578401
 20
-138.1947540842616
 30
0.0
 10
322.3188048971283
 20
-141.323707547118
 30
0.0
 10
340.5151803913855
 20
-131.157927146939
 30
0.0
 10
347.5553256816925
 20
-113.7542221989
 30
0.0
  0
ENDBLK
  5
D7
330
D4
100
AcDbEntity
  8
0
100
AcDbBlockEnd
  0
BLOCK
  5
DB
330
D9
100
AcDbEntity
  8
0
100
AcDbBlockBegin
  2
block 21
 70
     0
 10
0.0
 20
0.0
 30
0.0
  3
block 21
  1

  0
POLYLINE
  5
DD
330
D9
100
AcDbEntity
  8
Capa 1
 62
     7
370
    25
100
AcDb2dPolyline
 66
     1
 10
0.0
 20
0.0
 30
0.0
  0
VERTEX
  5
DE
330
DD
100
AcDbEntity
  8
Capa 1
 62
     7
370
    25
100
AcDbVertex
100
AcDb2dVertex
 10
331.0996666207673
 20
-276.8637777398116
 30
0.0
  0
VERTEX
  5
DF
330
DD
100
AcDbEntity
  8
Capa 1
 62
     7
370
    25
100
AcDbVertex
100
AcDb2dVertex
 10
328.0996666207679
 20
-276.8637777398116
 30
0.0
  0
VERTEX
  5
E0
330
DD
100
AcDbEntity
  8
Capa 1
 62
     7
370
    25
100
AcDbVertex
100
AcDb2dVertex
 10
328.0996666207679
 20
-251.8637777398114
 30
0.0
  0
VERTEX
  5
E1
330
DD
100
AcDbEntity
  8
Capa 1
 62
     7
370
    25
100
AcDbVertex
100
AcDb2dVertex
 10
331.0996666207673
 20
-251.8637777398114
 30
0.0
  0
VERTEX
  5
E2
330
DD
100
AcDbEntity
  8
Capa 1
 62
     7
370
    25
100
AcDbVertex
100
AcDb2dVertex
 10
331.0996666207673
 20
-231.863777739812
 30
0.0
  0
VERTEX
  5
E3
330
DD
100
AcDbEntity
  8
Capa 1
 62
     7
370
    25
100
AcDbVertex
100
AcDb2dVertex
 10
328.0996666207679
 20
-231.863777739812
 30
0.0
  0
VERTEX
  5
E4
330
DD
100
AcDbEntity
  8
Capa 1
 62
     7
370
    25
100
AcDbVertex
100
AcDb2dVertex
 10
328.0996666207679
 20
-206.8637777398117
 30
0.0
  0
VERTEX
  5
E5
330
DD
100
AcDbEntity
  8
Capa 1
 62
     7
370
    25
100
AcDbVertex
100
AcDb2dVertex
 10
331.0996666207673
 20
-206.8637777398117
 30
0.0
  0
VERTEX
  5
E6
330
DD
100
AcDbEntity
  8
Capa 1
 62
     7
370
    25
100
AcDbVertex
100
AcDb2dVertex
 10
331.0996666207673
 20
-176.8637777398116
 30
0.0
  0
VERTEX
  5
E7
330
DD
100
AcDbEntity
  8
Capa 1
 62
     7
370
    25
100
AcDbVertex
100
AcDb2dVertex
 10
328.0996666207679
 20
-176.8637777398116
 30
0.0
  0
VERTEX
  5
E8
330
DD
100
AcDbEntity
  8
Capa 1
 62
     7
370
    25
100
AcDbVertex
100
AcDb2dVertex
 10
328.0996666207679
 20
-151.863777739812
 30
0.0
  0
VERTEX
  5
E9
330
DD
100
AcDbEntity
  8
Capa 1
 62
     7
370
    25
100
AcDbVertex
100
AcDb2dVertex
 10
298.5996666207675
 20
-151.863777739812
 30
0.0
  0
VERTEX
  5
EA
330
DD
100
AcDbEntity
  8
Capa 1
 62
     7
370
    25
100
AcDbVertex
100
AcDb2dVertex
 10
298.5996666207675
 20
-154.8637777398118
 30
0.0
  0
VERTEX
  5
EB
330
DD
100
AcDbEntity
  8
Capa 1
 62
     7
370
    25
100
AcDbVertex
100
AcDb2dVertex
 10
273.5996666207672
 20
-154.8637777398118
 30
0.0
  0
VERTEX
  5
EC
330
DD
100
AcDbEntity
  8
Capa 1
 62
     7
370
    25
100
AcDbVertex
100
AcDb2dVertex
 10
273.5996666207672
 20
-151.863777739812
 30
0.0
  0
VERTEX
  5
ED
330
DD
100
AcDbEntity
  8
Capa 1
 62
     7
370
    25
100
AcDbVertex
100
AcDb2dVertex
 10
253.5996666207672
 20
-151.863777739812
 30
0.0
  0
VERTEX
  5
EE
330
DD
100
AcDbEntity
  8
Capa 1
 62
     7
370
    25
100
AcDbVertex
100
AcDb2dVertex
 10
253.5996666207672
 20
-154.8637777398118
 30
0.0
  0
VERTEX
  5
EF
330
DD
100
AcDbEntity
  8
Capa 1
 62
     7
370
    25
100
AcDbVertex
100
AcDb2dVertex
 10
228.5996666207637
 20
-154.8637777398118
 30
0.0
  0
VERTEX
  5
F0
330
DD
100
AcDbEntity
  8
Capa 1
 62
     7
370
    25
100
AcDbVertex
100
AcDb2dVertex
 10
228.5996666207637
 20
-151.863777739812
 30
0.0
  0
VERTEX
  5
F1
330
DD
100
AcDbEntity
  8
Capa 1
 62
     7
370
    25
100
AcDbVertex
100
AcDb2dVertex
 10
208.5996666207675
 20
-151.863777739812
 30
0.0
  0
VERTEX
  5
F2
330
DD
100
AcDbEntity
  8
Capa 1
 62
     7
370
    25
100
AcDbVertex
100
AcDb2dVertex
 10
208.5996666207675
 20
-154.8637777398118
 30
0.0
  0
VERTEX
  5
F3
330
DD
100
AcDbEntity
  8
Capa 1
 62
     7
370
    25
100
AcDbVertex
100
AcDb2dVertex
 10
183.5996666207673
 20
-154.8637777398118
 30
0.0
  0
VERTEX
  5
F4
330
DD
100
AcDbEntity
  8
Capa 1
 62
     7
370
    25
100
AcDbVertex
100
AcDb2dVertex
 10
183.5996666207673
 20
-151.863777739812
 30
0.0
  0
VERTEX
  5
F5
330
DD
100
AcDbEntity
  8
Capa 1
 62
     7
370
    25
100
AcDbVertex
100
AcDb2dVertex
 10
154.0996666207672
 20
-151.863777739812
 30
0.0
  0
VERTEX
  5
F6
330
DD
100
AcDbEntity
  8
Capa 1
 62
     7
370
    25
100
AcDbVertex
100
AcDb2dVertex
 10
154.0996666207672
 20
-176.8637777398116
 30
0.0
  0
VERTEX
  5
F7
330
DD
100
AcDbEntity
  8
Capa 1
 62
     7
370
    25
100
AcDbVertex
100
AcDb2dVertex
 10
151.0996666207677
 20
-176.8637777398116
 30
0.0
  0
VERTEX
  5
F8
330
DD
100
AcDbEntity
  8
Capa 1
 62
     7
370
    25
100
AcDbVertex
100
AcDb2dVertex
 10
151.0996666207677
 20
-206.8637777398117
 30
0.0
  0
VERTEX
  5
F9
330
DD
100
AcDbEntity
  8
Capa 1
 62
     7
370
    25
100
AcDbVertex
100
AcDb2dVertex
 10
154.0996666207672
 20
-206.8637777398117
 30
0.0
  0
VERTEX
  5
FA
330
DD
100
AcDbEntity
  8
Capa 1
 62
     7
370
    25
100
AcDbVertex
100
AcDb2dVertex
 10
154.0996666207672
 20
-231.863777739812
 30
0.0
  0
VERTEX
  5
FB
330
DD
100
AcDbEntity
  8
Capa 1
 62
     7
370
    25
100
AcDbVertex
100
AcDb2dVertex
 10
151.0996666207677
 20
-231.863777739812
 30
0.0
  0
VERTEX
  5
FC
330
DD
100
AcDbEntity
  8
Capa 1
 62
     7
370
    25
100
AcDbVertex
100
AcDb2dVertex
 10
151.0996666207677
 20
-251.8637777398114
 30
0.0
  0
VERTEX
  5
FD
330
DD
100
AcDbEntity
  8
Capa 1
 62
     7
370
    25
100
AcDbVertex
100
AcDb2dVertex
 10
154.0996666207672
 20
-251.8637777398114
 30
0.0
  0
VERTEX
  5
FE
330
DD
100
AcDbEntity
  8
Capa 1
 62
     7
370
    25
100
AcDbVertex
100
AcDb2dVertex
 10
154.0996666207672
 20
-276.8637777398116
 30
0.0
  0
VERTEX
  5
FF
330
DD
100
AcDbEntity
  8
Capa 1
 62
     7
370
    25
100
AcDbVertex
100
AcDb2dVertex
 10
151.0996666207677
 20
-276.8637777398116
 30
0.0
  0
VERTEX
  5
100
330
DD
100
AcDbEntity
  8
Capa 1
 62
     7
370
    25
100
AcDbVertex
100
AcDb2dVertex
 10
151.0996666207677
 20
-306.863777739812
 30
0.0
  0
VERTEX
  5
101
330
DD
100
AcDbEntity
  8
Capa 1
 62
     7
370
    25
100
AcDbVertex
100
AcDb2dVertex
 10
154.0996666207672
 20
-306.863777739812
 30
0.0
  0
VERTEX
  5
102
330
DD
100
AcDbEntity
  8
Capa 1
 62
     7
370
    25
100
AcDbVertex
100
AcDb2dVertex
 10
154.0996666207672
 20
-331.8637777398104
 30
0.0
  0
VERTEX
  5
103
330
DD
100
AcDbEntity
  8
Capa 1
 62
     7
370
    25
100
AcDbVertex
100
AcDb2dVertex
 10
183.5996666207673
 20
-331.8637777398104
 30
0.0
  0
VERTEX
  5
104
330
DD
100
AcDbEntity
  8
Capa 1
 62
     7
370
    25
100
AcDbVertex
100
AcDb2dVertex
 10
183.5996666207673
 20
-328.8637777398109
 30
0.0
  0
VERTEX
  5
105
330
DD
100
AcDbEntity
  8
Capa 1
 62
     7
370
    25
100
AcDbVertex
100
AcDb2dVertex
 10
208.5996666207675
 20
-328.8637777398109
 30
0.0
  0
VERTEX
  5
106
330
DD
100
AcDbEntity
  8
Capa 1
 62
     7
370
    25
100
AcDbVertex
100
AcDb2dVertex
 10
208.5996666207675
 20
-331.8637777398104
 30
0.0
  0
VERTEX
  5
107
330
DD
100
AcDbEntity
  8
Capa 1
 62
     7
370
    25
100
AcDbVertex
100
AcDb2dVertex
 10
228.5996666207637
 20
-331.8637777398104
 30
0.0
  0
VERTEX
  5
108
330
DD
100
AcDbEntity
  8
Capa 1
 62
     7
370
    25
100
AcDbVertex
100
AcDb2dVertex
 10
228.5996666207637
 20
-328.8637777398109
 30
0.0
  0
VERTEX
  5
109
330
DD
100
AcDbEntity
  8
Capa 1
 62
     7
370
    25
100
AcDbVertex
100
AcDb2dVertex
 10
253.5996666207672
 20
-328.8637777398109
 30
0.0
  0
VERTEX
  5
10A
330
DD
100
AcDbEntity
  8
Capa 1
 62
     7
370
    25
100
AcDbVertex
100
AcDb2dVertex
 10
253.5996666207672
 20
-331.8637777398104
 30
0.0
  0
VERTEX
  5
10B
330
DD
100
AcDbEntity
  8
Capa 1
 62
     7
370
    25
100
AcDbVertex
100
AcDb2dVertex
 10
273.5996666207672
 20
-331.8637777398104
 30
0.0
  0
VERTEX
  5
10C
330
DD
100
AcDbEntity
  8
Capa 1
 62
     7
370
    25
100
AcDbVertex
100
AcDb2dVertex
 10
273.5996666207672
 20
-328.8637777398109
 30
0.0
  0
VERTEX
  5
10D
330
DD
100
AcDbEntity
  8
Capa 1
 62
     7
370
    25
100
AcDbVertex
100
AcDb2dVertex
 10
298.5996666207675
 20
-328.8637777398109
 30
0.0
  0
VERTEX
  5
10E
330
DD
100
AcDbEntity
  8
Capa 1
 62
     7
370
    25
100
AcDbVertex
100
AcDb2dVertex
 10
298.5996666207675
 20
-331.8637777398104
 30
0.0
  0
VERTEX
  5
10F
330
DD
100
AcDbEntity
  8
Capa 1
 62
     7
370
    25
100
AcDbVertex
100
AcDb2dVertex
 10
328.0996666207679
 20
-331.8637777398104
 30
0.0
  0
VERTEX
  5
110
330
DD
100
AcDbEntity
  8
Capa 1
 62
     7
370
    25
100
AcDbVertex
100
AcDb2dVertex
 10
328.0996666207679
 20
-306.863777739812
 30
0.0
  0
VERTEX
  5
111
330
DD
100
AcDbEntity
  8
Capa 1
 62
     7
370
    25
100
AcDbVertex
100
AcDb2dVertex
 10
331.0996666207673
 20
-306.863777739812
 30
0.0
  0
VERTEX
  5
112
330
DD
100
AcDbEntity
  8
Capa 1
 62
     7
370
    25
100
AcDbVertex
100
AcDb2dVertex
 10
331.0996666207673
 20
-276.8637777398116
 30
0.0
  0
SEQEND
  5
113
330
DD
100
AcDbEntity
  8
Capa 1
 62
     7
370
    25
  0
ENDBLK
  5
DC
330
D9
100
AcDbEntity
  8
0
100
AcDbBlockEnd
  0
BLOCK
  5
116
330
114
100
AcDbEntity
  8
0
100
AcDbBlockBegin
  2
block 22
 70
     0
 10
0.0
 20
0.0
 30
0.0
  3
block 22
  1

  0
POLYLINE
  5
118
330
114
100
AcDbEntity
  8
Capa 1
 62
     7
370
    25
100
AcDb2dPolyline
 66
     1
 10
0.0
 20
0.0
 30
0.0
  0
VERTEX
  5
119
330
118
100
AcDbEntity
  8
Capa 1
 62
     7
370
    25
100
AcDbVertex
100
AcDb2dVertex
 10
270.0996666207674
 20
-231.3637777398116
 30
0.0
  0
VERTEX
  5
11A
330
118
100
AcDbEntity
  8
Capa 1
 62
     7
370
    25
100
AcDbVertex
100
AcDb2dVertex
 10
311.0996666207679
 20
-231.3637777398116
 30
0.0
  0
VERTEX
  5
11B
330
118
100
AcDbEntity
  8
Capa 1
 62
     7
370
    25
100
AcDbVertex
100
AcDb2dVertex
 10
311.0996666207679
 20
-252.3637777398117
 30
0.0
  0
VERTEX
  5
11C
330
118
100
AcDbEntity
  8
Capa 1
 62
     7
370
    25
100
AcDbVertex
100
AcDb2dVertex
 10
270.0996666207674
 20
-252.3637777398117
 30
0.0
  0
VERTEX
  5
11D
330
118
100
AcDbEntity
  8
Capa 1
 62
     7
370
    25
100
AcDbVertex
100
AcDb2dVertex
 10
270.0996666207674
 20
-231.3637777398116
 30
0.0
  0
SEQEND
  5
11E
330
118
100
AcDbEntity
  8
Capa 1
 62
     7
370
    25
  0
ENDBLK
  5
117
330
114
100
AcDbEntity
  8
0
100
AcDbBlockEnd
  0
BLOCK
  5
121
330
11F
100
AcDbEntity
  8
0
100
AcDbBlockBegin
  2
block 23
 70
     0
 10
0.0
 20
0.0
 30
0.0
  3
block 23
  1

  0
SPLINE
  5
123
330
11F
100
AcDbEntity
  8
Capa 1
 62
     7
370
    25
100
AcDbSpline
210
0.0
220
0.0
230
1.0
 70
    11
 71
     3
 72
    20
 73
    16
 74
     0
 42
0.0000000001
 43
0.0000000001
 12
1.0
 22
0.0
 32
0.0
 13
1.0
 23
0.0
 33
0.0
 40
0.0
 40
0.0
 40
0.0
 40
0.0
 40
1.0
 40
1.0
 40
1.0
 40
2.0
 40
2.0
 40
2.0
 40
3.0
 40
3.0
 40
3.0
 40
4.0
 40
4.0
 40
4.0
 40
5.0
 40
5.0
 40
5.0
 40
5.0
 10
170.0996666207671
 20
-241.8637777398123
 30
0.0
 10
170.0996666207671
 20
-235.7886454916737
 30
0.0
 10
175.0245343726263
 20
-230.8637777398113
 30
0.0
 10
181.0996666207636
 20
-230.8637777398113
 30
0.0
 10
187.1747988689048
 20
-230.8637777398113
 30
0.0
 10
192.0996666207672
 20
-235.7886454916737
 30
0.0
 10
192.0996666207672
 20
-241.8637777398123
 30
0.0
 10
192.0996666207672
 20
-247.9389099879509
 30
0.0
 10
187.1747988689048
 20
-252.863777739812
 30
0.0
 10
181.0996666207636
 20
-252.863777739812
 30
0.0
 10
175.0245343726263
 20
-252.863777739812
 30
0.0
 10
170.0996666207671
 20
-247.9389099879509
 30
0.0
 10
170.0996666207671
 20
-241.8637777398123
 30
0.0
 10
170.0996666207671
 20
-241.8637777398123
 30
0.0
 10
170.0996666207671
 20
-241.8637777398123
 30
0.0
 10
170.0996666207671
 20
-241.8637777398123
 30
0.0
  0
ENDBLK
  5
122
330
11F
100
AcDbEntity
  8
0
100
AcDbBlockEnd
  0
BLOCK
  5
126
330
124
100
AcDbEntity
  8
0
100
AcDbBlockBegin
  2
block 24
 70
     0
 10
0.0
 20
0.0
 30
0.0
  3
block 24
  1

  0
SPLINE
  5
128
330
124
100
AcDbEntity
  8
Capa 1
 62
     7
370
    25
100
AcDbSpline
210
0.0
220
0.0
230
1.0
 70
    11
 71
     3
 72
    20
 73
    16
 74
     0
 42
0.0000000001
 43
0.0000000001
 12
1.0
 22
0.0
 32
0.0
 13
1.0
 23
0.0
 33
0.0
 40
0.0
 40
0.0
 40
0.0
 40
0.0
 40
1.0
 40
1.0
 40
1.0
 40
2.0
 40
2.0
 40
2.0
 40
3.0
 40
3.0
 40
3.0
 40
4.0
 40
4.0
 40
4.0
 40
5.0
 40
5.0
 40
5.0
 40
5.0
 10
266.2931087079155
 20
-236.4127619654124
 30
0.0
 10
266.2931087079155
 20
-236.136619590496
 30
0.0
 10
266.5169663330025
 20
-235.9127619654121
 30
0.0
 10
266.7931087079158
 20
-235.9127619654121
 30
0.0
 10
267.0692510828316
 20
-235.9127619654121
 30
0.0
 10
267.2931087079155
 20
-236.136619590496
 30
0.0
 10
267.2931087079155
 20
-236.4127619654124
 30
0.0
 10
267.2931087079155
 20
-236.6889043403276
 30
0.0
 10
267.0692510828316
 20
-236.9127619654114
 30
0.0
 10
266.7931087079158
 20
-236.9127619654114
 30
0.0
 10
266.5169663330025
 20
-236.9127619654114
 30
0.0
 10
266.2931087079155
 20
-236.6889043403276
 30
0.0
 10
266.2931087079155
 20
-236.4127619654124
 30
0.0
 10
266.2931087079155
 20
-236.4127619654124
 30
0.0
 10
266.2931087079155
 20
-236.4127619654124
 30
0.0
 10
266.2931087079155
 20
-236.4127619654124
 30
0.0
  0
ENDBLK
  5
127
330
124
100
AcDbEntity
  8
0
100
AcDbBlockEnd
  0
BLOCK
  5
12B
330
129
100
AcDbEntity
  8
0
100
AcDbBlockBegin
  2
block 25
 70
     0
 10
0.0
 20
0.0
 30
0.0
  3
block 25
  1

  0
SPLINE
  5
12D
330
129
100
AcDbEntity
  8
Capa 1
 62
     7
370
    25
100
AcDbSpline
210
0.0
220
0.0
230
1.0
 70
    11
 71
     3
 72
    20
 73
    16
 74
     0
 42
0.0000000001
 43
0.0000000001
 12
1.0
 22
0.0
 32
0.0
 13
1.0
 23
0.0
 33
0.0
 40
0.0
 40
0.0
 40
0.0
 40
0.0
 40
1.0
 40
1.0
 40
1.0
 40
2.0
 40
2.0
 40
2.0
 40
3.0
 40
3.0
 40
3.0
 40
4.0
 40
4.0
 40
4.0
 40
5.0
 40
5.0
 40
5.0
 40
5.0
 10
266.3817174283171
 20
-246.3637777398115
 30
0.0
 10
266.3817174283171
 20
-246.0876353648963
 30
0.0
 10
266.6055750534004
 20
-245.8637777398124
 30
0.0
 10
266.8817174283168
 20
-245.8637777398124
 30
0.0
 10
267.1578598032333
 20
-245.8637777398124
 30
0.0
 10
267.3817174283172
 20
-246.0876353648963
 30
0.0
 10
267.3817174283172
 20
-246.3637777398115
 30
0.0
 10
267.3817174283172
 20
-246.6399201147279
 30
0.0
 10
267.1578598032333
 20
-246.8637777398118
 30
0.0
 10
266.8817174283168
 20
-246.8637777398118
 30
0.0
 10
266.6055750534004
 20
-246.8637777398118
 30
0.0
 10
266.3817174283171
 20
-246.6399201147279
 30
0.0
 10
266.3817174283171
 20
-246.3637777398115
 30
0.0
 10
266.3817174283171
 20
-246.3637777398115
 30
0.0
 10
266.3817174283171
 20
-246.3637777398115
 30
0.0
 10
266.3817174283171
 20
-246.3637777398115
 30
0.0
  0
ENDBLK
  5
12C
330
129
100
AcDbEntity
  8
0
100
AcDbBlockEnd
  0
BLOCK
  5
130
330
12E
100
AcDbEntity
  8
0
100
AcDbBlockBegin
  2
block 26
 70
     0
 10
0.0
 20
0.0
 30
0.0
  3
block 26
  1

  0
SPLINE
  5
132
330
12E
100
AcDbEntity
  8
Capa 1
 62
     7
370
    25
100
AcDbSpline
210
0.0
220
0.0
230
1.0
 70
    11
 71
     3
 72
    20
 73
    16
 74
     0
 42
0.0000000001
 43
0.0000000001
 12
1.0
 22
0.0
 32
0.0
 13
1.0
 23
0.0
 33
0.0
 40
0.0
 40
0.0
 40
0.0
 40
0.0
 40
1.0
 40
1.0
 40
1.0
 40
2.0
 40
2.0
 40
2.0
 40
3.0
 40
3.0
 40
3.0
 40
4.0
 40
4.0
 40
4.0
 40
5.0
 40
5.0
 40
5.0
 40
5.0
 10
314.5176158132147
 20
-246.3637777398115
 30
0.0
 10
314.5176158132147
 20
-246.0876353648963
 30
0.0
 10
314.7414734383011
 20
-245.8637777398124
 30
0.0
 10
315.017615813215
 20
-245.8637777398124
 30
0.0
 10
315.2937581881314
 20
-245.8637777398124
 30
0.0
 10
315.5176158132179
 20
-246.0876353648963
 30
0.0
 10
315.5176158132179
 20
-246.3637777398115
 30
0.0
 10
315.5176158132179
 20
-246.6399201147279
 30
0.0
 10
315.2937581881314
 20
-246.8637777398118
 30
0.0
 10
315.017615813215
 20
-246.8637777398118
 30
0.0
 10
314.7414734383011
 20
-246.8637777398118
 30
0.0
 10
314.5176158132147
 20
-246.6399201147279
 30
0.0
 10
314.5176158132147
 20
-246.3637777398115
 30
0.0
 10
314.5176158132147
 20
-246.3637777398115
 30
0.0
 10
314.5176158132147
 20
-246.3637777398115
 30
0.0
 10
314.5176158132147
 20
-246.3637777398115
 30
0.0
  0
ENDBLK
  5
131
330
12E
100
AcDbEntity
  8
0
100
AcDbBlockEnd
  0
BLOCK
  5
135
330
133
100
AcDbEntity
  8
0
100
AcDbBlockBegin
  2
block 27
 70
     0
 10
0.0
 20
0.0
 30
0.0
  3
block 27
  1

  0
SPLINE
  5
137
330
133
100
AcDbEntity
  8
Capa 1
 62
     7
370
    25
100
AcDbSpline
210
0.0
220
0.0
230
1.0
 70
    11
 71
     3
 72
    20
 73
    16
 74
     0
 42
0.0000000001
 43
0.0000000001
 12
1.0
 22
0.0
 32
0.0
 13
1.0
 23
0.0
 33
0.0
 40
0.0
 40
0.0
 40
0.0
 40
0.0
 40
1.0
 40
1.0
 40
1.0
 40
2.0
 40
2.0
 40
2.0
 40
3.0
 40
3.0
 40
3.0
 40
4.0
 40
4.0
 40
4.0
 40
5.0
 40
5.0
 40
5.0
 40
5.0
 10
314.5176158132147
 20
-236.3637777398124
 30
0.0
 10
314.5176158132147
 20
-236.087635364896
 30
0.0
 10
314.7414734383011
 20
-235.8637777398121
 30
0.0
 10
315.017615813215
 20
-235.8637777398121
 30
0.0
 10
315.2937581881314
 20
-235.8637777398121
 30
0.0
 10
315.5176158132179
 20
-236.087635364896
 30
0.0
 10
315.5176158132179
 20
-236.3637777398124
 30
0.0
 10
315.5176158132179
 20
-236.6399201147276
 30
0.0
 10
315.2937581881314
 20
-236.8637777398115
 30
0.0
 10
315.017615813215
 20
-236.8637777398115
 30
0.0
 10
314.7414734383011
 20
-236.8637777398115
 30
0.0
 10
314.5176158132147
 20
-236.6399201147276
 30
0.0
 10
314.5176158132147
 20
-236.3637777398124
 30
0.0
 10
314.5176158132147
 20
-236.3637777398124
 30
0.0
 10
314.5176158132147
 20
-236.3637777398124
 30
0.0
 10
314.5176158132147
 20
-236.3637777398124
 30
0.0
  0
ENDBLK
  5
136
330
133
100
AcDbEntity
  8
0
100
AcDbBlockEnd
  0
BLOCK
  5
13A
330
138
100
AcDbEntity
  8
0
100
AcDbBlockBegin
  2
block 28
 70
     0
 10
0.0
 20
0.0
 30
0.0
  3
block 28
  1

  0
POLYLINE
  5
13C
330
138
100
AcDbEntity
  8
Capa 1
 62
     7
370
    25
100
AcDb2dPolyline
 66
     1
 10
0.0
 20
0.0
 30
0.0
  0
VERTEX
  5
13D
330
13C
100
AcDbEntity
  8
Capa 1
 62
     7
370
    25
100
AcDbVertex
100
AcDb2dVertex
 10
122.216333302644
 20
-214.6102221693192
 30
0.0
  0
VERTEX
  5
13E
330
13C
100
AcDbEntity
  8
Capa 1
 62
     7
370
    25
100
AcDbVertex
100
AcDb2dVertex
 10
122.2163333027788
 20
-211.6102221693197
 30
0.0
  0
VERTEX
  5
13F
330
13C
100
AcDbEntity
  8
Capa 1
 62
     7
370
    25
100
AcDbVertex
100
AcDb2dVertex
 10
134.2163333027779
 20
-211.6102221698575
 30
0.0
  0
VERTEX
  5
140
330
13C
100
AcDbEntity
  8
Capa 1
 62
     7
370
    25
100
AcDbVertex
100
AcDb2dVertex
 10
134.2163333026432
 20
-214.6102221698582
 30
0.0
  0
VERTEX
  5
141
330
13C
100
AcDbEntity
  8
Capa 1
 62
     7
370
    25
100
AcDbVertex
100
AcDb2dVertex
 10
139.7163333026437
 20
-214.6102221701046
 30
0.0
  0
VERTEX
  5
142
330
13C
100
AcDbEntity
  8
Capa 1
 62
     7
370
    25
100
AcDbVertex
100
AcDb2dVertex
 10
139.716333303766
 20
-189.6102221701047
 30
0.0
  0
VERTEX
  5
143
330
13C
100
AcDbEntity
  8
Capa 1
 62
     7
370
    25
100
AcDbVertex
100
AcDb2dVertex
 10
136.7163333037659
 20
-189.6102221699699
 30
0.0
  0
VERTEX
  5
144
330
13C
100
AcDbEntity
  8
Capa 1
 62
     7
370
    25
100
AcDbVertex
100
AcDb2dVertex
 10
136.7163333051128
 20
-159.6102221699702
 30
0.0
  0
VERTEX
  5
145
330
13C
100
AcDbEntity
  8
Capa 1
 62
     7
370
    25
100
AcDbVertex
100
AcDb2dVertex
 10
139.716333305113
 20
-159.6102221701049
 30
0.0
  0
VERTEX
  5
146
330
13C
100
AcDbEntity
  8
Capa 1
 62
     7
370
    25
100
AcDbVertex
100
AcDb2dVertex
 10
139.7163333062353
 20
-134.6102221701047
 30
0.0
  0
VERTEX
  5
147
330
13C
100
AcDbEntity
  8
Capa 1
 62
     7
370
    25
100
AcDbVertex
100
AcDb2dVertex
 10
136.7163333062352
 20
-134.6102221699699
 30
0.0
  0
VERTEX
  5
148
330
13C
100
AcDbEntity
  8
Capa 1
 62
     7
370
    25
100
AcDbVertex
100
AcDb2dVertex
 10
136.7163333071329
 20
-114.6102221699699
 30
0.0
  0
VERTEX
  5
149
330
13C
100
AcDbEntity
  8
Capa 1
 62
     7
370
    25
100
AcDbVertex
100
AcDb2dVertex
 10
139.7163333071337
 20
-114.6102221701046
 30
0.0
  0
VERTEX
  5
14A
330
13C
100
AcDbEntity
  8
Capa 1
 62
     7
370
    25
100
AcDbVertex
100
AcDb2dVertex
 10
139.7163333082553
 20
-89.6102221701044
 30
0.0
  0
VERTEX
  5
14B
330
13C
100
AcDbEntity
  8
Capa 1
 62
     7
370
    25
100
AcDbVertex
100
AcDb2dVertex
 10
136.7163333082559
 20
-89.61022216996963
 30
0.0
  0
VERTEX
  5
14C
330
13C
100
AcDbEntity
  8
Capa 1
 62
     7
370
    25
100
AcDbVertex
100
AcDb2dVertex
 10
136.7163333096022
 20
-59.61022216996986
 30
0.0
  0
VERTEX
  5
14D
330
13C
100
AcDbEntity
  8
Capa 1
 62
     7
370
    25
100
AcDbVertex
100
AcDb2dVertex
 10
139.7163333096029
 20
-59.61022217010461
 30
0.0
  0
VERTEX
  5
14E
330
13C
100
AcDbEntity
  8
Capa 1
 62
     7
370
    25
100
AcDbVertex
100
AcDb2dVertex
 10
139.7163333107246
 20
-34.61022217010437
 30
0.0
  0
VERTEX
  5
14F
330
13C
100
AcDbEntity
  8
Capa 1
 62
     7
370
    25
100
AcDbVertex
100
AcDb2dVertex
 10
134.2163333107247
 20
-34.61022216985732
 30
0.0
  0
VERTEX
  5
150
330
13C
100
AcDbEntity
  8
Capa 1
 62
     7
370
    25
100
AcDbVertex
100
AcDb2dVertex
 10
134.21633331059
 20
-37.61022216985742
 30
0.0
  0
VERTEX
  5
151
330
13C
100
AcDbEntity
  8
Capa 1
 62
     7
370
    25
100
AcDbVertex
100
AcDb2dVertex
 10
122.2163333105908
 20
-37.61022216931904
 30
0.0
  0
VERTEX
  5
152
330
13C
100
AcDbEntity
  8
Capa 1
 62
     7
370
    25
100
AcDbVertex
100
AcDb2dVertex
 10
122.2163333107256
 20
-34.61022216931894
 30
0.0
  0
VERTEX
  5
153
330
13C
100
AcDbEntity
  8
Capa 1
 62
     7
370
    25
100
AcDbVertex
100
AcDb2dVertex
 10
112.2163333107252
 20
-34.61022216886975
 30
0.0
  0
VERTEX
  5
154
330
13C
100
AcDbEntity
  8
Capa 1
 62
     7
370
    25
100
AcDbVertex
100
AcDb2dVertex
 10
112.2163333105905
 20
-37.61022216886985
 30
0.0
  0
VERTEX
  5
155
330
13C
100
AcDbEntity
  8
Capa 1
 62
     7
370
    25
100
AcDbVertex
100
AcDb2dVertex
 10
100.2163333105901
 20
-37.61022216833147
 30
0.0
  0
VERTEX
  5
156
330
13C
100
AcDbEntity
  8
Capa 1
 62
     7
370
    25
100
AcDbVertex
100
AcDb2dVertex
 10
100.2163333107248
 20
-34.61022216833136
 30
0.0
  0
VERTEX
  5
157
330
13C
100
AcDbEntity
  8
Capa 1
 62
     7
370
    25
100
AcDbVertex
100
AcDb2dVertex
 10
94.71633331072495
 20
-34.61022216808431
 30
0.0
  0
VERTEX
  5
158
330
13C
100
AcDbEntity
  8
Capa 1
 62
     7
370
    25
100
AcDbVertex
100
AcDb2dVertex
 10
94.71633330960198
 20
-59.61022216808455
 30
0.0
  0
VERTEX
  5
159
330
13C
100
AcDbEntity
  8
Capa 1
 62
     7
370
    25
100
AcDbVertex
100
AcDb2dVertex
 10
97.71633330960272
 20
-59.6102221682193
 30
0.0
  0
VERTEX
  5
15A
330
13C
100
AcDbEntity
  8
Capa 1
 62
     7
370
    25
100
AcDbVertex
100
AcDb2dVertex
 10
97.71633330825514
 20
-89.61022216821908
 30
0.0
  0
VERTEX
  5
15B
330
13C
100
AcDbEntity
  8
Capa 1
 62
     7
370
    25
100
AcDbVertex
100
AcDb2dVertex
 10
94.71633330825568
 20
-89.61022216808432
 30
0.0
  0
VERTEX
  5
15C
330
13C
100
AcDbEntity
  8
Capa 1
 62
     7
370
    25
100
AcDbVertex
100
AcDb2dVertex
 10
94.71633330713304
 20
-114.6102221680846
 30
0.0
  0
VERTEX
  5
15D
330
13C
100
AcDbEntity
  8
Capa 1
 62
     7
370
    25
100
AcDbVertex
100
AcDb2dVertex
 10
97.71633330713347
 20
-114.6102221682193
 30
0.0
  0
VERTEX
  5
15E
330
13C
100
AcDbEntity
  8
Capa 1
 62
     7
370
    25
100
AcDbVertex
100
AcDb2dVertex
 10
97.71633330623509
 20
-134.6102221682194
 30
0.0
  0
VERTEX
  5
15F
330
13C
100
AcDbEntity
  8
Capa 1
 62
     7
370
    25
100
AcDbVertex
100
AcDb2dVertex
 10
94.71633330623497
 20
-134.6102221680846
 30
0.0
  0
VERTEX
  5
160
330
13C
100
AcDbEntity
  8
Capa 1
 62
     7
370
    25
100
AcDbVertex
100
AcDb2dVertex
 10
94.71633330511264
 20
-159.6102221680842
 30
0.0
  0
VERTEX
  5
161
330
13C
100
AcDbEntity
  8
Capa 1
 62
     7
370
    25
100
AcDbVertex
100
AcDb2dVertex
 10
97.71633330511276
 20
-159.610222168219
 30
0.0
  0
VERTEX
  5
162
330
13C
100
AcDbEntity
  8
Capa 1
 62
     7
370
    25
100
AcDbVertex
100
AcDb2dVertex
 10
97.71633330376582
 20
-189.6102221682188
 30
0.0
  0
VERTEX
  5
163
330
13C
100
AcDbEntity
  8
Capa 1
 62
     7
370
    25
100
AcDbVertex
100
AcDb2dVertex
 10
94.71633330376572
 20
-189.610222168084
 30
0.0
  0
VERTEX
  5
164
330
13C
100
AcDbEntity
  8
Capa 1
 62
     7
370
    25
100
AcDbVertex
100
AcDb2dVertex
 10
94.71633330264339
 20
-214.6102221680846
 30
0.0
  0
VERTEX
  5
165
330
13C
100
AcDbEntity
  8
Capa 1
 62
     7
370
    25
100
AcDbVertex
100
AcDb2dVertex
 10
100.2163333026436
 20
-214.610222168331
 30
0.0
  0
VERTEX
  5
166
330
13C
100
AcDbEntity
  8
Capa 1
 62
     7
370
    25
100
AcDbVertex
100
AcDb2dVertex
 10
100.2163333027783
 20
-211.6102221683315
 30
0.0
  0
VERTEX
  5
167
330
13C
100
AcDbEntity
  8
Capa 1
 62
     7
370
    25
100
AcDbVertex
100
AcDb2dVertex
 10
112.2163333027784
 20
-211.6102221688705
 30
0.0
  0
VERTEX
  5
168
330
13C
100
AcDbEntity
  8
Capa 1
 62
     7
370
    25
100
AcDbVertex
100
AcDb2dVertex
 10
112.2163333026437
 20
-214.61022216887
 30
0.0
  0
VERTEX
  5
169
330
13C
100
AcDbEntity
  8
Capa 1
 62
     7
370
    25
100
AcDbVertex
100
AcDb2dVertex
 10
122.216333302644
 20
-214.6102221693192
 30
0.0
  0
SEQEND
  5
16A
330
13C
100
AcDbEntity
  8
Capa 1
 62
     7
370
    25
  0
ENDBLK
  5
13B
330
138
100
AcDbEntity
  8
0
100
AcDbBlockEnd
  0
BLOCK
  5
16D
330
16B
100
AcDbEntity
  8
0
100
AcDbBlockBegin
  2
block 29
 70
     0
 10
0.0
 20
0.0
 30
0.0
  3
block 29
  1

  0
POLYLINE
  5
16F
330
16B
100
AcDbEntity
  8
Capa 1
 62
     7
370
    25
100
AcDb2dPolyline
 66
     1
 10
0.0
 20
0.0
 30
0.0
  0
VERTEX
  5
170
330
16F
100
AcDbEntity
  8
Capa 1
 62
     7
370
    25
100
AcDbVertex
100
AcDb2dVertex
 10
73.12166721588487
 20
-34.86138292539337
 30
0.0
  0
VERTEX
  5
171
330
16F
100
AcDbEntity
  8
Capa 1
 62
     7
370
    25
100
AcDbVertex
100
AcDb2dVertex
 10
73.12166721575012
 20
-37.86138292539348
 30
0.0
  0
VERTEX
  5
172
330
16F
100
AcDbEntity
  8
Capa 1
 62
     7
370
    25
100
AcDbVertex
100
AcDb2dVertex
 10
85.1216672157499
 20
-37.86138292593283
 30
0.0
  0
VERTEX
  5
173
330
16F
100
AcDbEntity
  8
Capa 1
 62
     7
370
    25
100
AcDbVertex
100
AcDb2dVertex
 10
85.12166721588402
 20
-34.8613829259324
 30
0.0
  0
VERTEX
  5
174
330
16F
100
AcDbEntity
  8
Capa 1
 62
     7
370
    25
100
AcDbVertex
100
AcDb2dVertex
 10
90.62166721588389
 20
-34.86138292617946
 30
0.0
  0
VERTEX
  5
175
330
16F
100
AcDbEntity
  8
Capa 1
 62
     7
370
    25
100
AcDbVertex
100
AcDb2dVertex
 10
90.6216672147622
 20
-59.86138292617969
 30
0.0
  0
VERTEX
  5
176
330
16F
100
AcDbEntity
  8
Capa 1
 62
     7
370
    25
100
AcDbVertex
100
AcDb2dVertex
 10
87.62166721476177
 20
-59.86138292604494
 30
0.0
  0
VERTEX
  5
177
330
16F
100
AcDbEntity
  8
Capa 1
 62
     7
370
    25
100
AcDbVertex
100
AcDb2dVertex
 10
87.62166721341517
 20
-89.86138292604471
 30
0.0
  0
VERTEX
  5
178
330
16F
100
AcDbEntity
  8
Capa 1
 62
     7
370
    25
100
AcDbVertex
100
AcDb2dVertex
 10
90.62166721341463
 20
-89.86138292617947
 30
0.0
  0
VERTEX
  5
179
330
16F
100
AcDbEntity
  8
Capa 1
 62
     7
370
    25
100
AcDbVertex
100
AcDb2dVertex
 10
90.62166721229293
 20
-114.8613829261797
 30
0.0
  0
VERTEX
  5
17A
330
16F
100
AcDbEntity
  8
Capa 1
 62
     7
370
    25
100
AcDbVertex
100
AcDb2dVertex
 10
87.6216672122922
 20
-114.861382926045
 30
0.0
  0
VERTEX
  5
17B
330
16F
100
AcDbEntity
  8
Capa 1
 62
     7
370
    25
100
AcDbVertex
100
AcDb2dVertex
 10
87.62166721139445
 20
-134.861382926045
 30
0.0
  0
VERTEX
  5
17C
330
16F
100
AcDbEntity
  8
Capa 1
 62
     7
370
    25
100
AcDbVertex
100
AcDb2dVertex
 10
90.62166721139457
 20
-134.8613829261798
 30
0.0
  0
VERTEX
  5
17D
330
16F
100
AcDbEntity
  8
Capa 1
 62
     7
370
    25
100
AcDbVertex
100
AcDb2dVertex
 10
90.62166721027222
 20
-159.8613829261794
 30
0.0
  0
VERTEX
  5
17E
330
16F
100
AcDbEntity
  8
Capa 1
 62
     7
370
    25
100
AcDbVertex
100
AcDb2dVertex
 10
87.62166721027212
 20
-159.8613829260449
 30
0.0
  0
VERTEX
  5
17F
330
16F
100
AcDbEntity
  8
Capa 1
 62
     7
370
    25
100
AcDbVertex
100
AcDb2dVertex
 10
87.6216672089252
 20
-189.8613829260454
 30
0.0
  0
VERTEX
  5
180
330
16F
100
AcDbEntity
  8
Capa 1
 62
     7
370
    25
100
AcDbVertex
100
AcDb2dVertex
 10
90.6216672089253
 20
-189.8613829261791
 30
0.0
  0
VERTEX
  5
181
330
16F
100
AcDbEntity
  8
Capa 1
 62
     7
370
    25
100
AcDbVertex
100
AcDb2dVertex
 10
90.62166720780297
 20
-214.8613829261794
 30
0.0
  0
VERTEX
  5
182
330
16F
100
AcDbEntity
  8
Capa 1
 62
     7
370
    25
100
AcDbVertex
100
AcDb2dVertex
 10
85.1216672078031
 20
-214.861382925933
 30
0.0
  0
VERTEX
  5
183
330
16F
100
AcDbEntity
  8
Capa 1
 62
     7
370
    25
100
AcDbVertex
100
AcDb2dVertex
 10
85.12166720793785
 20
-211.8613829259322
 30
0.0
  0
VERTEX
  5
184
330
16F
100
AcDbEntity
  8
Capa 1
 62
     7
370
    25
100
AcDbVertex
100
AcDb2dVertex
 10
73.12166720793807
 20
-211.8613829253939
 30
0.0
  0
VERTEX
  5
185
330
16F
100
AcDbEntity
  8
Capa 1
 62
     7
370
    25
100
AcDbVertex
100
AcDb2dVertex
 10
73.12166720780331
 20
-214.8613829253939
 30
0.0
  0
VERTEX
  5
186
330
16F
100
AcDbEntity
  8
Capa 1
 62
     7
370
    25
100
AcDbVertex
100
AcDb2dVertex
 10
63.12166720780296
 20
-214.8613829249448
 30
0.0
  0
VERTEX
  5
187
330
16F
100
AcDbEntity
  8
Capa 1
 62
     7
370
    25
100
AcDbVertex
100
AcDb2dVertex
 10
63.12166720793772
 20
-211.8613829249446
 30
0.0
  0
VERTEX
  5
188
330
16F
100
AcDbEntity
  8
Capa 1
 62
     7
370
    25
100
AcDbVertex
100
AcDb2dVertex
 10
51.12166720793794
 20
-211.8613829244063
 30
0.0
  0
VERTEX
  5
189
330
16F
100
AcDbEntity
  8
Capa 1
 62
     7
370
    25
100
AcDbVertex
100
AcDb2dVertex
 10
51.12166720780318
 20
-214.8613829244057
 30
0.0
  0
VERTEX
  5
18A
330
16F
100
AcDbEntity
  8
Capa 1
 62
     7
370
    25
100
AcDbVertex
100
AcDb2dVertex
 10
45.62166720780267
 20
-214.8613829241593
 30
0.0
  0
VERTEX
  5
18B
330
16F
100
AcDbEntity
  8
Capa 1
 62
     7
370
    25
100
AcDbVertex
100
AcDb2dVertex
 10
45.62166720892564
 20
-189.8613829241584
 30
0.0
  0
VERTEX
  5
18C
330
16F
100
AcDbEntity
  8
Capa 1
 62
     7
370
    25
100
AcDbVertex
100
AcDb2dVertex
 10
48.62166720892542
 20
-189.8613829242932
 30
0.0
  0
VERTEX
  5
18D
330
16F
100
AcDbEntity
  8
Capa 1
 62
     7
370
    25
100
AcDbVertex
100
AcDb2dVertex
 10
48.62166721027267
 20
-159.8613829242937
 30
0.0
  0
VERTEX
  5
18E
330
16F
100
AcDbEntity
  8
Capa 1
 62
     7
370
    25
100
AcDbVertex
100
AcDb2dVertex
 10
45.62166721027192
 20
-159.861382924159
 30
0.0
  0
VERTEX
  5
18F
330
16F
100
AcDbEntity
  8
Capa 1
 62
     7
370
    25
100
AcDbVertex
100
AcDb2dVertex
 10
45.62166721139522
 20
-134.8613829241591
 30
0.0
  0
VERTEX
  5
190
330
16F
100
AcDbEntity
  8
Capa 1
 62
     7
370
    25
100
AcDbVertex
100
AcDb2dVertex
 10
48.62166721139436
 20
-134.8613829242938
 30
0.0
  0
VERTEX
  5
191
330
16F
100
AcDbEntity
  8
Capa 1
 62
     7
370
    25
100
AcDbVertex
100
AcDb2dVertex
 10
48.62166721229274
 20
-114.8613829242938
 30
0.0
  0
VERTEX
  5
192
330
16F
100
AcDbEntity
  8
Capa 1
 62
     7
370
    25
100
AcDbVertex
100
AcDb2dVertex
 10
45.62166721229264
 20
-114.861382924159
 30
0.0
  0
VERTEX
  5
193
330
16F
100
AcDbEntity
  8
Capa 1
 62
     7
370
    25
100
AcDbVertex
100
AcDb2dVertex
 10
45.62166721341497
 20
-89.86138292415876
 30
0.0
  0
VERTEX
  5
194
330
16F
100
AcDbEntity
  8
Capa 1
 62
     7
370
    25
100
AcDbVertex
100
AcDb2dVertex
 10
48.62166721341507
 20
-89.86138292429352
 30
0.0
  0
VERTEX
  5
195
330
16F
100
AcDbEntity
  8
Capa 1
 62
     7
370
    25
100
AcDbVertex
100
AcDb2dVertex
 10
48.621667214762
 20
-59.86138292429374
 30
0.0
  0
VERTEX
  5
196
330
16F
100
AcDbEntity
  8
Capa 1
 62
     7
370
    25
100
AcDbVertex
100
AcDb2dVertex
 10
45.62166721476189
 20
-59.86138292415899
 30
0.0
  0
VERTEX
  5
197
330
16F
100
AcDbEntity
  8
Capa 1
 62
     7
370
    25
100
AcDbVertex
100
AcDb2dVertex
 10
45.62166721588422
 20
-34.86138292415875
 30
0.0
  0
VERTEX
  5
198
330
16F
100
AcDbEntity
  8
Capa 1
 62
     7
370
    25
100
AcDbVertex
100
AcDb2dVertex
 10
51.1216672158841
 20
-34.8613829244058
 30
0.0
  0
VERTEX
  5
199
330
16F
100
AcDbEntity
  8
Capa 1
 62
     7
370
    25
100
AcDbVertex
100
AcDb2dVertex
 10
51.12166721574998
 20
-37.86138292440591
 30
0.0
  0
VERTEX
  5
19A
330
16F
100
AcDbEntity
  8
Capa 1
 62
     7
370
    25
100
AcDbVertex
100
AcDb2dVertex
 10
63.12166721574976
 20
-37.86138292494493
 30
0.0
  0
VERTEX
  5
19B
330
16F
100
AcDbEntity
  8
Capa 1
 62
     7
370
    25
100
AcDbVertex
100
AcDb2dVertex
 10
63.12166721588452
 20
-34.86138292494483
 30
0.0
  0
VERTEX
  5
19C
330
16F
100
AcDbEntity
  8
Capa 1
 62
     7
370
    25
100
AcDbVertex
100
AcDb2dVertex
 10
73.12166721588487
 20
-34.86138292539337
 30
0.0
  0
SEQEND
  5
19D
330
16F
100
AcDbEntity
  8
Capa 1
 62
     7
370
    25
  0
ENDBLK
  5
16E
330
16B
100
AcDbEntity
  8
0
100
AcDbBlockEnd
  0
BLOCK
  5
1A0
330
19E
100
AcDbEntity
  8
0
100
AcDbBlockBegin
  2
block 30
 70
     0
 10
0.0
 20
0.0
 30
0.0
  3
block 30
  1

  0
POLYLINE
  5
1A2
330
19E
100
AcDbEntity
  8
Capa 1
 62
     7
370
    25
100
AcDb2dPolyline
 66
     1
 10
0.0
 20
0.0
 30
0.0
  0
VERTEX
  5
1A3
330
1A2
100
AcDbEntity
  8
Capa 1
 62
     7
370
    25
100
AcDbVertex
100
AcDb2dVertex
 10
62.66433331300219
 20
-220.0042221579962
 30
0.0
  0
VERTEX
  5
1A4
330
1A2
100
AcDbEntity
  8
Capa 1
 62
     7
370
    25
100
AcDbVertex
100
AcDb2dVertex
 10
62.66433331286743
 20
-223.0042221579963
 30
0.0
  0
VERTEX
  5
1A5
330
1A2
100
AcDbEntity
  8
Capa 1
 62
     7
370
    25
100
AcDbVertex
100
AcDb2dVertex
 10
72.66433331286778
 20
-223.0042221584455
 30
0.0
  0
VERTEX
  5
1A6
330
1A2
100
AcDbEntity
  8
Capa 1
 62
     7
370
    25
100
AcDbVertex
100
AcDb2dVertex
 10
72.66433331300254
 20
-220.0042221584447
 30
0.0
  0
VERTEX
  5
1A7
330
1A2
100
AcDbEntity
  8
Capa 1
 62
     7
370
    25
100
AcDbVertex
100
AcDb2dVertex
 10
84.66433331300136
 20
-220.0042221589838
 30
0.0
  0
VERTEX
  5
1A8
330
1A2
100
AcDbEntity
  8
Capa 1
 62
     7
370
    25
100
AcDbVertex
100
AcDb2dVertex
 10
84.6643333128666
 20
-223.0042221589839
 30
0.0
  0
VERTEX
  5
1A9
330
1A2
100
AcDbEntity
  8
Capa 1
 62
     7
370
    25
100
AcDbVertex
100
AcDb2dVertex
 10
87.16433331286702
 20
-223.0042221590962
 30
0.0
  0
VERTEX
  5
1AA
330
1A2
100
AcDbEntity
  8
Capa 1
 62
     7
370
    25
100
AcDbVertex
100
AcDb2dVertex
 10
87.16433331154255
 20
-252.5042221590963
 30
0.0
  0
VERTEX
  5
1AB
330
1A2
100
AcDbEntity
  8
Capa 1
 62
     7
370
    25
100
AcDbVertex
100
AcDb2dVertex
 10
90.16433331154201
 20
-252.504222159231
 30
0.0
  0
VERTEX
  5
1AC
330
1A2
100
AcDbEntity
  8
Capa 1
 62
     7
370
    25
100
AcDbVertex
100
AcDb2dVertex
 10
90.16433331041968
 20
-277.5042221592312
 30
0.0
  0
VERTEX
  5
1AD
330
1A2
100
AcDbEntity
  8
Capa 1
 62
     7
370
    25
100
AcDbVertex
100
AcDb2dVertex
 10
87.16433331042022
 20
-277.5042221590965
 30
0.0
  0
VERTEX
  5
1AE
330
1A2
100
AcDbEntity
  8
Capa 1
 62
     7
370
    25
100
AcDbVertex
100
AcDb2dVertex
 10
87.16433330952248
 20
-297.5042221590966
 30
0.0
  0
VERTEX
  5
1AF
330
1A2
100
AcDbEntity
  8
Capa 1
 62
     7
370
    25
100
AcDbVertex
100
AcDb2dVertex
 10
90.16433330952195
 20
-297.5042221592313
 30
0.0
  0
VERTEX
  5
1B0
330
1A2
100
AcDbEntity
  8
Capa 1
 62
     7
370
    25
100
AcDbVertex
100
AcDb2dVertex
 10
90.16433330839962
 20
-322.5042221592309
 30
0.0
  0
VERTEX
  5
1B1
330
1A2
100
AcDbEntity
  8
Capa 1
 62
     7
370
    25
100
AcDbVertex
100
AcDb2dVertex
 10
87.16433330840015
 20
-322.5042221590962
 30
0.0
  0
VERTEX
  5
1B2
330
1A2
100
AcDbEntity
  8
Capa 1
 62
     7
370
    25
100
AcDbVertex
100
AcDb2dVertex
 10
87.16433330750209
 20
-342.5042221590962
 30
0.0
  0
VERTEX
  5
1B3
330
1A2
100
AcDbEntity
  8
Capa 1
 62
     7
370
    25
100
AcDbVertex
100
AcDb2dVertex
 10
90.16433330750188
 20
-342.504222159231
 30
0.0
  0
VERTEX
  5
1B4
330
1A2
100
AcDbEntity
  8
Capa 1
 62
     7
370
    25
100
AcDbVertex
100
AcDb2dVertex
 10
90.16433330637891
 20
-367.5042221592299
 30
0.0
  0
VERTEX
  5
1B5
330
1A2
100
AcDbEntity
  8
Capa 1
 62
     7
370
    25
100
AcDbVertex
100
AcDb2dVertex
 10
87.16433330637943
 20
-367.5042221590965
 30
0.0
  0
VERTEX
  5
1B6
330
1A2
100
AcDbEntity
  8
Capa 1
 62
     7
370
    25
100
AcDbVertex
100
AcDb2dVertex
 10
87.1643333050556
 20
-397.0042221590959
 30
0.0
  0
VERTEX
  5
1B7
330
1A2
100
AcDbEntity
  8
Capa 1
 62
     7
370
    25
100
AcDbVertex
100
AcDb2dVertex
 10
84.66433330505552
 20
-397.0042221589829
 30
0.0
  0
VERTEX
  5
1B8
330
1A2
100
AcDbEntity
  8
Capa 1
 62
     7
370
    25
100
AcDbVertex
100
AcDb2dVertex
 10
84.66433330492077
 20
-400.0042221589831
 30
0.0
  0
VERTEX
  5
1B9
330
1A2
100
AcDbEntity
  8
Capa 1
 62
     7
370
    25
100
AcDbVertex
100
AcDb2dVertex
 10
72.66433330492131
 20
-400.0042221584434
 30
0.0
  0
VERTEX
  5
1BA
330
1A2
100
AcDbEntity
  8
Capa 1
 62
     7
370
    25
100
AcDbVertex
100
AcDb2dVertex
 10
72.66433330505606
 20
-397.0042221584433
 30
0.0
  0
VERTEX
  5
1BB
330
1A2
100
AcDbEntity
  8
Capa 1
 62
     7
370
    25
100
AcDbVertex
100
AcDb2dVertex
 10
62.66433330505571
 20
-397.0042221579954
 30
0.0
  0
VERTEX
  5
1BC
330
1A2
100
AcDbEntity
  8
Capa 1
 62
     7
370
    25
100
AcDbVertex
100
AcDb2dVertex
 10
62.66433330492095
 20
-400.0042221579955
 30
0.0
  0
VERTEX
  5
1BD
330
1A2
100
AcDbEntity
  8
Capa 1
 62
     7
370
    25
100
AcDbVertex
100
AcDb2dVertex
 10
50.66433330492053
 20
-400.004222157459
 30
0.0
  0
VERTEX
  5
1BE
330
1A2
100
AcDbEntity
  8
Capa 1
 62
     7
370
    25
100
AcDbVertex
100
AcDb2dVertex
 10
50.66433330505529
 20
-397.0042221574596
 30
0.0
  0
VERTEX
  5
1BF
330
1A2
100
AcDbEntity
  8
Capa 1
 62
     7
370
    25
100
AcDbVertex
100
AcDb2dVertex
 10
48.16433330505488
 20
-397.0042221573466
 30
0.0
  0
VERTEX
  5
1C0
330
1A2
100
AcDbEntity
  8
Capa 1
 62
     7
370
    25
100
AcDbVertex
100
AcDb2dVertex
 10
48.1643333063787
 20
-367.5042221573465
 30
0.0
  0
VERTEX
  5
1C1
330
1A2
100
AcDbEntity
  8
Capa 1
 62
     7
370
    25
100
AcDbVertex
100
AcDb2dVertex
 10
45.16433330637924
 20
-367.5042221572086
 30
0.0
  0
VERTEX
  5
1C2
330
1A2
100
AcDbEntity
  8
Capa 1
 62
     7
370
    25
100
AcDbVertex
100
AcDb2dVertex
 10
45.16433330750221
 20
-342.5042221572109
 30
0.0
  0
VERTEX
  5
1C3
330
1A2
100
AcDbEntity
  8
Capa 1
 62
     7
370
    25
100
AcDbVertex
100
AcDb2dVertex
 10
48.16433330750168
 20
-342.5042221573457
 30
0.0
  0
VERTEX
  5
1C4
330
1A2
100
AcDbEntity
  8
Capa 1
 62
     7
370
    25
100
AcDbVertex
100
AcDb2dVertex
 10
48.16433330839941
 20
-322.5042221573449
 30
0.0
  0
VERTEX
  5
1C5
330
1A2
100
AcDbEntity
  8
Capa 1
 62
     7
370
    25
100
AcDbVertex
100
AcDb2dVertex
 10
45.16433330839995
 20
-322.5042221572102
 30
0.0
  0
VERTEX
  5
1C6
330
1A2
100
AcDbEntity
  8
Capa 1
 62
     7
370
    25
100
AcDbVertex
100
AcDb2dVertex
 10
45.16433330952228
 20
-297.5042221572112
 30
0.0
  0
VERTEX
  5
1C7
330
1A2
100
AcDbEntity
  8
Capa 1
 62
     7
370
    25
100
AcDbVertex
100
AcDb2dVertex
 10
48.16433330952174
 20
-297.504222157346
 30
0.0
  0
VERTEX
  5
1C8
330
1A2
100
AcDbEntity
  8
Capa 1
 62
     7
370
    25
100
AcDbVertex
100
AcDb2dVertex
 10
48.16433331041948
 20
-277.5042221573453
 30
0.0
  0
VERTEX
  5
1C9
330
1A2
100
AcDbEntity
  8
Capa 1
 62
     7
370
    25
100
AcDbVertex
100
AcDb2dVertex
 10
45.16433331042002
 20
-277.5042221572106
 30
0.0
  0
VERTEX
  5
1CA
330
1A2
100
AcDbEntity
  8
Capa 1
 62
     7
370
    25
100
AcDbVertex
100
AcDb2dVertex
 10
45.16433331154235
 20
-252.5042221572103
 30
0.0
  0
VERTEX
  5
1CB
330
1A2
100
AcDbEntity
  8
Capa 1
 62
     7
370
    25
100
AcDbVertex
100
AcDb2dVertex
 10
48.16433331154182
 20
-252.5042221573451
 30
0.0
  0
VERTEX
  5
1CC
330
1A2
100
AcDbEntity
  8
Capa 1
 62
     7
370
    25
100
AcDbVertex
100
AcDb2dVertex
 10
48.16433331286628
 20
-223.0042221573456
 30
0.0
  0
VERTEX
  5
1CD
330
1A2
100
AcDbEntity
  8
Capa 1
 62
     7
370
    25
100
AcDbVertex
100
AcDb2dVertex
 10
50.66433331286669
 20
-223.0042221574573
 30
0.0
  0
VERTEX
  5
1CE
330
1A2
100
AcDbEntity
  8
Capa 1
 62
     7
370
    25
100
AcDbVertex
100
AcDb2dVertex
 10
50.66433331300145
 20
-220.0042221574578
 30
0.0
  0
VERTEX
  5
1CF
330
1A2
100
AcDbEntity
  8
Capa 1
 62
     7
370
    25
100
AcDbVertex
100
AcDb2dVertex
 10
62.66433331300219
 20
-220.0042221579962
 30
0.0
  0
SEQEND
  5
1D0
330
1A2
100
AcDbEntity
  8
Capa 1
 62
     7
370
    25
  0
ENDBLK
  5
1A1
330
19E
100
AcDbEntity
  8
0
100
AcDbBlockEnd
  0
BLOCK
  5
1D3
330
1D1
100
AcDbEntity
  8
0
100
AcDbBlockBegin
  2
block 31
 70
     0
 10
0.0
 20
0.0
 30
0.0
  3
block 31
  1

  0
POLYLINE
  5
1D5
330
1D1
100
AcDbEntity
  8
Capa 1
 62
     7
370
    25
100
AcDb2dPolyline
 66
     1
 10
0.0
 20
0.0
 30
0.0
  0
VERTEX
  5
1D6
330
1D5
100
AcDbEntity
  8
Capa 1
 62
     7
370
    25
100
AcDbVertex
100
AcDb2dVertex
 10
111.5508888515449
 20
-397.8741110247828
 30
0.0
  0
VERTEX
  5
1D7
330
1D5
100
AcDbEntity
  8
Capa 1
 62
     7
370
    25
100
AcDbVertex
100
AcDb2dVertex
 10
111.5508888516796
 20
-394.8741110247827
 30
0.0
  0
VERTEX
  5
1D8
330
1D5
100
AcDbEntity
  8
Capa 1
 62
     7
370
    25
100
AcDbVertex
100
AcDb2dVertex
 10
121.55088885168
 20
-394.8741110252306
 30
0.0
  0
VERTEX
  5
1D9
330
1D5
100
AcDbEntity
  8
Capa 1
 62
     7
370
    25
100
AcDbVertex
100
AcDb2dVertex
 10
121.5508888515452
 20
-397.8741110252307
 30
0.0
  0
VERTEX
  5
1DA
330
1D5
100
AcDbEntity
  8
Capa 1
 62
     7
370
    25
100
AcDbVertex
100
AcDb2dVertex
 10
133.550888851545
 20
-397.8741110257704
 30
0.0
  0
VERTEX
  5
1DB
330
1D5
100
AcDbEntity
  8
Capa 1
 62
     7
370
    25
100
AcDbVertex
100
AcDb2dVertex
 10
133.5508888516798
 20
-394.8741110257709
 30
0.0
  0
VERTEX
  5
1DC
330
1D5
100
AcDbEntity
  8
Capa 1
 62
     7
370
    25
100
AcDbVertex
100
AcDb2dVertex
 10
136.0508888516795
 20
-394.8741110258838
 30
0.0
  0
VERTEX
  5
1DD
330
1D5
100
AcDbEntity
  8
Capa 1
 62
     7
370
    25
100
AcDbVertex
100
AcDb2dVertex
 10
136.050888853004
 20
-365.3741110258838
 30
0.0
  0
VERTEX
  5
1DE
330
1D5
100
AcDbEntity
  8
Capa 1
 62
     7
370
    25
100
AcDbVertex
100
AcDb2dVertex
 10
139.0508888530041
 20
-365.3741110260179
 30
0.0
  0
VERTEX
  5
1DF
330
1D5
100
AcDbEntity
  8
Capa 1
 62
     7
370
    25
100
AcDbVertex
100
AcDb2dVertex
 10
139.0508888541264
 20
-340.3741110260177
 30
0.0
  0
VERTEX
  5
1E0
330
1D5
100
AcDbEntity
  8
Capa 1
 62
     7
370
    25
100
AcDbVertex
100
AcDb2dVertex
 10
136.050888854126
 20
-340.3741110258829
 30
0.0
  0
VERTEX
  5
1E1
330
1D5
100
AcDbEntity
  8
Capa 1
 62
     7
370
    25
100
AcDbVertex
100
AcDb2dVertex
 10
136.0508888550244
 20
-320.3741110258822
 30
0.0
  0
VERTEX
  5
1E2
330
1D5
100
AcDbEntity
  8
Capa 1
 62
     7
370
    25
100
AcDbVertex
100
AcDb2dVertex
 10
139.0508888550245
 20
-320.3741110260169
 30
0.0
  0
VERTEX
  5
1E3
330
1D5
100
AcDbEntity
  8
Capa 1
 62
     7
370
    25
100
AcDbVertex
100
AcDb2dVertex
 10
139.0508888561468
 20
-295.374111026018
 30
0.0
  0
VERTEX
  5
1E4
330
1D5
100
AcDbEntity
  8
Capa 1
 62
     7
370
    25
100
AcDbVertex
100
AcDb2dVertex
 10
136.0508888561467
 20
-295.3741110258832
 30
0.0
  0
VERTEX
  5
1E5
330
1D5
100
AcDbEntity
  8
Capa 1
 62
     7
370
    25
100
AcDbVertex
100
AcDb2dVertex
 10
136.0508888570448
 20
-275.3741110258825
 30
0.0
  0
VERTEX
  5
1E6
330
1D5
100
AcDbEntity
  8
Capa 1
 62
     7
370
    25
100
AcDbVertex
100
AcDb2dVertex
 10
139.0508888570452
 20
-275.3741110260173
 30
0.0
  0
VERTEX
  5
1E7
330
1D5
100
AcDbEntity
  8
Capa 1
 62
     7
370
    25
100
AcDbVertex
100
AcDb2dVertex
 10
139.0508888581672
 20
-250.374111026017
 30
0.0
  0
VERTEX
  5
1E8
330
1D5
100
AcDbEntity
  8
Capa 1
 62
     7
370
    25
100
AcDbVertex
100
AcDb2dVertex
 10
136.0508888581671
 20
-250.3741110258823
 30
0.0
  0
VERTEX
  5
1E9
330
1D5
100
AcDbEntity
  8
Capa 1
 62
     7
370
    25
100
AcDbVertex
100
AcDb2dVertex
 10
136.0508888594916
 20
-220.8741110258829
 30
0.0
  0
VERTEX
  5
1EA
330
1D5
100
AcDbEntity
  8
Capa 1
 62
     7
370
    25
100
AcDbVertex
100
AcDb2dVertex
 10
133.5508888594918
 20
-220.8741110257712
 30
0.0
  0
VERTEX
  5
1EB
330
1D5
100
AcDbEntity
  8
Capa 1
 62
     7
370
    25
100
AcDbVertex
100
AcDb2dVertex
 10
133.5508888596266
 20
-217.8741110257704
 30
0.0
  0
VERTEX
  5
1EC
330
1D5
100
AcDbEntity
  8
Capa 1
 62
     7
370
    25
100
AcDbVertex
100
AcDb2dVertex
 10
121.5508888596268
 20
-217.8741110252314
 30
0.0
  0
VERTEX
  5
1ED
330
1D5
100
AcDbEntity
  8
Capa 1
 62
     7
370
    25
100
AcDbVertex
100
AcDb2dVertex
 10
121.550888859492
 20
-220.8741110252322
 30
0.0
  0
VERTEX
  5
1EE
330
1D5
100
AcDbEntity
  8
Capa 1
 62
     7
370
    25
100
AcDbVertex
100
AcDb2dVertex
 10
111.5508888594917
 20
-220.874111024783
 30
0.0
  0
VERTEX
  5
1EF
330
1D5
100
AcDbEntity
  8
Capa 1
 62
     7
370
    25
100
AcDbVertex
100
AcDb2dVertex
 10
111.5508888596264
 20
-217.8741110247822
 30
0.0
  0
VERTEX
  5
1F0
330
1D5
100
AcDbEntity
  8
Capa 1
 62
     7
370
    25
100
AcDbVertex
100
AcDb2dVertex
 10
99.55088885962665
 20
-217.8741110242432
 30
0.0
  0
VERTEX
  5
1F1
330
1D5
100
AcDbEntity
  8
Capa 1
 62
     7
370
    25
100
AcDbVertex
100
AcDb2dVertex
 10
99.55088885949189
 20
-220.8741110242439
 30
0.0
  0
VERTEX
  5
1F2
330
1D5
100
AcDbEntity
  8
Capa 1
 62
     7
370
    25
100
AcDbVertex
100
AcDb2dVertex
 10
97.05088885949213
 20
-220.8741110241323
 30
0.0
  0
VERTEX
  5
1F3
330
1D5
100
AcDbEntity
  8
Capa 1
 62
     7
370
    25
100
AcDbVertex
100
AcDb2dVertex
 10
97.05088885816767
 20
-250.3741110241317
 30
0.0
  0
VERTEX
  5
1F4
330
1D5
100
AcDbEntity
  8
Capa 1
 62
     7
370
    25
100
AcDbVertex
100
AcDb2dVertex
 10
94.05088885816755
 20
-250.374111023997
 30
0.0
  0
VERTEX
  5
1F5
330
1D5
100
AcDbEntity
  8
Capa 1
 62
     7
370
    25
100
AcDbVertex
100
AcDb2dVertex
 10
94.05088885704555
 20
-275.3741110239972
 30
0.0
  0
VERTEX
  5
1F6
330
1D5
100
AcDbEntity
  8
Capa 1
 62
     7
370
    25
100
AcDbVertex
100
AcDb2dVertex
 10
97.05088885704534
 20
-275.374111024132
 30
0.0
  0
VERTEX
  5
1F7
330
1D5
100
AcDbEntity
  8
Capa 1
 62
     7
370
    25
100
AcDbVertex
100
AcDb2dVertex
 10
97.05088885614728
 20
-295.3741110241327
 30
0.0
  0
VERTEX
  5
1F8
330
1D5
100
AcDbEntity
  8
Capa 1
 62
     7
370
    25
100
AcDbVertex
100
AcDb2dVertex
 10
94.05088885614717
 20
-295.3741110239979
 30
0.0
  0
VERTEX
  5
1F9
330
1D5
100
AcDbEntity
  8
Capa 1
 62
     7
370
    25
100
AcDbVertex
100
AcDb2dVertex
 10
94.05088885502484
 20
-320.3741110239969
 30
0.0
  0
VERTEX
  5
1FA
330
1D5
100
AcDbEntity
  8
Capa 1
 62
     7
370
    25
100
AcDbVertex
100
AcDb2dVertex
 10
97.05088885502494
 20
-320.3741110241317
 30
0.0
  0
VERTEX
  5
1FB
330
1D5
100
AcDbEntity
  8
Capa 1
 62
     7
370
    25
100
AcDbVertex
100
AcDb2dVertex
 10
97.05088885412688
 20
-340.3741110241323
 30
0.0
  0
VERTEX
  5
1FC
330
1D5
100
AcDbEntity
  8
Capa 1
 62
     7
370
    25
100
AcDbVertex
100
AcDb2dVertex
 10
94.05088885412678
 20
-340.3741110239976
 30
0.0
  0
VERTEX
  5
1FD
330
1D5
100
AcDbEntity
  8
Capa 1
 62
     7
370
    25
100
AcDbVertex
100
AcDb2dVertex
 10
94.05088885300445
 20
-365.3741110239965
 30
0.0
  0
VERTEX
  5
1FE
330
1D5
100
AcDbEntity
  8
Capa 1
 62
     7
370
    25
100
AcDbVertex
100
AcDb2dVertex
 10
97.05088885300455
 20
-365.37411102413
 30
0.0
  0
VERTEX
  5
1FF
330
1D5
100
AcDbEntity
  8
Capa 1
 62
     7
370
    25
100
AcDbVertex
100
AcDb2dVertex
 10
97.05088885168009
 20
-394.8741110241339
 30
0.0
  0
VERTEX
  5
200
330
1D5
100
AcDbEntity
  8
Capa 1
 62
     7
370
    25
100
AcDbVertex
100
AcDb2dVertex
 10
99.55088885168017
 20
-394.874111024243
 30
0.0
  0
VERTEX
  5
201
330
1D5
100
AcDbEntity
  8
Capa 1
 62
     7
370
    25
100
AcDbVertex
100
AcDb2dVertex
 10
99.55088885154542
 20
-397.8741110242431
 30
0.0
  0
VERTEX
  5
202
330
1D5
100
AcDbEntity
  8
Capa 1
 62
     7
370
    25
100
AcDbVertex
100
AcDb2dVertex
 10
111.5508888515449
 20
-397.8741110247828
 30
0.0
  0
SEQEND
  5
203
330
1D5
100
AcDbEntity
  8
Capa 1
 62
     7
370
    25
  0
ENDBLK
  5
1D4
330
1D1
100
AcDbEntity
  8
0
100
AcDbBlockEnd
  0
ENDSEC
  0
SECTION
  2
ENTITIES
  0
INSERT
  5
42
330
1F
100
AcDbEntity
  8
Capa 1
100
AcDbBlockReference
  2
block 2
 10
0.0
 20
0.0
 30
0.0
  0
INSERT
  5
47
330
1F
100
AcDbEntity
  8
Capa 1
100
AcDbBlockReference
  2
block 3
 10
0.0
 20
0.0
 30
0.0
  0
INSERT
  5
4C
330
1F
100
AcDbEntity
  8
Capa 1
100
AcDbBlockReference
  2
block 4
 10
0.0
 20
0.0
 30
0.0
  0
INSERT
  5
51
330
1F
100
AcDbEntity
  8
Capa 1
100
AcDbBlockReference
  2
block 5
 10
0.0
 20
0.0
 30
0.0
  0
INSERT
  5
56
330
1F
100
AcDbEntity
  8
Capa 1
100
AcDbBlockReference
  2
block 6
 10
0.0
 20
0.0
 30
0.0
  0
INSERT
  5
5B
330
1F
100
AcDbEntity
  8
Capa 1
100
AcDbBlockReference
  2
block 7
 10
0.0
 20
0.0
 30
0.0
  0
POLYLINE
  5
65
330
1F
100
AcDbEntity
  8
Capa 1
 62
     7
370
    25
100
AcDb2dPolyline
 66
     1
 10
0.0
 20
0.0
 30
0.0
  0
VERTEX
  5
66
330
65
100
AcDbEntity
  8
Capa 1
 62
     7
370
    25
100
AcDbVertex
100
AcDb2dVertex
 10
273.1835242984956
 20
-13.48208427804024
 30
0.0
  0
VERTEX
  5
67
330
65
100
AcDbEntity
  8
Capa 1
 62
     7
370
    25
100
AcDbVertex
100
AcDb2dVertex
 10
283.183524298496
 20
-13.48208427804024
 30
0.0
  0
VERTEX
  5
68
330
65
100
AcDbEntity
  8
Capa 1
 62
     7
370
    25
100
AcDbVertex
100
AcDb2dVertex
 10
283.183524298496
 20
-19.48208427804046
 30
0.0
  0
VERTEX
  5
69
330
65
100
AcDbEntity
  8
Capa 1
 62
     7
370
    25
100
AcDbVertex
100
AcDb2dVertex
 10
293.1835242984951
 20
-19.48208427804046
 30
0.0
  0
VERTEX
  5
6A
330
65
100
AcDbEntity
  8
Capa 1
 62
     7
370
    25
100
AcDbVertex
100
AcDb2dVertex
 10
293.1835242984951
 20
-13.48208427804024
 30
0.0
  0
VERTEX
  5
6B
330
65
100
AcDbEntity
  8
Capa 1
 62
     7
370
    25
100
AcDbVertex
100
AcDb2dVertex
 10
303.1835242984954
 20
-13.48208427804024
 30
0.0
  0
VERTEX
  5
6C
330
65
100
AcDbEntity
  8
Capa 1
 62
     7
370
    25
100
AcDbVertex
100
AcDb2dVertex
 10
303.1835242984954
 20
-57.48208427804051
 30
0.0
  0
VERTEX
  5
6D
330
65
100
AcDbEntity
  8
Capa 1
 62
     7
370
    25
100
AcDbVertex
100
AcDb2dVertex
 10
293.1835242984951
 20
-57.48208427804051
 30
0.0
  0
VERTEX
  5
6E
330
65
100
AcDbEntity
  8
Capa 1
 62
     7
370
    25
100
AcDbVertex
100
AcDb2dVertex
 10
293.1835242984951
 20
-54.48208427804041
 30
0.0
  0
VERTEX
  5
6F
330
65
100
AcDbEntity
  8
Capa 1
 62
     7
370
    25
100
AcDbVertex
100
AcDb2dVertex
 10
283.183524298496
 20
-54.48208427804041
 30
0.0
  0
VERTEX
  5
70
330
65
100
AcDbEntity
  8
Capa 1
 62
     7
370
    25
100
AcDbVertex
100
AcDb2dVertex
 10
283.183524298496
 20
-57.48208427804051
 30
0.0
  0
VERTEX
  5
71
330
65
100
AcDbEntity
  8
Capa 1
 62
     7
370
    25
100
AcDbVertex
100
AcDb2dVertex
 10
273.1835242984956
 20
-57.48208427804051
 30
0.0
  0
VERTEX
  5
72
330
65
100
AcDbEntity
  8
Capa 1
 62
     7
370
    25
100
AcDbVertex
100
AcDb2dVertex
 10
263.1476461867343
 20
-57.48208427804051
 30
0.0
  0
VERTEX
  5
73
330
65
100
AcDbEntity
  8
Capa 1
 62
     7
370
    25
100
AcDbVertex
100
AcDb2dVertex
 10
273.1476461867347
 20
-57.48208427804051
 30
0.0
  0
VERTEX
  5
74
330
65
100
AcDbEntity
  8
Capa 1
 62
     7
370
    25
100
AcDbVertex
100
AcDb2dVertex
 10
273.1476461867347
 20
-13.48208427804024
 30
0.0
  0
VERTEX
  5
75
330
65
100
AcDbEntity
  8
Capa 1
 62
     7
370
    25
100
AcDbVertex
100
AcDb2dVertex
 10
263.1476461867343
 20
-13.48208427804024
 30
0.0
  0
VERTEX
  5
76
330
65
100
AcDbEntity
  8
Capa 1
 62
     7
370
    25
100
AcDbVertex
100
AcDb2dVertex
 10
263.1476461867343
 20
-19.48208427804046
 30
0.0
  0
VERTEX
  5
77
330
65
100
AcDbEntity
  8
Capa 1
 62
     7
370
    25
100
AcDbVertex
100
AcDb2dVertex
 10
253.147646186734
 20
-19.48208427804046
 30
0.0
  0
VERTEX
  5
78
330
65
100
AcDbEntity
  8
Capa 1
 62
     7
370
    25
100
AcDbVertex
100
AcDb2dVertex
 10
253.147646186734
 20
-13.48208427804024
 30
0.0
  0
VERTEX
  5
79
330
65
100
AcDbEntity
  8
Capa 1
 62
     7
370
    25
100
AcDbVertex
100
AcDb2dVertex
 10
243.1476461867346
 20
-13.48208427804024
 30
0.0
  0
VERTEX
  5
7A
330
65
100
AcDbEntity
  8
Capa 1
 62
     7
370
    25
100
AcDbVertex
100
AcDb2dVertex
 10
243.1476461867346
 20
-57.48208427804051
 30
0.0
  0
VERTEX
  5
7B
330
65
100
AcDbEntity
  8
Capa 1
 62
     7
370
    25
100
AcDbVertex
100
AcDb2dVertex
 10
253.147646186734
 20
-57.48208427804051
 30
0.0
  0
VERTEX
  5
7C
330
65
100
AcDbEntity
  8
Capa 1
 62
     7
370
    25
100
AcDbVertex
100
AcDb2dVertex
 10
253.147646186734
 20
-54.48208427804041
 30
0.0
  0
VERTEX
  5
7D
330
65
100
AcDbEntity
  8
Capa 1
 62
     7
370
    25
100
AcDbVertex
100
AcDb2dVertex
 10
263.1476461867343
 20
-54.48208427804041
 30
0.0
  0
VERTEX
  5
7E
330
65
100
AcDbEntity
  8
Capa 1
 62
     7
370
    25
100
AcDbVertex
100
AcDb2dVertex
 10
263.1476461867343
 20
-57.48208427804051
 30
0.0
  0
SEQEND
  5
7F
330
65
100
AcDbEntity
  8
Capa 1
 62
     7
370
    25
  0
INSERT
  5
81
330
1F
100
AcDbEntity
  8
Capa 1
100
AcDbBlockReference
  2
block 8
 10
0.0
 20
0.0
 30
0.0
  0
INSERT
  5
86
330
1F
100
AcDbEntity
  8
Capa 1
100
AcDbBlockReference
  2
block 9
 10
0.0
 20
0.0
 30
0.0
  0
INSERT
  5
8B
330
1F
100
AcDbEntity
  8
Capa 1
100
AcDbBlockReference
  2
block 10
 10
0.0
 20
0.0
 30
0.0
  0
INSERT
  5
90
330
1F
100
AcDbEntity
  8
Capa 1
100
AcDbBlockReference
  2
block 11
 10
0.0
 20
0.0
 30
0.0
  0
INSERT
  5
95
330
1F
100
AcDbEntity
  8
Capa 1
100
AcDbBlockReference
  2
block 12
 10
0.0
 20
0.0
 30
0.0
  0
INSERT
  5
9A
330
1F
100
AcDbEntity
  8
Capa 1
100
AcDbBlockReference
  2
block 13
 10
0.0
 20
0.0
 30
0.0
  0
INSERT
  5
A5
330
1F
100
AcDbEntity
  8
Capa 1
100
AcDbBlockReference
  2
block 14
 10
0.0
 20
0.0
 30
0.0
  0
INSERT
  5
B0
330
1F
100
AcDbEntity
  8
Capa 1
100
AcDbBlockReference
  2
block 15
 10
0.0
 20
0.0
 30
0.0
  0
INSERT
  5
B5
330
1F
100
AcDbEntity
  8
Capa 1
100
AcDbBlockReference
  2
block 16
 10
0.0
 20
0.0
 30
0.0
  0
INSERT
  5
BA
330
1F
100
AcDbEntity
  8
Capa 1
100
AcDbBlockReference
  2
block 17
 10
0.0
 20
0.0
 30
0.0
  0
INSERT
  5
BF
330
1F
100
AcDbEntity
  8
Capa 1
100
AcDbBlockReference
  2
block 18
 10
0.0
 20
0.0
 30
0.0
  0
INSERT
  5
CA
330
1F
100
AcDbEntity
  8
Capa 1
100
AcDbBlockReference
  2
block 19
 10
0.0
 20
0.0
 30
0.0
  0
INSERT
  5
D5
330
1F
100
AcDbEntity
  8
Capa 1
100
AcDbBlockReference
  2
block 20
 10
0.0
 20
0.0
 30
0.0
  0
INSERT
  5
DA
330
1F
100
AcDbEntity
  8
Capa 1
100
AcDbBlockReference
  2
block 21
 10
0.0
 20
0.0
 30
0.0
  0
INSERT
  5
115
330
1F
100
AcDbEntity
  8
Capa 1
100
AcDbBlockReference
  2
block 22
 10
0.0
 20
0.0
 30
0.0
  0
INSERT
  5
120
330
1F
100
AcDbEntity
  8
Capa 1
100
AcDbBlockReference
  2
block 23
 10
0.0
 20
0.0
 30
0.0
  0
INSERT
  5
125
330
1F
100
AcDbEntity
  8
Capa 1
100
AcDbBlockReference
  2
block 24
 10
0.0
 20
0.0
 30
0.0
  0
INSERT
  5
12A
330
1F
100
AcDbEntity
  8
Capa 1
100
AcDbBlockReference
  2
block 25
 10
0.0
 20
0.0
 30
0.0
  0
INSERT
  5
12F
330
1F
100
AcDbEntity
  8
Capa 1
100
AcDbBlockReference
  2
block 26
 10
0.0
 20
0.0
 30
0.0
  0
INSERT
  5
134
330
1F
100
AcDbEntity
  8
Capa 1
100
AcDbBlockReference
  2
block 27
 10
0.0
 20
0.0
 30
0.0
  0
INSERT
  5
139
330
1F
100
AcDbEntity
  8
Capa 1
100
AcDbBlockReference
  2
block 28
 10
0.0
 20
0.0
 30
0.0
  0
INSERT
  5
16C
330
1F
100
AcDbEntity
  8
Capa 1
100
AcDbBlockReference
  2
block 29
 10
0.0
 20
0.0
 30
0.0
  0
INSERT
  5
19F
330
1F
100
AcDbEntity
  8
Capa 1
100
AcDbBlockReference
  2
block 30
 10
0.0
 20
0.0
 30
0.0
  0
INSERT
  5
1D2
330
1F
100
AcDbEntity
  8
Capa 1
100
AcDbBlockReference
  2
block 31
 10
0.0
 20
0.0
 30
0.0
  0
POLYLINE
  5
204
330
1F
100
AcDbEntity
  8
Capa 1
 62
     7
370
    25
100
AcDb2dPolyline
 66
     1
 10
0.0
 20
0.0
 30
0.0
  0
VERTEX
  5
205
330
204
100
AcDbEntity
  8
Capa 1
 62
     7
370
    25
100
AcDbVertex
100
AcDb2dVertex
 10
130.8702221895053
 20
-92.62911108795421
 30
0.0
  0
VERTEX
  5
206
330
204
100
AcDbEntity
  8
Capa 1
 62
     7
370
    25
100
AcDbVertex
100
AcDb2dVertex
 10
120.1702221921801
 20
-92.62911108795421
 30
0.0
  0
VERTEX
  5
207
330
204
100
AcDbEntity
  8
Capa 1
 62
     7
370
    25
100
AcDbVertex
100
AcDb2dVertex
 10
120.1702221921801
 20
-81.92911109062908
 30
0.0
  0
VERTEX
  5
208
330
204
100
AcDbEntity
  8
Capa 1
 62
     7
370
    25
100
AcDbVertex
100
AcDb2dVertex
 10
130.8702221895053
 20
-81.92911109062908
 30
0.0
  0
VERTEX
  5
209
330
204
100
AcDbEntity
  8
Capa 1
 62
     7
370
    25
100
AcDbVertex
100
AcDb2dVertex
 10
130.8702221895053
 20
-92.62911108795421
 30
0.0
  0
SEQEND
  5
20A
330
204
100
AcDbEntity
  8
Capa 1
 62
     7
370
    25
  0
POLYLINE
  5
20B
330
1F
100
AcDbEntity
  8
Capa 1
 62
     7
370
    25
100
AcDb2dPolyline
 66
     1
 10
0.0
 20
0.0
 30
0.0
  0
VERTEX
  5
20C
330
20B
100
AcDbEntity
  8
Capa 1
 62
     7
370
    25
100
AcDbVertex
100
AcDb2dVertex
 10
130.859777745064
 20
-61.95899998451009
 30
0.0
  0
VERTEX
  5
20D
330
20B
100
AcDbEntity
  8
Capa 1
 62
     7
370
    25
100
AcDbVertex
100
AcDb2dVertex
 10
119.8597777478139
 20
-61.95899998451009
 30
0.0
  0
VERTEX
  5
20E
330
20B
100
AcDbEntity
  8
Capa 1
 62
     7
370
    25
100
AcDbVertex
100
AcDb2dVertex
 10
119.8597777478139
 20
-52.95899998676021
 30
0.0
  0
VERTEX
  5
20F
330
20B
100
AcDbEntity
  8
Capa 1
 62
     7
370
    25
100
AcDbVertex
100
AcDb2dVertex
 10
130.859777745064
 20
-52.95899998676021
 30
0.0
  0
VERTEX
  5
210
330
20B
100
AcDbEntity
  8
Capa 1
 62
     7
370
    25
100
AcDbVertex
100
AcDb2dVertex
 10
130.859777745064
 20
-61.95899998451009
 30
0.0
  0
SEQEND
  5
211
330
20B
100
AcDbEntity
  8
Capa 1
 62
     7
370
    25
  0
ENDSEC
  0
SECTION
  2
OBJECTS
  0
DICTIONARY
  5
C
330
0
100
AcDbDictionary
281
     1
  3
ACAD_GROUP
350
D
  3
ACAD_LAYOUT
350
1A
  3
ACAD_MATERIAL
350
3B
  3
ACAD_MLEADERSTYLE
350
239
  3
ACAD_MLINESTYLE
350
17
  3
ACAD_PLOTSETTINGS
350
19
  3
ACAD_PLOTSTYLENAME
350
E
  3
ACAD_TABLESTYLE
350
238
  3
ACAD_VISUALSTYLE
350
2A
  0
DICTIONARY
  5
D
102
{ACAD_REACTORS
330
C
102
}
330
C
100
AcDbDictionary
281
     1
  0
DICTIONARY
  5
1A
102
{ACAD_REACTORS
330
C
102
}
330
C
100
AcDbDictionary
281
     1
  3
Layout1
350
1E
  3
Layout2
350
26
  3
Model
350
22
  0
DICTIONARY
  5
3B
102
{ACAD_REACTORS
330
C
102
}
330
C
100
AcDbDictionary
281
     1
  3
ByBlock
350
3D
  3
ByLayer
350
3C
  3
Global
350
3E
  0
DICTIONARY
  5
239
102
{ACAD_REACTORS
330
C
102
}
330
C
100
AcDbDictionary
281
     1
  0
DICTIONARY
  5
17
102
{ACAD_REACTORS
330
C
102
}
330
C
100
AcDbDictionary
281
     1
  3
Standard
350
18
  0
DICTIONARY
  5
19
102
{ACAD_REACTORS
330
C
102
}
330
C
100
AcDbDictionary
281
     1
  0
ACDBDICTIONARYWDFLT
  5
E
102
{ACAD_REACTORS
330
C
102
}
330
C
100
AcDbDictionary
281
     1
  3
Normal
350
F
100
AcDbDictionaryWithDefault
340
F
  0
DICTIONARY
  5
238
102
{ACAD_REACTORS
330
C
102
}
330
C
100
AcDbDictionary
281
     1
  0
DICTIONARY
  5
2A
102
{ACAD_REACTORS
330
C
102
}
330
C
100
AcDbDictionary
281
     1
  3
2dWireframe
350
2F
  3
3D Hidden
350
31
  3
3dWireframe
350
30
  3
Basic
350
32
  3
Brighten
350
36
  3
ColorChange
350
3A
  3
Conceptual
350
34
  3
Dim
350
35
  3
Facepattern
350
39
  3
Flat
350
2B
  3
FlatWithEdges
350
2C
  3
Gouraud
350
2D
  3
GouraudWithEdges
350
2E
  3
Linepattern
350
38
  3
Realistic
350
33
  3
Thicken
350
37
  0
LAYOUT
  5
1E
102
{ACAD_REACTORS
330
1A
102
}
330
1A
100
AcDbPlotSettings
  1

  2
none_device
  4

  6

 40
0.0
 41
0.0
 42
0.0
 43
0.0
 44
0.0
 45
0.0
 46
0.0
 47
0.0
 48
0.0
 49
0.0
140
0.0
141
0.0
142
1.0
143
1.0
 70
   688
 72
     0
 73
     0
 74
     5
  7

 75
    16
 76
     0
 77
     2
 78
   300
147
1.0
148
0.0
149
0.0
100
AcDbLayout
  1
Layout1
 70
     1
 71
     1
 10
0.0
 20
0.0
 11
12.0
 21
9.0
 12
0.0
 22
0.0
 32
0.0
 14
1.000000000000000E+20
 24
1.000000000000000E+20
 34
1.000000000000000E+20
 15
-1.000000000000000E+20
 25
-1.000000000000000E+20
 35
-1.000000000000000E+20
146
0.0
 13
0.0
 23
0.0
 33
0.0
 16
1.0
 26
0.0
 36
0.0
 17
0.0
 27
1.0
 37
0.0
 76
     0
330
1B
  0
LAYOUT
  5
26
102
{ACAD_REACTORS
330
1A
102
}
330
1A
100
AcDbPlotSettings
  1

  2
none_device
  4

  6

 40
0.0
 41
0.0
 42
0.0
 43
0.0
 44
0.0
 45
0.0
 46
0.0
 47
0.0
 48
0.0
 49
0.0
140
0.0
141
0.0
142
1.0
143
1.0
 70
   688
 72
     0
 73
     0
 74
     5
  7

 75
    16
 76
     0
 77
     2
 78
   300
147
1.0
148
0.0
149
0.0
100
AcDbLayout
  1
Layout2
 70
     1
 71
     2
 10
0.0
 20
0.0
 11
0.0
 21
0.0
 12
0.0
 22
0.0
 32
0.0
 14
0.0
 24
0.0
 34
0.0
 15
0.0
 25
0.0
 35
0.0
146
0.0
 13
0.0
 23
0.0
 33
0.0
 16
1.0
 26
0.0
 36
0.0
 17
0.0
 27
1.0
 37
0.0
 76
     0
330
23
  0
LAYOUT
  5
22
102
{ACAD_REACTORS
330
1A
102
}
330
1A
100
AcDbPlotSettings
  1

  2
none_device
  4

  6

 40
0.0
 41
0.0
 42
0.0
 43
0.0
 44
0.0
 45
0.0
 46
0.0
 47
0.0
 48
0.0
 49
0.0
140
0.0
141
0.0
142
1.0
143
1.0
 70
  1712
 72
     0
 73
     0
 74
     0
  7

 75
     0
 76
     0
 77
     2
 78
   300
147
1.0
148
0.0
149
0.0
100
AcDbLayout
  1
Model
 70
     1
 71
     0
 10
0.0
 20
0.0
 11
12.0
 21
9.0
 12
0.0
 22
0.0
 32
0.0
 14
1.000000000000000E+20
 24
1.000000000000000E+20
 34
1.000000000000000E+20
 15
-1.000000000000000E+20
 25
-1.000000000000000E+20
 35
-1.000000000000000E+20
146
0.0
 13
0.0
 23
0.0
 33
0.0
 16
1.0
 26
0.0
 36
0.0
 17
0.0
 27
1.0
 37
0.0
 76
     0
330
1F
331
29
  0
MATERIAL
  5
3D
102
{ACAD_REACTORS
330
3B
102
}
102
{ACAD_XDICTIONARY
360
234
102
}
330
3B
100
AcDbMaterial
  1
ByBlock
  0
MATERIAL
  5
3C
102
{ACAD_REACTORS
330
3B
102
}
102
{ACAD_XDICTIONARY
360
232
102
}
330
3B
100
AcDbMaterial
  1
ByLayer
  0
MATERIAL
  5
3E
102
{ACAD_REACTORS
330
3B
102
}
102
{ACAD_XDICTIONARY
360
236
102
}
330
3B
100
AcDbMaterial
  1
Global
  0
MLINESTYLE
  5
18
102
{ACAD_REACTORS
330
17
102
}
330
17
100
AcDbMlineStyle
  2
Standard
 70
     0
  3

 62
   256
 51
90.0
 52
90.0
 71
     2
 49
0.5
 62
   256
  6
BYLAYER
 49
-0.5
 62
   256
  6
BYLAYER
  0
ACDBPLACEHOLDER
  5
F
102
{ACAD_REACTORS
330
E
102
}
330
E
  0
VISUALSTYLE
  5
2F
102
{ACAD_REACTORS
330
2A
102
}
102
{ACAD_XDICTIONARY
360
21A
102
}
330
2A
100
AcDbVisualStyle
  2
2dWireframe
 70
     4
 71
     0
 72
     2
 73
     0
 90
        0
 40
-0.6
 41
-30.0
 62
     5
 63
     7
421
 16777215
 74
     1
 91
        4
 64
     7
 65
   257
 75
     1
175
     1
 42
1.0
 92
        0
 66
   257
 43
1.0
 76
     1
 77
     6
 78
     2
 67
     7
 79
     5
170
     0
171
     0
290
     0
174
     0
 93
        1
 44
0.0
173
     0
291
     0
 45
0.0
1001
ACAD
1000
AcDbSavedByObjectVersion
1070
     0
  0
VISUALSTYLE
  5
31
102
{ACAD_REACTORS
330
2A
102
}
102
{ACAD_XDICTIONARY
360
21E
102
}
330
2A
100
AcDbVisualStyle
  2
3D Hidden
 70
     6
 71
     1
 72
     2
 73
     2
 90
        0
 40
-0.6
 41
-30.0
 62
     5
 63
     7
421
 16777215
 74
     2
 91
        2
 64
     7
 65
   257
 75
     2
175
     1
 42
40.0
 92
        0
 66
   257
 43
1.0
 76
     1
 77
     6
 78
     2
 67
     7
 79
     3
170
     0
171
     0
290
     0
174
     0
 93
        1
 44
0.0
173
     0
291
     0
 45
0.0
1001
ACAD
1000
AcDbSavedByObjectVersion
1070
     0
  0
VISUALSTYLE
  5
30
102
{ACAD_REACTORS
330
2A
102
}
102
{ACAD_XDICTIONARY
360
21C
102
}
330
2A
100
AcDbVisualStyle
  2
3dWireframe
 70
     5
 71
     0
 72
     2
 73
     0
 90
        0
 40
-0.6
 41
-30.0
 62
     5
 63
     7
421
 16777215
 74
     1
 91
        4
 64
     7
 65
   257
 75
     1
175
     1
 42
1.0
 92
        0
 66
   257
 43
1.0
 76
     1
 77
     6
 78
     2
 67
     7
 79
     5
170
     0
171
     0
290
     0
174
     0
 93
        1
 44
0.0
173
     0
291
     0
 45
0.0
1001
ACAD
1000
AcDbSavedByObjectVersion
1070
     0
  0
VISUALSTYLE
  5
32
102
{ACAD_REACTORS
330
2A
102
}
102
{ACAD_XDICTIONARY
360
220
102
}
330
2A
100
AcDbVisualStyle
  2
Basic
 70
     7
 71
     1
 72
     0
 73
     1
 90
        0
 40
-0.6
 41
-30.0
 62
     5
 63
     7
421
 16777215
 74
     0
 91
        4
 64
     7
 65
   257
 75
     1
175
     1
 42
1.0
 92
        8
 66
     7
 43
1.0
 76
     1
 77
     6
 78
     2
 67
     7
 79
     5
170
     0
171
     0
290
     0
174
     0
 93
        1
 44
0.0
173
     0
291
     1
 45
0.0
1001
ACAD
1000
AcDbSavedByObjectVersion
1070
     0
  0
VISUALSTYLE
  5
36
102
{ACAD_REACTORS
330
2A
102
}
102
{ACAD_XDICTIONARY
360
228
102
}
330
2A
100
AcDbVisualStyle
  2
Brighten
 70
    12
 71
     2
 72
     2
 73
     0
 90
        0
 40
-0.6
 41
-30.0
 62
     5
 63
     7
421
 16777215
 74
     1
 91
        4
 64
     7
 65
   257
 75
     1
175
     1
 42
1.0
 92
        8
 66
     7
 43
1.0
 76
     1
 77
     6
 78
     2
 67
     7
 79
     5
170
     0
171
     0
290
     0
174
     0
 93
        1
 44
50.0
173
     0
291
     1
 45
0.0
1001
ACAD
1000
AcDbSavedByObjectVersion
1070
     0
  0
VISUALSTYLE
  5
3A
102
{ACAD_REACTORS
330
2A
102
}
102
{ACAD_XDICTIONARY
360
230
102
}
330
2A
100
AcDbVisualStyle
  2
ColorChange
 70
    16
 71
     2
 72
     2
 73
     3
 90
        0
 40
-0.6
 41
-30.0
 62
     5
 63
     8
421
  8421504
 74
     1
 91
        4
 64
     7
 65
   257
 75
     1
175
     1
 42
1.0
 92
        8
 66
     8
424
  8421504
 43
1.0
 76
     1
 77
     6
 78
     2
 67
     7
 79
     5
170
     0
171
     0
290
     0
174
     0
 93
        1
 44
0.0
173
     0
291
     1
 45
0.0
1001
ACAD
1000
AcDbSavedByObjectVersion
1070
     0
  0
VISUALSTYLE
  5
34
102
{ACAD_REACTORS
330
2A
102
}
102
{ACAD_XDICTIONARY
360
224
102
}
330
2A
100
AcDbVisualStyle
  2
Conceptual
 70
     9
 71
     3
 72
     2
 73
     0
 90
        0
 40
-0.6
 41
-30.0
 62
     5
 63
     7
421
 16777215
 74
     2
 91
        2
 64
     7
 65
   257
 75
     1
175
     1
 42
40.0
 92
        8
 66
     7
 43
1.0
 76
     1
 77
     6
 78
     2
 67
     7
 79
     3
170
     0
171
     0
290
     0
174
     0
 93
        1
 44
0.0
173
     0
291
     0
 45
0.0
1001
ACAD
1000
AcDbSavedByObjectVersion
1070
     0
  0
VISUALSTYLE
  5
35
102
{ACAD_REACTORS
330
2A
102
}
102
{ACAD_XDICTIONARY
360
226
102
}
330
2A
100
AcDbVisualStyle
  2
Dim
 70
    11
 71
     2
 72
     2
 73
     0
 90
        0
 40
-0.6
 41
-30.0
 62
     5
 63
     7
421
 16777215
 74
     1
 91
        4
 64
     7
 65
   257
 75
     1
175
     1
 42
1.0
 92
        8
 66
     7
 43
1.0
 76
     1
 77
     6
 78
     2
 67
     7
 79
     5
170
     0
171
     0
290
     0
174
     0
 93
        1
 44
-50.0
173
     0
291
     1
 45
0.0
1001
ACAD
1000
AcDbSavedByObjectVersion
1070
     0
  0
VISUALSTYLE
  5
39
102
{ACAD_REACTORS
330
2A
102
}
102
{ACAD_XDICTIONARY
360
22E
102
}
330
2A
100
AcDbVisualStyle
  2
Facepattern
 70
    15
 71
     2
 72
     2
 73
     0
 90
        0
 40
-0.6
 41
-30.0
 62
     5
 63
     7
421
 16777215
 74
     1
 91
        4
 64
     7
 65
   257
 75
     1
175
     1
 42
1.0
 92
        8
 66
     7
 43
1.0
 76
     1
 77
     6
 78
     2
 67
     7
 79
     5
170
     0
171
     0
290
     0
174
     0
 93
        1
 44
0.0
173
     0
291
     1
 45
0.0
1001
ACAD
1000
AcDbSavedByObjectVersion
1070
     0
  0
VISUALSTYLE
  5
2B
102
{ACAD_REACTORS
330
2A
102
}
102
{ACAD_XDICTIONARY
360
212
102
}
330
2A
100
AcDbVisualStyle
  2
Flat
 70
     0
 71
     2
 72
     1
 73
     1
 90
        2
 40
-0.6
 41
30.0
 62
     5
 63
     7
421
 16777215
 74
     0
 91
        4
 64
     7
 65
   257
 75
     1
175
     1
 42
1.0
 92
        8
 66
     7
 43
1.0
 76
     1
 77
     6
 78
     2
 67
     7
 79
     5
170
     0
171
     0
290
     0
174
     0
 93
       13
 44
0.0
173
     0
291
     1
 45
0.0
1001
ACAD
1000
AcDbSavedByObjectVersion
1070
     0
  0
VISUALSTYLE
  5
2C
102
{ACAD_REACTORS
330
2A
102
}
102
{ACAD_XDICTIONARY
360
214
102
}
330
2A
100
AcDbVisualStyle
  2
FlatWithEdges
 70
     1
 71
     2
 72
     1
 73
     1
 90
        2
 40
-0.6
 41
30.0
 62
     5
 63
     7
421
 16777215
 74
     1
 91
        4
 64
     7
 65
   257
 75
     1
175
     1
 42
1.0
 92
        0
 66
   257
 43
1.0
 76
     1
 77
     6
 78
     2
 67
     7
 79
     5
170
     0
171
     0
290
     0
174
     0
 93
       13
 44
0.0
173
     0
291
     1
 45
0.0
1001
ACAD
1000
AcDbSavedByObjectVersion
1070
     0
  0
VISUALSTYLE
  5
2D
102
{ACAD_REACTORS
330
2A
102
}
102
{ACAD_XDICTIONARY
360
216
102
}
330
2A
100
AcDbVisualStyle
  2
Gouraud
 70
     2
 71
     2
 72
     2
 73
     1
 90
        2
 40
-0.6
 41
30.0
 62
     5
 63
     7
421
 16777215
 74
     0
 91
        4
 64
     7
 65
   257
 75
     1
175
     1
 42
1.0
 92
        0
 66
     7
 43
1.0
 76
     1
 77
     6
 78
     2
 67
     7
 79
     5
170
     0
171
     0
290
     0
174
     0
 93
       13
 44
0.0
173
     0
291
     1
 45
0.0
1001
ACAD
1000
AcDbSavedByObjectVersion
1070
     0
  0
VISUALSTYLE
  5
2E
102
{ACAD_REACTORS
330
2A
102
}
102
{ACAD_XDICTIONARY
360
218
102
}
330
2A
100
AcDbVisualStyle
  2
GouraudWithEdges
 70
     3
 71
     2
 72
     2
 73
     1
 90
        2
 40
-0.6
 41
30.0
 62
     5
 63
     7
421
 16777215
 74
     1
 91
        4
 64
     7
 65
   257
 75
     1
175
     1
 42
1.0
 92
        0
 66
   257
 43
1.0
 76
     1
 77
     6
 78
     2
 67
     7
 79
     5
170
     0
171
     0
290
     0
174
     0
 93
       13
 44
0.0
173
     0
291
     1
 45
0.0
1001
ACAD
1000
AcDbSavedByObjectVersion
1070
     0
  0
VISUALSTYLE
  5
38
102
{ACAD_REACTORS
330
2A
102
}
102
{ACAD_XDICTIONARY
360
22C
102
}
330
2A
100
AcDbVisualStyle
  2
Linepattern
 70
    14
 71
     2
 72
     2
 73
     0
 90
        0
 40
-0.6
 41
-30.0
 62
     5
 63
     7
421
 16777215
 74
     1
 91
        4
 64
     7
 65
   257
 75
     7
175
     7
 42
1.0
 92
        8
 66
     7
 43
1.0
 76
     1
 77
     6
 78
     2
 67
     7
 79
     5
170
     0
171
     0
290
     0
174
     0
 93
        1
 44
0.0
173
     0
291
     1
 45
0.0
1001
ACAD
1000
AcDbSavedByObjectVersion
1070
     0
  0
VISUALSTYLE
  5
33
102
{ACAD_REACTORS
330
2A
102
}
102
{ACAD_XDICTIONARY
360
222
102
}
330
2A
100
AcDbVisualStyle
  2
Realistic
 70
     8
 71
     2
 72
     2
 73
     0
 90
        0
 40
-0.6
 41
-30.0
 62
     5
 63
     7
421
 16777215
 74
     1
 91
        0
 64
     7
 65
   257
 75
     1
175
     1
 42
1.0
 92
        8
 66
     8
424
  7895160
 43
1.0
 76
     1
 77
     6
 78
     2
 67
     7
 79
     5
170
     0
171
     0
290
     0
174
     0
 93
       13
 44
0.0
173
     0
291
     0
 45
0.0
1001
ACAD
1000
AcDbSavedByObjectVersion
1070
     0
  0
VISUALSTYLE
  5
37
102
{ACAD_REACTORS
330
2A
102
}
102
{ACAD_XDICTIONARY
360
22A
102
}
330
2A
100
AcDbVisualStyle
  2
Thicken
 70
    13
 71
     2
 72
     2
 73
     0
 90
        0
 40
-0.6
 41
-30.0
 62
     5
 63
     7
421
 16777215
 74
     1
 91
        4
 64
     7
 65
   257
 75
     1
175
     1
 42
1.0
 92
       12
 66
     7
 43
1.0
 76
     1
 77
     6
 78
     2
 67
     7
 79
     5
170
     0
171
     0
290
     0
174
     0
 93
        1
 44
0.0
173
     0
291
     1
 45
0.0
1001
ACAD
1000
AcDbSavedByObjectVersion
1070
     0
  0
DICTIONARY
  5
234
330
3D
100
AcDbDictionary
280
     1
281
     1
  3
ACAD_XREC_ROUNDTRIP
360
235
  0
DICTIONARY
  5
232
330
3C
100
AcDbDictionary
280
     1
281
     1
  3
ACAD_XREC_ROUNDTRIP
360
233
  0
DICTIONARY
  5
236
330
3E
100
AcDbDictionary
280
     1
281
     1
  3
ACAD_XREC_ROUNDTRIP
360
237
  0
DICTIONARY
  5
21A
330
2F
100
AcDbDictionary
280
     1
281
     1
  3
ACAD_XREC_ROUNDTRIP
360
21B
  0
DICTIONARY
  5
21E
330
31
100
AcDbDictionary
280
     1
281
     1
  3
ACAD_XREC_ROUNDTRIP
360
21F
  0
DICTIONARY
  5
21C
330
30
100
AcDbDictionary
280
     1
281
     1
  3
ACAD_XREC_ROUNDTRIP
360
21D
  0
DICTIONARY
  5
220
330
32
100
AcDbDictionary
280
     1
281
     1
  3
ACAD_XREC_ROUNDTRIP
360
221
  0
DICTIONARY
  5
228
330
36
100
AcDbDictionary
280
     1
281
     1
  3
ACAD_XREC_ROUNDTRIP
360
229
  0
DICTIONARY
  5
230
330
3A
100
AcDbDictionary
280
     1
281
     1
  3
ACAD_XREC_ROUNDTRIP
360
231
  0
DICTIONARY
  5
224
330
34
100
AcDbDictionary
280
     1
281
     1
  3
ACAD_XREC_ROUNDTRIP
360
225
  0
DICTIONARY
  5
226
330
35
100
AcDbDictionary
280
     1
281
     1
  3
ACAD_XREC_ROUNDTRIP
360
227
  0
DICTIONARY
  5
22E
330
39
100
AcDbDictionary
280
     1
281
     1
  3
ACAD_XREC_ROUNDTRIP
360
22F
  0
DICTIONARY
  5
212
330
2B
100
AcDbDictionary
280
     1
281
     1
  3
ACAD_XREC_ROUNDTRIP
360
213
  0
DICTIONARY
  5
214
330
2C
100
AcDbDictionary
280
     1
281
     1
  3
ACAD_XREC_ROUNDTRIP
360
215
  0
DICTIONARY
  5
216
330
2D
100
AcDbDictionary
280
     1
281
     1
  3
ACAD_XREC_ROUNDTRIP
360
217
  0
DICTIONARY
  5
218
330
2E
100
AcDbDictionary
280
     1
281
     1
  3
ACAD_XREC_ROUNDTRIP
360
219
  0
DICTIONARY
  5
22C
330
38
100
AcDbDictionary
280
     1
281
     1
  3
ACAD_XREC_ROUNDTRIP
360
22D
  0
DICTIONARY
  5
222
330
33
100
AcDbDictionary
280
     1
281
     1
  3
ACAD_XREC_ROUNDTRIP
360
223
  0
DICTIONARY
  5
22A
330
37
100
AcDbDictionary
280
     1
281
     1
  3
ACAD_XREC_ROUNDTRIP
360
22B
  0
XRECORD
  5
235
102
{ACAD_REACTORS
330
234
102
}
330
234
100
AcDbXrecord
280
     1
102
MATERIAL
148
0.0
149
0.0
149
0.0
 93
        0
 94
      127
282
     0
 72
     1
 77
     1
171
     1
175
     1
179
     1
273
     0
  0
XRECORD
  5
233
102
{ACAD_REACTORS
330
232
102
}
330
232
100
AcDbXrecord
280
     1
102
MATERIAL
148
0.0
149
0.0
149
0.0
 93
        0
 94
      127
282
     0
 72
     1
 77
     1
171
     1
175
     1
179
     1
273
     0
  0
XRECORD
  5
237
102
{ACAD_REACTORS
330
236
102
}
330
236
100
AcDbXrecord
280
     1
102
MATERIAL
148
0.0
149
0.0
149
0.0
 93
        0
 94
      127
282
     0
 72
     1
 77
     1
171
     1
175
     1
179
     1
273
     0
  0
XRECORD
  5
21B
102
{ACAD_REACTORS
330
21A
102
}
330
21A
100
AcDbXrecord
280
     1
102
RTVSPropertyOp0
 70
     1
102
RTVSPropertyOp1
 70
     1
102
RTVSPropertyOp2
 70
     1
102
RTVSPropertyOp3
 70
     1
102
RTVSPropertyOp4
 70
     1
102
RTVSPropertyOp5
 70
     1
102
RTVSPropertyOp6
 70
     1
102
RTVSPropertyOp7
 70
     1
102
RTVSPropertyOp8
 70
     1
102
RTVSPropertyOp9
 70
     1
102
RTVSPropertyOp10
 70
     1
102
RTVSPropertyOp11
 70
     1
102
RTVSPropertyOp12
 70
     1
102
RTVSPropertyOp13
 70
     1
102
RTVSPropertyOp14
 70
     1
102
RTVSPropertyOp15
 70
     1
102
RTVSPropertyOp16
 70
     1
102
RTVSPropertyOp17
 70
     1
102
RTVSPropertyOp18
 70
     1
102
RTVSPropertyOp19
 70
     1
102
RTVSPropertyOp20
 70
     1
102
RTVSPropertyOp21
 70
     1
102
RTVSPropertyOp22
 70
     1
102
RTVSPropertyOp23
 70
     1
102
RTVSPropertyOp24
 70
     1
102
RTVSPropertyOp25
 70
     1
102
RTVSPropertyOp26
 70
     1
102
RTVSPropertyOp27
 70
     1
102
RTVSPropertyOp28
 70
     1
102
RTVSPropertyOp29
 70
     1
102
RTVSPropertyOp30
 70
     1
102
RTVSPropertyOp31
 70
     1
102
RTVSPropertyOp32
 70
     1
  0
XRECORD
  5
21F
102
{ACAD_REACTORS
330
21E
102
}
330
21E
100
AcDbXrecord
280
     1
102
RTVSPropertyOp0
 70
     1
102
RTVSPropertyOp1
 70
     1
102
RTVSPropertyOp2
 70
     1
102
RTVSPropertyOp3
 70
     1
102
RTVSPropertyOp4
 70
     1
102
RTVSPropertyOp5
 70
     1
102
RTVSPropertyOp6
 70
     1
102
RTVSPropertyOp7
 70
     1
102
RTVSPropertyOp8
 70
     1
102
RTVSPropertyOp9
 70
     1
102
RTVSPropertyOp10
 70
     1
102
RTVSPropertyOp11
 70
     1
102
RTVSPropertyOp12
 70
     1
102
RTVSPropertyOp13
 70
     1
102
RTVSPropertyOp14
 70
     1
102
RTVSPropertyOp15
 70
     1
102
RTVSPropertyOp16
 70
     1
102
RTVSPropertyOp17
 70
     1
102
RTVSPropertyOp18
 70
     1
102
RTVSPropertyOp19
 70
     1
102
RTVSPropertyOp20
 70
     1
102
RTVSPropertyOp21
 70
     1
102
RTVSPropertyOp22
 70
     1
102
RTVSPropertyOp23
 70
     1
102
RTVSPropertyOp24
 70
     1
102
RTVSPropertyOp25
 70
     1
102
RTVSPropertyOp26
 70
     1
102
RTVSPropertyOp27
 70
     1
102
RTVSPropertyOp28
 70
     1
102
RTVSPropertyOp29
 70
     1
102
RTVSPropertyOp30
 70
     1
102
RTVSPropertyOp31
 70
     1
102
RTVSPropertyOp32
 70
     1
  0
XRECORD
  5
21D
102
{ACAD_REACTORS
330
21C
102
}
330
21C
100
AcDbXrecord
280
     1
102
RTVSPropertyOp0
 70
     1
102
RTVSPropertyOp1
 70
     1
102
RTVSPropertyOp2
 70
     1
102
RTVSPropertyOp3
 70
     1
102
RTVSPropertyOp4
 70
     1
102
RTVSPropertyOp5
 70
     1
102
RTVSPropertyOp6
 70
     1
102
RTVSPropertyOp7
 70
     1
102
RTVSPropertyOp8
 70
     1
102
RTVSPropertyOp9
 70
     1
102
RTVSPropertyOp10
 70
     1
102
RTVSPropertyOp11
 70
     1
102
RTVSPropertyOp12
 70
     1
102
RTVSPropertyOp13
 70
     1
102
RTVSPropertyOp14
 70
     1
102
RTVSPropertyOp15
 70
     1
102
RTVSPropertyOp16
 70
     1
102
RTVSPropertyOp17
 70
     1
102
RTVSPropertyOp18
 70
     1
102
RTVSPropertyOp19
 70
     1
102
RTVSPropertyOp20
 70
     1
102
RTVSPropertyOp21
 70
     1
102
RTVSPropertyOp22
 70
     1
102
RTVSPropertyOp23
 70
     1
102
RTVSPropertyOp24
 70
     1
102
RTVSPropertyOp25
 70
     1
102
RTVSPropertyOp26
 70
     1
102
RTVSPropertyOp27
 70
     1
102
RTVSPropertyOp28
 70
     1
102
RTVSPropertyOp29
 70
     1
102
RTVSPropertyOp30
 70
     1
102
RTVSPropertyOp31
 70
     1
102
RTVSPropertyOp32
 70
     1
  0
XRECORD
  5
221
102
{ACAD_REACTORS
330
220
102
}
330
220
100
AcDbXrecord
280
     1
102
RTVSPropertyOp0
 70
     1
102
RTVSPropertyOp1
 70
     1
102
RTVSPropertyOp2
 70
     1
102
RTVSPropertyOp3
 70
     1
102
RTVSPropertyOp4
 70
     1
102
RTVSPropertyOp5
 70
     1
102
RTVSPropertyOp6
 70
     1
102
RTVSPropertyOp7
 70
     1
102
RTVSPropertyOp8
 70
     1
102
RTVSPropertyOp9
 70
     1
102
RTVSPropertyOp10
 70
     1
102
RTVSPropertyOp11
 70
     1
102
RTVSPropertyOp12
 70
     1
102
RTVSPropertyOp13
 70
     1
102
RTVSPropertyOp14
 70
     1
102
RTVSPropertyOp15
 70
     1
102
RTVSPropertyOp16
 70
     1
102
RTVSPropertyOp17
 70
     1
102
RTVSPropertyOp18
 70
     1
102
RTVSPropertyOp19
 70
     1
102
RTVSPropertyOp20
 70
     1
102
RTVSPropertyOp21
 70
     1
102
RTVSPropertyOp22
 70
     1
102
RTVSPropertyOp23
 70
     1
102
RTVSPropertyOp24
 70
     1
102
RTVSPropertyOp25
 70
     1
102
RTVSPropertyOp26
 70
     1
102
RTVSPropertyOp27
 70
     1
102
RTVSPropertyOp28
 70
     1
102
RTVSPropertyOp29
 70
     1
102
RTVSPropertyOp30
 70
     1
102
RTVSPropertyOp31
 70
     1
102
RTVSPropertyOp32
 70
     1
  0
XRECORD
  5
229
102
{ACAD_REACTORS
330
228
102
}
330
228
100
AcDbXrecord
280
     1
102
RTVSPropertyOp0
 70
     1
102
RTVSPropertyOp1
 70
     1
102
RTVSPropertyOp2
 70
     1
102
RTVSPropertyOp3
 70
     1
102
RTVSPropertyOp4
 70
     1
102
RTVSPropertyOp5
 70
     1
102
RTVSPropertyOp6
 70
     1
102
RTVSPropertyOp7
 70
     1
102
RTVSPropertyOp8
 70
     1
102
RTVSPropertyOp9
 70
     1
102
RTVSPropertyOp10
 70
     1
102
RTVSPropertyOp11
 70
     1
102
RTVSPropertyOp12
 70
     1
102
RTVSPropertyOp13
 70
     1
102
RTVSPropertyOp14
 70
     1
102
RTVSPropertyOp15
 70
     1
102
RTVSPropertyOp16
 70
     1
102
RTVSPropertyOp17
 70
     1
102
RTVSPropertyOp18
 70
     1
102
RTVSPropertyOp19
 70
     1
102
RTVSPropertyOp20
 70
     1
102
RTVSPropertyOp21
 70
     1
102
RTVSPropertyOp22
 70
     1
102
RTVSPropertyOp23
 70
     1
102
RTVSPropertyOp24
 70
     1
102
RTVSPropertyOp25
 70
     1
102
RTVSPropertyOp26
 70
     1
102
RTVSPropertyOp27
 70
     1
102
RTVSPropertyOp28
 70
     1
102
RTVSPropertyOp29
 70
     1
102
RTVSPropertyOp30
 70
     1
102
RTVSPropertyOp31
 70
     1
102
RTVSPropertyOp32
 70
     1
  0
XRECORD
  5
231
102
{ACAD_REACTORS
330
230
102
}
330
230
100
AcDbXrecord
280
     1
102
RTVSPropertyOp0
 70
     1
102
RTVSPropertyOp1
 70
     1
102
RTVSPropertyOp2
 70
     1
102
RTVSPropertyOp3
 70
     1
102
RTVSPropertyOp4
 70
     1
102
RTVSPropertyOp5
 70
     1
102
RTVSPropertyOp6
 70
     1
102
RTVSPropertyOp7
 70
     1
102
RTVSPropertyOp8
 70
     1
102
RTVSPropertyOp9
 70
     1
102
RTVSPropertyOp10
 70
     1
102
RTVSPropertyOp11
 70
     1
102
RTVSPropertyOp12
 70
     1
102
RTVSPropertyOp13
 70
     1
102
RTVSPropertyOp14
 70
     1
102
RTVSPropertyOp15
 70
     1
102
RTVSPropertyOp16
 70
     1
102
RTVSPropertyOp17
 70
     1
102
RTVSPropertyOp18
 70
     1
102
RTVSPropertyOp19
 70
     1
102
RTVSPropertyOp20
 70
     1
102
RTVSPropertyOp21
 70
     1
102
RTVSPropertyOp22
 70
     1
102
RTVSPropertyOp23
 70
     1
102
RTVSPropertyOp24
 70
     1
102
RTVSPropertyOp25
 70
     1
102
RTVSPropertyOp26
 70
     1
102
RTVSPropertyOp27
 70
     1
102
RTVSPropertyOp28
 70
     1
102
RTVSPropertyOp29
 70
     1
102
RTVSPropertyOp30
 70
     1
102
RTVSPropertyOp31
 70
     1
102
RTVSPropertyOp32
 70
     1
  0
XRECORD
  5
225
102
{ACAD_REACTORS
330
224
102
}
330
224
100
AcDbXrecord
280
     1
102
RTVSPropertyOp0
 70
     1
102
RTVSPropertyOp1
 70
     1
102
RTVSPropertyOp2
 70
     1
102
RTVSPropertyOp3
 70
     1
102
RTVSPropertyOp4
 70
     1
102
RTVSPropertyOp5
 70
     1
102
RTVSPropertyOp6
 70
     1
102
RTVSPropertyOp7
 70
     1
102
RTVSPropertyOp8
 70
     1
102
RTVSPropertyOp9
 70
     1
102
RTVSPropertyOp10
 70
     1
102
RTVSPropertyOp11
 70
     1
102
RTVSPropertyOp12
 70
     1
102
RTVSPropertyOp13
 70
     1
102
RTVSPropertyOp14
 70
     1
102
RTVSPropertyOp15
 70
     1
102
RTVSPropertyOp16
 70
     1
102
RTVSPropertyOp17
 70
     1
102
RTVSPropertyOp18
 70
     1
102
RTVSPropertyOp19
 70
     1
102
RTVSPropertyOp20
 70
     1
102
RTVSPropertyOp21
 70
     1
102
RTVSPropertyOp22
 70
     1
102
RTVSPropertyOp23
 70
     1
102
RTVSPropertyOp24
 70
     1
102
RTVSPropertyOp25
 70
     1
102
RTVSPropertyOp26
 70
     1
102
RTVSPropertyOp27
 70
     1
102
RTVSPropertyOp28
 70
     1
102
RTVSPropertyOp29
 70
     1
102
RTVSPropertyOp30
 70
     1
102
RTVSPropertyOp31
 70
     1
102
RTVSPropertyOp32
 70
     1
  0
XRECORD
  5
227
102
{ACAD_REACTORS
330
226
102
}
330
226
100
AcDbXrecord
280
     1
102
RTVSPropertyOp0
 70
     1
102
RTVSPropertyOp1
 70
     1
102
RTVSPropertyOp2
 70
     1
102
RTVSPropertyOp3
 70
     1
102
RTVSPropertyOp4
 70
     1
102
RTVSPropertyOp5
 70
     1
102
RTVSPropertyOp6
 70
     1
102
RTVSPropertyOp7
 70
     1
102
RTVSPropertyOp8
 70
     1
102
RTVSPropertyOp9
 70
     1
102
RTVSPropertyOp10
 70
     1
102
RTVSPropertyOp11
 70
     1
102
RTVSPropertyOp12
 70
     1
102
RTVSPropertyOp13
 70
     1
102
RTVSPropertyOp14
 70
     1
102
RTVSPropertyOp15
 70
     1
102
RTVSPropertyOp16
 70
     1
102
RTVSPropertyOp17
 70
     1
102
RTVSPropertyOp18
 70
     1
102
RTVSPropertyOp19
 70
     1
102
RTVSPropertyOp20
 70
     1
102
RTVSPropertyOp21
 70
     1
102
RTVSPropertyOp22
 70
     1
102
RTVSPropertyOp23
 70
     1
102
RTVSPropertyOp24
 70
     1
102
RTVSPropertyOp25
 70
     1
102
RTVSPropertyOp26
 70
     1
102
RTVSPropertyOp27
 70
     1
102
RTVSPropertyOp28
 70
     1
102
RTVSPropertyOp29
 70
     1
102
RTVSPropertyOp30
 70
     1
102
RTVSPropertyOp31
 70
     1
102
RTVSPropertyOp32
 70
     1
  0
XRECORD
  5
22F
102
{ACAD_REACTORS
330
22E
102
}
330
22E
100
AcDbXrecord
280
     1
102
RTVSPropertyOp0
 70
     1
102
RTVSPropertyOp1
 70
     1
102
RTVSPropertyOp2
 70
     1
102
RTVSPropertyOp3
 70
     1
102
RTVSPropertyOp4
 70
     1
102
RTVSPropertyOp5
 70
     1
102
RTVSPropertyOp6
 70
     1
102
RTVSPropertyOp7
 70
     1
102
RTVSPropertyOp8
 70
     1
102
RTVSPropertyOp9
 70
     1
102
RTVSPropertyOp10
 70
     1
102
RTVSPropertyOp11
 70
     1
102
RTVSPropertyOp12
 70
     1
102
RTVSPropertyOp13
 70
     1
102
RTVSPropertyOp14
 70
     1
102
RTVSPropertyOp15
 70
     1
102
RTVSPropertyOp16
 70
     1
102
RTVSPropertyOp17
 70
     1
102
RTVSPropertyOp18
 70
     1
102
RTVSPropertyOp19
 70
     1
102
RTVSPropertyOp20
 70
     1
102
RTVSPropertyOp21
 70
     1
102
RTVSPropertyOp22
 70
     1
102
RTVSPropertyOp23
 70
     1
102
RTVSPropertyOp24
 70
     1
102
RTVSPropertyOp25
 70
     1
102
RTVSPropertyOp26
 70
     1
102
RTVSPropertyOp27
 70
     1
102
RTVSPropertyOp28
 70
     1
102
RTVSPropertyOp29
 70
     1
102
RTVSPropertyOp30
 70
     1
102
RTVSPropertyOp31
 70
     1
102
RTVSPropertyOp32
 70
     1
  0
XRECORD
  5
213
102
{ACAD_REACTORS
330
212
102
}
330
212
100
AcDbXrecord
280
     1
102
RTVSPropertyOp0
 70
     1
102
RTVSPropertyOp1
 70
     1
102
RTVSPropertyOp2
 70
     1
102
RTVSPropertyOp3
 70
     1
102
RTVSPropertyOp4
 70
     1
102
RTVSPropertyOp5
 70
     1
102
RTVSPropertyOp6
 70
     1
102
RTVSPropertyOp7
 70
     1
102
RTVSPropertyOp8
 70
     1
102
RTVSPropertyOp9
 70
     1
102
RTVSPropertyOp10
 70
     1
102
RTVSPropertyOp11
 70
     1
102
RTVSPropertyOp12
 70
     1
102
RTVSPropertyOp13
 70
     1
102
RTVSPropertyOp14
 70
     1
102
RTVSPropertyOp15
 70
     1
102
RTVSPropertyOp16
 70
     1
102
RTVSPropertyOp17
 70
     1
102
RTVSPropertyOp18
 70
     1
102
RTVSPropertyOp19
 70
     1
102
RTVSPropertyOp20
 70
     1
102
RTVSPropertyOp21
 70
     1
102
RTVSPropertyOp22
 70
     1
102
RTVSPropertyOp23
 70
     1
102
RTVSPropertyOp24
 70
     1
102
RTVSPropertyOp25
 70
     1
102
RTVSPropertyOp26
 70
     1
102
RTVSPropertyOp27
 70
     1
102
RTVSPropertyOp28
 70
     1
102
RTVSPropertyOp29
 70
     1
102
RTVSPropertyOp30
 70
     1
102
RTVSPropertyOp31
 70
     1
102
RTVSPropertyOp32
 70
     1
  0
XRECORD
  5
215
102
{ACAD_REACTORS
330
214
102
}
330
214
100
AcDbXrecord
280
     1
102
RTVSPropertyOp0
 70
     1
102
RTVSPropertyOp1
 70
     1
102
RTVSPropertyOp2
 70
     1
102
RTVSPropertyOp3
 70
     1
102
RTVSPropertyOp4
 70
     1
102
RTVSPropertyOp5
 70
     1
102
RTVSPropertyOp6
 70
     1
102
RTVSPropertyOp7
 70
     1
102
RTVSPropertyOp8
 70
     1
102
RTVSPropertyOp9
 70
     1
102
RTVSPropertyOp10
 70
     1
102
RTVSPropertyOp11
 70
     1
102
RTVSPropertyOp12
 70
     1
102
RTVSPropertyOp13
 70
     1
102
RTVSPropertyOp14
 70
     1
102
RTVSPropertyOp15
 70
     1
102
RTVSPropertyOp16
 70
     1
102
RTVSPropertyOp17
 70
     1
102
RTVSPropertyOp18
 70
     1
102
RTVSPropertyOp19
 70
     1
102
RTVSPropertyOp20
 70
     1
102
RTVSPropertyOp21
 70
     1
102
RTVSPropertyOp22
 70
     1
102
RTVSPropertyOp23
 70
     1
102
RTVSPropertyOp24
 70
     1
102
RTVSPropertyOp25
 70
     1
102
RTVSPropertyOp26
 70
     1
102
RTVSPropertyOp27
 70
     1
102
RTVSPropertyOp28
 70
     1
102
RTVSPropertyOp29
 70
     1
102
RTVSPropertyOp30
 70
     1
102
RTVSPropertyOp31
 70
     1
102
RTVSPropertyOp32
 70
     1
  0
XRECORD
  5
217
102
{ACAD_REACTORS
330
216
102
}
330
216
100
AcDbXrecord
280
     1
102
RTVSPropertyOp0
 70
     1
102
RTVSPropertyOp1
 70
     1
102
RTVSPropertyOp2
 70
     1
102
RTVSPropertyOp3
 70
     1
102
RTVSPropertyOp4
 70
     1
102
RTVSPropertyOp5
 70
     1
102
RTVSPropertyOp6
 70
     1
102
RTVSPropertyOp7
 70
     1
102
RTVSPropertyOp8
 70
     1
102
RTVSPropertyOp9
 70
     1
102
RTVSPropertyOp10
 70
     1
102
RTVSPropertyOp11
 70
     1
102
RTVSPropertyOp12
 70
     1
102
RTVSPropertyOp13
 70
     1
102
RTVSPropertyOp14
 70
     1
102
RTVSPropertyOp15
 70
     1
102
RTVSPropertyOp16
 70
     1
102
RTVSPropertyOp17
 70
     1
102
RTVSPropertyOp18
 70
     1
102
RTVSPropertyOp19
 70
     1
102
RTVSPropertyOp20
 70
     1
102
RTVSPropertyOp21
 70
     1
102
RTVSPropertyOp22
 70
     1
102
RTVSPropertyOp23
 70
     1
102
RTVSPropertyOp24
 70
     1
102
RTVSPropertyOp25
 70
     1
102
RTVSPropertyOp26
 70
     1
102
RTVSPropertyOp27
 70
     1
102
RTVSPropertyOp28
 70
     1
102
RTVSPropertyOp29
 70
     1
102
RTVSPropertyOp30
 70
     1
102
RTVSPropertyOp31
 70
     1
102
RTVSPropertyOp32
 70
     1
  0
XRECORD
  5
219
102
{ACAD_REACTORS
330
218
102
}
330
218
100
AcDbXrecord
280
     1
102
RTVSPropertyOp0
 70
     1
102
RTVSPropertyOp1
 70
     1
102
RTVSPropertyOp2
 70
     1
102
RTVSPropertyOp3
 70
     1
102
RTVSPropertyOp4
 70
     1
102
RTVSPropertyOp5
 70
     1
102
RTVSPropertyOp6
 70
     1
102
RTVSPropertyOp7
 70
     1
102
RTVSPropertyOp8
 70
     1
102
RTVSPropertyOp9
 70
     1
102
RTVSPropertyOp10
 70
     1
102
RTVSPropertyOp11
 70
     1
102
RTVSPropertyOp12
 70
     1
102
RTVSPropertyOp13
 70
     1
102
RTVSPropertyOp14
 70
     1
102
RTVSPropertyOp15
 70
     1
102
RTVSPropertyOp16
 70
     1
102
RTVSPropertyOp17
 70
     1
102
RTVSPropertyOp18
 70
     1
102
RTVSPropertyOp19
 70
     1
102
RTVSPropertyOp20
 70
     1
102
RTVSPropertyOp21
 70
     1
102
RTVSPropertyOp22
 70
     1
102
RTVSPropertyOp23
 70
     1
102
RTVSPropertyOp24
 70
     1
102
RTVSPropertyOp25
 70
     1
102
RTVSPropertyOp26
 70
     1
102
RTVSPropertyOp27
 70
     1
102
RTVSPropertyOp28
 70
     1
102
RTVSPropertyOp29
 70
     1
102
RTVSPropertyOp30
 70
     1
102
RTVSPropertyOp31
 70
     1
102
RTVSPropertyOp32
 70
     1
  0
XRECORD
  5
22D
102
{ACAD_REACTORS
330
22C
102
}
330
22C
100
AcDbXrecord
280
     1
102
RTVSPropertyOp0
 70
     1
102
RTVSPropertyOp1
 70
     1
102
RTVSPropertyOp2
 70
     1
102
RTVSPropertyOp3
 70
     1
102
RTVSPropertyOp4
 70
     1
102
RTVSPropertyOp5
 70
     1
102
RTVSPropertyOp6
 70
     1
102
RTVSPropertyOp7
 70
     1
102
RTVSPropertyOp8
 70
     1
102
RTVSPropertyOp9
 70
     1
102
RTVSPropertyOp10
 70
     1
102
RTVSPropertyOp11
 70
     1
102
RTVSPropertyOp12
 70
     1
102
RTVSPropertyOp13
 70
     1
102
RTVSPropertyOp14
 70
     1
102
RTVSPropertyOp15
 70
     1
102
RTVSPropertyOp16
 70
     1
102
RTVSPropertyOp17
 70
     1
102
RTVSPropertyOp18
 70
     1
102
RTVSPropertyOp19
 70
     1
102
RTVSPropertyOp20
 70
     1
102
RTVSPropertyOp21
 70
     1
102
RTVSPropertyOp22
 70
     1
102
RTVSPropertyOp23
 70
     1
102
RTVSPropertyOp24
 70
     1
102
RTVSPropertyOp25
 70
     1
102
RTVSPropertyOp26
 70
     1
102
RTVSPropertyOp27
 70
     1
102
RTVSPropertyOp28
 70
     1
102
RTVSPropertyOp29
 70
     1
102
RTVSPropertyOp30
 70
     1
102
RTVSPropertyOp31
 70
     1
102
RTVSPropertyOp32
 70
     1
  0
XRECORD
  5
223
102
{ACAD_REACTORS
330
222
102
}
330
222
100
AcDbXrecord
280
     1
102
RTVSPropertyOp0
 70
     1
102
RTVSPropertyOp1
 70
     1
102
RTVSPropertyOp2
 70
     1
102
RTVSPropertyOp3
 70
     1
102
RTVSPropertyOp4
 70
     1
102
RTVSPropertyOp5
 70
     1
102
RTVSPropertyOp6
 70
     1
102
RTVSPropertyOp7
 70
     1
102
RTVSPropertyOp8
 70
     1
102
RTVSPropertyOp9
 70
     1
102
RTVSPropertyOp10
 70
     1
102
RTVSPropertyOp11
 70
     1
102
RTVSPropertyOp12
 70
     1
102
RTVSPropertyOp13
 70
     1
102
RTVSPropertyOp14
 70
     1
102
RTVSPropertyOp15
 70
     1
102
RTVSPropertyOp16
 70
     1
102
RTVSPropertyOp17
 70
     1
102
RTVSPropertyOp18
 70
     1
102
RTVSPropertyOp19
 70
     1
102
RTVSPropertyOp20
 70
     1
102
RTVSPropertyOp21
 70
     1
102
RTVSPropertyOp22
 70
     1
102
RTVSPropertyOp23
 70
     1
102
RTVSPropertyOp24
 70
     1
102
RTVSPropertyOp25
 70
     1
102
RTVSPropertyOp26
 70
     1
102
RTVSPropertyOp27
 70
     1
102
RTVSPropertyOp28
 70
     1
102
RTVSPropertyOp29
 70
     1
102
RTVSPropertyOp30
 70
     1
102
RTVSPropertyOp31
 70
     1
102
RTVSPropertyOp32
 70
     1
  0
XRECORD
  5
22B
102
{ACAD_REACTORS
330
22A
102
}
330
22A
100
AcDbXrecord
280
     1
102
RTVSPropertyOp0
 70
     1
102
RTVSPropertyOp1
 70
     1
102
RTVSPropertyOp2
 70
     1
102
RTVSPropertyOp3
 70
     1
102
RTVSPropertyOp4
 70
     1
102
RTVSPropertyOp5
 70
     1
102
RTVSPropertyOp6
 70
     1
102
RTVSPropertyOp7
 70
     1
102
RTVSPropertyOp8
 70
     1
102
RTVSPropertyOp9
 70
     1
102
RTVSPropertyOp10
 70
     1
102
RTVSPropertyOp11
 70
     1
102
RTVSPropertyOp12
 70
     1
102
RTVSPropertyOp13
 70
     1
102
RTVSPropertyOp14
 70
     1
102
RTVSPropertyOp15
 70
     1
102
RTVSPropertyOp16
 70
     1
102
RTVSPropertyOp17
 70
     1
102
RTVSPropertyOp18
 70
     1
102
RTVSPropertyOp19
 70
     1
102
RTVSPropertyOp20
 70
     1
102
RTVSPropertyOp21
 70
     1
102
RTVSPropertyOp22
 70
     1
102
RTVSPropertyOp23
 70
     1
102
RTVSPropertyOp24
 70
     1
102
RTVSPropertyOp25
 70
     1
102
RTVSPropertyOp26
 70
     1
102
RTVSPropertyOp27
 70
     1
102
RTVSPropertyOp28
 70
     1
102
RTVSPropertyOp29
 70
     1
102
RTVSPropertyOp30
 70
     1
102
RTVSPropertyOp31
 70
     1
102
RTVSPropertyOp32
 70
     1
  0
ENDSEC
  0
EOF
