ISO-10303-21;
HEADER;
/* Generated by software containing ST-Developer
 * from STEP Tools, Inc. (www.steptools.com) 
 */

FILE_DESCRIPTION(
/* description */ (''),
/* implementation_level */ '2;1');

FILE_NAME(
/* name */ 
'/Users/tom/Dropbox/Mara/Budik/krabicka_peshi_components/bok_D.step',
/* time_stamp */ '2020-04-15T00:32:41+02:00',
/* author */ (''),
/* organization */ (''),
/* preprocessor_version */ 'ST-DEVELOPER v18',
/* originating_system */ 'Autodesk Translation Framework v8.12.0.6',
/* authorisation */ '');

FILE_SCHEMA (('AUTOMOTIVE_DESIGN { 1 0 10303 214 3 1 1 }'));
ENDSEC;

DATA;
#10=MECHANICAL_DESIGN_GEOMETRIC_PRESENTATION_REPRESENTATION('',(#13),#315);
#11=SHAPE_REPRESENTATION_RELATIONSHIP('SRR','None',#322,#12);
#12=ADVANCED_BREP_SHAPE_REPRESENTATION('',(#14),#314);
#13=STYLED_ITEM('',(#332),#14);
#14=MANIFOLD_SOLID_BREP('bok_D',#191);
#15=FACE_OUTER_BOUND('',#25,.T.);
#16=FACE_OUTER_BOUND('',#26,.T.);
#17=FACE_OUTER_BOUND('',#27,.T.);
#18=FACE_OUTER_BOUND('',#28,.T.);
#19=FACE_OUTER_BOUND('',#29,.T.);
#20=FACE_OUTER_BOUND('',#30,.T.);
#21=FACE_OUTER_BOUND('',#31,.T.);
#22=FACE_OUTER_BOUND('',#32,.T.);
#23=FACE_OUTER_BOUND('',#33,.T.);
#24=FACE_OUTER_BOUND('',#34,.T.);
#25=EDGE_LOOP('',(#123,#124,#125,#126));
#26=EDGE_LOOP('',(#127,#128,#129,#130));
#27=EDGE_LOOP('',(#131,#132,#133,#134));
#28=EDGE_LOOP('',(#135,#136,#137,#138));
#29=EDGE_LOOP('',(#139,#140,#141,#142,#143,#144,#145,#146));
#30=EDGE_LOOP('',(#147,#148,#149,#150));
#31=EDGE_LOOP('',(#151,#152,#153,#154));
#32=EDGE_LOOP('',(#155,#156,#157,#158));
#33=EDGE_LOOP('',(#159,#160,#161,#162));
#34=EDGE_LOOP('',(#163,#164,#165,#166,#167,#168,#169,#170));
#35=LINE('',#265,#59);
#36=LINE('',#267,#60);
#37=LINE('',#269,#61);
#38=LINE('',#270,#62);
#39=LINE('',#273,#63);
#40=LINE('',#275,#64);
#41=LINE('',#276,#65);
#42=LINE('',#279,#66);
#43=LINE('',#280,#67);
#44=LINE('',#283,#68);
#45=LINE('',#284,#69);
#46=LINE('',#287,#70);
#47=LINE('',#289,#71);
#48=LINE('',#291,#72);
#49=LINE('',#293,#73);
#50=LINE('',#294,#74);
#51=LINE('',#297,#75);
#52=LINE('',#299,#76);
#53=LINE('',#300,#77);
#54=LINE('',#303,#78);
#55=LINE('',#305,#79);
#56=LINE('',#306,#80);
#57=LINE('',#308,#81);
#58=LINE('',#309,#82);
#59=VECTOR('',#219,10.);
#60=VECTOR('',#220,10.);
#61=VECTOR('',#221,10.);
#62=VECTOR('',#222,10.);
#63=VECTOR('',#225,10.);
#64=VECTOR('',#226,10.);
#65=VECTOR('',#227,10.);
#66=VECTOR('',#230,10.);
#67=VECTOR('',#231,10.);
#68=VECTOR('',#234,10.);
#69=VECTOR('',#235,10.);
#70=VECTOR('',#238,10.);
#71=VECTOR('',#239,10.);
#72=VECTOR('',#240,10.);
#73=VECTOR('',#241,10.);
#74=VECTOR('',#242,10.);
#75=VECTOR('',#245,10.);
#76=VECTOR('',#246,10.);
#77=VECTOR('',#247,10.);
#78=VECTOR('',#250,10.);
#79=VECTOR('',#251,10.);
#80=VECTOR('',#252,10.);
#81=VECTOR('',#255,10.);
#82=VECTOR('',#256,10.);
#83=VERTEX_POINT('',#263);
#84=VERTEX_POINT('',#264);
#85=VERTEX_POINT('',#266);
#86=VERTEX_POINT('',#268);
#87=VERTEX_POINT('',#272);
#88=VERTEX_POINT('',#274);
#89=VERTEX_POINT('',#278);
#90=VERTEX_POINT('',#282);
#91=VERTEX_POINT('',#286);
#92=VERTEX_POINT('',#288);
#93=VERTEX_POINT('',#290);
#94=VERTEX_POINT('',#292);
#95=VERTEX_POINT('',#296);
#96=VERTEX_POINT('',#298);
#97=VERTEX_POINT('',#302);
#98=VERTEX_POINT('',#304);
#99=EDGE_CURVE('',#83,#84,#35,.T.);
#100=EDGE_CURVE('',#85,#83,#36,.T.);
#101=EDGE_CURVE('',#85,#86,#37,.T.);
#102=EDGE_CURVE('',#86,#84,#38,.T.);
#103=EDGE_CURVE('',#84,#87,#39,.T.);
#104=EDGE_CURVE('',#88,#86,#40,.T.);
#105=EDGE_CURVE('',#87,#88,#41,.T.);
#106=EDGE_CURVE('',#89,#85,#42,.T.);
#107=EDGE_CURVE('',#89,#88,#43,.T.);
#108=EDGE_CURVE('',#87,#90,#44,.T.);
#109=EDGE_CURVE('',#90,#89,#45,.T.);
#110=EDGE_CURVE('',#91,#90,#46,.T.);
#111=EDGE_CURVE('',#92,#91,#47,.T.);
#112=EDGE_CURVE('',#93,#92,#48,.T.);
#113=EDGE_CURVE('',#93,#94,#49,.T.);
#114=EDGE_CURVE('',#83,#94,#50,.T.);
#115=EDGE_CURVE('',#92,#95,#51,.T.);
#116=EDGE_CURVE('',#96,#91,#52,.T.);
#117=EDGE_CURVE('',#95,#96,#53,.T.);
#118=EDGE_CURVE('',#95,#97,#54,.T.);
#119=EDGE_CURVE('',#98,#96,#55,.T.);
#120=EDGE_CURVE('',#97,#98,#56,.T.);
#121=EDGE_CURVE('',#93,#97,#57,.T.);
#122=EDGE_CURVE('',#94,#98,#58,.T.);
#123=ORIENTED_EDGE('',*,*,#99,.F.);
#124=ORIENTED_EDGE('',*,*,#100,.F.);
#125=ORIENTED_EDGE('',*,*,#101,.T.);
#126=ORIENTED_EDGE('',*,*,#102,.T.);
#127=ORIENTED_EDGE('',*,*,#103,.F.);
#128=ORIENTED_EDGE('',*,*,#102,.F.);
#129=ORIENTED_EDGE('',*,*,#104,.F.);
#130=ORIENTED_EDGE('',*,*,#105,.F.);
#131=ORIENTED_EDGE('',*,*,#106,.F.);
#132=ORIENTED_EDGE('',*,*,#107,.T.);
#133=ORIENTED_EDGE('',*,*,#104,.T.);
#134=ORIENTED_EDGE('',*,*,#101,.F.);
#135=ORIENTED_EDGE('',*,*,#108,.F.);
#136=ORIENTED_EDGE('',*,*,#105,.T.);
#137=ORIENTED_EDGE('',*,*,#107,.F.);
#138=ORIENTED_EDGE('',*,*,#109,.F.);
#139=ORIENTED_EDGE('',*,*,#99,.T.);
#140=ORIENTED_EDGE('',*,*,#103,.T.);
#141=ORIENTED_EDGE('',*,*,#108,.T.);
#142=ORIENTED_EDGE('',*,*,#110,.F.);
#143=ORIENTED_EDGE('',*,*,#111,.F.);
#144=ORIENTED_EDGE('',*,*,#112,.F.);
#145=ORIENTED_EDGE('',*,*,#113,.T.);
#146=ORIENTED_EDGE('',*,*,#114,.F.);
#147=ORIENTED_EDGE('',*,*,#115,.F.);
#148=ORIENTED_EDGE('',*,*,#111,.T.);
#149=ORIENTED_EDGE('',*,*,#116,.F.);
#150=ORIENTED_EDGE('',*,*,#117,.F.);
#151=ORIENTED_EDGE('',*,*,#118,.F.);
#152=ORIENTED_EDGE('',*,*,#117,.T.);
#153=ORIENTED_EDGE('',*,*,#119,.F.);
#154=ORIENTED_EDGE('',*,*,#120,.F.);
#155=ORIENTED_EDGE('',*,*,#121,.T.);
#156=ORIENTED_EDGE('',*,*,#120,.T.);
#157=ORIENTED_EDGE('',*,*,#122,.F.);
#158=ORIENTED_EDGE('',*,*,#113,.F.);
#159=ORIENTED_EDGE('',*,*,#112,.T.);
#160=ORIENTED_EDGE('',*,*,#115,.T.);
#161=ORIENTED_EDGE('',*,*,#118,.T.);
#162=ORIENTED_EDGE('',*,*,#121,.F.);
#163=ORIENTED_EDGE('',*,*,#100,.T.);
#164=ORIENTED_EDGE('',*,*,#114,.T.);
#165=ORIENTED_EDGE('',*,*,#122,.T.);
#166=ORIENTED_EDGE('',*,*,#119,.T.);
#167=ORIENTED_EDGE('',*,*,#116,.T.);
#168=ORIENTED_EDGE('',*,*,#110,.T.);
#169=ORIENTED_EDGE('',*,*,#109,.T.);
#170=ORIENTED_EDGE('',*,*,#106,.T.);
#171=PLANE('',#205);
#172=PLANE('',#206);
#173=PLANE('',#207);
#174=PLANE('',#208);
#175=PLANE('',#209);
#176=PLANE('',#210);
#177=PLANE('',#211);
#178=PLANE('',#212);
#179=PLANE('',#213);
#180=PLANE('',#214);
#181=ADVANCED_FACE('',(#15),#171,.F.);
#182=ADVANCED_FACE('',(#16),#172,.F.);
#183=ADVANCED_FACE('',(#17),#173,.F.);
#184=ADVANCED_FACE('',(#18),#174,.F.);
#185=ADVANCED_FACE('',(#19),#175,.T.);
#186=ADVANCED_FACE('',(#20),#176,.T.);
#187=ADVANCED_FACE('',(#21),#177,.T.);
#188=ADVANCED_FACE('',(#22),#178,.T.);
#189=ADVANCED_FACE('',(#23),#179,.T.);
#190=ADVANCED_FACE('',(#24),#180,.T.);
#191=CLOSED_SHELL('',(#181,#182,#183,#184,#185,#186,#187,#188,#189,#190));
#192=DERIVED_UNIT_ELEMENT(#194,1.);
#193=DERIVED_UNIT_ELEMENT(#317,3.);
#194=(
MASS_UNIT()
NAMED_UNIT(*)
SI_UNIT(.KILO.,.GRAM.)
);
#195=DERIVED_UNIT((#192,#193));
#196=MEASURE_REPRESENTATION_ITEM('density measure',
POSITIVE_RATIO_MEASURE(7850.),#195);
#197=PROPERTY_DEFINITION_REPRESENTATION(#202,#199);
#198=PROPERTY_DEFINITION_REPRESENTATION(#203,#200);
#199=REPRESENTATION('material name',(#201),#314);
#200=REPRESENTATION('density',(#196),#314);
#201=DESCRIPTIVE_REPRESENTATION_ITEM('Steel','Steel');
#202=PROPERTY_DEFINITION('material property','material name',#324);
#203=PROPERTY_DEFINITION('material property','density of part',#324);
#204=AXIS2_PLACEMENT_3D('placement',#261,#215,#216);
#205=AXIS2_PLACEMENT_3D('',#262,#217,#218);
#206=AXIS2_PLACEMENT_3D('',#271,#223,#224);
#207=AXIS2_PLACEMENT_3D('',#277,#228,#229);
#208=AXIS2_PLACEMENT_3D('',#281,#232,#233);
#209=AXIS2_PLACEMENT_3D('',#285,#236,#237);
#210=AXIS2_PLACEMENT_3D('',#295,#243,#244);
#211=AXIS2_PLACEMENT_3D('',#301,#248,#249);
#212=AXIS2_PLACEMENT_3D('',#307,#253,#254);
#213=AXIS2_PLACEMENT_3D('',#310,#257,#258);
#214=AXIS2_PLACEMENT_3D('',#311,#259,#260);
#215=DIRECTION('axis',(0.,0.,1.));
#216=DIRECTION('refdir',(1.,0.,0.));
#217=DIRECTION('center_axis',(-1.,0.,-1.43254583822601E-16));
#218=DIRECTION('ref_axis',(-1.43254583822601E-16,0.,1.));
#219=DIRECTION('',(0.,1.,0.));
#220=DIRECTION('',(-1.43254583822601E-16,0.,1.));
#221=DIRECTION('',(0.,1.,0.));
#222=DIRECTION('',(-1.43254583822601E-16,0.,1.));
#223=DIRECTION('center_axis',(0.,1.,0.));
#224=DIRECTION('ref_axis',(0.,0.,1.));
#225=DIRECTION('',(1.,0.,5.17345305044342E-19));
#226=DIRECTION('',(-1.,0.,0.));
#227=DIRECTION('',(0.,0.,-1.));
#228=DIRECTION('center_axis',(0.,0.,-1.));
#229=DIRECTION('ref_axis',(-1.,0.,0.));
#230=DIRECTION('',(-1.,0.,0.));
#231=DIRECTION('',(0.,1.,0.));
#232=DIRECTION('center_axis',(1.,0.,0.));
#233=DIRECTION('ref_axis',(0.,0.,-1.));
#234=DIRECTION('',(0.,-1.,0.));
#235=DIRECTION('',(0.,0.,-1.));
#236=DIRECTION('center_axis',(-5.17345305044342E-19,0.,1.));
#237=DIRECTION('ref_axis',(-1.,0.,-5.17345305044342E-19));
#238=DIRECTION('',(-1.,0.,-5.17345305044342E-19));
#239=DIRECTION('',(0.,-1.,0.));
#240=DIRECTION('',(1.,0.,5.17345305044342E-19));
#241=DIRECTION('',(0.,-1.,0.));
#242=DIRECTION('',(-1.,0.,-5.17345305044342E-19));
#243=DIRECTION('center_axis',(1.,0.,0.));
#244=DIRECTION('ref_axis',(0.,0.,1.));
#245=DIRECTION('',(0.,0.,-1.));
#246=DIRECTION('',(0.,0.,1.));
#247=DIRECTION('',(0.,-1.,0.));
#248=DIRECTION('center_axis',(0.,0.,-1.));
#249=DIRECTION('ref_axis',(1.,0.,0.));
#250=DIRECTION('',(-1.,0.,0.));
#251=DIRECTION('',(1.,0.,0.));
#252=DIRECTION('',(0.,-1.,0.));
#253=DIRECTION('center_axis',(-1.,0.,1.61713157648482E-16));
#254=DIRECTION('ref_axis',(-1.61713157648482E-16,0.,-1.));
#255=DIRECTION('',(-1.61713157648482E-16,0.,-1.));
#256=DIRECTION('',(-1.61713157648482E-16,0.,-1.));
#257=DIRECTION('center_axis',(0.,1.,0.));
#258=DIRECTION('ref_axis',(1.,0.,0.));
#259=DIRECTION('center_axis',(0.,-1.,0.));
#260=DIRECTION('ref_axis',(0.,0.,-1.));
#261=CARTESIAN_POINT('',(0.,0.,0.));
#262=CARTESIAN_POINT('Origin',(-1.99999999999999,-55.,-2.00000000000002));
#263=CARTESIAN_POINT('',(-1.99999999999999,-55.,0.));
#264=CARTESIAN_POINT('',(-1.99999999999999,-51.,0.));
#265=CARTESIAN_POINT('',(-1.99999999999999,-27.5,0.));
#266=CARTESIAN_POINT('',(-1.99999999999999,-55.,-2.00000000000002));
#267=CARTESIAN_POINT('',(-1.99999999999999,-55.,-2.00000000000002));
#268=CARTESIAN_POINT('',(-1.99999999999999,-51.,-2.00000000000002));
#269=CARTESIAN_POINT('',(-1.99999999999999,-55.,-2.00000000000002));
#270=CARTESIAN_POINT('',(-1.99999999999999,-51.,-2.00000000000002));
#271=CARTESIAN_POINT('Origin',(132.375,-51.,40.625));
#272=CARTESIAN_POINT('',(266.75,-51.,0.));
#273=CARTESIAN_POINT('',(200.5625,-51.,0.));
#274=CARTESIAN_POINT('',(266.75,-51.,-2.00000000000001));
#275=CARTESIAN_POINT('',(266.75,-51.,-2.00000000000002));
#276=CARTESIAN_POINT('',(266.75,-51.,83.25));
#277=CARTESIAN_POINT('Origin',(266.75,-55.,-2.00000000000002));
#278=CARTESIAN_POINT('',(266.75,-55.,-2.00000000000001));
#279=CARTESIAN_POINT('',(199.5625,-55.,-2.00000000000002));
#280=CARTESIAN_POINT('',(266.75,-55.,-2.00000000000001));
#281=CARTESIAN_POINT('Origin',(266.75,-55.,83.25));
#282=CARTESIAN_POINT('',(266.75,-55.,0.));
#283=CARTESIAN_POINT('',(266.75,-27.5,0.));
#284=CARTESIAN_POINT('',(266.75,-55.,40.625));
#285=CARTESIAN_POINT('Origin',(268.75,0.,1.41105931950844E-16));
#286=CARTESIAN_POINT('',(268.75,-55.,1.41105931950844E-16));
#287=CARTESIAN_POINT('',(-4.,-55.,0.));
#288=CARTESIAN_POINT('',(268.75,0.,1.41105931950844E-16));
#289=CARTESIAN_POINT('',(268.75,0.,1.41105931950844E-16));
#290=CARTESIAN_POINT('',(-4.,0.,0.));
#291=CARTESIAN_POINT('',(-4.,0.,0.));
#292=CARTESIAN_POINT('',(-4.,-55.,0.));
#293=CARTESIAN_POINT('',(-4.,0.,0.));
#294=CARTESIAN_POINT('',(-4.,-55.,0.));
#295=CARTESIAN_POINT('Origin',(268.75,0.,-4.));
#296=CARTESIAN_POINT('',(268.75,0.,-4.));
#297=CARTESIAN_POINT('',(268.75,0.,1.41105931950844E-16));
#298=CARTESIAN_POINT('',(268.75,-55.,-4.));
#299=CARTESIAN_POINT('',(268.75,-55.,1.41105931950844E-16));
#300=CARTESIAN_POINT('',(268.75,0.,-4.));
#301=CARTESIAN_POINT('Origin',(-3.99999999999999,0.,-4.));
#302=CARTESIAN_POINT('',(-4.,0.,-4.));
#303=CARTESIAN_POINT('',(268.75,0.,-4.));
#304=CARTESIAN_POINT('',(-4.,-55.,-4.));
#305=CARTESIAN_POINT('',(268.75,-55.,-4.));
#306=CARTESIAN_POINT('',(-4.,0.,-4.));
#307=CARTESIAN_POINT('Origin',(-4.,0.,0.));
#308=CARTESIAN_POINT('',(-3.99999999999999,0.,85.25));
#309=CARTESIAN_POINT('',(-3.99999999999999,-55.,85.25));
#310=CARTESIAN_POINT('Origin',(132.375,0.,-2.));
#311=CARTESIAN_POINT('Origin',(132.375,-55.,-2.));
#312=UNCERTAINTY_MEASURE_WITH_UNIT(LENGTH_MEASURE(0.01),#316,
'DISTANCE_ACCURACY_VALUE',
'Maximum model space distance between geometric entities at asserted c
onnectivities');
#313=UNCERTAINTY_MEASURE_WITH_UNIT(LENGTH_MEASURE(0.01),#316,
'DISTANCE_ACCURACY_VALUE',
'Maximum model space distance between geometric entities at asserted c
onnectivities');
#314=(
GEOMETRIC_REPRESENTATION_CONTEXT(3)
GLOBAL_UNCERTAINTY_ASSIGNED_CONTEXT((#312))
GLOBAL_UNIT_ASSIGNED_CONTEXT((#316,#318,#319))
REPRESENTATION_CONTEXT('','3D')
);
#315=(
GEOMETRIC_REPRESENTATION_CONTEXT(3)
GLOBAL_UNCERTAINTY_ASSIGNED_CONTEXT((#313))
GLOBAL_UNIT_ASSIGNED_CONTEXT((#316,#318,#319))
REPRESENTATION_CONTEXT('','3D')
);
#316=(
LENGTH_UNIT()
NAMED_UNIT(*)
SI_UNIT(.MILLI.,.METRE.)
);
#317=(
LENGTH_UNIT()
NAMED_UNIT(*)
SI_UNIT($,.METRE.)
);
#318=(
NAMED_UNIT(*)
PLANE_ANGLE_UNIT()
SI_UNIT($,.RADIAN.)
);
#319=(
NAMED_UNIT(*)
SI_UNIT($,.STERADIAN.)
SOLID_ANGLE_UNIT()
);
#320=SHAPE_DEFINITION_REPRESENTATION(#321,#322);
#321=PRODUCT_DEFINITION_SHAPE('',$,#324);
#322=SHAPE_REPRESENTATION('',(#204),#314);
#323=PRODUCT_DEFINITION_CONTEXT('part definition',#328,'design');
#324=PRODUCT_DEFINITION('bok_D','bok_D',#325,#323);
#325=PRODUCT_DEFINITION_FORMATION('',$,#330);
#326=PRODUCT_RELATED_PRODUCT_CATEGORY('bok_D','bok_D',(#330));
#327=APPLICATION_PROTOCOL_DEFINITION('international standard',
'automotive_design',2009,#328);
#328=APPLICATION_CONTEXT(
'Core Data for Automotive Mechanical Design Process');
#329=PRODUCT_CONTEXT('part definition',#328,'mechanical');
#330=PRODUCT('bok_D','bok_D',$,(#329));
#331=PRESENTATION_STYLE_ASSIGNMENT((#333));
#332=PRESENTATION_STYLE_ASSIGNMENT((#334));
#333=SURFACE_STYLE_USAGE(.BOTH.,#335);
#334=SURFACE_STYLE_USAGE(.BOTH.,#336);
#335=SURFACE_SIDE_STYLE('',(#337));
#336=SURFACE_SIDE_STYLE('',(#338));
#337=SURFACE_STYLE_FILL_AREA(#339);
#338=SURFACE_STYLE_FILL_AREA(#340);
#339=FILL_AREA_STYLE('Steel - Satin',(#341));
#340=FILL_AREA_STYLE('Plastic - Texture - Random',(#342));
#341=FILL_AREA_STYLE_COLOUR('Steel - Satin',#343);
#342=FILL_AREA_STYLE_COLOUR('Plastic - Texture - Random',#344);
#343=COLOUR_RGB('Steel - Satin',0.627450980392157,0.627450980392157,0.627450980392157);
#344=COLOUR_RGB('Plastic - Texture - Random',0.0980392156862745,0.0980392156862745,
0.0980392156862745);
ENDSEC;
END-ISO-10303-21;
