  0
SECTION
  2
HEADER
  9
$ACADVER
  1
AC1014
  9
$HANDSEED
  5
FFFF
  9
$MEASUREMENT
 70
     1
  0
ENDSEC
  0
SECTION
  2
TABLES
  0
TABLE
  2
VPORT
  5
8
330
0
100
AcDbSymbolTable
 70
     4
  0
VPORT
  5
2E
330
8
100
AcDbSymbolTableRecord
100
AcDbViewportTableRecord
  2
*ACTIVE
 70
     0
 10
0.0
 20
0.0
 11
1.0
 21
1.0
 12
210.0
 22
148.5
 13
0.0
 23
0.0
 14
10.0
 24
10.0
 15
10.0
 25
10.0
 16
0.0
 26
0.0
 36
1.0
 17
0.0
 27
0.0
 37
0.0
 40
341.0
 41
1.24
 42
50.0
 43
0.0
 44
0.0
 50
0.0
 51
0.0
 71
     0
 72
   100
 73
     1
 74
     3
 75
     0
 76
     0
 77
     0
 78
     0
  0
ENDTAB
  0
TABLE
  2
LTYPE
  5
5
330
0
100
AcDbSymbolTable
 70
     1
  0
LTYPE
  5
14
330
5
100
AcDbSymbolTableRecord
100
AcDbLinetypeTableRecord
  2
BYBLOCK
 70
     0
  3

 72
    65
 73
     0
 40
0.0
  0
LTYPE
  5
15
330
5
100
AcDbSymbolTableRecord
100
AcDbLinetypeTableRecord
  2
BYLAYER
 70
     0
  3

 72
    65
 73
     0
 40
0.0
  0
LTYPE
  5
16
330
5
100
AcDbSymbolTableRecord
100
AcDbLinetypeTableRecord
  2
CONTINUOUS
 70
     0
  3
Solid line
 72
    65
 73
     0
 40
0.0
  0
ENDTAB
  0
TABLE
  2
LAYER
  5
2
100
AcDbSymbolTable
 70
2
  0
LAYER
  5
50
100
AcDbSymbolTableRecord
100
AcDbLayerTableRecord
  2
0
 70
0
  6
CONTINUOUS
  0
LAYER
  5
51
100
AcDbSymbolTableRecord
100
AcDbLayerTableRecord
  2
Layer_1
 70
0
  6
CONTINUOUS
  0
ENDTAB
  0
TABLE
  2
STYLE
  5
3
330
0
100
AcDbSymbolTable
 70
     1
  0
STYLE
  5
11
330
3
100
AcDbSymbolTableRecord
100
AcDbTextStyleTableRecord
  2
STANDARD
 70
     0
 40
0.0
 41
1.0
 50
0.0
 71
     0
 42
2.5
  3
txt
  4

  0
ENDTAB
  0
TABLE
  2
VIEW
  5
6
330
0
100
AcDbSymbolTable
 70
     0
  0
ENDTAB
  0
TABLE
  2
UCS
  5
7
330
0
100
AcDbSymbolTable
 70
     0
  0
ENDTAB
  0
TABLE
  2
APPID
  5
9
330
0
100
AcDbSymbolTable
 70
     2
  0
APPID
  5
12
330
9
100
AcDbSymbolTableRecord
100
AcDbRegAppTableRecord
  2
ACAD
 70
     0
  0
ENDTAB
  0
TABLE
  2
DIMSTYLE
  5
A
330
0
100
AcDbSymbolTable
 70
     1
  0
DIMSTYLE
105
27
330
A
100
AcDbSymbolTableRecord
100
AcDbDimStyleTableRecord
  2
ISO-25
 70
     0
  3

  4

  5

  6

  7

 40
1.0
 41
2.5
 42
0.625
 43
3.75
 44
1.25
 45
0.0
 46
0.0
 47
0.0
 48
0.0
140
2.5
141
2.5
142
0.0
143
0.03937007874016
144
1.0
145
0.0
146
1.0
147
0.625
 71
     0
 72
     0
 73
     0
 74
     0
 75
     0
 76
     0
 77
     1
 78
     8
170
     0
171
     3
172
     1
173
     0
174
     0
175
     0
176
     0
177
     0
178
     0
270
     2
271
     2
272
     2
273
     2
274
     3
340
11
275
     0
280
     0
281
     0
282
     0
283
     0
284
     8
285
     0
286
     0
287
     3
288
     0
  0
ENDTAB
  0
TABLE
  2
BLOCK_RECORD
  5
1
330
0
100
AcDbSymbolTable
 70
     1
  0
BLOCK_RECORD
  5
1F
330
1
100
AcDbSymbolTableRecord
100
AcDbBlockTableRecord
  2
*MODEL_SPACE
  0
BLOCK_RECORD
  5
1B
330
1
100
AcDbSymbolTableRecord
100
AcDbBlockTableRecord
  2
*PAPER_SPACE
  0
ENDTAB
  0
ENDSEC
  0
SECTION
  2
BLOCKS
  0
BLOCK
  5
20
330
1F
100
AcDbEntity
  8
0
100
AcDbBlockBegin
  2
*MODEL_SPACE
 70
     0
 10
0.0
 20
0.0
 30
0.0
  3
*MODEL_SPACE
  1

  0
ENDBLK
  5
21
330
1F
100
AcDbEntity
  8
0
100
AcDbBlockEnd
  0
BLOCK
  5
1C
330
1B
100
AcDbEntity
 67
     1
  8
0
100
AcDbBlockBegin
  2
*PAPER_SPACE
  1

  0
ENDBLK
  5
1D
330
1B
100
AcDbEntity
 67
     1
  8
0
100
AcDbBlockEnd
  0
ENDSEC
  0
SECTION
  2
ENTITIES
  0
LINE
  5
100
100
AcDbEntity
  8
Layer_1
 62
4
100
AcDbLine
 10
0.129209
 20
0.145254
 30
0.0
 11
0.127237
 21
0.205392
 31
0.0
  0
LINE
  5
101
100
AcDbEntity
  8
Layer_1
 62
4
100
AcDbLine
 10
0.127237
 20
0.205392
 30
0.0
 11
0.162235
 21
0.225602
 31
0.0
  0
LINE
  5
102
100
AcDbEntity
  8
Layer_1
 62
4
100
AcDbLine
 10
0.162235
 20
0.225602
 30
0.0
 11
0.153362
 21
0.230039
 31
0.0
  0
LINE
  5
103
100
AcDbEntity
  8
Layer_1
 62
4
100
AcDbLine
 10
0.153362
 20
0.230039
 30
0.0
 11
0.129209
 21
0.215744
 31
0.0
  0
LINE
  5
104
100
AcDbEntity
  8
Layer_1
 62
4
100
AcDbLine
 10
0.129209
 20
0.215744
 30
0.0
 11
0.126744
 21
0.225109
 31
0.0
  0
LINE
  5
105
100
AcDbEntity
  8
Layer_1
 62
4
100
AcDbLine
 10
0.126744
 20
0.225109
 30
0.0
 11
0.143504
 21
0.234475
 31
0.0
  0
LINE
  5
106
100
AcDbEntity
  8
Layer_1
 62
4
100
AcDbLine
 10
0.143504
 20
0.234475
 30
0.0
 11
0.135124
 21
0.238912
 31
0.0
  0
LINE
  5
107
100
AcDbEntity
  8
Layer_1
 62
4
100
AcDbLine
 10
0.135124
 20
0.238912
 30
0.0
 11
0.128223
 21
0.233982
 31
0.0
  0
LINE
  5
108
100
AcDbEntity
  8
Layer_1
 62
4
100
AcDbLine
 10
0.128223
 20
0.233982
 30
0.0
 11
0.126744
 21
0.246306
 31
0.0
  0
LINE
  5
109
100
AcDbEntity
  8
Layer_1
 62
4
100
AcDbLine
 10
0.126744
 20
0.246306
 30
0.0
 11
0.116392
 21
0.245813
 31
0.0
  0
LINE
  5
10a
100
AcDbEntity
  8
Layer_1
 62
4
100
AcDbLine
 10
0.116392
 20
0.245813
 30
0.0
 11
0.115406
 21
0.234968
 31
0.0
  0
LINE
  5
10b
100
AcDbEntity
  8
Layer_1
 62
4
100
AcDbLine
 10
0.115406
 20
0.234968
 30
0.0
 11
0.108505
 21
0.238912
 31
0.0
  0
LINE
  5
10c
100
AcDbEntity
  8
Layer_1
 62
4
100
AcDbLine
 10
0.108505
 20
0.238912
 30
0.0
 11
0.099632
 21
0.232996
 31
0.0
  0
LINE
  5
10d
100
AcDbEntity
  8
Layer_1
 62
4
100
AcDbLine
 10
0.099632
 20
0.232996
 30
0.0
 11
0.116392
 21
0.223631
 31
0.0
  0
LINE
  5
10e
100
AcDbEntity
  8
Layer_1
 62
4
100
AcDbLine
 10
0.116392
 20
0.223631
 30
0.0
 11
0.116392
 21
0.215251
 31
0.0
  0
LINE
  5
10f
100
AcDbEntity
  8
Layer_1
 62
4
100
AcDbLine
 10
0.116392
 20
0.215251
 30
0.0
 11
0.090267
 21
0.228560
 31
0.0
  0
LINE
  5
110
100
AcDbEntity
  8
Layer_1
 62
4
100
AcDbLine
 10
0.090267
 20
0.228560
 30
0.0
 11
0.081394
 21
0.221659
 31
0.0
  0
LINE
  5
111
100
AcDbEntity
  8
Layer_1
 62
4
100
AcDbLine
 10
0.081394
 20
0.221659
 30
0.0
 11
0.116885
 21
0.204899
 31
0.0
  0
LINE
  5
112
100
AcDbEntity
  8
Layer_1
 62
4
100
AcDbLine
 10
0.116885
 20
0.204899
 30
0.0
 11
0.118364
 21
0.143775
 31
0.0
  0
LINE
  5
113
100
AcDbEntity
  8
Layer_1
 62
4
100
AcDbLine
 10
0.118364
 20
0.143775
 30
0.0
 11
0.107026
 21
0.161028
 31
0.0
  0
LINE
  5
114
100
AcDbEntity
  8
Layer_1
 62
4
100
AcDbLine
 10
0.107026
 20
0.161028
 30
0.0
 11
0.111956
 21
0.172858
 31
0.0
  0
LINE
  5
115
100
AcDbEntity
  8
Layer_1
 62
4
100
AcDbLine
 10
0.111956
 20
0.172858
 30
0.0
 11
0.104562
 21
0.183703
 31
0.0
  0
LINE
  5
116
100
AcDbEntity
  8
Layer_1
 62
4
100
AcDbLine
 10
0.104562
 20
0.183703
 30
0.0
 11
0.100125
 21
0.172858
 31
0.0
  0
LINE
  5
117
100
AcDbEntity
  8
Layer_1
 62
4
100
AcDbLine
 10
0.100125
 20
0.172858
 30
0.0
 11
0.094703
 21
0.181731
 31
0.0
  0
LINE
  5
118
100
AcDbEntity
  8
Layer_1
 62
4
100
AcDbLine
 10
0.094703
 20
0.181731
 30
0.0
 11
0.098646
 21
0.191097
 31
0.0
  0
LINE
  5
119
100
AcDbEntity
  8
Layer_1
 62
4
100
AcDbLine
 10
0.098646
 20
0.191097
 30
0.0
 11
0.091745
 21
0.201941
 31
0.0
  0
LINE
  5
11a
100
AcDbEntity
  8
Layer_1
 62
4
100
AcDbLine
 10
0.091745
 20
0.201941
 30
0.0
 11
0.086816
 21
0.192083
 31
0.0
  0
LINE
  5
11b
100
AcDbEntity
  8
Layer_1
 62
4
100
AcDbLine
 10
0.086816
 20
0.192083
 30
0.0
 11
0.082872
 21
0.198984
 31
0.0
  0
LINE
  5
11c
100
AcDbEntity
  8
Layer_1
 62
4
100
AcDbLine
 10
0.082872
 20
0.198984
 30
0.0
 11
0.073507
 21
0.192576
 31
0.0
  0
LINE
  5
11d
100
AcDbEntity
  8
Layer_1
 62
4
100
AcDbLine
 10
0.073507
 20
0.192576
 30
0.0
 11
0.076957
 21
0.185675
 31
0.0
  0
LINE
  5
11e
100
AcDbEntity
  8
Layer_1
 62
4
100
AcDbLine
 10
0.076957
 20
0.185675
 30
0.0
 11
0.062662
 21
0.186660
 31
0.0
  0
LINE
  5
11f
100
AcDbEntity
  8
Layer_1
 62
4
100
AcDbLine
 10
0.062662
 20
0.186660
 30
0.0
 11
0.068577
 21
0.177295
 31
0.0
  0
LINE
  5
120
100
AcDbEntity
  8
Layer_1
 62
4
100
AcDbLine
 10
0.068577
 20
0.177295
 30
0.0
 11
0.084351
 21
0.176309
 31
0.0
  0
LINE
  5
121
100
AcDbEntity
  8
Layer_1
 62
4
100
AcDbLine
 10
0.084351
 20
0.176309
 30
0.0
 11
0.090759
 21
0.165957
 31
0.0
  0
LINE
  5
122
100
AcDbEntity
  8
Layer_1
 62
4
100
AcDbLine
 10
0.090759
 20
0.165957
 30
0.0
 11
0.074986
 21
0.166450
 31
0.0
  0
LINE
  5
123
100
AcDbEntity
  8
Layer_1
 62
4
100
AcDbLine
 10
0.074986
 20
0.166450
 30
0.0
 11
0.082380
 21
0.156098
 31
0.0
  0
LINE
  5
124
100
AcDbEntity
  8
Layer_1
 62
4
100
AcDbLine
 10
0.082380
 20
0.156098
 30
0.0
 11
0.096675
 21
0.154620
 31
0.0
  0
LINE
  5
125
100
AcDbEntity
  8
Layer_1
 62
4
100
AcDbLine
 10
0.096675
 20
0.154620
 30
0.0
 11
0.107519
 21
0.138846
 31
0.0
  0
LINE
  5
126
100
AcDbEntity
  8
Layer_1
 62
4
100
AcDbLine
 10
0.107519
 20
0.138846
 30
0.0
 11
0.051325
 21
0.167929
 31
0.0
  0
LINE
  5
127
100
AcDbEntity
  8
Layer_1
 62
4
100
AcDbLine
 10
0.051325
 20
0.167929
 30
0.0
 11
0.049353
 21
0.204899
 31
0.0
  0
LINE
  5
128
100
AcDbEntity
  8
Layer_1
 62
4
100
AcDbLine
 10
0.049353
 20
0.204899
 30
0.0
 11
0.040480
 21
0.198984
 31
0.0
  0
LINE
  5
129
100
AcDbEntity
  8
Layer_1
 62
4
100
AcDbLine
 10
0.040480
 20
0.198984
 30
0.0
 11
0.040973
 21
0.171872
 31
0.0
  0
LINE
  5
12a
100
AcDbEntity
  8
Layer_1
 62
4
100
AcDbLine
 10
0.040973
 20
0.171872
 30
0.0
 11
0.031607
 21
0.177788
 31
0.0
  0
LINE
  5
12b
100
AcDbEntity
  8
Layer_1
 62
4
100
AcDbLine
 10
0.031607
 20
0.177788
 30
0.0
 11
0.033579
 21
0.195040
 31
0.0
  0
LINE
  5
12c
100
AcDbEntity
  8
Layer_1
 62
4
100
AcDbLine
 10
0.033579
 20
0.195040
 30
0.0
 11
0.023720
 21
0.190111
 31
0.0
  0
LINE
  5
12d
100
AcDbEntity
  8
Layer_1
 62
4
100
AcDbLine
 10
0.023720
 20
0.190111
 30
0.0
 11
0.024706
 21
0.179759
 31
0.0
  0
LINE
  5
12e
100
AcDbEntity
  8
Layer_1
 62
4
100
AcDbLine
 10
0.024706
 20
0.179759
 30
0.0
 11
0.013861
 21
0.186167
 31
0.0
  0
LINE
  5
12f
100
AcDbEntity
  8
Layer_1
 62
4
100
AcDbLine
 10
0.013861
 20
0.186167
 30
0.0
 11
0.009425
 21
0.177295
 31
0.0
  0
LINE
  5
130
100
AcDbEntity
  8
Layer_1
 62
4
100
AcDbLine
 10
0.009425
 20
0.177295
 30
0.0
 11
0.017805
 21
0.171872
 31
0.0
  0
LINE
  5
131
100
AcDbEntity
  8
Layer_1
 62
4
100
AcDbLine
 10
0.017805
 20
0.171872
 30
0.0
 11
0.009918
 21
0.165957
 31
0.0
  0
LINE
  5
132
100
AcDbEntity
  8
Layer_1
 62
4
100
AcDbLine
 10
0.009918
 20
0.165957
 30
0.0
 11
0.009918
 21
0.157084
 31
0.0
  0
LINE
  5
133
100
AcDbEntity
  8
Layer_1
 62
4
100
AcDbLine
 10
0.009918
 20
0.157084
 30
0.0
 11
0.028157
 21
0.167436
 31
0.0
  0
LINE
  5
134
100
AcDbEntity
  8
Layer_1
 62
4
100
AcDbLine
 10
0.028157
 20
0.167436
 30
0.0
 11
0.036536
 21
0.162014
 31
0.0
  0
LINE
  5
135
100
AcDbEntity
  8
Layer_1
 62
4
100
AcDbLine
 10
0.036536
 20
0.162014
 30
0.0
 11
0.010904
 21
0.147225
 31
0.0
  0
LINE
  5
136
100
AcDbEntity
  8
Layer_1
 62
4
100
AcDbLine
 10
0.010904
 20
0.147225
 30
0.0
 11
0.010411
 21
0.136874
 31
0.0
  0
LINE
  5
137
100
AcDbEntity
  8
Layer_1
 62
4
100
AcDbLine
 10
0.010411
 20
0.136874
 30
0.0
 11
0.045902
 21
0.157577
 31
0.0
  0
LINE
  5
138
100
AcDbEntity
  8
Layer_1
 62
4
100
AcDbLine
 10
0.045902
 20
0.157577
 30
0.0
 11
0.104069
 21
0.128494
 31
0.0
  0
LINE
  5
139
100
AcDbEntity
  8
Layer_1
 62
4
100
AcDbLine
 10
0.104069
 20
0.128494
 30
0.0
 11
0.079915
 21
0.127508
 31
0.0
  0
LINE
  5
13a
100
AcDbEntity
  8
Layer_1
 62
4
100
AcDbLine
 10
0.079915
 20
0.127508
 30
0.0
 11
0.074493
 21
0.135888
 31
0.0
  0
LINE
  5
13b
100
AcDbEntity
  8
Layer_1
 62
4
100
AcDbLine
 10
0.074493
 20
0.135888
 30
0.0
 11
0.059704
 21
0.134902
 31
0.0
  0
LINE
  5
13c
100
AcDbEntity
  8
Layer_1
 62
4
100
AcDbLine
 10
0.059704
 20
0.134902
 30
0.0
 11
0.067099
 21
0.127015
 31
0.0
  0
LINE
  5
13d
100
AcDbEntity
  8
Layer_1
 62
4
100
AcDbLine
 10
0.067099
 20
0.127015
 30
0.0
 11
0.055761
 21
0.126522
 31
0.0
  0
LINE
  5
13e
100
AcDbEntity
  8
Layer_1
 62
4
100
AcDbLine
 10
0.055761
 20
0.126522
 30
0.0
 11
0.048860
 21
0.134409
 31
0.0
  0
LINE
  5
13f
100
AcDbEntity
  8
Layer_1
 62
4
100
AcDbLine
 10
0.048860
 20
0.134409
 30
0.0
 11
0.035058
 21
0.132930
 31
0.0
  0
LINE
  5
140
100
AcDbEntity
  8
Layer_1
 62
4
100
AcDbLine
 10
0.035058
 20
0.132930
 30
0.0
 11
0.041959
 21
0.126029
 31
0.0
  0
LINE
  5
141
100
AcDbEntity
  8
Layer_1
 62
4
100
AcDbLine
 10
0.041959
 20
0.126029
 30
0.0
 11
0.034565
 21
0.126522
 31
0.0
  0
LINE
  5
142
100
AcDbEntity
  8
Layer_1
 62
4
100
AcDbLine
 10
0.034565
 20
0.126522
 30
0.0
 11
0.034565
 21
0.116171
 31
0.0
  0
LINE
  5
143
100
AcDbEntity
  8
Layer_1
 62
4
100
AcDbLine
 10
0.034565
 20
0.116171
 30
0.0
 11
0.043438
 21
0.117156
 31
0.0
  0
LINE
  5
144
100
AcDbEntity
  8
Layer_1
 62
4
100
AcDbLine
 10
0.043438
 20
0.117156
 30
0.0
 11
0.035551
 21
0.107298
 31
0.0
  0
LINE
  5
145
100
AcDbEntity
  8
Layer_1
 62
4
100
AcDbLine
 10
0.035551
 20
0.107298
 30
0.0
 11
0.046395
 21
0.107298
 31
0.0
  0
LINE
  5
146
100
AcDbEntity
  8
Layer_1
 62
4
100
AcDbLine
 10
0.046395
 20
0.107298
 30
0.0
 11
0.054282
 21
0.117156
 31
0.0
  0
LINE
  5
147
100
AcDbEntity
  8
Layer_1
 62
4
100
AcDbLine
 10
0.054282
 20
0.117156
 30
0.0
 11
0.067591
 21
0.117156
 31
0.0
  0
LINE
  5
148
100
AcDbEntity
  8
Layer_1
 62
4
100
AcDbLine
 10
0.067591
 20
0.117156
 30
0.0
 11
0.061183
 21
0.107791
 31
0.0
  0
LINE
  5
149
100
AcDbEntity
  8
Layer_1
 62
4
100
AcDbLine
 10
0.061183
 20
0.107791
 30
0.0
 11
0.074000
 21
0.107298
 31
0.0
  0
LINE
  5
14a
100
AcDbEntity
  8
Layer_1
 62
4
100
AcDbLine
 10
0.074000
 20
0.107298
 30
0.0
 11
0.080408
 21
0.118142
 31
0.0
  0
LINE
  5
14b
100
AcDbEntity
  8
Layer_1
 62
4
100
AcDbLine
 10
0.080408
 20
0.118142
 30
0.0
 11
0.101604
 21
0.117649
 31
0.0
  0
LINE
  5
14c
100
AcDbEntity
  8
Layer_1
 62
4
100
AcDbLine
 10
0.101604
 20
0.117649
 30
0.0
 11
0.047381
 21
0.085116
 31
0.0
  0
LINE
  5
14d
100
AcDbEntity
  8
Layer_1
 62
4
100
AcDbLine
 10
0.047381
 20
0.085116
 30
0.0
 11
0.011890
 21
0.105326
 31
0.0
  0
LINE
  5
14e
100
AcDbEntity
  8
Layer_1
 62
4
100
AcDbLine
 10
0.011890
 20
0.105326
 30
0.0
 11
0.011890
 21
0.094481
 31
0.0
  0
LINE
  5
14f
100
AcDbEntity
  8
Layer_1
 62
4
100
AcDbLine
 10
0.011890
 20
0.094481
 30
0.0
 11
0.039494
 21
0.079200
 31
0.0
  0
LINE
  5
150
100
AcDbEntity
  8
Layer_1
 62
4
100
AcDbLine
 10
0.039494
 20
0.079200
 30
0.0
 11
0.032100
 21
0.073778
 31
0.0
  0
LINE
  5
151
100
AcDbEntity
  8
Layer_1
 62
4
100
AcDbLine
 10
0.032100
 20
0.073778
 30
0.0
 11
0.011890
 21
0.083637
 31
0.0
  0
LINE
  5
152
100
AcDbEntity
  8
Layer_1
 62
4
100
AcDbLine
 10
0.011890
 20
0.083637
 30
0.0
 11
0.012876
 21
0.074271
 31
0.0
  0
LINE
  5
153
100
AcDbEntity
  8
Layer_1
 62
4
100
AcDbLine
 10
0.012876
 20
0.074271
 30
0.0
 11
0.023227
 21
0.069342
 31
0.0
  0
LINE
  5
154
100
AcDbEntity
  8
Layer_1
 62
4
100
AcDbLine
 10
0.023227
 20
0.069342
 30
0.0
 11
0.011890
 21
0.064412
 31
0.0
  0
LINE
  5
155
100
AcDbEntity
  8
Layer_1
 62
4
100
AcDbLine
 10
0.011890
 20
0.064412
 30
0.0
 11
0.017312
 21
0.055539
 31
0.0
  0
LINE
  5
156
100
AcDbEntity
  8
Layer_1
 62
4
100
AcDbLine
 10
0.017312
 20
0.055539
 30
0.0
 11
0.027171
 21
0.061455
 31
0.0
  0
LINE
  5
157
100
AcDbEntity
  8
Layer_1
 62
4
100
AcDbLine
 10
0.027171
 20
0.061455
 30
0.0
 11
0.027171
 21
0.053075
 31
0.0
  0
LINE
  5
158
100
AcDbEntity
  8
Layer_1
 62
4
100
AcDbLine
 10
0.027171
 20
0.053075
 30
0.0
 11
0.036536
 21
0.049131
 31
0.0
  0
LINE
  5
159
100
AcDbEntity
  8
Layer_1
 62
4
100
AcDbLine
 10
0.036536
 20
0.049131
 30
0.0
 11
0.036536
 21
0.069342
 31
0.0
  0
LINE
  5
15a
100
AcDbEntity
  8
Layer_1
 62
4
100
AcDbLine
 10
0.036536
 20
0.069342
 30
0.0
 11
0.044916
 21
0.071806
 31
0.0
  0
LINE
  5
15b
100
AcDbEntity
  8
Layer_1
 62
4
100
AcDbLine
 10
0.044916
 20
0.071806
 30
0.0
 11
0.044423
 21
0.045188
 31
0.0
  0
LINE
  5
15c
100
AcDbEntity
  8
Layer_1
 62
4
100
AcDbLine
 10
0.044423
 20
0.045188
 30
0.0
 11
0.054775
 21
0.040751
 31
0.0
  0
LINE
  5
15d
100
AcDbEntity
  8
Layer_1
 62
4
100
AcDbLine
 10
0.054775
 20
0.040751
 30
0.0
 11
0.053296
 21
0.078707
 31
0.0
  0
LINE
  5
15e
100
AcDbEntity
  8
Layer_1
 62
4
100
AcDbLine
 10
0.053296
 20
0.078707
 30
0.0
 11
0.110477
 21
0.110255
 31
0.0
  0
LINE
  5
15f
100
AcDbEntity
  8
Layer_1
 62
4
100
AcDbLine
 10
0.110477
 20
0.110255
 30
0.0
 11
0.098646
 21
0.088566
 31
0.0
  0
LINE
  5
160
100
AcDbEntity
  8
Layer_1
 62
4
100
AcDbLine
 10
0.098646
 20
0.088566
 30
0.0
 11
0.082380
 21
0.085116
 31
0.0
  0
LINE
  5
161
100
AcDbEntity
  8
Layer_1
 62
4
100
AcDbLine
 10
0.082380
 20
0.085116
 30
0.0
 11
0.076957
 21
0.074271
 31
0.0
  0
LINE
  5
162
100
AcDbEntity
  8
Layer_1
 62
4
100
AcDbLine
 10
0.076957
 20
0.074271
 30
0.0
 11
0.091252
 21
0.077229
 31
0.0
  0
LINE
  5
163
100
AcDbEntity
  8
Layer_1
 62
4
100
AcDbLine
 10
0.091252
 20
0.077229
 30
0.0
 11
0.085337
 21
0.067863
 31
0.0
  0
LINE
  5
164
100
AcDbEntity
  8
Layer_1
 62
4
100
AcDbLine
 10
0.085337
 20
0.067863
 30
0.0
 11
0.072028
 21
0.065891
 31
0.0
  0
LINE
  5
165
100
AcDbEntity
  8
Layer_1
 62
4
100
AcDbLine
 10
0.072028
 20
0.065891
 30
0.0
 11
0.066113
 21
0.056525
 31
0.0
  0
LINE
  5
166
100
AcDbEntity
  8
Layer_1
 62
4
100
AcDbLine
 10
0.066113
 20
0.056525
 30
0.0
 11
0.080901
 21
0.058990
 31
0.0
  0
LINE
  5
167
100
AcDbEntity
  8
Layer_1
 62
4
100
AcDbLine
 10
0.080901
 20
0.058990
 30
0.0
 11
0.075478
 21
0.051596
 31
0.0
  0
LINE
  5
168
100
AcDbEntity
  8
Layer_1
 62
4
100
AcDbLine
 10
0.075478
 20
0.051596
 30
0.0
 11
0.085830
 21
0.045681
 31
0.0
  0
LINE
  5
169
100
AcDbEntity
  8
Layer_1
 62
4
100
AcDbLine
 10
0.085830
 20
0.045681
 30
0.0
 11
0.089774
 21
0.053568
 31
0.0
  0
LINE
  5
16a
100
AcDbEntity
  8
Layer_1
 62
4
100
AcDbLine
 10
0.089774
 20
0.053568
 30
0.0
 11
0.094703
 21
0.042723
 31
0.0
  0
LINE
  5
16b
100
AcDbEntity
  8
Layer_1
 62
4
100
AcDbLine
 10
0.094703
 20
0.042723
 30
0.0
 11
0.101111
 21
0.052582
 31
0.0
  0
LINE
  5
16c
100
AcDbEntity
  8
Layer_1
 62
4
100
AcDbLine
 10
0.101111
 20
0.052582
 30
0.0
 11
0.096675
 21
0.063426
 31
0.0
  0
LINE
  5
16d
100
AcDbEntity
  8
Layer_1
 62
4
100
AcDbLine
 10
0.096675
 20
0.063426
 30
0.0
 11
0.101604
 21
0.073778
 31
0.0
  0
LINE
  5
16e
100
AcDbEntity
  8
Layer_1
 62
4
100
AcDbLine
 10
0.101604
 20
0.073778
 30
0.0
 11
0.107026
 21
0.063426
 31
0.0
  0
LINE
  5
16f
100
AcDbEntity
  8
Layer_1
 62
4
100
AcDbLine
 10
0.107026
 20
0.063426
 30
0.0
 11
0.112942
 21
0.074271
 31
0.0
  0
LINE
  5
170
100
AcDbEntity
  8
Layer_1
 62
4
100
AcDbLine
 10
0.112942
 20
0.074271
 30
0.0
 11
0.107519
 21
0.083637
 31
0.0
  0
LINE
  5
171
100
AcDbEntity
  8
Layer_1
 62
4
100
AcDbLine
 10
0.107519
 20
0.083637
 30
0.0
 11
0.118857
 21
0.102368
 31
0.0
  0
LINE
  5
172
100
AcDbEntity
  8
Layer_1
 62
4
100
AcDbLine
 10
0.118857
 20
0.102368
 30
0.0
 11
0.121322
 21
0.042230
 31
0.0
  0
LINE
  5
173
100
AcDbEntity
  8
Layer_1
 62
4
100
AcDbLine
 10
0.121322
 20
0.042230
 30
0.0
 11
0.089774
 21
0.024484
 31
0.0
  0
LINE
  5
174
100
AcDbEntity
  8
Layer_1
 62
4
100
AcDbLine
 10
0.089774
 20
0.024484
 30
0.0
 11
0.098646
 21
0.018569
 31
0.0
  0
LINE
  5
175
100
AcDbEntity
  8
Layer_1
 62
4
100
AcDbLine
 10
0.098646
 20
0.018569
 30
0.0
 11
0.122307
 21
0.031385
 31
0.0
  0
LINE
  5
176
100
AcDbEntity
  8
Layer_1
 62
4
100
AcDbLine
 10
0.122307
 20
0.031385
 30
0.0
 11
0.122307
 21
0.023991
 31
0.0
  0
LINE
  5
177
100
AcDbEntity
  8
Layer_1
 62
4
100
AcDbLine
 10
0.122307
 20
0.023991
 30
0.0
 11
0.105953
 21
0.014549
 31
0.0
  0
LINE
  5
178
100
AcDbEntity
  8
Layer_1
 62
4
100
AcDbLine
 10
0.105953
 20
0.014549
 30
0.0
 11
0.115144
 21
0.009242
 31
0.0
  0
LINE
  5
179
100
AcDbEntity
  8
Layer_1
 62
4
100
AcDbLine
 10
0.115144
 20
0.009242
 30
0.0
 11
0.121994
 21
0.013197
 31
0.0
  0
LINE
  5
17a
100
AcDbEntity
  8
Layer_1
 62
4
100
AcDbLine
 10
0.121994
 20
0.013197
 30
0.0
 11
0.121994
 21
0.001809
 31
0.0
  0
LINE
  5
17b
100
AcDbEntity
  8
Layer_1
 62
4
100
AcDbLine
 10
0.121994
 20
0.001809
 30
0.0
 11
0.132166
 21
0.001809
 31
0.0
  0
LINE
  5
17c
100
AcDbEntity
  8
Layer_1
 62
4
100
AcDbLine
 10
0.132166
 20
0.001809
 30
0.0
 11
0.132166
 21
0.015612
 31
0.0
  0
LINE
  5
17d
100
AcDbEntity
  8
Layer_1
 62
4
100
AcDbLine
 10
0.132166
 20
0.015612
 30
0.0
 11
0.140955
 21
0.010537
 31
0.0
  0
LINE
  5
17e
100
AcDbEntity
  8
Layer_1
 62
4
100
AcDbLine
 10
0.140955
 20
0.010537
 30
0.0
 11
0.149131
 21
0.015257
 31
0.0
  0
LINE
  5
17f
100
AcDbEntity
  8
Layer_1
 62
4
100
AcDbLine
 10
0.149131
 20
0.015257
 30
0.0
 11
0.132412
 21
0.024910
 31
0.0
  0
LINE
  5
180
100
AcDbEntity
  8
Layer_1
 62
4
100
AcDbLine
 10
0.132412
 20
0.024910
 30
0.0
 11
0.132412
 21
0.031878
 31
0.0
  0
LINE
  5
181
100
AcDbEntity
  8
Layer_1
 62
4
100
AcDbLine
 10
0.132412
 20
0.031878
 30
0.0
 11
0.155827
 21
0.019555
 31
0.0
  0
LINE
  5
182
100
AcDbEntity
  8
Layer_1
 62
4
100
AcDbLine
 10
0.155827
 20
0.019555
 30
0.0
 11
0.165996
 21
0.025426
 31
0.0
  0
LINE
  5
183
100
AcDbEntity
  8
Layer_1
 62
4
100
AcDbLine
 10
0.165996
 20
0.025426
 30
0.0
 11
0.132551
 21
0.044736
 31
0.0
  0
LINE
  5
184
100
AcDbEntity
  8
Layer_1
 62
4
100
AcDbLine
 10
0.132551
 20
0.044736
 30
0.0
 11
0.129209
 21
0.103847
 31
0.0
  0
LINE
  5
185
100
AcDbEntity
  8
Layer_1
 62
4
100
AcDbLine
 10
0.129209
 20
0.103847
 30
0.0
 11
0.141532
 21
0.088073
 31
0.0
  0
LINE
  5
186
100
AcDbEntity
  8
Layer_1
 62
4
100
AcDbLine
 10
0.141532
 20
0.088073
 30
0.0
 11
0.137201
 21
0.071910
 31
0.0
  0
LINE
  5
187
100
AcDbEntity
  8
Layer_1
 62
4
100
AcDbLine
 10
0.137201
 20
0.071910
 30
0.0
 11
0.142631
 21
0.062506
 31
0.0
  0
LINE
  5
188
100
AcDbEntity
  8
Layer_1
 62
4
100
AcDbLine
 10
0.142631
 20
0.062506
 30
0.0
 11
0.148433
 21
0.075257
 31
0.0
  0
LINE
  5
189
100
AcDbEntity
  8
Layer_1
 62
4
100
AcDbLine
 10
0.148433
 20
0.075257
 30
0.0
 11
0.154841
 21
0.068356
 31
0.0
  0
LINE
  5
18a
100
AcDbEntity
  8
Layer_1
 62
4
100
AcDbLine
 10
0.154841
 20
0.068356
 30
0.0
 11
0.148433
 21
0.053075
 31
0.0
  0
LINE
  5
18b
100
AcDbEntity
  8
Layer_1
 62
4
100
AcDbLine
 10
0.148433
 20
0.053075
 30
0.0
 11
0.154348
 21
0.045681
 31
0.0
  0
LINE
  5
18c
100
AcDbEntity
  8
Layer_1
 62
4
100
AcDbLine
 10
0.154348
 20
0.045681
 30
0.0
 11
0.159771
 21
0.059483
 31
0.0
  0
LINE
  5
18d
100
AcDbEntity
  8
Layer_1
 62
4
100
AcDbLine
 10
0.159771
 20
0.059483
 30
0.0
 11
0.167658
 21
0.048145
 31
0.0
  0
LINE
  5
18e
100
AcDbEntity
  8
Layer_1
 62
4
100
AcDbLine
 10
0.167658
 20
0.048145
 30
0.0
 11
0.176530
 21
0.054061
 31
0.0
  0
LINE
  5
18f
100
AcDbEntity
  8
Layer_1
 62
4
100
AcDbLine
 10
0.176530
 20
0.054061
 30
0.0
 11
0.172587
 21
0.061455
 31
0.0
  0
LINE
  5
190
100
AcDbEntity
  8
Layer_1
 62
4
100
AcDbLine
 10
0.172587
 20
0.061455
 30
0.0
 11
0.182939
 21
0.060962
 31
0.0
  0
LINE
  5
191
100
AcDbEntity
  8
Layer_1
 62
4
100
AcDbLine
 10
0.182939
 20
0.060962
 30
0.0
 11
0.177023
 21
0.071313
 31
0.0
  0
LINE
  5
192
100
AcDbEntity
  8
Layer_1
 62
4
100
AcDbLine
 10
0.177023
 20
0.071313
 30
0.0
 11
0.163714
 21
0.072792
 31
0.0
  0
LINE
  5
193
100
AcDbEntity
  8
Layer_1
 62
4
100
AcDbLine
 10
0.163714
 20
0.072792
 30
0.0
 11
0.158785
 21
0.080186
 31
0.0
  0
LINE
  5
194
100
AcDbEntity
  8
Layer_1
 62
4
100
AcDbLine
 10
0.158785
 20
0.080186
 30
0.0
 11
0.171108
 21
0.080679
 31
0.0
  0
LINE
  5
195
100
AcDbEntity
  8
Layer_1
 62
4
100
AcDbLine
 10
0.171108
 20
0.080679
 30
0.0
 11
0.164207
 21
0.091031
 31
0.0
  0
LINE
  5
196
100
AcDbEntity
  8
Layer_1
 62
4
100
AcDbLine
 10
0.164207
 20
0.091031
 30
0.0
 11
0.153362
 21
0.091524
 31
0.0
  0
LINE
  5
197
100
AcDbEntity
  8
Layer_1
 62
4
100
AcDbLine
 10
0.153362
 20
0.091524
 30
0.0
 11
0.143181
 21
0.109159
 31
0.0
  0
LINE
  5
198
100
AcDbEntity
  8
Layer_1
 62
4
100
AcDbLine
 10
0.143181
 20
0.109159
 30
0.0
 11
0.195262
 21
0.082651
 31
0.0
  0
LINE
  5
199
100
AcDbEntity
  8
Layer_1
 62
4
100
AcDbLine
 10
0.195262
 20
0.082651
 30
0.0
 11
0.195262
 21
0.044695
 31
0.0
  0
LINE
  5
19a
100
AcDbEntity
  8
Layer_1
 62
4
100
AcDbLine
 10
0.195262
 20
0.044695
 30
0.0
 11
0.206326
 21
0.051083
 31
0.0
  0
LINE
  5
19b
100
AcDbEntity
  8
Layer_1
 62
4
100
AcDbLine
 10
0.206326
 20
0.051083
 30
0.0
 11
0.206326
 21
0.077229
 31
0.0
  0
LINE
  5
19c
100
AcDbEntity
  8
Layer_1
 62
4
100
AcDbLine
 10
0.206326
 20
0.077229
 30
0.0
 11
0.215378
 21
0.072003
 31
0.0
  0
LINE
  5
19d
100
AcDbEntity
  8
Layer_1
 62
4
100
AcDbLine
 10
0.215378
 20
0.072003
 30
0.0
 11
0.215378
 21
0.056032
 31
0.0
  0
LINE
  5
19e
100
AcDbEntity
  8
Layer_1
 62
4
100
AcDbLine
 10
0.215378
 20
0.056032
 30
0.0
 11
0.224607
 21
0.061361
 31
0.0
  0
LINE
  5
19f
100
AcDbEntity
  8
Layer_1
 62
4
100
AcDbLine
 10
0.224607
 20
0.061361
 30
0.0
 11
0.224607
 21
0.067863
 31
0.0
  0
LINE
  5
1a0
100
AcDbEntity
  8
Layer_1
 62
4
100
AcDbLine
 10
0.224607
 20
0.067863
 30
0.0
 11
0.233783
 21
0.062565
 31
0.0
  0
LINE
  5
1a1
100
AcDbEntity
  8
Layer_1
 62
4
100
AcDbLine
 10
0.233783
 20
0.062565
 30
0.0
 11
0.238358
 21
0.070490
 31
0.0
  0
LINE
  5
1a2
100
AcDbEntity
  8
Layer_1
 62
4
100
AcDbLine
 10
0.238358
 20
0.070490
 30
0.0
 11
0.228315
 21
0.076289
 31
0.0
  0
LINE
  5
1a3
100
AcDbEntity
  8
Layer_1
 62
4
100
AcDbLine
 10
0.228315
 20
0.076289
 30
0.0
 11
0.237278
 21
0.081463
 31
0.0
  0
LINE
  5
1a4
100
AcDbEntity
  8
Layer_1
 62
4
100
AcDbLine
 10
0.237278
 20
0.081463
 30
0.0
 11
0.237278
 21
0.090538
 31
0.0
  0
LINE
  5
1a5
100
AcDbEntity
  8
Layer_1
 62
4
100
AcDbLine
 10
0.237278
 20
0.090538
 30
0.0
 11
0.219342
 21
0.080182
 31
0.0
  0
LINE
  5
1a6
100
AcDbEntity
  8
Layer_1
 62
4
100
AcDbLine
 10
0.219342
 20
0.080182
 30
0.0
 11
0.212356
 21
0.084216
 31
0.0
  0
LINE
  5
1a7
100
AcDbEntity
  8
Layer_1
 62
4
100
AcDbLine
 10
0.212356
 20
0.084216
 30
0.0
 11
0.236373
 21
0.098082
 31
0.0
  0
LINE
  5
1a8
100
AcDbEntity
  8
Layer_1
 62
4
100
AcDbLine
 10
0.236373
 20
0.098082
 30
0.0
 11
0.236373
 21
0.111241
 31
0.0
  0
LINE
  5
1a9
100
AcDbEntity
  8
Layer_1
 62
4
100
AcDbLine
 10
0.236373
 20
0.111241
 30
0.0
 11
0.203149
 21
0.090045
 31
0.0
  0
LINE
  5
1aa
100
AcDbEntity
  8
Layer_1
 62
4
100
AcDbLine
 10
0.203149
 20
0.090045
 30
0.0
 11
0.143997
 21
0.118635
 31
0.0
  0
LINE
  5
1ab
100
AcDbEntity
  8
Layer_1
 62
4
100
AcDbLine
 10
0.143997
 20
0.118635
 30
0.0
 11
0.166179
 21
0.120114
 31
0.0
  0
LINE
  5
1ac
100
AcDbEntity
  8
Layer_1
 62
4
100
AcDbLine
 10
0.166179
 20
0.120114
 30
0.0
 11
0.176037
 21
0.110748
 31
0.0
  0
LINE
  5
1ad
100
AcDbEntity
  8
Layer_1
 62
4
100
AcDbLine
 10
0.176037
 20
0.110748
 30
0.0
 11
0.187868
 21
0.111734
 31
0.0
  0
LINE
  5
1ae
100
AcDbEntity
  8
Layer_1
 62
4
100
AcDbLine
 10
0.187868
 20
0.111734
 30
0.0
 11
0.181460
 21
0.120607
 31
0.0
  0
LINE
  5
1af
100
AcDbEntity
  8
Layer_1
 62
4
100
AcDbLine
 10
0.181460
 20
0.120607
 30
0.0
 11
0.192797
 21
0.121593
 31
0.0
  0
LINE
  5
1b0
100
AcDbEntity
  8
Layer_1
 62
4
100
AcDbLine
 10
0.192797
 20
0.121593
 30
0.0
 11
0.200684
 21
0.111241
 31
0.0
  0
LINE
  5
1b1
100
AcDbEntity
  8
Layer_1
 62
4
100
AcDbLine
 10
0.200684
 20
0.111241
 30
0.0
 11
0.212022
 21
0.113213
 31
0.0
  0
LINE
  5
1b2
100
AcDbEntity
  8
Layer_1
 62
4
100
AcDbLine
 10
0.212022
 20
0.113213
 30
0.0
 11
0.204628
 21
0.121593
 31
0.0
  0
LINE
  5
1b3
100
AcDbEntity
  8
Layer_1
 62
4
100
AcDbLine
 10
0.204628
 20
0.121593
 30
0.0
 11
0.215472
 21
0.122579
 31
0.0
  0
LINE
  5
1b4
100
AcDbEntity
  8
Layer_1
 62
4
100
AcDbLine
 10
0.215472
 20
0.122579
 30
0.0
 11
0.214979
 21
0.132437
 31
0.0
  0
LINE
  5
1b5
100
AcDbEntity
  8
Layer_1
 62
4
100
AcDbLine
 10
0.214979
 20
0.132437
 30
0.0
 11
0.204628
 21
0.130466
 31
0.0
  0
LINE
  5
1b6
100
AcDbEntity
  8
Layer_1
 62
4
100
AcDbLine
 10
0.204628
 20
0.130466
 30
0.0
 11
0.210543
 21
0.138846
 31
0.0
  0
LINE
  5
1b7
100
AcDbEntity
  8
Layer_1
 62
4
100
AcDbLine
 10
0.210543
 20
0.138846
 30
0.0
 11
0.198713
 21
0.138353
 31
0.0
  0
LINE
  5
1b8
100
AcDbEntity
  8
Layer_1
 62
4
100
AcDbLine
 10
0.198713
 20
0.138353
 30
0.0
 11
0.191318
 21
0.129973
 31
0.0
  0
LINE
  5
1b9
100
AcDbEntity
  8
Layer_1
 62
4
100
AcDbLine
 10
0.191318
 20
0.129973
 30
0.0
 11
0.179981
 21
0.129973
 31
0.0
  0
LINE
  5
1ba
100
AcDbEntity
  8
Layer_1
 62
4
100
AcDbLine
 10
0.179981
 20
0.129973
 30
0.0
 11
0.186389
 21
0.138353
 31
0.0
  0
LINE
  5
1bb
100
AcDbEntity
  8
Layer_1
 62
4
100
AcDbLine
 10
0.186389
 20
0.138353
 30
0.0
 11
0.173080
 21
0.138353
 31
0.0
  0
LINE
  5
1bc
100
AcDbEntity
  8
Layer_1
 62
4
100
AcDbLine
 10
0.173080
 20
0.138353
 30
0.0
 11
0.164453
 21
0.129726
 31
0.0
  0
LINE
  5
1bd
100
AcDbEntity
  8
Layer_1
 62
4
100
AcDbLine
 10
0.164453
 20
0.129726
 30
0.0
 11
0.144490
 21
0.129726
 31
0.0
  0
LINE
  5
1be
100
AcDbEntity
  8
Layer_1
 62
4
100
AcDbLine
 10
0.144490
 20
0.129726
 30
0.0
 11
0.200304
 21
0.161951
 31
0.0
  0
LINE
  5
1bf
100
AcDbEntity
  8
Layer_1
 62
4
100
AcDbLine
 10
0.200304
 20
0.161951
 30
0.0
 11
0.234697
 21
0.144268
 31
0.0
  0
LINE
  5
1c0
100
AcDbEntity
  8
Layer_1
 62
4
100
AcDbLine
 10
0.234697
 20
0.144268
 30
0.0
 11
0.234697
 21
0.155112
 31
0.0
  0
LINE
  5
1c1
100
AcDbEntity
  8
Layer_1
 62
4
100
AcDbLine
 10
0.234697
 20
0.155112
 30
0.0
 11
0.210605
 21
0.169022
 31
0.0
  0
LINE
  5
1c2
100
AcDbEntity
  8
Layer_1
 62
4
100
AcDbLine
 10
0.210605
 20
0.169022
 30
0.0
 11
0.217979
 21
0.173279
 31
0.0
  0
LINE
  5
1c3
100
AcDbEntity
  8
Layer_1
 62
4
100
AcDbLine
 10
0.217979
 20
0.173279
 30
0.0
 11
0.234328
 21
0.163840
 31
0.0
  0
LINE
  5
1c4
100
AcDbEntity
  8
Layer_1
 62
4
100
AcDbLine
 10
0.234328
 20
0.163840
 30
0.0
 11
0.234328
 21
0.173351
 31
0.0
  0
LINE
  5
1c5
100
AcDbEntity
  8
Layer_1
 62
4
100
AcDbLine
 10
0.234328
 20
0.173351
 30
0.0
 11
0.224649
 21
0.178939
 31
0.0
  0
LINE
  5
1c6
100
AcDbEntity
  8
Layer_1
 62
4
100
AcDbLine
 10
0.224649
 20
0.178939
 30
0.0
 11
0.235683
 21
0.183703
 31
0.0
  0
LINE
  5
1c7
100
AcDbEntity
  8
Layer_1
 62
4
100
AcDbLine
 10
0.235683
 20
0.183703
 30
0.0
 11
0.231282
 21
0.191326
 31
0.0
  0
LINE
  5
1c8
100
AcDbEntity
  8
Layer_1
 62
4
100
AcDbLine
 10
0.231282
 20
0.191326
 30
0.0
 11
0.222373
 21
0.186660
 31
0.0
  0
LINE
  5
1c9
100
AcDbEntity
  8
Layer_1
 62
4
100
AcDbLine
 10
0.222373
 20
0.186660
 30
0.0
 11
0.222373
 21
0.195040
 31
0.0
  0
LINE
  5
1ca
100
AcDbEntity
  8
Layer_1
 62
4
100
AcDbLine
 10
0.222373
 20
0.195040
 30
0.0
 11
0.211529
 21
0.199477
 31
0.0
  0
LINE
  5
1cb
100
AcDbEntity
  8
Layer_1
 62
4
100
AcDbLine
 10
0.211529
 20
0.199477
 30
0.0
 11
0.212022
 21
0.180252
 31
0.0
  0
LINE
  5
1cc
100
AcDbEntity
  8
Layer_1
 62
4
100
AcDbLine
 10
0.212022
 20
0.180252
 30
0.0
 11
0.202656
 21
0.174337
 31
0.0
  0
LINE
  5
1cd
100
AcDbEntity
  8
Layer_1
 62
4
100
AcDbLine
 10
0.202656
 20
0.174337
 30
0.0
 11
0.202163
 21
0.204406
 31
0.0
  0
LINE
  5
1ce
100
AcDbEntity
  8
Layer_1
 62
4
100
AcDbLine
 10
0.202163
 20
0.204406
 30
0.0
 11
0.191811
 21
0.209828
 31
0.0
  0
LINE
  5
1cf
100
AcDbEntity
  8
Layer_1
 62
4
100
AcDbLine
 10
0.191811
 20
0.209828
 30
0.0
 11
0.192797
 21
0.169408
 31
0.0
  0
LINE
  5
1d0
100
AcDbEntity
  8
Layer_1
 62
4
100
AcDbLine
 10
0.192797
 20
0.169408
 30
0.0
 11
0.137588
 21
0.139339
 31
0.0
  0
LINE
  5
1d1
100
AcDbEntity
  8
Layer_1
 62
4
100
AcDbLine
 10
0.137588
 20
0.139339
 30
0.0
 11
0.149419
 21
0.156591
 31
0.0
  0
LINE
  5
1d2
100
AcDbEntity
  8
Layer_1
 62
4
100
AcDbLine
 10
0.149419
 20
0.156591
 30
0.0
 11
0.160756
 21
0.158070
 31
0.0
  0
LINE
  5
1d3
100
AcDbEntity
  8
Layer_1
 62
4
100
AcDbLine
 10
0.160756
 20
0.158070
 30
0.0
 11
0.167658
 21
0.170394
 31
0.0
  0
LINE
  5
1d4
100
AcDbEntity
  8
Layer_1
 62
4
100
AcDbLine
 10
0.167658
 20
0.170394
 30
0.0
 11
0.156320
 21
0.167929
 31
0.0
  0
LINE
  5
1d5
100
AcDbEntity
  8
Layer_1
 62
4
100
AcDbLine
 10
0.156320
 20
0.167929
 30
0.0
 11
0.161249
 21
0.176309
 31
0.0
  0
LINE
  5
1d6
100
AcDbEntity
  8
Layer_1
 62
4
100
AcDbLine
 10
0.161249
 20
0.176309
 30
0.0
 11
0.173080
 21
0.179759
 31
0.0
  0
LINE
  5
1d7
100
AcDbEntity
  8
Layer_1
 62
4
100
AcDbLine
 10
0.173080
 20
0.179759
 30
0.0
 11
0.179488
 21
0.191097
 31
0.0
  0
LINE
  5
1d8
100
AcDbEntity
  8
Layer_1
 62
4
100
AcDbLine
 10
0.179488
 20
0.191097
 30
0.0
 11
0.167165
 21
0.188632
 31
0.0
  0
LINE
  5
1d9
100
AcDbEntity
  8
Layer_1
 62
4
100
AcDbLine
 10
0.167165
 20
0.188632
 30
0.0
 11
0.173080
 21
0.197998
 31
0.0
  0
LINE
  5
1da
100
AcDbEntity
  8
Layer_1
 62
4
100
AcDbLine
 10
0.173080
 20
0.197998
 30
0.0
 11
0.163221
 21
0.201941
 31
0.0
  0
LINE
  5
1db
100
AcDbEntity
  8
Layer_1
 62
4
100
AcDbLine
 10
0.163221
 20
0.201941
 30
0.0
 11
0.157306
 21
0.193069
 31
0.0
  0
LINE
  5
1dc
100
AcDbEntity
  8
Layer_1
 62
4
100
AcDbLine
 10
0.157306
 20
0.193069
 30
0.0
 11
0.151805
 21
0.202597
 31
0.0
  0
LINE
  5
1dd
100
AcDbEntity
  8
Layer_1
 62
4
100
AcDbLine
 10
0.151805
 20
0.202597
 30
0.0
 11
0.146343
 21
0.193137
 31
0.0
  0
LINE
  5
1de
100
AcDbEntity
  8
Layer_1
 62
4
100
AcDbLine
 10
0.146343
 20
0.193137
 30
0.0
 11
0.152240
 21
0.182923
 31
0.0
  0
LINE
  5
1df
100
AcDbEntity
  8
Layer_1
 62
4
100
AcDbLine
 10
0.152240
 20
0.182923
 30
0.0
 11
0.147201
 21
0.174195
 31
0.0
  0
LINE
  5
1e0
100
AcDbEntity
  8
Layer_1
 62
4
100
AcDbLine
 10
0.147201
 20
0.174195
 30
0.0
 11
0.140936
 21
0.185046
 31
0.0
  0
LINE
  5
1e1
100
AcDbEntity
  8
Layer_1
 62
4
100
AcDbLine
 10
0.140936
 20
0.185046
 30
0.0
 11
0.134632
 21
0.174128
 31
0.0
  0
LINE
  5
1e2
100
AcDbEntity
  8
Layer_1
 62
4
100
AcDbLine
 10
0.134632
 20
0.174128
 30
0.0
 11
0.141143
 21
0.162851
 31
0.0
  0
LINE
  5
1e3
100
AcDbEntity
  8
Layer_1
 62
4
100
AcDbLine
 10
0.141143
 20
0.162851
 30
0.0
 11
0.129209
 21
0.145254
 31
0.0
  0
ENDSEC
  0
SECTION
  2
OBJECTS
  0
DICTIONARY
  5
C
330
0
100
AcDbDictionary
  3
ACAD_GROUP
350
D
  3
ACAD_MLINESTYLE
350
17
  0
DICTIONARY
  5
D
330
C
100
AcDbDictionary
  0
DICTIONARY
  5
1A
330
C
100
AcDbDictionary
  0
DICTIONARY
  5
17
330
C
100
AcDbDictionary
  3
STANDARD
350
18
  0
DICTIONARY
  5
19
330
C
100
AcDbDictionary
  0
ENDSEC
  0
EOF
