  0
SECTION
  2
HEADER
  9
$ACADVER
  1
AC1014
  9
$HANDSEED
  5
FFFF
  9
$MEASUREMENT
 70
     1
  0
ENDSEC
  0
SECTION
  2
TABLES
  0
TABLE
  2
VPORT
  5
8
330
0
100
AcDbSymbolTable
 70
     4
  0
VPORT
  5
2E
330
8
100
AcDbSymbolTableRecord
100
AcDbViewportTableRecord
  2
*ACTIVE
 70
     0
 10
0.0
 20
0.0
 11
1.0
 21
1.0
 12
210.0
 22
148.5
 13
0.0
 23
0.0
 14
10.0
 24
10.0
 15
10.0
 25
10.0
 16
0.0
 26
0.0
 36
1.0
 17
0.0
 27
0.0
 37
0.0
 40
341.0
 41
1.24
 42
50.0
 43
0.0
 44
0.0
 50
0.0
 51
0.0
 71
     0
 72
   100
 73
     1
 74
     3
 75
     0
 76
     0
 77
     0
 78
     0
  0
ENDTAB
  0
TABLE
  2
LTYPE
  5
5
330
0
100
AcDbSymbolTable
 70
     1
  0
LTYPE
  5
14
330
5
100
AcDbSymbolTableRecord
100
AcDbLinetypeTableRecord
  2
BYBLOCK
 70
     0
  3

 72
    65
 73
     0
 40
0.0
  0
LTYPE
  5
15
330
5
100
AcDbSymbolTableRecord
100
AcDbLinetypeTableRecord
  2
BYLAYER
 70
     0
  3

 72
    65
 73
     0
 40
0.0
  0
LTYPE
  5
16
330
5
100
AcDbSymbolTableRecord
100
AcDbLinetypeTableRecord
  2
CONTINUOUS
 70
     0
  3
Solid line
 72
    65
 73
     0
 40
0.0
  0
ENDTAB
  0
TABLE
  2
LAYER
  5
2
100
AcDbSymbolTable
 70
2
  0
LAYER
  5
50
100
AcDbSymbolTableRecord
100
AcDbLayerTableRecord
  2
0
 70
0
  6
CONTINUOUS
  0
LAYER
  5
51
100
AcDbSymbolTableRecord
100
AcDbLayerTableRecord
  2
Laag_1
 70
0
  6
CONTINUOUS
  0
ENDTAB
  0
TABLE
  2
STYLE
  5
3
330
0
100
AcDbSymbolTable
 70
     1
  0
STYLE
  5
11
330
3
100
AcDbSymbolTableRecord
100
AcDbTextStyleTableRecord
  2
STANDARD
 70
     0
 40
0.0
 41
1.0
 50
0.0
 71
     0
 42
2.5
  3
txt
  4

  0
ENDTAB
  0
TABLE
  2
VIEW
  5
6
330
0
100
AcDbSymbolTable
 70
     0
  0
ENDTAB
  0
TABLE
  2
UCS
  5
7
330
0
100
AcDbSymbolTable
 70
     0
  0
ENDTAB
  0
TABLE
  2
APPID
  5
9
330
0
100
AcDbSymbolTable
 70
     2
  0
APPID
  5
12
330
9
100
AcDbSymbolTableRecord
100
AcDbRegAppTableRecord
  2
ACAD
 70
     0
  0
ENDTAB
  0
TABLE
  2
DIMSTYLE
  5
A
330
0
100
AcDbSymbolTable
 70
     1
  0
DIMSTYLE
105
27
330
A
100
AcDbSymbolTableRecord
100
AcDbDimStyleTableRecord
  2
ISO-25
 70
     0
  3

  4

  5

  6

  7

 40
1.0
 41
2.5
 42
0.625
 43
3.75
 44
1.25
 45
0.0
 46
0.0
 47
0.0
 48
0.0
140
2.5
141
2.5
142
0.0
143
0.03937007874016
144
1.0
145
0.0
146
1.0
147
0.625
 71
     0
 72
     0
 73
     0
 74
     0
 75
     0
 76
     0
 77
     1
 78
     8
170
     0
171
     3
172
     1
173
     0
174
     0
175
     0
176
     0
177
     0
178
     0
270
     2
271
     2
272
     2
273
     2
274
     3
340
11
275
     0
280
     0
281
     0
282
     0
283
     0
284
     8
285
     0
286
     0
287
     3
288
     0
  0
ENDTAB
  0
TABLE
  2
BLOCK_RECORD
  5
1
330
0
100
AcDbSymbolTable
 70
     1
  0
BLOCK_RECORD
  5
1F
330
1
100
AcDbSymbolTableRecord
100
AcDbBlockTableRecord
  2
*MODEL_SPACE
  0
BLOCK_RECORD
  5
1B
330
1
100
AcDbSymbolTableRecord
100
AcDbBlockTableRecord
  2
*PAPER_SPACE
  0
ENDTAB
  0
ENDSEC
  0
SECTION
  2
BLOCKS
  0
BLOCK
  5
20
330
1F
100
AcDbEntity
  8
0
100
AcDbBlockBegin
  2
*MODEL_SPACE
 70
     0
 10
0.0
 20
0.0
 30
0.0
  3
*MODEL_SPACE
  1

  0
ENDBLK
  5
21
330
1F
100
AcDbEntity
  8
0
100
AcDbBlockEnd
  0
BLOCK
  5
1C
330
1B
100
AcDbEntity
 67
     1
  8
0
100
AcDbBlockBegin
  2
*PAPER_SPACE
  1

  0
ENDBLK
  5
1D
330
1B
100
AcDbEntity
 67
     1
  8
0
100
AcDbBlockEnd
  0
ENDSEC
  0
SECTION
  2
ENTITIES
  0
LINE
  5
100
100
AcDbEntity
  8
Laag_1
 62
5
100
AcDbLine
 10
1045.117210
 20
431.594910
 30
0.0
 11
1045.322510
 21
431.040030
 31
0.0
  0
LINE
  5
101
100
AcDbEntity
  8
Laag_1
 62
5
100
AcDbLine
 10
1045.322510
 20
431.040030
 30
0.0
 11
1045.790710
 21
430.456270
 31
0.0
  0
LINE
  5
102
100
AcDbEntity
  8
Laag_1
 62
5
100
AcDbLine
 10
1045.790710
 20
430.456270
 30
0.0
 11
1046.287810
 21
430.135510
 31
0.0
  0
LINE
  5
103
100
AcDbEntity
  8
Laag_1
 62
5
100
AcDbLine
 10
1046.287810
 20
430.135510
 30
0.0
 11
1047.339810
 21
430.019990
 31
0.0
  0
LINE
  5
104
100
AcDbEntity
  8
Laag_1
 62
5
100
AcDbLine
 10
1047.339810
 20
430.019990
 30
0.0
 11
1047.894710
 21
430.225230
 31
0.0
  0
LINE
  5
105
100
AcDbEntity
  8
Laag_1
 62
5
100
AcDbLine
 10
1047.894710
 20
430.225230
 30
0.0
 11
1048.478510
 21
430.693480
 31
0.0
  0
LINE
  5
106
100
AcDbEntity
  8
Laag_1
 62
5
100
AcDbLine
 10
1048.478510
 20
430.693480
 30
0.0
 11
1048.799210
 21
431.190610
 31
0.0
  0
LINE
  5
107
100
AcDbEntity
  8
Laag_1
 62
5
100
AcDbLine
 10
1048.799210
 20
431.190610
 30
0.0
 11
1049.148910
 21
431.950740
 31
0.0
  0
LINE
  5
108
100
AcDbEntity
  8
Laag_1
 62
5
100
AcDbLine
 10
1049.148910
 20
431.950740
 30
0.0
 11
1049.293310
 21
433.265750
 31
0.0
  0
LINE
  5
109
100
AcDbEntity
  8
Laag_1
 62
5
100
AcDbLine
 10
1049.293310
 20
433.265750
 30
0.0
 11
1049.116910
 21
434.083640
 31
0.0
  0
LINE
  5
10a
100
AcDbEntity
  8
Laag_1
 62
5
100
AcDbLine
 10
1049.116910
 20
434.083640
 30
0.0
 11
1048.911710
 21
434.638520
 31
0.0
  0
LINE
  5
10b
100
AcDbEntity
  8
Laag_1
 62
5
100
AcDbLine
 10
1048.911710
 20
434.638520
 30
0.0
 11
1048.443410
 21
435.222280
 31
0.0
  0
LINE
  5
10c
100
AcDbEntity
  8
Laag_1
 62
5
100
AcDbLine
 10
1048.443410
 20
435.222280
 30
0.0
 11
1047.946310
 21
435.543040
 31
0.0
  0
LINE
  5
10d
100
AcDbEntity
  8
Laag_1
 62
5
100
AcDbLine
 10
1047.946310
 20
435.543040
 30
0.0
 11
1046.894310
 21
435.658560
 31
0.0
  0
LINE
  5
10e
100
AcDbEntity
  8
Laag_1
 62
5
100
AcDbLine
 10
1046.894310
 20
435.658560
 30
0.0
 11
1046.339410
 21
435.453310
 31
0.0
  0
LINE
  5
10f
100
AcDbEntity
  8
Laag_1
 62
5
100
AcDbLine
 10
1046.339410
 20
435.453310
 30
0.0
 11
1045.755610
 21
434.985070
 31
0.0
  0
LINE
  5
110
100
AcDbEntity
  8
Laag_1
 62
5
100
AcDbLine
 10
1045.755610
 20
434.985070
 30
0.0
 11
1045.434910
 21
434.487940
 31
0.0
  0
LINE
  5
111
100
AcDbEntity
  8
Laag_1
 62
5
100
AcDbLine
 10
1041.324810
 20
397.057460
 30
0.0
 11
1041.530110
 21
396.502580
 31
0.0
  0
LINE
  5
112
100
AcDbEntity
  8
Laag_1
 62
5
100
AcDbLine
 10
1041.530110
 20
396.502580
 30
0.0
 11
1041.998310
 21
395.918810
 31
0.0
  0
LINE
  5
113
100
AcDbEntity
  8
Laag_1
 62
5
100
AcDbLine
 10
1041.998310
 20
395.918810
 30
0.0
 11
1042.495510
 21
395.598050
 31
0.0
  0
LINE
  5
114
100
AcDbEntity
  8
Laag_1
 62
5
100
AcDbLine
 10
1042.495510
 20
395.598050
 30
0.0
 11
1043.547510
 21
395.482540
 31
0.0
  0
LINE
  5
115
100
AcDbEntity
  8
Laag_1
 62
5
100
AcDbLine
 10
1043.547510
 20
395.482540
 30
0.0
 11
1044.102410
 21
395.687780
 31
0.0
  0
LINE
  5
116
100
AcDbEntity
  8
Laag_1
 62
5
100
AcDbLine
 10
1044.102410
 20
395.687780
 30
0.0
 11
1044.686110
 21
396.156030
 31
0.0
  0
LINE
  5
117
100
AcDbEntity
  8
Laag_1
 62
5
100
AcDbLine
 10
1044.686110
 20
396.156030
 30
0.0
 11
1045.006910
 21
396.653160
 31
0.0
  0
LINE
  5
118
100
AcDbEntity
  8
Laag_1
 62
5
100
AcDbLine
 10
1045.006910
 20
396.653160
 30
0.0
 11
1045.356510
 21
397.413290
 31
0.0
  0
LINE
  5
119
100
AcDbEntity
  8
Laag_1
 62
5
100
AcDbLine
 10
1045.356510
 20
397.413290
 30
0.0
 11
1045.500910
 21
398.728300
 31
0.0
  0
LINE
  5
11a
100
AcDbEntity
  8
Laag_1
 62
5
100
AcDbLine
 10
1045.500910
 20
398.728300
 30
0.0
 11
1045.324510
 21
399.546190
 31
0.0
  0
LINE
  5
11b
100
AcDbEntity
  8
Laag_1
 62
5
100
AcDbLine
 10
1045.324510
 20
399.546190
 30
0.0
 11
1045.119310
 21
400.101070
 31
0.0
  0
LINE
  5
11c
100
AcDbEntity
  8
Laag_1
 62
5
100
AcDbLine
 10
1045.119310
 20
400.101070
 30
0.0
 11
1044.651110
 21
400.684830
 31
0.0
  0
LINE
  5
11d
100
AcDbEntity
  8
Laag_1
 62
5
100
AcDbLine
 10
1044.651110
 20
400.684830
 30
0.0
 11
1044.153910
 21
401.005590
 31
0.0
  0
LINE
  5
11e
100
AcDbEntity
  8
Laag_1
 62
5
100
AcDbLine
 10
1044.153910
 20
401.005590
 30
0.0
 11
1043.101910
 21
401.121110
 31
0.0
  0
LINE
  5
11f
100
AcDbEntity
  8
Laag_1
 62
5
100
AcDbLine
 10
1043.101910
 20
401.121110
 30
0.0
 11
1042.547010
 21
400.915860
 31
0.0
  0
LINE
  5
120
100
AcDbEntity
  8
Laag_1
 62
5
100
AcDbLine
 10
1042.547010
 20
400.915860
 30
0.0
 11
1041.963310
 21
400.447620
 31
0.0
  0
LINE
  5
121
100
AcDbEntity
  8
Laag_1
 62
5
100
AcDbLine
 10
1041.963310
 20
400.447620
 30
0.0
 11
1041.642510
 21
399.950490
 31
0.0
  0
LINE
  5
122
100
AcDbEntity
  8
Laag_1
 62
5
100
AcDbLine
 10
180.006301
 20
727.745980
 30
0.0
 11
179.472991
 21
728.002090
 31
0.0
  0
LINE
  5
123
100
AcDbEntity
  8
Laag_1
 62
5
100
AcDbLine
 10
179.472991
 20
728.002090
 30
0.0
 11
178.935461
 21
728.522760
 31
0.0
  0
LINE
  5
124
100
AcDbEntity
  8
Laag_1
 62
5
100
AcDbLine
 10
178.935461
 20
728.522760
 30
0.0
 11
178.662481
 21
729.047640
 31
0.0
  0
LINE
  5
125
100
AcDbEntity
  8
Laag_1
 62
5
100
AcDbLine
 10
178.662481
 20
729.047640
 30
0.0
 11
178.645581
 21
730.105840
 31
0.0
  0
LINE
  5
126
100
AcDbEntity
  8
Laag_1
 62
5
100
AcDbLine
 10
178.645581
 20
730.105840
 30
0.0
 11
178.901701
 21
730.639150
 31
0.0
  0
LINE
  5
127
100
AcDbEntity
  8
Laag_1
 62
5
100
AcDbLine
 10
178.901701
 20
730.639150
 30
0.0
 11
179.422361
 21
731.176690
 31
0.0
  0
LINE
  5
128
100
AcDbEntity
  8
Laag_1
 62
5
100
AcDbLine
 10
179.422361
 20
731.176690
 30
0.0
 11
179.947241
 21
731.449670
 31
0.0
  0
LINE
  5
129
100
AcDbEntity
  8
Laag_1
 62
5
100
AcDbLine
 10
179.947241
 20
731.449670
 30
0.0
 11
180.736671
 21
731.726870
 31
0.0
  0
LINE
  5
12a
100
AcDbEntity
  8
Laag_1
 62
5
100
AcDbLine
 10
180.736671
 20
731.726870
 30
0.0
 11
182.059431
 21
731.747970
 31
0.0
  0
LINE
  5
12b
100
AcDbEntity
  8
Laag_1
 62
5
100
AcDbLine
 10
182.059431
 20
731.747970
 30
0.0
 11
182.857291
 21
731.496060
 31
0.0
  0
LINE
  5
12c
100
AcDbEntity
  8
Laag_1
 62
5
100
AcDbLine
 10
182.857291
 20
731.496060
 30
0.0
 11
183.390611
 21
731.239950
 31
0.0
  0
LINE
  5
12d
100
AcDbEntity
  8
Laag_1
 62
5
100
AcDbLine
 10
183.390611
 20
731.239950
 30
0.0
 11
183.928141
 21
730.719280
 31
0.0
  0
LINE
  5
12e
100
AcDbEntity
  8
Laag_1
 62
5
100
AcDbLine
 10
183.928141
 20
730.719280
 30
0.0
 11
184.201131
 21
730.194400
 31
0.0
  0
LINE
  5
12f
100
AcDbEntity
  8
Laag_1
 62
5
100
AcDbLine
 10
184.201131
 20
730.194400
 30
0.0
 11
184.218031
 21
729.136200
 31
0.0
  0
LINE
  5
130
100
AcDbEntity
  8
Laag_1
 62
5
100
AcDbLine
 10
184.218031
 20
729.136200
 30
0.0
 11
183.961911
 21
728.602890
 31
0.0
  0
LINE
  5
131
100
AcDbEntity
  8
Laag_1
 62
5
100
AcDbLine
 10
183.961911
 20
728.602890
 30
0.0
 11
183.441251
 21
728.065350
 31
0.0
  0
LINE
  5
132
100
AcDbEntity
  8
Laag_1
 62
5
100
AcDbLine
 10
183.441251
 20
728.065350
 30
0.0
 11
182.916361
 21
727.792370
 31
0.0
  0
LINE
  5
133
100
AcDbEntity
  8
Laag_1
 62
5
100
AcDbLine
 10
139.504491
 20
801.216990
 30
0.0
 11
142.490691
 21
805.902550
 31
0.0
  0
LINE
  5
134
100
AcDbEntity
  8
Laag_1
 62
5
100
AcDbLine
 10
139.504491
 20
801.216990
 30
0.0
 11
141.066341
 21
800.221580
 31
0.0
  0
LINE
  5
135
100
AcDbEntity
  8
Laag_1
 62
5
100
AcDbLine
 10
141.066341
 20
800.221580
 30
0.0
 11
141.877911
 21
800.018110
 31
0.0
  0
LINE
  5
136
100
AcDbEntity
  8
Laag_1
 62
5
100
AcDbLine
 10
141.877911
 20
800.018110
 30
0.0
 11
142.608551
 21
800.179950
 31
0.0
  0
LINE
  5
137
100
AcDbEntity
  8
Laag_1
 62
5
100
AcDbLine
 10
142.608551
 20
800.179950
 30
0.0
 11
143.116071
 21
800.484000
 31
0.0
  0
LINE
  5
138
100
AcDbEntity
  8
Laag_1
 62
5
100
AcDbLine
 10
143.116071
 20
800.484000
 30
0.0
 11
143.765791
 21
801.011160
 31
0.0
  0
LINE
  5
139
100
AcDbEntity
  8
Laag_1
 62
5
100
AcDbLine
 10
143.765791
 20
801.011160
 30
0.0
 11
144.476801
 21
802.126770
 31
0.0
  0
LINE
  5
13a
100
AcDbEntity
  8
Laag_1
 62
5
100
AcDbLine
 10
144.476801
 20
802.126770
 30
0.0
 11
144.680281
 21
802.938340
 31
0.0
  0
LINE
  5
13b
100
AcDbEntity
  8
Laag_1
 62
5
100
AcDbLine
 10
144.680281
 20
802.938340
 30
0.0
 11
144.741581
 21
803.526780
 31
0.0
  0
LINE
  5
13c
100
AcDbEntity
  8
Laag_1
 62
5
100
AcDbLine
 10
144.741581
 20
803.526780
 30
0.0
 11
144.579731
 21
804.257430
 31
0.0
  0
LINE
  5
13d
100
AcDbEntity
  8
Laag_1
 62
5
100
AcDbLine
 10
144.579731
 20
804.257430
 30
0.0
 11
144.052561
 21
804.907150
 31
0.0
  0
LINE
  5
13e
100
AcDbEntity
  8
Laag_1
 62
5
100
AcDbLine
 10
144.052561
 20
804.907150
 30
0.0
 11
142.490711
 21
805.902550
 31
0.0
  0
LINE
  5
13f
100
AcDbEntity
  8
Laag_1
 62
5
100
AcDbLine
 10
18.886871
 20
727.919980
 30
0.0
 11
13.330621
 21
727.919980
 31
0.0
  0
LINE
  5
140
100
AcDbEntity
  8
Laag_1
 62
5
100
AcDbLine
 10
18.886871
 20
727.919980
 30
0.0
 11
18.886871
 21
730.301230
 31
0.0
  0
LINE
  5
141
100
AcDbEntity
  8
Laag_1
 62
5
100
AcDbLine
 10
18.886871
 20
730.301230
 30
0.0
 11
18.622281
 21
731.094980
 31
0.0
  0
LINE
  5
142
100
AcDbEntity
  8
Laag_1
 62
5
100
AcDbLine
 10
18.622281
 20
731.094980
 30
0.0
 11
18.357701
 21
731.359570
 31
0.0
  0
LINE
  5
143
100
AcDbEntity
  8
Laag_1
 62
5
100
AcDbLine
 10
18.357701
 20
731.359570
 30
0.0
 11
17.828531
 21
731.624150
 31
0.0
  0
LINE
  5
144
100
AcDbEntity
  8
Laag_1
 62
5
100
AcDbLine
 10
17.828531
 20
731.624150
 30
0.0
 11
17.299371
 21
731.624150
 31
0.0
  0
LINE
  5
145
100
AcDbEntity
  8
Laag_1
 62
5
100
AcDbLine
 10
17.299371
 20
731.624150
 30
0.0
 11
16.770201
 21
731.359570
 31
0.0
  0
LINE
  5
146
100
AcDbEntity
  8
Laag_1
 62
5
100
AcDbLine
 10
16.770201
 20
731.359570
 30
0.0
 11
16.505621
 21
731.094980
 31
0.0
  0
LINE
  5
147
100
AcDbEntity
  8
Laag_1
 62
5
100
AcDbLine
 10
16.505621
 20
731.094980
 30
0.0
 11
16.241031
 21
730.301230
 31
0.0
  0
LINE
  5
148
100
AcDbEntity
  8
Laag_1
 62
5
100
AcDbLine
 10
16.241031
 20
727.919980
 30
0.0
 11
16.241031
 21
730.301230
 31
0.0
  0
LINE
  5
149
100
AcDbEntity
  8
Laag_1
 62
5
100
AcDbLine
 10
16.241031
 20
730.301230
 30
0.0
 11
15.976451
 21
731.094980
 31
0.0
  0
LINE
  5
14a
100
AcDbEntity
  8
Laag_1
 62
5
100
AcDbLine
 10
15.976451
 20
731.094980
 30
0.0
 11
15.711871
 21
731.359570
 31
0.0
  0
LINE
  5
14b
100
AcDbEntity
  8
Laag_1
 62
5
100
AcDbLine
 10
15.711871
 20
731.359570
 30
0.0
 11
15.182701
 21
731.624150
 31
0.0
  0
LINE
  5
14c
100
AcDbEntity
  8
Laag_1
 62
5
100
AcDbLine
 10
15.182701
 20
731.624150
 30
0.0
 11
14.388951
 21
731.624150
 31
0.0
  0
LINE
  5
14d
100
AcDbEntity
  8
Laag_1
 62
5
100
AcDbLine
 10
14.388951
 20
731.624150
 30
0.0
 11
13.859781
 21
731.359570
 31
0.0
  0
LINE
  5
14e
100
AcDbEntity
  8
Laag_1
 62
5
100
AcDbLine
 10
13.859781
 20
731.359570
 30
0.0
 11
13.595201
 21
731.094980
 31
0.0
  0
LINE
  5
14f
100
AcDbEntity
  8
Laag_1
 62
5
100
AcDbLine
 10
13.595201
 20
731.094980
 30
0.0
 11
13.330621
 21
730.301230
 31
0.0
  0
LINE
  5
150
100
AcDbEntity
  8
Laag_1
 62
5
100
AcDbLine
 10
13.330621
 20
730.301230
 30
0.0
 11
13.330621
 21
727.919980
 31
0.0
  0
LINE
  5
151
100
AcDbEntity
  8
Laag_1
 62
5
100
AcDbLine
 10
62.520941
 20
805.901690
 30
0.0
 11
62.520931
 21
805.310060
 31
0.0
  0
LINE
  5
152
100
AcDbEntity
  8
Laag_1
 62
5
100
AcDbLine
 10
62.520931
 20
805.310060
 30
0.0
 11
62.284261
 21
804.600110
 31
0.0
  0
LINE
  5
153
100
AcDbEntity
  8
Laag_1
 62
5
100
AcDbLine
 10
62.284261
 20
804.600110
 30
0.0
 11
61.929261
 21
804.126820
 31
0.0
  0
LINE
  5
154
100
AcDbEntity
  8
Laag_1
 62
5
100
AcDbLine
 10
61.929261
 20
804.126820
 30
0.0
 11
60.982651
 21
803.653550
 31
0.0
  0
LINE
  5
155
100
AcDbEntity
  8
Laag_1
 62
5
100
AcDbLine
 10
60.982651
 20
803.653550
 30
0.0
 11
60.391031
 21
803.653560
 31
0.0
  0
LINE
  5
156
100
AcDbEntity
  8
Laag_1
 62
5
100
AcDbLine
 10
60.391031
 20
803.653560
 30
0.0
 11
59.681081
 21
803.890230
 31
0.0
  0
LINE
  5
157
100
AcDbEntity
  8
Laag_1
 62
5
100
AcDbLine
 10
59.681081
 20
803.890230
 30
0.0
 11
59.207791
 21
804.245220
 31
0.0
  0
LINE
  5
158
100
AcDbEntity
  8
Laag_1
 62
5
100
AcDbLine
 10
59.207791
 20
804.245220
 30
0.0
 11
58.616181
 21
804.836860
 31
0.0
  0
LINE
  5
159
100
AcDbEntity
  8
Laag_1
 62
5
100
AcDbLine
 10
58.616181
 20
804.836860
 30
0.0
 11
58.024591
 21
806.020130
 31
0.0
  0
LINE
  5
15a
100
AcDbEntity
  8
Laag_1
 62
5
100
AcDbLine
 10
58.024591
 20
806.020130
 30
0.0
 11
57.906281
 21
806.848400
 31
0.0
  0
LINE
  5
15b
100
AcDbEntity
  8
Laag_1
 62
5
100
AcDbLine
 10
57.906281
 20
806.848400
 30
0.0
 11
57.906301
 21
807.440040
 31
0.0
  0
LINE
  5
15c
100
AcDbEntity
  8
Laag_1
 62
5
100
AcDbLine
 10
57.906301
 20
807.440040
 30
0.0
 11
58.142961
 21
808.149980
 31
0.0
  0
LINE
  5
15d
100
AcDbEntity
  8
Laag_1
 62
5
100
AcDbLine
 10
58.142961
 20
808.149980
 30
0.0
 11
58.497951
 21
808.623270
 31
0.0
  0
LINE
  5
15e
100
AcDbEntity
  8
Laag_1
 62
5
100
AcDbLine
 10
58.497951
 20
808.623270
 30
0.0
 11
59.444571
 21
809.096550
 31
0.0
  0
LINE
  5
15f
100
AcDbEntity
  8
Laag_1
 62
5
100
AcDbLine
 10
59.444571
 20
809.096550
 30
0.0
 11
60.036191
 21
809.096540
 31
0.0
  0
LINE
  5
160
100
AcDbEntity
  8
Laag_1
 62
5
100
AcDbLine
 10
60.036191
 20
809.096540
 30
0.0
 11
60.746141
 21
808.859870
 31
0.0
  0
LINE
  5
161
100
AcDbEntity
  8
Laag_1
 62
5
100
AcDbLine
 10
60.746141
 20
808.859870
 30
0.0
 11
61.219431
 21
808.504870
 31
0.0
  0
LINE
  5
162
100
AcDbEntity
  8
Laag_1
 62
1
100
AcDbLine
 10
132.108954
 20
778.511490
 30
0.0
 11
125.381718
 21
782.747856
 31
0.0
  0
LINE
  5
163
100
AcDbEntity
  8
Laag_1
 62
1
100
AcDbLine
 10
125.381718
 20
782.747856
 30
0.0
 11
134.680415
 21
797.513937
 31
0.0
  0
LINE
  5
164
100
AcDbEntity
  8
Laag_1
 62
1
100
AcDbLine
 10
134.680415
 20
797.513937
 30
0.0
 11
141.407651
 21
793.277571
 31
0.0
  0
LINE
  5
165
100
AcDbEntity
  8
Laag_1
 62
1
100
AcDbLine
 10
141.407651
 20
793.277571
 30
0.0
 11
132.108954
 21
778.511490
 31
0.0
  0
SPLINE
  5
166
100
AcDbEntity
  8
Laag_1
 62
1
100
AcDbSpline
 70
8
 71
3
 72
8
 73
4
 74
0
 40
0
 40
0
 40
0
 40
0
 40
1
 40
1
 40
1
 40
1
 10
48.819406
 20
696.458587
 30
0.0
 10
47.391568
 20
694.191219
 30
0.0
 10
44.862565
 20
692.857827
 30
0.0
 10
42.185048
 20
692.960687
 30
0.0
  0
SPLINE
  5
167
100
AcDbEntity
  8
Laag_1
 62
1
100
AcDbSpline
 70
8
 71
3
 72
8
 73
4
 74
0
 40
0
 40
0
 40
0
 40
0
 40
1
 40
1
 40
1
 40
1
 10
42.185048
 20
692.960687
 30
0.0
 10
39.507531
 20
693.063546
 30
0.0
 10
37.088278
 20
694.587031
 30
0.0
 10
35.838599
 20
696.957259
 30
0.0
  0
SPLINE
  5
168
100
AcDbEntity
  8
Laag_1
 62
1
100
AcDbSpline
 70
8
 71
3
 72
8
 73
4
 74
0
 40
0
 40
0
 40
0
 40
0
 40
1
 40
1
 40
1
 40
1
 10
35.838599
 20
696.957259
 30
0.0
 10
34.588920
 20
699.327486
 30
0.0
 10
34.698670
 20
702.184363
 30
0.0
 10
36.126507
 20
704.451731
 30
0.0
  0
SPLINE
  5
169
100
AcDbEntity
  8
Laag_1
 62
1
100
AcDbSpline
 70
8
 71
3
 72
8
 73
4
 74
0
 40
0
 40
0
 40
0
 40
0
 40
1
 40
1
 40
1
 40
1
 10
36.126507
 20
704.451731
 30
0.0
 10
37.554345
 20
706.719099
 30
0.0
 10
40.083348
 20
708.052491
 30
0.0
 10
42.760865
 20
707.949631
 30
0.0
  0
SPLINE
  5
16a
100
AcDbEntity
  8
Laag_1
 62
1
100
AcDbSpline
 70
8
 71
3
 72
8
 73
4
 74
0
 40
0
 40
0
 40
0
 40
0
 40
1
 40
1
 40
1
 40
1
 10
42.760865
 20
707.949631
 30
0.0
 10
45.438382
 20
707.846771
 30
0.0
 10
47.857635
 20
706.323286
 30
0.0
 10
49.107314
 20
703.953059
 30
0.0
  0
SPLINE
  5
16b
100
AcDbEntity
  8
Laag_1
 62
1
100
AcDbSpline
 70
8
 71
3
 72
8
 73
4
 74
0
 40
0
 40
0
 40
0
 40
0
 40
1
 40
1
 40
1
 40
1
 10
49.107314
 20
703.953059
 30
0.0
 10
50.356993
 20
701.582831
 30
0.0
 10
50.247243
 20
698.725954
 30
0.0
 10
48.819406
 20
696.458587
 30
0.0
  0
LINE
  5
16c
100
AcDbEntity
  8
Laag_1
 62
1
100
AcDbLine
 10
48.819406
 20
696.458587
 30
0.0
 11
48.819406
 21
696.458587
 31
0.0
  0
LINE
  5
16d
100
AcDbEntity
  8
Laag_1
 62
1
100
AcDbLine
 10
59.904818
 20
735.434622
 30
0.0
 11
77.340886
 21
736.131887
 31
0.0
  0
LINE
  5
16e
100
AcDbEntity
  8
Laag_1
 62
1
100
AcDbLine
 10
77.340886
 20
736.131887
 30
0.0
 11
77.658546
 21
728.188234
 31
0.0
  0
LINE
  5
16f
100
AcDbEntity
  8
Laag_1
 62
1
100
AcDbLine
 10
77.658546
 20
728.188234
 30
0.0
 11
60.222477
 21
727.490970
 31
0.0
  0
LINE
  5
170
100
AcDbEntity
  8
Laag_1
 62
1
100
AcDbLine
 10
60.222477
 20
727.490970
 30
0.0
 11
59.904818
 21
735.434622
 31
0.0
  0
LINE
  5
171
100
AcDbEntity
  8
Laag_1
 62
1
100
AcDbLine
 10
113.458279
 20
748.894721
 30
0.0
 11
106.731043
 21
753.131087
 31
0.0
  0
LINE
  5
172
100
AcDbEntity
  8
Laag_1
 62
1
100
AcDbLine
 10
106.731043
 20
753.131087
 30
0.0
 11
116.029741
 21
767.897168
 31
0.0
  0
LINE
  5
173
100
AcDbEntity
  8
Laag_1
 62
1
100
AcDbLine
 10
116.029741
 20
767.897168
 30
0.0
 11
122.756976
 21
763.660802
 31
0.0
  0
LINE
  5
174
100
AcDbEntity
  8
Laag_1
 62
1
100
AcDbLine
 10
122.756976
 20
763.660802
 30
0.0
 11
113.458279
 21
748.894721
 31
0.0
  0
LINE
  5
175
100
AcDbEntity
  8
Laag_1
 62
1
100
AcDbLine
 10
42.686496
 20
726.789723
 30
0.0
 11
25.250433
 21
726.092467
 31
0.0
  0
LINE
  5
176
100
AcDbEntity
  8
Laag_1
 62
1
100
AcDbLine
 10
25.250433
 20
726.092467
 30
0.0
 11
24.932770
 21
734.036119
 31
0.0
  0
LINE
  5
177
100
AcDbEntity
  8
Laag_1
 62
1
100
AcDbLine
 10
24.932770
 20
734.036119
 30
0.0
 11
42.368829
 21
734.733368
 31
0.0
  0
LINE
  5
178
100
AcDbEntity
  8
Laag_1
 62
1
100
AcDbLine
 10
42.368829
 20
734.733368
 30
0.0
 11
42.686496
 21
726.789723
 31
0.0
  0
SPLINE
  5
179
100
AcDbEntity
  8
Laag_1
 62
1
100
AcDbSpline
 70
8
 71
3
 72
8
 73
4
 74
0
 40
0
 40
0
 40
0
 40
0
 40
1
 40
1
 40
1
 40
1
 10
105.104174
 20
729.013583
 30
0.0
 10
103.676337
 20
726.746215
 30
0.0
 10
101.147334
 20
725.412824
 30
0.0
 10
98.469817
 20
725.515683
 30
0.0
  0
SPLINE
  5
17a
100
AcDbEntity
  8
Laag_1
 62
1
100
AcDbSpline
 70
8
 71
3
 72
8
 73
4
 74
0
 40
0
 40
0
 40
0
 40
0
 40
1
 40
1
 40
1
 40
1
 10
98.469817
 20
725.515683
 30
0.0
 10
95.792300
 20
725.618543
 30
0.0
 10
93.373047
 20
727.142028
 30
0.0
 10
92.123368
 20
729.512255
 30
0.0
  0
SPLINE
  5
17b
100
AcDbEntity
  8
Laag_1
 62
1
100
AcDbSpline
 70
8
 71
3
 72
8
 73
4
 74
0
 40
0
 40
0
 40
0
 40
0
 40
1
 40
1
 40
1
 40
1
 10
92.123368
 20
729.512255
 30
0.0
 10
90.873689
 20
731.882483
 30
0.0
 10
90.983439
 20
734.739360
 30
0.0
 10
92.411277
 20
737.006727
 30
0.0
  0
SPLINE
  5
17c
100
AcDbEntity
  8
Laag_1
 62
1
100
AcDbSpline
 70
8
 71
3
 72
8
 73
4
 74
0
 40
0
 40
0
 40
0
 40
0
 40
1
 40
1
 40
1
 40
1
 10
92.411277
 20
737.006727
 30
0.0
 10
93.839114
 20
739.274095
 30
0.0
 10
96.368117
 20
740.607487
 30
0.0
 10
99.045634
 20
740.504627
 30
0.0
  0
SPLINE
  5
17d
100
AcDbEntity
  8
Laag_1
 62
1
100
AcDbSpline
 70
8
 71
3
 72
8
 73
4
 74
0
 40
0
 40
0
 40
0
 40
0
 40
1
 40
1
 40
1
 40
1
 10
99.045634
 20
740.504627
 30
0.0
 10
101.723151
 20
740.401768
 30
0.0
 10
104.142404
 20
738.878283
 30
0.0
 10
105.392083
 20
736.508055
 30
0.0
  0
SPLINE
  5
17e
100
AcDbEntity
  8
Laag_1
 62
1
100
AcDbSpline
 70
8
 71
3
 72
8
 73
4
 74
0
 40
0
 40
0
 40
0
 40
0
 40
1
 40
1
 40
1
 40
1
 10
105.392083
 20
736.508055
 30
0.0
 10
106.641762
 20
734.137828
 30
0.0
 10
106.532012
 20
731.280951
 30
0.0
 10
105.104174
 20
729.013583
 30
0.0
  0
LINE
  5
17f
100
AcDbEntity
  8
Laag_1
 62
1
100
AcDbLine
 10
105.104174
 20
729.013583
 30
0.0
 11
105.104174
 21
729.013583
 31
0.0
  0
LINE
  5
180
100
AcDbEntity
  8
Laag_1
 62
1
100
AcDbLine
 10
172.275793
 20
726.207945
 30
0.0
 11
154.838653
 21
726.877807
 31
0.0
  0
LINE
  5
181
100
AcDbEntity
  8
Laag_1
 62
1
100
AcDbLine
 10
154.838653
 20
726.877807
 30
0.0
 11
155.143837
 21
734.821954
 31
0.0
  0
LINE
  5
182
100
AcDbEntity
  8
Laag_1
 62
1
100
AcDbLine
 10
155.143837
 20
734.821954
 30
0.0
 11
172.580980
 21
734.152090
 31
0.0
  0
LINE
  5
183
100
AcDbEntity
  8
Laag_1
 62
1
100
AcDbLine
 10
172.580980
 20
734.152090
 30
0.0
 11
172.275793
 21
726.207945
 31
0.0
  0
SPLINE
  5
184
100
AcDbEntity
  8
Laag_1
 62
1
100
AcDbSpline
 70
8
 71
3
 72
8
 73
4
 74
0
 40
0
 40
0
 40
0
 40
0
 40
1
 40
1
 40
1
 40
1
 10
156.625682
 20
693.676610
 30
0.0
 10
155.198339
 20
691.408138
 30
0.0
 10
152.668963
 20
690.073740
 30
0.0
 10
149.990763
 20
690.176290
 30
0.0
  0
SPLINE
  5
185
100
AcDbEntity
  8
Laag_1
 62
1
100
AcDbSpline
 70
8
 71
3
 72
8
 73
4
 74
0
 40
0
 40
0
 40
0
 40
0
 40
1
 40
1
 40
1
 40
1
 10
149.990763
 20
690.176290
 30
0.0
 10
147.312562
 20
690.278840
 30
0.0
 10
144.892633
 20
691.802751
 30
0.0
 10
143.642937
 20
694.173729
 30
0.0
  0
SPLINE
  5
186
100
AcDbEntity
  8
Laag_1
 62
1
100
AcDbSpline
 70
8
 71
3
 72
8
 73
4
 74
0
 40
0
 40
0
 40
0
 40
0
 40
1
 40
1
 40
1
 40
1
 10
143.642937
 20
694.173729
 30
0.0
 10
142.393242
 20
696.544706
 30
0.0
 10
142.503739
 20
699.402355
 30
0.0
 10
143.932786
 20
701.669754
 30
0.0
  0
SPLINE
  5
187
100
AcDbEntity
  8
Laag_1
 62
1
100
AcDbSpline
 70
8
 71
3
 72
8
 73
4
 74
0
 40
0
 40
0
 40
0
 40
0
 40
1
 40
1
 40
1
 40
1
 10
143.932786
 20
701.669754
 30
0.0
 10
145.360129
 20
703.938225
 30
0.0
 10
147.889505
 20
705.272624
 30
0.0
 10
150.567705
 20
705.170074
 30
0.0
  0
SPLINE
  5
188
100
AcDbEntity
  8
Laag_1
 62
1
100
AcDbSpline
 70
8
 71
3
 72
8
 73
4
 74
0
 40
0
 40
0
 40
0
 40
0
 40
1
 40
1
 40
1
 40
1
 10
150.567705
 20
705.170074
 30
0.0
 10
153.245906
 20
705.067524
 30
0.0
 10
155.665835
 20
703.543613
 30
0.0
 10
156.915531
 20
701.172635
 30
0.0
  0
SPLINE
  5
189
100
AcDbEntity
  8
Laag_1
 62
1
100
AcDbSpline
 70
8
 71
3
 72
8
 73
4
 74
0
 40
0
 40
0
 40
0
 40
0
 40
1
 40
1
 40
1
 40
1
 10
156.915531
 20
701.172635
 30
0.0
 10
158.165226
 20
698.801657
 30
0.0
 10
158.054730
 20
695.944009
 30
0.0
 10
156.625682
 20
693.676610
 30
0.0
  0
LINE
  5
18a
100
AcDbEntity
  8
Laag_1
 62
1
100
AcDbLine
 10
156.625682
 20
693.676610
 30
0.0
 11
156.625682
 21
693.676610
 31
0.0
  0
LINE
  5
18b
100
AcDbEntity
  8
Laag_1
 62
1
100
AcDbLine
 10
68.995604
 20
780.936059
 30
0.0
 11
60.857161
 21
796.372002
 31
0.0
  0
LINE
  5
18c
100
AcDbEntity
  8
Laag_1
 62
1
100
AcDbLine
 10
60.857161
 20
796.372002
 30
0.0
 11
67.889583
 21
800.079781
 31
0.0
  0
LINE
  5
18d
100
AcDbEntity
  8
Laag_1
 62
1
100
AcDbLine
 10
67.889583
 20
800.079781
 30
0.0
 11
76.028028
 21
784.643837
 31
0.0
  0
LINE
  5
18e
100
AcDbEntity
  8
Laag_1
 62
1
100
AcDbLine
 10
76.028028
 20
784.643837
 30
0.0
 11
68.995604
 21
780.936059
 31
0.0
  0
SPLINE
  5
18f
100
AcDbEntity
  8
Laag_1
 62
1
100
AcDbSpline
 70
8
 71
3
 72
8
 73
4
 74
0
 40
0
 40
0
 40
0
 40
0
 40
1
 40
1
 40
1
 40
1
 10
50.974432
 20
760.208752
 30
0.0
 10
49.547089
 20
757.940280
 30
0.0
 10
47.017712
 20
756.605882
 30
0.0
 10
44.339512
 20
756.708432
 30
0.0
  0
SPLINE
  5
190
100
AcDbEntity
  8
Laag_1
 62
1
100
AcDbSpline
 70
8
 71
3
 72
8
 73
4
 74
0
 40
0
 40
0
 40
0
 40
0
 40
1
 40
1
 40
1
 40
1
 10
44.339512
 20
756.708432
 30
0.0
 10
41.661312
 20
756.810982
 30
0.0
 10
39.241382
 20
758.334893
 30
0.0
 10
37.991687
 20
760.705871
 30
0.0
  0
SPLINE
  5
191
100
AcDbEntity
  8
Laag_1
 62
1
100
AcDbSpline
 70
8
 71
3
 72
8
 73
4
 74
0
 40
0
 40
0
 40
0
 40
0
 40
1
 40
1
 40
1
 40
1
 10
37.991687
 20
760.705871
 30
0.0
 10
36.741991
 20
763.076849
 30
0.0
 10
36.852488
 20
765.934497
 30
0.0
 10
38.281535
 20
768.201896
 30
0.0
  0
SPLINE
  5
192
100
AcDbEntity
  8
Laag_1
 62
1
100
AcDbSpline
 70
8
 71
3
 72
8
 73
4
 74
0
 40
0
 40
0
 40
0
 40
0
 40
1
 40
1
 40
1
 40
1
 10
38.281535
 20
768.201896
 30
0.0
 10
39.708878
 20
770.470368
 30
0.0
 10
42.238254
 20
771.804766
 30
0.0
 10
44.916455
 20
771.702216
 30
0.0
  0
SPLINE
  5
193
100
AcDbEntity
  8
Laag_1
 62
1
100
AcDbSpline
 70
8
 71
3
 72
8
 73
4
 74
0
 40
0
 40
0
 40
0
 40
0
 40
1
 40
1
 40
1
 40
1
 10
44.916455
 20
771.702216
 30
0.0
 10
47.594655
 20
771.599666
 30
0.0
 10
50.014585
 20
770.075755
 30
0.0
 10
51.264280
 20
767.704777
 30
0.0
  0
SPLINE
  5
194
100
AcDbEntity
  8
Laag_1
 62
1
100
AcDbSpline
 70
8
 71
3
 72
8
 73
4
 74
0
 40
0
 40
0
 40
0
 40
0
 40
1
 40
1
 40
1
 40
1
 10
51.264280
 20
767.704777
 30
0.0
 10
52.513975
 20
765.333799
 30
0.0
 10
52.403479
 20
762.476151
 30
0.0
 10
50.974432
 20
760.208752
 30
0.0
  0
LINE
  5
195
100
AcDbEntity
  8
Laag_1
 62
1
100
AcDbLine
 10
50.974432
 20
760.208752
 30
0.0
 11
50.974432
 21
760.208752
 31
0.0
  0
LINE
  5
196
100
AcDbEntity
  8
Laag_1
 62
1
100
AcDbLine
 10
137.301582
 20
727.551503
 30
0.0
 11
119.864455
 21
728.221388
 31
0.0
  0
LINE
  5
197
100
AcDbEntity
  8
Laag_1
 62
1
100
AcDbLine
 10
119.864455
 20
728.221388
 30
0.0
 11
120.169627
 21
736.165511
 31
0.0
  0
LINE
  5
198
100
AcDbEntity
  8
Laag_1
 62
1
100
AcDbLine
 10
120.169627
 20
736.165511
 30
0.0
 11
137.606769
 21
735.495648
 31
0.0
  0
LINE
  5
199
100
AcDbEntity
  8
Laag_1
 62
1
100
AcDbLine
 10
137.606769
 20
735.495648
 30
0.0
 11
137.301582
 21
727.551503
 31
0.0
  0
SPLINE
  5
19a
100
AcDbEntity
  8
Laag_1
 62
1
100
AcDbSpline
 70
8
 71
3
 72
8
 73
4
 74
0
 40
0
 40
0
 40
0
 40
0
 40
1
 40
1
 40
1
 40
1
 10
161.533053
 20
758.765153
 30
0.0
 10
160.105462
 20
756.497233
 30
0.0
 10
157.576273
 20
755.163338
 30
0.0
 10
154.898414
 20
755.266043
 30
0.0
  0
SPLINE
  5
19b
100
AcDbEntity
  8
Laag_1
 62
1
100
AcDbSpline
 70
8
 71
3
 72
8
 73
4
 74
0
 40
0
 40
0
 40
0
 40
0
 40
1
 40
1
 40
1
 40
1
 10
154.898414
 20
755.266043
 30
0.0
 10
152.220555
 20
755.368748
 30
0.0
 10
149.800964
 20
756.892446
 30
0.0
 10
148.551277
 20
759.263048
 30
0.0
  0
SPLINE
  5
19c
100
AcDbEntity
  8
Laag_1
 62
1
100
AcDbSpline
 70
8
 71
3
 72
8
 73
4
 74
0
 40
0
 40
0
 40
0
 40
0
 40
1
 40
1
 40
1
 40
1
 10
148.551277
 20
759.263048
 30
0.0
 10
147.301589
 20
761.633651
 30
0.0
 10
147.411712
 20
764.490914
 30
0.0
 10
148.840155
 20
766.758297
 30
0.0
  0
SPLINE
  5
19d
100
AcDbEntity
  8
Laag_1
 62
1
100
AcDbSpline
 70
8
 71
3
 72
8
 73
4
 74
0
 40
0
 40
0
 40
0
 40
0
 40
1
 40
1
 40
1
 40
1
 10
148.840155
 20
766.758297
 30
0.0
 10
150.267745
 20
769.026217
 30
0.0
 10
152.796935
 20
770.360112
 30
0.0
 10
155.474794
 20
770.257407
 30
0.0
  0
SPLINE
  5
19e
100
AcDbEntity
  8
Laag_1
 62
1
100
AcDbSpline
 70
8
 71
3
 72
8
 73
4
 74
0
 40
0
 40
0
 40
0
 40
0
 40
1
 40
1
 40
1
 40
1
 10
155.474794
 20
770.257407
 30
0.0
 10
158.152653
 20
770.154702
 30
0.0
 10
160.572244
 20
768.631005
 30
0.0
 10
161.821931
 20
766.260402
 30
0.0
  0
SPLINE
  5
19f
100
AcDbEntity
  8
Laag_1
 62
1
100
AcDbSpline
 70
8
 71
3
 72
8
 73
4
 74
0
 40
0
 40
0
 40
0
 40
0
 40
1
 40
1
 40
1
 40
1
 10
161.821931
 20
766.260402
 30
0.0
 10
163.071618
 20
763.889799
 30
0.0
 10
162.961495
 20
761.032537
 30
0.0
 10
161.533053
 20
758.765153
 30
0.0
  0
LINE
  5
1a0
100
AcDbEntity
  8
Laag_1
 62
1
100
AcDbLine
 10
161.533053
 20
758.765153
 30
0.0
 11
161.533053
 21
758.765153
 31
0.0
  0
SPLINE
  5
1a1
100
AcDbEntity
  8
Laag_1
 62
1
100
AcDbSpline
 70
8
 71
3
 72
8
 73
4
 74
0
 40
0
 40
0
 40
0
 40
0
 40
1
 40
1
 40
1
 40
1
 10
107.552993
 20
792.758210
 30
0.0
 10
106.125402
 20
790.490290
 30
0.0
 10
103.596213
 20
789.156395
 30
0.0
 10
100.918354
 20
789.259100
 30
0.0
  0
SPLINE
  5
1a2
100
AcDbEntity
  8
Laag_1
 62
1
100
AcDbSpline
 70
8
 71
3
 72
8
 73
4
 74
0
 40
0
 40
0
 40
0
 40
0
 40
1
 40
1
 40
1
 40
1
 10
100.918354
 20
789.259100
 30
0.0
 10
98.240495
 20
789.361805
 30
0.0
 10
95.820904
 20
790.885503
 30
0.0
 10
94.571217
 20
793.256106
 30
0.0
  0
SPLINE
  5
1a3
100
AcDbEntity
  8
Laag_1
 62
1
100
AcDbSpline
 70
8
 71
3
 72
8
 73
4
 74
0
 40
0
 40
0
 40
0
 40
0
 40
1
 40
1
 40
1
 40
1
 10
94.571217
 20
793.256106
 30
0.0
 10
93.321529
 20
795.626709
 30
0.0
 10
93.431652
 20
798.483971
 30
0.0
 10
94.860095
 20
800.751355
 30
0.0
  0
SPLINE
  5
1a4
100
AcDbEntity
  8
Laag_1
 62
1
100
AcDbSpline
 70
8
 71
3
 72
8
 73
4
 74
0
 40
0
 40
0
 40
0
 40
0
 40
1
 40
1
 40
1
 40
1
 10
94.860095
 20
800.751355
 30
0.0
 10
96.287933
 20
803.018722
 30
0.0
 10
98.816935
 20
804.352114
 30
0.0
 10
101.494452
 20
804.249254
 30
0.0
  0
SPLINE
  5
1a5
100
AcDbEntity
  8
Laag_1
 62
1
100
AcDbSpline
 70
8
 71
3
 72
8
 73
4
 74
0
 40
0
 40
0
 40
0
 40
0
 40
1
 40
1
 40
1
 40
1
 10
101.494452
 20
804.249254
 30
0.0
 10
104.171969
 20
804.146395
 30
0.0
 10
106.591222
 20
802.622910
 30
0.0
 10
107.840901
 20
800.252682
 30
0.0
  0
SPLINE
  5
1a6
100
AcDbEntity
  8
Laag_1
 62
1
100
AcDbSpline
 70
8
 71
3
 72
8
 73
4
 74
0
 40
0
 40
0
 40
0
 40
0
 40
1
 40
1
 40
1
 40
1
 10
107.840901
 20
800.252682
 30
0.0
 10
109.090581
 20
797.882455
 30
0.0
 10
108.980830
 20
795.025578
 30
0.0
 10
107.552993
 20
792.758210
 30
0.0
  0
LINE
  5
1a7
100
AcDbEntity
  8
Laag_1
 62
1
100
AcDbLine
 10
107.552993
 20
792.758210
 30
0.0
 11
107.552993
 21
792.758210
 31
0.0
  0
LINE
  5
1a8
100
AcDbEntity
  8
Laag_1
 62
1
100
AcDbLine
 10
85.319142
 20
749.975732
 30
0.0
 11
77.180684
 21
765.411653
 31
0.0
  0
LINE
  5
1a9
100
AcDbEntity
  8
Laag_1
 62
1
100
AcDbLine
 10
77.180684
 20
765.411653
 30
0.0
 11
84.213105
 21
769.119432
 31
0.0
  0
LINE
  5
1aa
100
AcDbEntity
  8
Laag_1
 62
1
100
AcDbLine
 10
84.213105
 20
769.119432
 30
0.0
 11
92.351550
 21
753.683488
 31
0.0
  0
LINE
  5
1ab
100
AcDbEntity
  8
Laag_1
 62
1
100
AcDbLine
 10
92.351550
 20
753.683488
 30
0.0
 11
85.319142
 21
749.975732
 31
0.0
  0
LINE
  5
1ac
100
AcDbEntity
  8
Laag_1
 62
1
100
AcDbLine
 10
170.703520
 20
671.867178
 30
0.0
 11
178.275872
 21
669.286586
 31
0.0
  0
LINE
  5
1ad
100
AcDbEntity
  8
Laag_1
 62
1
100
AcDbLine
 10
178.275872
 20
669.286586
 30
0.0
 11
197.345894
 21
725.244845
 31
0.0
  0
LINE
  5
1ae
100
AcDbEntity
  8
Laag_1
 62
1
100
AcDbLine
 10
197.345894
 20
725.244845
 30
0.0
 11
189.812850
 21
725.534227
 31
0.0
  0
LINE
  5
1af
100
AcDbEntity
  8
Laag_1
 62
1
100
AcDbLine
 10
189.812850
 20
725.534227
 30
0.0
 11
190.118037
 21
733.478372
 31
0.0
  0
LINE
  5
1b0
100
AcDbEntity
  8
Laag_1
 62
1
100
AcDbLine
 10
190.118037
 20
733.478372
 30
0.0
 11
196.543338
 21
733.231550
 31
0.0
  0
LINE
  5
1b1
100
AcDbEntity
  8
Laag_1
 62
1
100
AcDbLine
 10
196.543338
 20
733.231550
 30
0.0
 11
154.186028
 21
813.569289
 31
0.0
  0
LINE
  5
1b2
100
AcDbEntity
  8
Laag_1
 62
1
100
AcDbLine
 10
154.186028
 20
813.569289
 30
0.0
 11
150.759628
 21
808.128259
 31
0.0
  0
LINE
  5
1b3
100
AcDbEntity
  8
Laag_1
 62
1
100
AcDbLine
 10
150.759628
 20
808.128259
 30
0.0
 11
144.032392
 21
812.364625
 31
0.0
  0
LINE
  5
1b4
100
AcDbEntity
  8
Laag_1
 62
1
100
AcDbLine
 10
144.032392
 20
812.364625
 30
0.0
 11
147.458792
 21
817.805656
 31
0.0
  0
LINE
  5
1b5
100
AcDbEntity
  8
Laag_1
 62
1
100
AcDbLine
 10
147.458792
 20
817.805656
 30
0.0
 11
56.705616
 21
821.292062
 31
0.0
  0
LINE
  5
1b6
100
AcDbEntity
  8
Laag_1
 62
1
100
AcDbLine
 10
56.705616
 20
821.292062
 30
0.0
 11
59.704489
 21
815.604165
 31
0.0
  0
LINE
  5
1b7
100
AcDbEntity
  8
Laag_1
 62
1
100
AcDbLine
 10
59.704489
 20
815.604165
 30
0.0
 11
52.672067
 21
811.896386
 31
0.0
  0
LINE
  5
1b8
100
AcDbEntity
  8
Laag_1
 62
1
100
AcDbLine
 10
52.672067
 20
811.896386
 30
0.0
 11
49.772333
 21
817.396219
 31
0.0
  0
LINE
  5
1b9
100
AcDbEntity
  8
Laag_1
 62
1
100
AcDbLine
 10
49.772333
 20
817.396219
 30
0.0
 11
1.184306
 21
733.086433
 31
0.0
  0
LINE
  5
1ba
100
AcDbEntity
  8
Laag_1
 62
1
100
AcDbLine
 10
1.184306
 20
733.086433
 30
0.0
 11
7.396786
 21
733.334865
 31
0.0
  0
LINE
  5
1bb
100
AcDbEntity
  8
Laag_1
 62
1
100
AcDbLine
 10
7.396786
 20
733.334865
 30
0.0
 11
7.714448
 21
725.391213
 31
0.0
  0
LINE
  5
1bc
100
AcDbEntity
  8
Laag_1
 62
1
100
AcDbLine
 10
7.714448
 20
725.391213
 30
0.0
 11
0.182487
 21
725.090015
 31
0.0
  0
LINE
  5
1bd
100
AcDbEntity
  8
Laag_1
 62
1
100
AcDbLine
 10
0.182487
 20
725.090015
 30
0.0
 11
19.353148
 21
669.150470
 31
0.0
  0
LINE
  5
1be
100
AcDbEntity
  8
Laag_1
 62
1
100
AcDbLine
 10
19.353148
 20
669.150470
 30
0.0
 11
26.921074
 21
671.744024
 31
0.0
  0
LINE
  5
1bf
100
AcDbEntity
  8
Laag_1
 62
1
100
AcDbLine
 10
26.921074
 20
671.744024
 30
0.0
 11
32.610676
 21
655.141887
 31
0.0
  0
LINE
  5
1c0
100
AcDbEntity
  8
Laag_1
 62
1
100
AcDbLine
 10
32.610676
 20
655.141887
 30
0.0
 11
25.042752
 21
652.548336
 31
0.0
  0
LINE
  5
1c1
100
AcDbEntity
  8
Laag_1
 62
1
100
AcDbLine
 10
25.042752
 20
652.548336
 30
0.0
 11
30.699938
 21
636.040801
 31
0.0
  0
LINE
  5
1c2
100
AcDbEntity
  8
Laag_1
 62
1
100
AcDbLine
 10
30.699938
 20
636.040801
 30
0.0
 11
38.267863
 21
638.634353
 31
0.0
  0
LINE
  5
1c3
100
AcDbEntity
  8
Laag_1
 62
1
100
AcDbLine
 10
38.267863
 20
638.634353
 30
0.0
 11
43.957466
 21
622.032215
 31
0.0
  0
LINE
  5
1c4
100
AcDbEntity
  8
Laag_1
 62
1
100
AcDbLine
 10
43.957466
 20
622.032215
 30
0.0
 11
36.389541
 21
619.438664
 31
0.0
  0
LINE
  5
1c5
100
AcDbEntity
  8
Laag_1
 62
1
100
AcDbLine
 10
36.389541
 20
619.438664
 30
0.0
 11
42.046728
 21
602.931129
 31
0.0
  0
LINE
  5
1c6
100
AcDbEntity
  8
Laag_1
 62
1
100
AcDbLine
 10
42.046728
 20
602.931129
 30
0.0
 11
49.614653
 21
605.524681
 31
0.0
  0
LINE
  5
1c7
100
AcDbEntity
  8
Laag_1
 62
1
100
AcDbLine
 10
49.614653
 20
605.524681
 30
0.0
 11
55.304257
 21
588.922546
 31
0.0
  0
LINE
  5
1c8
100
AcDbEntity
  8
Laag_1
 62
1
100
AcDbLine
 10
55.304257
 20
588.922546
 30
0.0
 11
47.736332
 21
586.328994
 31
0.0
  0
LINE
  5
1c9
100
AcDbEntity
  8
Laag_1
 62
1
100
AcDbLine
 10
47.736332
 20
586.328994
 30
0.0
 11
48.888643
 21
582.966577
 31
0.0
  0
LINE
  5
1ca
100
AcDbEntity
  8
Laag_1
 62
1
100
AcDbLine
 10
48.888643
 20
582.966577
 30
0.0
 11
89.888628
 21
583.002356
 31
0.0
  0
LINE
  5
1cb
100
AcDbEntity
  8
Laag_1
 62
1
100
AcDbLine
 10
89.888628
 20
583.002356
 30
0.0
 11
89.823177
 21
658.002327
 31
0.0
  0
LINE
  5
1cc
100
AcDbEntity
  8
Laag_1
 62
1
100
AcDbLine
 10
89.823177
 20
658.002327
 30
0.0
 11
107.823170
 21
658.018034
 31
0.0
  0
LINE
  5
1cd
100
AcDbEntity
  8
Laag_1
 62
1
100
AcDbLine
 10
107.823170
 20
658.018034
 30
0.0
 11
107.888621
 21
583.018063
 31
0.0
  0
LINE
  5
1ce
100
AcDbEntity
  8
Laag_1
 62
1
100
AcDbLine
 10
107.888621
 20
583.018063
 30
0.0
 11
148.888606
 21
583.053841
 31
0.0
  0
LINE
  5
1cf
100
AcDbEntity
  8
Laag_1
 62
1
100
AcDbLine
 10
148.888606
 20
583.053841
 30
0.0
 11
150.034603
 21
586.416612
 31
0.0
  0
LINE
  5
1d0
100
AcDbEntity
  8
Laag_1
 62
1
100
AcDbLine
 10
150.034603
 20
586.416612
 30
0.0
 11
142.462248
 21
588.997195
 31
0.0
  0
LINE
  5
1d1
100
AcDbEntity
  8
Laag_1
 62
1
100
AcDbLine
 10
142.462248
 20
588.997195
 30
0.0
 11
148.123403
 21
605.609054
 31
0.0
  0
LINE
  5
1d2
100
AcDbEntity
  8
Laag_1
 62
1
100
AcDbLine
 10
148.123403
 20
605.609054
 30
0.0
 11
155.695760
 21
603.028469
 31
0.0
  0
LINE
  5
1d3
100
AcDbEntity
  8
Laag_1
 62
1
100
AcDbLine
 10
155.695760
 20
603.028469
 30
0.0
 11
161.324660
 21
619.545672
 31
0.0
  0
LINE
  5
1d4
100
AcDbEntity
  8
Laag_1
 62
1
100
AcDbLine
 10
161.324660
 20
619.545672
 30
0.0
 11
153.752303
 21
622.126256
 31
0.0
  0
LINE
  5
1d5
100
AcDbEntity
  8
Laag_1
 62
1
100
AcDbLine
 10
153.752303
 20
622.126256
 30
0.0
 11
159.413460
 21
638.738113
 31
0.0
  0
LINE
  5
1d6
100
AcDbEntity
  8
Laag_1
 62
1
100
AcDbLine
 10
159.413460
 20
638.738113
 30
0.0
 11
166.985817
 21
636.157529
 31
0.0
  0
LINE
  5
1d7
100
AcDbEntity
  8
Laag_1
 62
1
100
AcDbLine
 10
166.985817
 20
636.157529
 30
0.0
 11
172.614715
 21
652.674730
 31
0.0
  0
LINE
  5
1d8
100
AcDbEntity
  8
Laag_1
 62
1
100
AcDbLine
 10
172.614715
 20
652.674730
 30
0.0
 11
165.042363
 21
655.255321
 31
0.0
  0
LINE
  5
1d9
100
AcDbEntity
  8
Laag_1
 62
1
100
AcDbLine
 10
165.042363
 20
655.255321
 30
0.0
 11
170.703520
 21
671.867178
 31
0.0
  0
LINE
  5
1da
100
AcDbEntity
  8
Laag_1
 62
5
100
AcDbLine
 10
19.065910
 20
424.967320
 30
0.0
 11
13.509660
 21
424.967320
 31
0.0
  0
LINE
  5
1db
100
AcDbEntity
  8
Laag_1
 62
5
100
AcDbLine
 10
19.065910
 20
424.967320
 30
0.0
 11
19.065910
 21
427.348570
 31
0.0
  0
LINE
  5
1dc
100
AcDbEntity
  8
Laag_1
 62
5
100
AcDbLine
 10
19.065910
 20
427.348570
 30
0.0
 11
18.801320
 21
428.142320
 31
0.0
  0
LINE
  5
1dd
100
AcDbEntity
  8
Laag_1
 62
5
100
AcDbLine
 10
18.801320
 20
428.142320
 30
0.0
 11
18.536740
 21
428.406910
 31
0.0
  0
LINE
  5
1de
100
AcDbEntity
  8
Laag_1
 62
5
100
AcDbLine
 10
18.536740
 20
428.406910
 30
0.0
 11
18.007570
 21
428.671490
 31
0.0
  0
LINE
  5
1df
100
AcDbEntity
  8
Laag_1
 62
5
100
AcDbLine
 10
18.007570
 20
428.671490
 30
0.0
 11
17.478410
 21
428.671490
 31
0.0
  0
LINE
  5
1e0
100
AcDbEntity
  8
Laag_1
 62
5
100
AcDbLine
 10
17.478410
 20
428.671490
 30
0.0
 11
16.949240
 21
428.406910
 31
0.0
  0
LINE
  5
1e1
100
AcDbEntity
  8
Laag_1
 62
5
100
AcDbLine
 10
16.949240
 20
428.406910
 30
0.0
 11
16.684660
 21
428.142320
 31
0.0
  0
LINE
  5
1e2
100
AcDbEntity
  8
Laag_1
 62
5
100
AcDbLine
 10
16.684660
 20
428.142320
 30
0.0
 11
16.420070
 21
427.348570
 31
0.0
  0
LINE
  5
1e3
100
AcDbEntity
  8
Laag_1
 62
5
100
AcDbLine
 10
16.420070
 20
424.967320
 30
0.0
 11
16.420070
 21
427.348570
 31
0.0
  0
LINE
  5
1e4
100
AcDbEntity
  8
Laag_1
 62
5
100
AcDbLine
 10
16.420070
 20
427.348570
 30
0.0
 11
16.155490
 21
428.142320
 31
0.0
  0
LINE
  5
1e5
100
AcDbEntity
  8
Laag_1
 62
5
100
AcDbLine
 10
16.155490
 20
428.142320
 30
0.0
 11
15.890910
 21
428.406910
 31
0.0
  0
LINE
  5
1e6
100
AcDbEntity
  8
Laag_1
 62
5
100
AcDbLine
 10
15.890910
 20
428.406910
 30
0.0
 11
15.361740
 21
428.671490
 31
0.0
  0
LINE
  5
1e7
100
AcDbEntity
  8
Laag_1
 62
5
100
AcDbLine
 10
15.361740
 20
428.671490
 30
0.0
 11
14.567990
 21
428.671490
 31
0.0
  0
LINE
  5
1e8
100
AcDbEntity
  8
Laag_1
 62
5
100
AcDbLine
 10
14.567990
 20
428.671490
 30
0.0
 11
14.038820
 21
428.406910
 31
0.0
  0
LINE
  5
1e9
100
AcDbEntity
  8
Laag_1
 62
5
100
AcDbLine
 10
14.038820
 20
428.406910
 30
0.0
 11
13.774240
 21
428.142320
 31
0.0
  0
LINE
  5
1ea
100
AcDbEntity
  8
Laag_1
 62
5
100
AcDbLine
 10
13.774240
 20
428.142320
 30
0.0
 11
13.509660
 21
427.348570
 31
0.0
  0
LINE
  5
1eb
100
AcDbEntity
  8
Laag_1
 62
5
100
AcDbLine
 10
13.509660
 20
427.348570
 30
0.0
 11
13.509660
 21
424.967320
 31
0.0
  0
LINE
  5
1ec
100
AcDbEntity
  8
Laag_1
 62
1
100
AcDbLine
 10
60.848880
 20
360.164118
 30
0.0
 11
68.987323
 21
375.600061
 31
0.0
  0
LINE
  5
1ed
100
AcDbEntity
  8
Laag_1
 62
1
100
AcDbLine
 10
68.987323
 20
375.600061
 30
0.0
 11
76.019747
 21
371.892283
 31
0.0
  0
LINE
  5
1ee
100
AcDbEntity
  8
Laag_1
 62
1
100
AcDbLine
 10
76.019747
 20
371.892283
 30
0.0
 11
67.881302
 21
356.456339
 31
0.0
  0
LINE
  5
1ef
100
AcDbEntity
  8
Laag_1
 62
1
100
AcDbLine
 10
67.881302
 20
356.456339
 30
0.0
 11
60.848880
 21
360.164118
 31
0.0
  0
LINE
  5
1f0
100
AcDbEntity
  8
Laag_1
 62
1
100
AcDbLine
 10
154.830372
 20
429.658313
 30
0.0
 11
172.267512
 21
430.328175
 31
0.0
  0
LINE
  5
1f1
100
AcDbEntity
  8
Laag_1
 62
1
100
AcDbLine
 10
172.267512
 20
430.328175
 30
0.0
 11
172.572699
 21
422.384030
 31
0.0
  0
LINE
  5
1f2
100
AcDbEntity
  8
Laag_1
 62
1
100
AcDbLine
 10
172.572699
 20
422.384030
 30
0.0
 11
155.135556
 21
421.714166
 31
0.0
  0
LINE
  5
1f3
100
AcDbEntity
  8
Laag_1
 62
1
100
AcDbLine
 10
155.135556
 20
421.714166
 30
0.0
 11
154.830372
 21
429.658313
 31
0.0
  0
LINE
  5
1f4
100
AcDbEntity
  8
Laag_1
 62
1
100
AcDbLine
 10
119.856174
 20
428.314732
 30
0.0
 11
137.293301
 21
428.984617
 31
0.0
  0
LINE
  5
1f5
100
AcDbEntity
  8
Laag_1
 62
1
100
AcDbLine
 10
137.293301
 20
428.984617
 30
0.0
 11
137.598488
 21
421.040472
 31
0.0
  0
LINE
  5
1f6
100
AcDbEntity
  8
Laag_1
 62
1
100
AcDbLine
 10
137.598488
 20
421.040472
 30
0.0
 11
120.161346
 21
420.370609
 31
0.0
  0
LINE
  5
1f7
100
AcDbEntity
  8
Laag_1
 62
1
100
AcDbLine
 10
120.161346
 20
420.370609
 30
0.0
 11
119.856174
 21
428.314732
 31
0.0
  0
SPLINE
  5
1f8
100
AcDbEntity
  8
Laag_1
 62
1
100
AcDbSpline
 70
8
 71
3
 72
8
 73
4
 74
0
 40
0
 40
0
 40
0
 40
0
 40
1
 40
1
 40
1
 40
1
 10
38.273254
 20
388.334224
 30
0.0
 10
36.844207
 20
390.601623
 30
0.0
 10
36.733710
 20
393.459272
 30
0.0
 10
37.983406
 20
395.830249
 30
0.0
  0
SPLINE
  5
1f9
100
AcDbEntity
  8
Laag_1
 62
1
100
AcDbSpline
 70
8
 71
3
 72
8
 73
4
 74
0
 40
0
 40
0
 40
0
 40
0
 40
1
 40
1
 40
1
 40
1
 10
37.983406
 20
395.830249
 30
0.0
 10
39.233101
 20
398.201227
 30
0.0
 10
41.653031
 20
399.725138
 30
0.0
 10
44.331231
 20
399.827688
 30
0.0
  0
SPLINE
  5
1fa
100
AcDbEntity
  8
Laag_1
 62
1
100
AcDbSpline
 70
8
 71
3
 72
8
 73
4
 74
0
 40
0
 40
0
 40
0
 40
0
 40
1
 40
1
 40
1
 40
1
 10
44.331231
 20
399.827688
 30
0.0
 10
47.009431
 20
399.930238
 30
0.0
 10
49.538808
 20
398.595840
 30
0.0
 10
50.966151
 20
396.327368
 30
0.0
  0
SPLINE
  5
1fb
100
AcDbEntity
  8
Laag_1
 62
1
100
AcDbSpline
 70
8
 71
3
 72
8
 73
4
 74
0
 40
0
 40
0
 40
0
 40
0
 40
1
 40
1
 40
1
 40
1
 10
50.966151
 20
396.327368
 30
0.0
 10
52.395198
 20
394.059969
 30
0.0
 10
52.505694
 20
391.202321
 30
0.0
 10
51.255999
 20
388.831343
 30
0.0
  0
SPLINE
  5
1fc
100
AcDbEntity
  8
Laag_1
 62
1
100
AcDbSpline
 70
8
 71
3
 72
8
 73
4
 74
0
 40
0
 40
0
 40
0
 40
0
 40
1
 40
1
 40
1
 40
1
 10
51.255999
 20
388.831343
 30
0.0
 10
50.006304
 20
386.460365
 30
0.0
 10
47.586374
 20
384.936454
 30
0.0
 10
44.908174
 20
384.833904
 30
0.0
  0
SPLINE
  5
1fd
100
AcDbEntity
  8
Laag_1
 62
1
100
AcDbSpline
 70
8
 71
3
 72
8
 73
4
 74
0
 40
0
 40
0
 40
0
 40
0
 40
1
 40
1
 40
1
 40
1
 10
44.908174
 20
384.833904
 30
0.0
 10
42.229973
 20
384.731354
 30
0.0
 10
39.700597
 20
386.065752
 30
0.0
 10
38.273254
 20
388.334224
 30
0.0
  0
LINE
  5
1fe
100
AcDbEntity
  8
Laag_1
 62
1
100
AcDbLine
 10
38.273254
 20
388.334224
 30
0.0
 11
38.273254
 21
388.334224
 31
0.0
  0
LINE
  5
1ff
100
AcDbEntity
  8
Laag_1
 62
1
100
AcDbLine
 10
77.332605
 20
420.404233
 30
0.0
 11
59.896537
 21
421.101498
 31
0.0
  0
LINE
  5
200
100
AcDbEntity
  8
Laag_1
 62
1
100
AcDbLine
 10
59.896537
 20
421.101498
 30
0.0
 11
60.214196
 21
429.045150
 31
0.0
  0
LINE
  5
201
100
AcDbEntity
  8
Laag_1
 62
1
100
AcDbLine
 10
60.214196
 20
429.045150
 30
0.0
 11
77.650265
 21
428.347886
 31
0.0
  0
LINE
  5
202
100
AcDbEntity
  8
Laag_1
 62
1
100
AcDbLine
 10
77.650265
 20
428.347886
 30
0.0
 11
77.332605
 21
420.404233
 31
0.0
  0
SPLINE
  5
203
100
AcDbEntity
  8
Laag_1
 62
1
100
AcDbSpline
 70
8
 71
3
 72
8
 73
4
 74
0
 40
0
 40
0
 40
0
 40
0
 40
1
 40
1
 40
1
 40
1
 10
92.402996
 20
419.529393
 30
0.0
 10
90.975158
 20
421.796760
 30
0.0
 10
90.865408
 20
424.653637
 30
0.0
 10
92.115087
 20
427.023865
 30
0.0
  0
SPLINE
  5
204
100
AcDbEntity
  8
Laag_1
 62
1
100
AcDbSpline
 70
8
 71
3
 72
8
 73
4
 74
0
 40
0
 40
0
 40
0
 40
0
 40
1
 40
1
 40
1
 40
1
 10
92.115087
 20
427.023865
 30
0.0
 10
93.364766
 20
429.394092
 30
0.0
 10
95.784019
 20
430.917577
 30
0.0
 10
98.461536
 20
431.020437
 30
0.0
  0
SPLINE
  5
205
100
AcDbEntity
  8
Laag_1
 62
1
100
AcDbSpline
 70
8
 71
3
 72
8
 73
4
 74
0
 40
0
 40
0
 40
0
 40
0
 40
1
 40
1
 40
1
 40
1
 10
98.461536
 20
431.020437
 30
0.0
 10
101.139053
 20
431.123296
 30
0.0
 10
103.668056
 20
429.789905
 30
0.0
 10
105.095893
 20
427.522537
 30
0.0
  0
SPLINE
  5
206
100
AcDbEntity
  8
Laag_1
 62
1
100
AcDbSpline
 70
8
 71
3
 72
8
 73
4
 74
0
 40
0
 40
0
 40
0
 40
0
 40
1
 40
1
 40
1
 40
1
 10
105.095893
 20
427.522537
 30
0.0
 10
106.523731
 20
425.255169
 30
0.0
 10
106.633481
 20
422.398292
 30
0.0
 10
105.383802
 20
420.028065
 30
0.0
  0
SPLINE
  5
207
100
AcDbEntity
  8
Laag_1
 62
1
100
AcDbSpline
 70
8
 71
3
 72
8
 73
4
 74
0
 40
0
 40
0
 40
0
 40
0
 40
1
 40
1
 40
1
 40
1
 10
105.383802
 20
420.028065
 30
0.0
 10
104.134123
 20
417.657837
 30
0.0
 10
101.714870
 20
416.134353
 30
0.0
 10
99.037353
 20
416.031493
 30
0.0
  0
SPLINE
  5
208
100
AcDbEntity
  8
Laag_1
 62
1
100
AcDbSpline
 70
8
 71
3
 72
8
 73
4
 74
0
 40
0
 40
0
 40
0
 40
0
 40
1
 40
1
 40
1
 40
1
 10
99.037353
 20
416.031493
 30
0.0
 10
96.359836
 20
415.928633
 30
0.0
 10
93.830833
 20
417.262025
 30
0.0
 10
92.402996
 20
419.529393
 30
0.0
  0
LINE
  5
209
100
AcDbEntity
  8
Laag_1
 62
1
100
AcDbLine
 10
92.402996
 20
419.529393
 30
0.0
 11
92.402996
 21
419.529393
 31
0.0
  0
SPLINE
  5
20a
100
AcDbEntity
  8
Laag_1
 62
1
100
AcDbSpline
 70
8
 71
3
 72
8
 73
4
 74
0
 40
0
 40
0
 40
0
 40
0
 40
1
 40
1
 40
1
 40
1
 10
36.118226
 20
452.084389
 30
0.0
 10
34.690389
 20
454.351757
 30
0.0
 10
34.580639
 20
457.208634
 30
0.0
 10
35.830318
 20
459.578861
 30
0.0
  0
SPLINE
  5
20b
100
AcDbEntity
  8
Laag_1
 62
1
100
AcDbSpline
 70
8
 71
3
 72
8
 73
4
 74
0
 40
0
 40
0
 40
0
 40
0
 40
1
 40
1
 40
1
 40
1
 10
35.830318
 20
459.578861
 30
0.0
 10
37.079997
 20
461.949089
 30
0.0
 10
39.499250
 20
463.472574
 30
0.0
 10
42.176767
 20
463.575434
 30
0.0
  0
SPLINE
  5
20c
100
AcDbEntity
  8
Laag_1
 62
1
100
AcDbSpline
 70
8
 71
3
 72
8
 73
4
 74
0
 40
0
 40
0
 40
0
 40
0
 40
1
 40
1
 40
1
 40
1
 10
42.176767
 20
463.575434
 30
0.0
 10
44.854284
 20
463.678293
 30
0.0
 10
47.383287
 20
462.344901
 30
0.0
 10
48.811125
 20
460.077533
 30
0.0
  0
SPLINE
  5
20d
100
AcDbEntity
  8
Laag_1
 62
1
100
AcDbSpline
 70
8
 71
3
 72
8
 73
4
 74
0
 40
0
 40
0
 40
0
 40
0
 40
1
 40
1
 40
1
 40
1
 10
48.811125
 20
460.077533
 30
0.0
 10
50.238962
 20
457.810166
 30
0.0
 10
50.348712
 20
454.953289
 30
0.0
 10
49.099033
 20
452.583061
 30
0.0
  0
SPLINE
  5
20e
100
AcDbEntity
  8
Laag_1
 62
1
100
AcDbSpline
 70
8
 71
3
 72
8
 73
4
 74
0
 40
0
 40
0
 40
0
 40
0
 40
1
 40
1
 40
1
 40
1
 10
49.099033
 20
452.583061
 30
0.0
 10
47.849354
 20
450.212834
 30
0.0
 10
45.430101
 20
448.689349
 30
0.0
 10
42.752584
 20
448.586489
 30
0.0
  0
SPLINE
  5
20f
100
AcDbEntity
  8
Laag_1
 62
1
100
AcDbSpline
 70
8
 71
3
 72
8
 73
4
 74
0
 40
0
 40
0
 40
0
 40
0
 40
1
 40
1
 40
1
 40
1
 10
42.752584
 20
448.586489
 30
0.0
 10
40.075067
 20
448.483629
 30
0.0
 10
37.546064
 20
449.817021
 30
0.0
 10
36.118226
 20
452.084389
 30
0.0
  0
LINE
  5
210
100
AcDbEntity
  8
Laag_1
 62
1
100
AcDbLine
 10
36.118226
 20
452.084389
 30
0.0
 11
36.118226
 21
452.084389
 31
0.0
  0
LINE
  5
211
100
AcDbEntity
  8
Laag_1
 62
1
100
AcDbLine
 10
106.722762
 20
403.405033
 30
0.0
 11
113.449998
 21
407.641399
 31
0.0
  0
LINE
  5
212
100
AcDbEntity
  8
Laag_1
 62
1
100
AcDbLine
 10
113.449998
 20
407.641399
 30
0.0
 11
122.748695
 21
392.875318
 31
0.0
  0
LINE
  5
213
100
AcDbEntity
  8
Laag_1
 62
1
100
AcDbLine
 10
122.748695
 20
392.875318
 30
0.0
 11
116.021460
 21
388.638952
 31
0.0
  0
LINE
  5
214
100
AcDbEntity
  8
Laag_1
 62
1
100
AcDbLine
 10
116.021460
 20
388.638952
 30
0.0
 11
106.722762
 21
403.405033
 31
0.0
  0
SPLINE
  5
215
100
AcDbEntity
  8
Laag_1
 62
1
100
AcDbSpline
 70
8
 71
3
 72
8
 73
4
 74
0
 40
0
 40
0
 40
0
 40
0
 40
1
 40
1
 40
1
 40
1
 10
143.924505
 20
454.866366
 30
0.0
 10
142.495458
 20
457.133765
 30
0.0
 10
142.384961
 20
459.991414
 30
0.0
 10
143.634656
 20
462.362391
 30
0.0
  0
SPLINE
  5
216
100
AcDbEntity
  8
Laag_1
 62
1
100
AcDbSpline
 70
8
 71
3
 72
8
 73
4
 74
0
 40
0
 40
0
 40
0
 40
0
 40
1
 40
1
 40
1
 40
1
 10
143.634656
 20
462.362391
 30
0.0
 10
144.884352
 20
464.733369
 30
0.0
 10
147.304281
 20
466.257280
 30
0.0
 10
149.982482
 20
466.359830
 30
0.0
  0
SPLINE
  5
217
100
AcDbEntity
  8
Laag_1
 62
1
100
AcDbSpline
 70
8
 71
3
 72
8
 73
4
 74
0
 40
0
 40
0
 40
0
 40
0
 40
1
 40
1
 40
1
 40
1
 10
149.982482
 20
466.359830
 30
0.0
 10
152.660682
 20
466.462380
 30
0.0
 10
155.190058
 20
465.127982
 30
0.0
 10
156.617401
 20
462.859510
 30
0.0
  0
SPLINE
  5
218
100
AcDbEntity
  8
Laag_1
 62
1
100
AcDbSpline
 70
8
 71
3
 72
8
 73
4
 74
0
 40
0
 40
0
 40
0
 40
0
 40
1
 40
1
 40
1
 40
1
 10
156.617401
 20
462.859510
 30
0.0
 10
158.046449
 20
460.592111
 30
0.0
 10
158.156945
 20
457.734463
 30
0.0
 10
156.907250
 20
455.363485
 30
0.0
  0
SPLINE
  5
219
100
AcDbEntity
  8
Laag_1
 62
1
100
AcDbSpline
 70
8
 71
3
 72
8
 73
4
 74
0
 40
0
 40
0
 40
0
 40
0
 40
1
 40
1
 40
1
 40
1
 10
156.907250
 20
455.363485
 30
0.0
 10
155.657554
 20
452.992507
 30
0.0
 10
153.237625
 20
451.468597
 30
0.0
 10
150.559424
 20
451.366046
 30
0.0
  0
SPLINE
  5
21a
100
AcDbEntity
  8
Laag_1
 62
1
100
AcDbSpline
 70
8
 71
3
 72
8
 73
4
 74
0
 40
0
 40
0
 40
0
 40
0
 40
1
 40
1
 40
1
 40
1
 10
150.559424
 20
451.366046
 30
0.0
 10
147.881224
 20
451.263496
 30
0.0
 10
145.351848
 20
452.597895
 30
0.0
 10
143.924505
 20
454.866366
 30
0.0
  0
LINE
  5
21b
100
AcDbEntity
  8
Laag_1
 62
1
100
AcDbLine
 10
143.924505
 20
454.866366
 30
0.0
 11
143.924505
 21
454.866366
 31
0.0
  0
LINE
  5
21c
100
AcDbEntity
  8
Laag_1
 62
1
100
AcDbLine
 10
25.242152
 20
430.443653
 30
0.0
 11
42.678215
 21
429.746397
 31
0.0
  0
LINE
  5
21d
100
AcDbEntity
  8
Laag_1
 62
1
100
AcDbLine
 10
42.678215
 20
429.746397
 30
0.0
 11
42.360548
 21
421.802752
 31
0.0
  0
LINE
  5
21e
100
AcDbEntity
  8
Laag_1
 62
1
100
AcDbLine
 10
42.360548
 20
421.802752
 30
0.0
 11
24.924489
 21
422.500001
 31
0.0
  0
LINE
  5
21f
100
AcDbEntity
  8
Laag_1
 62
1
100
AcDbLine
 10
24.924489
 20
422.500001
 30
0.0
 11
25.242152
 21
430.443653
 31
0.0
  0
LINE
  5
220
100
AcDbEntity
  8
Laag_1
 62
1
100
AcDbLine
 10
125.373437
 20
373.788264
 30
0.0
 11
132.100673
 21
378.024630
 31
0.0
  0
LINE
  5
221
100
AcDbEntity
  8
Laag_1
 62
1
100
AcDbLine
 10
132.100673
 20
378.024630
 30
0.0
 11
141.399370
 21
363.258549
 31
0.0
  0
LINE
  5
222
100
AcDbEntity
  8
Laag_1
 62
1
100
AcDbLine
 10
141.399370
 20
363.258549
 30
0.0
 11
134.672134
 21
359.022183
 31
0.0
  0
LINE
  5
223
100
AcDbEntity
  8
Laag_1
 62
1
100
AcDbLine
 10
134.672134
 20
359.022183
 30
0.0
 11
125.373437
 21
373.788264
 31
0.0
  0
LINE
  5
224
100
AcDbEntity
  8
Laag_1
 62
1
100
AcDbLine
 10
77.172403
 20
391.124468
 30
0.0
 11
85.310861
 21
406.560388
 31
0.0
  0
LINE
  5
225
100
AcDbEntity
  8
Laag_1
 62
1
100
AcDbLine
 10
85.310861
 20
406.560388
 30
0.0
 11
92.343269
 21
402.852632
 31
0.0
  0
LINE
  5
226
100
AcDbEntity
  8
Laag_1
 62
1
100
AcDbLine
 10
92.343269
 20
402.852632
 30
0.0
 11
84.204824
 21
387.416688
 31
0.0
  0
LINE
  5
227
100
AcDbEntity
  8
Laag_1
 62
1
100
AcDbLine
 10
84.204824
 20
387.416688
 30
0.0
 11
77.172403
 21
391.124468
 31
0.0
  0
SPLINE
  5
228
100
AcDbEntity
  8
Laag_1
 62
1
100
AcDbSpline
 70
8
 71
3
 72
8
 73
4
 74
0
 40
0
 40
0
 40
0
 40
0
 40
1
 40
1
 40
1
 40
1
 10
94.851814
 20
355.784765
 30
0.0
 10
93.423371
 20
358.052149
 30
0.0
 10
93.313248
 20
360.909411
 30
0.0
 10
94.562936
 20
363.280014
 30
0.0
  0
SPLINE
  5
229
100
AcDbEntity
  8
Laag_1
 62
1
100
AcDbSpline
 70
8
 71
3
 72
8
 73
4
 74
0
 40
0
 40
0
 40
0
 40
0
 40
1
 40
1
 40
1
 40
1
 10
94.562936
 20
363.280014
 30
0.0
 10
95.812623
 20
365.650617
 30
0.0
 10
98.232214
 20
367.174315
 30
0.0
 10
100.910073
 20
367.277020
 30
0.0
  0
SPLINE
  5
22a
100
AcDbEntity
  8
Laag_1
 62
1
100
AcDbSpline
 70
8
 71
3
 72
8
 73
4
 74
0
 40
0
 40
0
 40
0
 40
0
 40
1
 40
1
 40
1
 40
1
 10
100.910073
 20
367.277020
 30
0.0
 10
103.587932
 20
367.379725
 30
0.0
 10
106.117121
 20
366.045830
 30
0.0
 10
107.544712
 20
363.777910
 30
0.0
  0
SPLINE
  5
22b
100
AcDbEntity
  8
Laag_1
 62
1
100
AcDbSpline
 70
8
 71
3
 72
8
 73
4
 74
0
 40
0
 40
0
 40
0
 40
0
 40
1
 40
1
 40
1
 40
1
 10
107.544712
 20
363.777910
 30
0.0
 10
108.973154
 20
361.510526
 30
0.0
 10
109.083277
 20
358.653264
 30
0.0
 10
107.833590
 20
356.282661
 30
0.0
  0
SPLINE
  5
22c
100
AcDbEntity
  8
Laag_1
 62
1
100
AcDbSpline
 70
8
 71
3
 72
8
 73
4
 74
0
 40
0
 40
0
 40
0
 40
0
 40
1
 40
1
 40
1
 40
1
 10
107.833590
 20
356.282661
 30
0.0
 10
106.583903
 20
353.912058
 30
0.0
 10
104.164312
 20
352.388360
 30
0.0
 10
101.486453
 20
352.285655
 30
0.0
  0
SPLINE
  5
22d
100
AcDbEntity
  8
Laag_1
 62
1
100
AcDbSpline
 70
8
 71
3
 72
8
 73
4
 74
0
 40
0
 40
0
 40
0
 40
0
 40
1
 40
1
 40
1
 40
1
 10
101.486453
 20
352.285655
 30
0.0
 10
98.808594
 20
352.182950
 30
0.0
 10
96.279404
 20
353.516845
 30
0.0
 10
94.851814
 20
355.784765
 30
0.0
  0
LINE
  5
22e
100
AcDbEntity
  8
Laag_1
 62
1
100
AcDbLine
 10
94.851814
 20
355.784765
 30
0.0
 11
94.851814
 21
355.784765
 31
0.0
  0
SPLINE
  5
22f
100
AcDbEntity
  8
Laag_1
 62
1
100
AcDbSpline
 70
8
 71
3
 72
8
 73
4
 74
0
 40
0
 40
0
 40
0
 40
0
 40
1
 40
1
 40
1
 40
1
 10
148.831874
 20
389.777823
 30
0.0
 10
147.403431
 20
392.045206
 30
0.0
 10
147.293308
 20
394.902469
 30
0.0
 10
148.542996
 20
397.273072
 30
0.0
  0
SPLINE
  5
230
100
AcDbEntity
  8
Laag_1
 62
1
100
AcDbSpline
 70
8
 71
3
 72
8
 73
4
 74
0
 40
0
 40
0
 40
0
 40
0
 40
1
 40
1
 40
1
 40
1
 10
148.542996
 20
397.273072
 30
0.0
 10
149.792683
 20
399.643674
 30
0.0
 10
152.212274
 20
401.167372
 30
0.0
 10
154.890133
 20
401.270077
 30
0.0
  0
SPLINE
  5
231
100
AcDbEntity
  8
Laag_1
 62
1
100
AcDbSpline
 70
8
 71
3
 72
8
 73
4
 74
0
 40
0
 40
0
 40
0
 40
0
 40
1
 40
1
 40
1
 40
1
 10
154.890133
 20
401.270077
 30
0.0
 10
157.567992
 20
401.372782
 30
0.0
 10
160.097181
 20
400.038887
 30
0.0
 10
161.524772
 20
397.770967
 30
0.0
  0
SPLINE
  5
232
100
AcDbEntity
  8
Laag_1
 62
1
100
AcDbSpline
 70
8
 71
3
 72
8
 73
4
 74
0
 40
0
 40
0
 40
0
 40
0
 40
1
 40
1
 40
1
 40
1
 10
161.524772
 20
397.770967
 30
0.0
 10
162.952609
 20
395.503599
 30
0.0
 10
163.062359
 20
392.646723
 30
0.0
 10
161.812680
 20
390.276495
 30
0.0
  0
SPLINE
  5
233
100
AcDbEntity
  8
Laag_1
 62
1
100
AcDbSpline
 70
8
 71
3
 72
8
 73
4
 74
0
 40
0
 40
0
 40
0
 40
0
 40
1
 40
1
 40
1
 40
1
 10
161.812680
 20
390.276495
 30
0.0
 10
160.563001
 20
387.906267
 30
0.0
 10
158.143748
 20
386.382783
 30
0.0
 10
155.466231
 20
386.279923
 30
0.0
  0
SPLINE
  5
234
100
AcDbEntity
  8
Laag_1
 62
1
100
AcDbSpline
 70
8
 71
3
 72
8
 73
4
 74
0
 40
0
 40
0
 40
0
 40
0
 40
1
 40
1
 40
1
 40
1
 10
155.466231
 20
386.279923
 30
0.0
 10
152.788714
 20
386.177063
 30
0.0
 10
150.259712
 20
387.510455
 30
0.0
 10
148.831874
 20
389.777823
 30
0.0
  0
LINE
  5
235
100
AcDbEntity
  8
Laag_1
 62
1
100
AcDbLine
 10
148.831874
 20
389.777823
 30
0.0
 11
148.831874
 21
389.777823
 31
0.0
  0
LINE
  5
236
100
AcDbEntity
  8
Laag_1
 62
1
100
AcDbLine
 10
142.453967
 20
567.538925
 30
0.0
 11
150.026322
 21
570.119508
 31
0.0
  0
LINE
  5
237
100
AcDbEntity
  8
Laag_1
 62
1
100
AcDbLine
 10
150.026322
 20
570.119508
 30
0.0
 11
145.641854
 21
582.985107
 31
0.0
  0
LINE
  5
238
100
AcDbEntity
  8
Laag_1
 62
1
100
AcDbLine
 10
145.641854
 20
582.985107
 30
0.0
 11
107.888630
 21
583.018053
 31
0.0
  0
LINE
  5
239
100
AcDbEntity
  8
Laag_1
 62
1
100
AcDbLine
 10
107.888630
 20
583.018053
 30
0.0
 11
107.823179
 21
508.018082
 31
0.0
  0
LINE
  5
23a
100
AcDbEntity
  8
Laag_1
 62
1
100
AcDbLine
 10
107.823179
 20
508.018082
 30
0.0
 11
89.823186
 21
508.033789
 31
0.0
  0
LINE
  5
23b
100
AcDbEntity
  8
Laag_1
 62
1
100
AcDbLine
 10
89.823186
 20
508.033789
 30
0.0
 11
89.888637
 21
583.033760
 31
0.0
  0
LINE
  5
23c
100
AcDbEntity
  8
Laag_1
 62
1
100
AcDbLine
 10
89.888637
 20
583.033760
 30
0.0
 11
52.135071
 21
583.066708
 31
0.0
  0
LINE
  5
23d
100
AcDbEntity
  8
Laag_1
 62
1
100
AcDbLine
 10
52.135071
 20
583.066708
 30
0.0
 11
47.728051
 21
570.207126
 31
0.0
  0
LINE
  5
23e
100
AcDbEntity
  8
Laag_1
 62
1
100
AcDbLine
 10
47.728051
 20
570.207126
 30
0.0
 11
55.295976
 21
567.613574
 31
0.0
  0
LINE
  5
23f
100
AcDbEntity
  8
Laag_1
 62
1
100
AcDbLine
 10
55.295976
 20
567.613574
 30
0.0
 11
49.606372
 21
551.011439
 31
0.0
  0
LINE
  5
240
100
AcDbEntity
  8
Laag_1
 62
1
100
AcDbLine
 10
49.606372
 20
551.011439
 30
0.0
 11
42.038447
 21
553.604991
 31
0.0
  0
LINE
  5
241
100
AcDbEntity
  8
Laag_1
 62
1
100
AcDbLine
 10
42.038447
 20
553.604991
 30
0.0
 11
36.381260
 21
537.097456
 31
0.0
  0
LINE
  5
242
100
AcDbEntity
  8
Laag_1
 62
1
100
AcDbLine
 10
36.381260
 20
537.097456
 30
0.0
 11
43.949185
 21
534.503905
 31
0.0
  0
LINE
  5
243
100
AcDbEntity
  8
Laag_1
 62
1
100
AcDbLine
 10
43.949185
 20
534.503905
 30
0.0
 11
38.259582
 21
517.901767
 31
0.0
  0
LINE
  5
244
100
AcDbEntity
  8
Laag_1
 62
1
100
AcDbLine
 10
38.259582
 20
517.901767
 30
0.0
 11
30.691657
 21
520.495319
 31
0.0
  0
LINE
  5
245
100
AcDbEntity
  8
Laag_1
 62
1
100
AcDbLine
 10
30.691657
 20
520.495319
 30
0.0
 11
25.034471
 21
503.987784
 31
0.0
  0
LINE
  5
246
100
AcDbEntity
  8
Laag_1
 62
1
100
AcDbLine
 10
25.034471
 20
503.987784
 30
0.0
 11
32.602395
 21
501.394233
 31
0.0
  0
LINE
  5
247
100
AcDbEntity
  8
Laag_1
 62
1
100
AcDbLine
 10
32.602395
 20
501.394233
 30
0.0
 11
26.912793
 21
484.792096
 31
0.0
  0
LINE
  5
248
100
AcDbEntity
  8
Laag_1
 62
1
100
AcDbLine
 10
26.912793
 20
484.792096
 30
0.0
 11
19.344867
 21
487.385650
 31
0.0
  0
LINE
  5
249
100
AcDbEntity
  8
Laag_1
 62
1
100
AcDbLine
 10
19.344867
 20
487.385650
 30
0.0
 11
0.174206
 21
431.446105
 31
0.0
  0
LINE
  5
24a
100
AcDbEntity
  8
Laag_1
 62
1
100
AcDbLine
 10
0.174206
 20
431.446105
 30
0.0
 11
7.706167
 21
431.144907
 31
0.0
  0
LINE
  5
24b
100
AcDbEntity
  8
Laag_1
 62
1
100
AcDbLine
 10
7.706167
 20
431.144907
 30
0.0
 11
7.388505
 21
423.201255
 31
0.0
  0
LINE
  5
24c
100
AcDbEntity
  8
Laag_1
 62
1
100
AcDbLine
 10
7.388505
 20
423.201255
 30
0.0
 11
1.176025
 21
423.449687
 31
0.0
  0
LINE
  5
24d
100
AcDbEntity
  8
Laag_1
 62
1
100
AcDbLine
 10
1.176025
 20
423.449687
 30
0.0
 11
49.764052
 21
339.139901
 31
0.0
  0
LINE
  5
24e
100
AcDbEntity
  8
Laag_1
 62
1
100
AcDbLine
 10
49.764052
 20
339.139901
 30
0.0
 11
52.663786
 21
344.639734
 31
0.0
  0
LINE
  5
24f
100
AcDbEntity
  8
Laag_1
 62
1
100
AcDbLine
 10
52.663786
 20
344.639734
 30
0.0
 11
59.696208
 21
340.931955
 31
0.0
  0
LINE
  5
250
100
AcDbEntity
  8
Laag_1
 62
1
100
AcDbLine
 10
59.696208
 20
340.931955
 30
0.0
 11
56.697335
 21
335.244058
 31
0.0
  0
LINE
  5
251
100
AcDbEntity
  8
Laag_1
 62
1
100
AcDbLine
 10
56.697335
 20
335.244058
 30
0.0
 11
147.450511
 21
338.730464
 31
0.0
  0
LINE
  5
252
100
AcDbEntity
  8
Laag_1
 62
1
100
AcDbLine
 10
147.450511
 20
338.730464
 30
0.0
 11
144.024111
 21
344.171495
 31
0.0
  0
LINE
  5
253
100
AcDbEntity
  8
Laag_1
 62
1
100
AcDbLine
 10
144.024111
 20
344.171495
 30
0.0
 11
150.751347
 21
348.407861
 31
0.0
  0
LINE
  5
254
100
AcDbEntity
  8
Laag_1
 62
1
100
AcDbLine
 10
150.751347
 20
348.407861
 30
0.0
 11
154.177747
 21
342.966831
 31
0.0
  0
LINE
  5
255
100
AcDbEntity
  8
Laag_1
 62
1
100
AcDbLine
 10
154.177747
 20
342.966831
 30
0.0
 11
196.535057
 21
423.304570
 31
0.0
  0
LINE
  5
256
100
AcDbEntity
  8
Laag_1
 62
1
100
AcDbLine
 10
196.535057
 20
423.304570
 30
0.0
 11
190.109756
 21
423.057748
 31
0.0
  0
LINE
  5
257
100
AcDbEntity
  8
Laag_1
 62
1
100
AcDbLine
 10
190.109756
 20
423.057748
 30
0.0
 11
189.804569
 21
431.001893
 31
0.0
  0
LINE
  5
258
100
AcDbEntity
  8
Laag_1
 62
1
100
AcDbLine
 10
189.804569
 20
431.001893
 30
0.0
 11
197.337613
 21
431.291275
 31
0.0
  0
LINE
  5
259
100
AcDbEntity
  8
Laag_1
 62
1
100
AcDbLine
 10
197.337613
 20
431.291275
 30
0.0
 11
178.267591
 21
487.249534
 31
0.0
  0
LINE
  5
25a
100
AcDbEntity
  8
Laag_1
 62
1
100
AcDbLine
 10
178.267591
 20
487.249534
 30
0.0
 11
170.695239
 21
484.668942
 31
0.0
  0
LINE
  5
25b
100
AcDbEntity
  8
Laag_1
 62
1
100
AcDbLine
 10
170.695239
 20
484.668942
 30
0.0
 11
165.034082
 21
501.280799
 31
0.0
  0
LINE
  5
25c
100
AcDbEntity
  8
Laag_1
 62
1
100
AcDbLine
 10
165.034082
 20
501.280799
 30
0.0
 11
172.606434
 21
503.861390
 31
0.0
  0
LINE
  5
25d
100
AcDbEntity
  8
Laag_1
 62
1
100
AcDbLine
 10
172.606434
 20
503.861390
 30
0.0
 11
166.977536
 21
520.378591
 31
0.0
  0
LINE
  5
25e
100
AcDbEntity
  8
Laag_1
 62
1
100
AcDbLine
 10
166.977536
 20
520.378591
 30
0.0
 11
159.405179
 21
517.798007
 31
0.0
  0
LINE
  5
25f
100
AcDbEntity
  8
Laag_1
 62
1
100
AcDbLine
 10
159.405179
 20
517.798007
 30
0.0
 11
153.744022
 21
534.409864
 31
0.0
  0
LINE
  5
260
100
AcDbEntity
  8
Laag_1
 62
1
100
AcDbLine
 10
153.744022
 20
534.409864
 30
0.0
 11
161.316379
 21
536.990448
 31
0.0
  0
LINE
  5
261
100
AcDbEntity
  8
Laag_1
 62
1
100
AcDbLine
 10
161.316379
 20
536.990448
 30
0.0
 11
155.687479
 21
553.507651
 31
0.0
  0
LINE
  5
262
100
AcDbEntity
  8
Laag_1
 62
1
100
AcDbLine
 10
155.687479
 20
553.507651
 30
0.0
 11
148.115122
 21
550.927067
 31
0.0
  0
LINE
  5
263
100
AcDbEntity
  8
Laag_1
 62
1
100
AcDbLine
 10
148.115122
 20
550.927067
 30
0.0
 11
142.453967
 21
567.538925
 31
0.0
  0
LINE
  5
264
100
AcDbEntity
  8
Laag_1
 62
5
100
AcDbLine
 10
58.984230
 20
352.625100
 30
0.0
 11
59.477950
 21
352.951080
 31
0.0
  0
LINE
  5
265
100
AcDbEntity
  8
Laag_1
 62
5
100
AcDbLine
 10
59.477950
 20
352.951080
 30
0.0
 11
60.200810
 21
353.144770
 31
0.0
  0
LINE
  5
266
100
AcDbEntity
  8
Laag_1
 62
5
100
AcDbLine
 10
60.200810
 20
353.144770
 30
0.0
 11
60.791370
 21
353.109270
 31
0.0
  0
LINE
  5
267
100
AcDbEntity
  8
Laag_1
 62
5
100
AcDbLine
 10
60.791370
 20
353.109270
 30
0.0
 11
61.707910
 21
352.580110
 31
0.0
  0
LINE
  5
268
100
AcDbEntity
  8
Laag_1
 62
5
100
AcDbLine
 10
61.707910
 20
352.580110
 30
0.0
 11
62.033900
 21
352.086390
 31
0.0
  0
LINE
  5
269
100
AcDbEntity
  8
Laag_1
 62
5
100
AcDbLine
 10
62.033900
 20
352.086390
 30
0.0
 11
62.227580
 21
351.363530
 31
0.0
  0
LINE
  5
26a
100
AcDbEntity
  8
Laag_1
 62
5
100
AcDbLine
 10
62.227580
 20
351.363530
 30
0.0
 11
62.192180
 21
350.772960
 31
0.0
  0
LINE
  5
26b
100
AcDbEntity
  8
Laag_1
 62
5
100
AcDbLine
 10
62.192180
 20
350.772960
 30
0.0
 11
62.024440
 21
349.953270
 31
0.0
  0
LINE
  5
26c
100
AcDbEntity
  8
Laag_1
 62
5
100
AcDbLine
 10
62.024440
 20
349.953270
 30
0.0
 11
61.362990
 21
348.807590
 31
0.0
  0
LINE
  5
26d
100
AcDbEntity
  8
Laag_1
 62
5
100
AcDbLine
 10
61.362990
 20
348.807590
 30
0.0
 11
60.736980
 21
348.252470
 31
0.0
  0
LINE
  5
26e
100
AcDbEntity
  8
Laag_1
 62
5
100
AcDbLine
 10
60.736980
 20
348.252470
 30
0.0
 11
60.243250
 21
347.926490
 31
0.0
  0
LINE
  5
26f
100
AcDbEntity
  8
Laag_1
 62
5
100
AcDbLine
 10
60.243250
 20
347.926490
 30
0.0
 11
59.520400
 21
347.732800
 31
0.0
  0
LINE
  5
270
100
AcDbEntity
  8
Laag_1
 62
5
100
AcDbLine
 10
59.520400
 20
347.732800
 30
0.0
 11
58.929840
 21
347.768200
 31
0.0
  0
LINE
  5
271
100
AcDbEntity
  8
Laag_1
 62
5
100
AcDbLine
 10
58.929840
 20
347.768200
 30
0.0
 11
58.013300
 21
348.297370
 31
0.0
  0
LINE
  5
272
100
AcDbEntity
  8
Laag_1
 62
5
100
AcDbLine
 10
58.013300
 20
348.297370
 30
0.0
 11
57.687310
 21
348.791090
 31
0.0
  0
LINE
  5
273
100
AcDbEntity
  8
Laag_1
 62
5
100
AcDbLine
 10
57.687310
 20
348.791090
 30
0.0
 11
57.493620
 21
349.513940
 31
0.0
  0
LINE
  5
274
100
AcDbEntity
  8
Laag_1
 62
5
100
AcDbLine
 10
57.493620
 20
349.513940
 30
0.0
 11
57.529020
 21
350.104510
 31
0.0
  0
LINE
  5
275
100
AcDbEntity
  8
Laag_1
 62
5
100
AcDbLine
 10
142.868920
 20
356.928340
 30
0.0
 11
145.503660
 21
352.036510
 31
0.0
  0
LINE
  5
276
100
AcDbEntity
  8
Laag_1
 62
5
100
AcDbLine
 10
142.868920
 20
356.928340
 30
0.0
 11
141.238310
 21
356.050100
 31
0.0
  0
LINE
  5
277
100
AcDbEntity
  8
Laag_1
 62
5
100
AcDbLine
 10
141.238310
 20
356.050100
 30
0.0
 11
140.664950
 21
355.440760
 31
0.0
  0
LINE
  5
278
100
AcDbEntity
  8
Laag_1
 62
5
100
AcDbLine
 10
140.664950
 20
355.440760
 30
0.0
 11
140.449980
 21
354.723940
 31
0.0
  0
LINE
  5
279
100
AcDbEntity
  8
Laag_1
 62
5
100
AcDbLine
 10
140.449980
 20
354.723940
 30
0.0
 11
140.468280
 21
354.132600
 31
0.0
  0
LINE
  5
27a
100
AcDbEntity
  8
Laag_1
 62
5
100
AcDbLine
 10
140.468280
 20
354.132600
 30
0.0
 11
140.611730
 21
353.308310
 31
0.0
  0
LINE
  5
27b
100
AcDbEntity
  8
Laag_1
 62
5
100
AcDbLine
 10
140.611730
 20
353.308310
 30
0.0
 11
141.239060
 21
352.143580
 31
0.0
  0
LINE
  5
27c
100
AcDbEntity
  8
Laag_1
 62
5
100
AcDbLine
 10
141.239060
 20
352.143580
 30
0.0
 11
141.848390
 21
351.570210
 31
0.0
  0
LINE
  5
27d
100
AcDbEntity
  8
Laag_1
 62
5
100
AcDbLine
 10
141.848390
 20
351.570210
 30
0.0
 11
142.332250
 21
351.229790
 31
0.0
  0
LINE
  5
27e
100
AcDbEntity
  8
Laag_1
 62
5
100
AcDbLine
 10
142.332250
 20
351.229790
 30
0.0
 11
143.049070
 21
351.014830
 31
0.0
  0
LINE
  5
27f
100
AcDbEntity
  8
Laag_1
 62
5
100
AcDbLine
 10
143.049070
 20
351.014830
 30
0.0
 11
143.873360
 21
351.158280
 31
0.0
  0
LINE
  5
280
100
AcDbEntity
  8
Laag_1
 62
5
100
AcDbLine
 10
143.873360
 20
351.158280
 30
0.0
 11
145.503970
 21
352.036520
 31
0.0
  0
LINE
  5
281
100
AcDbEntity
  8
Laag_1
 62
5
100
AcDbLine
 10
179.233070
 20
424.791870
 30
0.0
 11
178.699380
 21
425.047190
 31
0.0
  0
LINE
  5
282
100
AcDbEntity
  8
Laag_1
 62
5
100
AcDbLine
 10
178.699380
 20
425.047190
 30
0.0
 11
178.161070
 21
425.567060
 31
0.0
  0
LINE
  5
283
100
AcDbEntity
  8
Laag_1
 62
5
100
AcDbLine
 10
178.161070
 20
425.567060
 30
0.0
 11
177.887320
 21
426.091540
 31
0.0
  0
LINE
  5
284
100
AcDbEntity
  8
Laag_1
 62
5
100
AcDbLine
 10
177.887320
 20
426.091540
 30
0.0
 11
177.868920
 21
427.149720
 31
0.0
  0
LINE
  5
285
100
AcDbEntity
  8
Laag_1
 62
5
100
AcDbLine
 10
177.868920
 20
427.149720
 30
0.0
 11
178.124240
 21
427.683400
 31
0.0
  0
LINE
  5
286
100
AcDbEntity
  8
Laag_1
 62
5
100
AcDbLine
 10
178.124240
 20
427.683400
 30
0.0
 11
178.644120
 21
428.221710
 31
0.0
  0
LINE
  5
287
100
AcDbEntity
  8
Laag_1
 62
5
100
AcDbLine
 10
178.644120
 20
428.221710
 30
0.0
 11
179.168590
 21
428.495460
 31
0.0
  0
LINE
  5
288
100
AcDbEntity
  8
Laag_1
 62
5
100
AcDbLine
 10
179.168590
 20
428.495460
 30
0.0
 11
179.957610
 21
428.773840
 31
0.0
  0
LINE
  5
289
100
AcDbEntity
  8
Laag_1
 62
5
100
AcDbLine
 10
179.957610
 20
428.773840
 30
0.0
 11
181.280330
 21
428.796840
 31
0.0
  0
LINE
  5
28a
100
AcDbEntity
  8
Laag_1
 62
5
100
AcDbLine
 10
181.280330
 20
428.796840
 30
0.0
 11
182.078570
 21
428.546110
 31
0.0
  0
LINE
  5
28b
100
AcDbEntity
  8
Laag_1
 62
5
100
AcDbLine
 10
182.078570
 20
428.546110
 30
0.0
 11
182.612260
 21
428.290790
 31
0.0
  0
LINE
  5
28c
100
AcDbEntity
  8
Laag_1
 62
5
100
AcDbLine
 10
182.612260
 20
428.290790
 30
0.0
 11
183.150560
 21
427.770910
 31
0.0
  0
LINE
  5
28d
100
AcDbEntity
  8
Laag_1
 62
5
100
AcDbLine
 10
183.150560
 20
427.770910
 30
0.0
 11
183.424330
 21
427.246440
 31
0.0
  0
LINE
  5
28e
100
AcDbEntity
  8
Laag_1
 62
5
100
AcDbLine
 10
183.424330
 20
427.246440
 30
0.0
 11
183.442730
 21
426.188260
 31
0.0
  0
LINE
  5
28f
100
AcDbEntity
  8
Laag_1
 62
5
100
AcDbLine
 10
183.442730
 20
426.188260
 30
0.0
 11
183.187390
 21
425.654570
 31
0.0
  0
LINE
  5
290
100
AcDbEntity
  8
Laag_1
 62
5
100
AcDbLine
 10
183.187390
 20
425.654570
 30
0.0
 11
182.667530
 21
425.116270
 31
0.0
  0
LINE
  5
291
100
AcDbEntity
  8
Laag_1
 62
5
100
AcDbLine
 10
182.667530
 20
425.116270
 30
0.0
 11
182.143050
 21
424.842510
 31
0.0
  0
LINE
  5
292
100
AcDbEntity
  8
Laag_1
 62
5
100
AcDbLine
 10
198.948080
 20
676.512660
 30
0.0
 11
199.481390
 21
676.256550
 31
0.0
  0
LINE
  5
293
100
AcDbEntity
  8
Laag_1
 62
5
100
AcDbLine
 10
199.481390
 20
676.256550
 30
0.0
 11
200.018920
 21
675.735880
 31
0.0
  0
LINE
  5
294
100
AcDbEntity
  8
Laag_1
 62
5
100
AcDbLine
 10
200.018920
 20
675.735880
 30
0.0
 11
200.291900
 21
675.211000
 31
0.0
  0
LINE
  5
295
100
AcDbEntity
  8
Laag_1
 62
5
100
AcDbLine
 10
200.291900
 20
675.211000
 30
0.0
 11
200.308800
 21
674.152800
 31
0.0
  0
LINE
  5
296
100
AcDbEntity
  8
Laag_1
 62
5
100
AcDbLine
 10
200.308800
 20
674.152800
 30
0.0
 11
200.052680
 21
673.619490
 31
0.0
  0
LINE
  5
297
100
AcDbEntity
  8
Laag_1
 62
5
100
AcDbLine
 10
200.052680
 20
673.619490
 30
0.0
 11
199.532020
 21
673.081950
 31
0.0
  0
LINE
  5
298
100
AcDbEntity
  8
Laag_1
 62
5
100
AcDbLine
 10
199.532020
 20
673.081950
 30
0.0
 11
199.007140
 21
672.808970
 31
0.0
  0
LINE
  5
299
100
AcDbEntity
  8
Laag_1
 62
5
100
AcDbLine
 10
199.007140
 20
672.808970
 30
0.0
 11
198.217710
 21
672.531770
 31
0.0
  0
LINE
  5
29a
100
AcDbEntity
  8
Laag_1
 62
5
100
AcDbLine
 10
198.217710
 20
672.531770
 30
0.0
 11
196.894950
 21
672.510670
 31
0.0
  0
LINE
  5
29b
100
AcDbEntity
  8
Laag_1
 62
5
100
AcDbLine
 10
196.894950
 20
672.510670
 30
0.0
 11
196.097090
 21
672.762580
 31
0.0
  0
LINE
  5
29c
100
AcDbEntity
  8
Laag_1
 62
5
100
AcDbLine
 10
196.097090
 20
672.762580
 30
0.0
 11
195.563770
 21
673.018690
 31
0.0
  0
LINE
  5
29d
100
AcDbEntity
  8
Laag_1
 62
5
100
AcDbLine
 10
195.563770
 20
673.018690
 30
0.0
 11
195.026240
 21
673.539360
 31
0.0
  0
LINE
  5
29e
100
AcDbEntity
  8
Laag_1
 62
5
100
AcDbLine
 10
195.026240
 20
673.539360
 30
0.0
 11
194.753250
 21
674.064240
 31
0.0
  0
LINE
  5
29f
100
AcDbEntity
  8
Laag_1
 62
5
100
AcDbLine
 10
194.753250
 20
674.064240
 30
0.0
 11
194.736350
 21
675.122440
 31
0.0
  0
LINE
  5
2a0
100
AcDbEntity
  8
Laag_1
 62
5
100
AcDbLine
 10
194.736350
 20
675.122440
 30
0.0
 11
194.992470
 21
675.655750
 31
0.0
  0
LINE
  5
2a1
100
AcDbEntity
  8
Laag_1
 62
5
100
AcDbLine
 10
194.992470
 20
675.655750
 30
0.0
 11
195.513130
 21
676.193290
 31
0.0
  0
LINE
  5
2a2
100
AcDbEntity
  8
Laag_1
 62
5
100
AcDbLine
 10
195.513130
 20
676.193290
 30
0.0
 11
196.038020
 21
676.466270
 31
0.0
  0
LINE
  5
2a3
100
AcDbEntity
  8
Laag_1
 62
5
100
AcDbLine
 10
239.449890
 20
603.041650
 30
0.0
 11
236.463690
 21
598.356090
 31
0.0
  0
LINE
  5
2a4
100
AcDbEntity
  8
Laag_1
 62
5
100
AcDbLine
 10
239.449890
 20
603.041650
 30
0.0
 11
237.888040
 21
604.037060
 31
0.0
  0
LINE
  5
2a5
100
AcDbEntity
  8
Laag_1
 62
5
100
AcDbLine
 10
237.888040
 20
604.037060
 30
0.0
 11
237.076470
 21
604.240530
 31
0.0
  0
LINE
  5
2a6
100
AcDbEntity
  8
Laag_1
 62
5
100
AcDbLine
 10
237.076470
 20
604.240530
 30
0.0
 11
236.345830
 21
604.078690
 31
0.0
  0
LINE
  5
2a7
100
AcDbEntity
  8
Laag_1
 62
5
100
AcDbLine
 10
236.345830
 20
604.078690
 30
0.0
 11
235.838310
 21
603.774640
 31
0.0
  0
LINE
  5
2a8
100
AcDbEntity
  8
Laag_1
 62
5
100
AcDbLine
 10
235.838310
 20
603.774640
 30
0.0
 11
235.188590
 21
603.247480
 31
0.0
  0
LINE
  5
2a9
100
AcDbEntity
  8
Laag_1
 62
5
100
AcDbLine
 10
235.188590
 20
603.247480
 30
0.0
 11
234.477580
 21
602.131870
 31
0.0
  0
LINE
  5
2aa
100
AcDbEntity
  8
Laag_1
 62
5
100
AcDbLine
 10
234.477580
 20
602.131870
 30
0.0
 11
234.274100
 21
601.320300
 31
0.0
  0
LINE
  5
2ab
100
AcDbEntity
  8
Laag_1
 62
5
100
AcDbLine
 10
234.274100
 20
601.320300
 30
0.0
 11
234.212800
 21
600.731860
 31
0.0
  0
LINE
  5
2ac
100
AcDbEntity
  8
Laag_1
 62
5
100
AcDbLine
 10
234.212800
 20
600.731860
 30
0.0
 11
234.374650
 21
600.001210
 31
0.0
  0
LINE
  5
2ad
100
AcDbEntity
  8
Laag_1
 62
5
100
AcDbLine
 10
234.374650
 20
600.001210
 30
0.0
 11
234.901820
 21
599.351490
 31
0.0
  0
LINE
  5
2ae
100
AcDbEntity
  8
Laag_1
 62
5
100
AcDbLine
 10
234.901820
 20
599.351490
 30
0.0
 11
236.463670
 21
598.356090
 31
0.0
  0
LINE
  5
2af
100
AcDbEntity
  8
Laag_1
 62
5
100
AcDbLine
 10
360.067510
 20
676.338660
 30
0.0
 11
365.623760
 21
676.338660
 31
0.0
  0
LINE
  5
2b0
100
AcDbEntity
  8
Laag_1
 62
5
100
AcDbLine
 10
360.067510
 20
676.338660
 30
0.0
 11
360.067510
 21
673.957410
 31
0.0
  0
LINE
  5
2b1
100
AcDbEntity
  8
Laag_1
 62
5
100
AcDbLine
 10
360.067510
 20
673.957410
 30
0.0
 11
360.332100
 21
673.163660
 31
0.0
  0
LINE
  5
2b2
100
AcDbEntity
  8
Laag_1
 62
5
100
AcDbLine
 10
360.332100
 20
673.163660
 30
0.0
 11
360.596680
 21
672.899070
 31
0.0
  0
LINE
  5
2b3
100
AcDbEntity
  8
Laag_1
 62
5
100
AcDbLine
 10
360.596680
 20
672.899070
 30
0.0
 11
361.125850
 21
672.634490
 31
0.0
  0
LINE
  5
2b4
100
AcDbEntity
  8
Laag_1
 62
5
100
AcDbLine
 10
361.125850
 20
672.634490
 30
0.0
 11
361.655010
 21
672.634490
 31
0.0
  0
LINE
  5
2b5
100
AcDbEntity
  8
Laag_1
 62
5
100
AcDbLine
 10
361.655010
 20
672.634490
 30
0.0
 11
362.184180
 21
672.899070
 31
0.0
  0
LINE
  5
2b6
100
AcDbEntity
  8
Laag_1
 62
5
100
AcDbLine
 10
362.184180
 20
672.899070
 30
0.0
 11
362.448760
 21
673.163660
 31
0.0
  0
LINE
  5
2b7
100
AcDbEntity
  8
Laag_1
 62
5
100
AcDbLine
 10
362.448760
 20
673.163660
 30
0.0
 11
362.713350
 21
673.957410
 31
0.0
  0
LINE
  5
2b8
100
AcDbEntity
  8
Laag_1
 62
5
100
AcDbLine
 10
362.713350
 20
676.338660
 30
0.0
 11
362.713350
 21
673.957410
 31
0.0
  0
LINE
  5
2b9
100
AcDbEntity
  8
Laag_1
 62
5
100
AcDbLine
 10
362.713350
 20
673.957410
 30
0.0
 11
362.977930
 21
673.163660
 31
0.0
  0
LINE
  5
2ba
100
AcDbEntity
  8
Laag_1
 62
5
100
AcDbLine
 10
362.977930
 20
673.163660
 30
0.0
 11
363.242510
 21
672.899070
 31
0.0
  0
LINE
  5
2bb
100
AcDbEntity
  8
Laag_1
 62
5
100
AcDbLine
 10
363.242510
 20
672.899070
 30
0.0
 11
363.771680
 21
672.634490
 31
0.0
  0
LINE
  5
2bc
100
AcDbEntity
  8
Laag_1
 62
5
100
AcDbLine
 10
363.771680
 20
672.634490
 30
0.0
 11
364.565430
 21
672.634490
 31
0.0
  0
LINE
  5
2bd
100
AcDbEntity
  8
Laag_1
 62
5
100
AcDbLine
 10
364.565430
 20
672.634490
 30
0.0
 11
365.094600
 21
672.899070
 31
0.0
  0
LINE
  5
2be
100
AcDbEntity
  8
Laag_1
 62
5
100
AcDbLine
 10
365.094600
 20
672.899070
 30
0.0
 11
365.359180
 21
673.163660
 31
0.0
  0
LINE
  5
2bf
100
AcDbEntity
  8
Laag_1
 62
5
100
AcDbLine
 10
365.359180
 20
673.163660
 30
0.0
 11
365.623760
 21
673.957410
 31
0.0
  0
LINE
  5
2c0
100
AcDbEntity
  8
Laag_1
 62
5
100
AcDbLine
 10
365.623760
 20
673.957410
 30
0.0
 11
365.623760
 21
676.338660
 31
0.0
  0
LINE
  5
2c1
100
AcDbEntity
  8
Laag_1
 62
5
100
AcDbLine
 10
316.433440
 20
598.356950
 30
0.0
 11
316.433450
 21
598.948580
 31
0.0
  0
LINE
  5
2c2
100
AcDbEntity
  8
Laag_1
 62
5
100
AcDbLine
 10
316.433450
 20
598.948580
 30
0.0
 11
316.670120
 21
599.658530
 31
0.0
  0
LINE
  5
2c3
100
AcDbEntity
  8
Laag_1
 62
5
100
AcDbLine
 10
316.670120
 20
599.658530
 30
0.0
 11
317.025120
 21
600.131820
 31
0.0
  0
LINE
  5
2c4
100
AcDbEntity
  8
Laag_1
 62
5
100
AcDbLine
 10
317.025120
 20
600.131820
 30
0.0
 11
317.971730
 21
600.605090
 31
0.0
  0
LINE
  5
2c5
100
AcDbEntity
  8
Laag_1
 62
5
100
AcDbLine
 10
317.971730
 20
600.605090
 30
0.0
 11
318.563350
 21
600.605080
 31
0.0
  0
LINE
  5
2c6
100
AcDbEntity
  8
Laag_1
 62
5
100
AcDbLine
 10
318.563350
 20
600.605080
 30
0.0
 11
319.273300
 21
600.368410
 31
0.0
  0
LINE
  5
2c7
100
AcDbEntity
  8
Laag_1
 62
5
100
AcDbLine
 10
319.273300
 20
600.368410
 30
0.0
 11
319.746590
 21
600.013420
 31
0.0
  0
LINE
  5
2c8
100
AcDbEntity
  8
Laag_1
 62
5
100
AcDbLine
 10
319.746590
 20
600.013420
 30
0.0
 11
320.338200
 21
599.421780
 31
0.0
  0
LINE
  5
2c9
100
AcDbEntity
  8
Laag_1
 62
5
100
AcDbLine
 10
320.338200
 20
599.421780
 30
0.0
 11
320.929790
 21
598.238510
 31
0.0
  0
LINE
  5
2ca
100
AcDbEntity
  8
Laag_1
 62
5
100
AcDbLine
 10
320.929790
 20
598.238510
 30
0.0
 11
321.048100
 21
597.410240
 31
0.0
  0
LINE
  5
2cb
100
AcDbEntity
  8
Laag_1
 62
5
100
AcDbLine
 10
321.048100
 20
597.410240
 30
0.0
 11
321.048080
 21
596.818600
 31
0.0
  0
LINE
  5
2cc
100
AcDbEntity
  8
Laag_1
 62
5
100
AcDbLine
 10
321.048080
 20
596.818600
 30
0.0
 11
320.811420
 21
596.108660
 31
0.0
  0
LINE
  5
2cd
100
AcDbEntity
  8
Laag_1
 62
5
100
AcDbLine
 10
320.811420
 20
596.108660
 30
0.0
 11
320.456430
 21
595.635370
 31
0.0
  0
LINE
  5
2ce
100
AcDbEntity
  8
Laag_1
 62
5
100
AcDbLine
 10
320.456430
 20
595.635370
 30
0.0
 11
319.509810
 21
595.162090
 31
0.0
  0
LINE
  5
2cf
100
AcDbEntity
  8
Laag_1
 62
5
100
AcDbLine
 10
319.509810
 20
595.162090
 30
0.0
 11
318.918190
 21
595.162100
 31
0.0
  0
LINE
  5
2d0
100
AcDbEntity
  8
Laag_1
 62
5
100
AcDbLine
 10
318.918190
 20
595.162100
 30
0.0
 11
318.208240
 21
595.398770
 31
0.0
  0
LINE
  5
2d1
100
AcDbEntity
  8
Laag_1
 62
5
100
AcDbLine
 10
318.208240
 20
595.398770
 30
0.0
 11
317.734950
 21
595.753770
 31
0.0
  0
LINE
  5
2d2
100
AcDbEntity
  8
Laag_1
 62
1
100
AcDbLine
 10
246.845427
 20
625.747150
 30
0.0
 11
253.572663
 21
621.510784
 31
0.0
  0
LINE
  5
2d3
100
AcDbEntity
  8
Laag_1
 62
1
100
AcDbLine
 10
253.572663
 20
621.510784
 30
0.0
 11
244.273966
 21
606.744703
 31
0.0
  0
LINE
  5
2d4
100
AcDbEntity
  8
Laag_1
 62
1
100
AcDbLine
 10
244.273966
 20
606.744703
 30
0.0
 11
237.546730
 21
610.981069
 31
0.0
  0
LINE
  5
2d5
100
AcDbEntity
  8
Laag_1
 62
1
100
AcDbLine
 10
237.546730
 20
610.981069
 30
0.0
 11
246.845427
 21
625.747150
 31
0.0
  0
SPLINE
  5
2d6
100
AcDbEntity
  8
Laag_1
 62
1
100
AcDbSpline
 70
8
 71
3
 72
8
 73
4
 74
0
 40
0
 40
0
 40
0
 40
0
 40
1
 40
1
 40
1
 40
1
 10
330.134975
 20
707.800054
 30
0.0
 10
331.562813
 20
710.067421
 30
0.0
 10
334.091816
 20
711.400813
 30
0.0
 10
336.769333
 20
711.297954
 30
0.0
  0
SPLINE
  5
2d7
100
AcDbEntity
  8
Laag_1
 62
1
100
AcDbSpline
 70
8
 71
3
 72
8
 73
4
 74
0
 40
0
 40
0
 40
0
 40
0
 40
1
 40
1
 40
1
 40
1
 10
336.769333
 20
711.297954
 30
0.0
 10
339.446850
 20
711.195094
 30
0.0
 10
341.866103
 20
709.671609
 30
0.0
 10
343.115782
 20
707.301381
 30
0.0
  0
SPLINE
  5
2d8
100
AcDbEntity
  8
Laag_1
 62
1
100
AcDbSpline
 70
8
 71
3
 72
8
 73
4
 74
0
 40
0
 40
0
 40
0
 40
0
 40
1
 40
1
 40
1
 40
1
 10
343.115782
 20
707.301381
 30
0.0
 10
344.365461
 20
704.931154
 30
0.0
 10
344.255711
 20
702.074277
 30
0.0
 10
342.827874
 20
699.806909
 30
0.0
  0
SPLINE
  5
2d9
100
AcDbEntity
  8
Laag_1
 62
1
100
AcDbSpline
 70
8
 71
3
 72
8
 73
4
 74
0
 40
0
 40
0
 40
0
 40
0
 40
1
 40
1
 40
1
 40
1
 10
342.827874
 20
699.806909
 30
0.0
 10
341.400036
 20
697.539541
 30
0.0
 10
338.871033
 20
696.206149
 30
0.0
 10
336.193516
 20
696.309009
 30
0.0
  0
SPLINE
  5
2da
100
AcDbEntity
  8
Laag_1
 62
1
100
AcDbSpline
 70
8
 71
3
 72
8
 73
4
 74
0
 40
0
 40
0
 40
0
 40
0
 40
1
 40
1
 40
1
 40
1
 10
336.193516
 20
696.309009
 30
0.0
 10
333.515999
 20
696.411869
 30
0.0
 10
331.096746
 20
697.935354
 30
0.0
 10
329.847067
 20
700.305581
 30
0.0
  0
SPLINE
  5
2db
100
AcDbEntity
  8
Laag_1
 62
1
100
AcDbSpline
 70
8
 71
3
 72
8
 73
4
 74
0
 40
0
 40
0
 40
0
 40
0
 40
1
 40
1
 40
1
 40
1
 10
329.847067
 20
700.305581
 30
0.0
 10
328.597388
 20
702.675809
 30
0.0
 10
328.707138
 20
705.532686
 30
0.0
 10
330.134975
 20
707.800054
 30
0.0
  0
LINE
  5
2dc
100
AcDbEntity
  8
Laag_1
 62
1
100
AcDbLine
 10
330.134975
 20
707.800054
 30
0.0
 11
330.134975
 21
707.800054
 31
0.0
  0
LINE
  5
2dd
100
AcDbEntity
  8
Laag_1
 62
1
100
AcDbLine
 10
319.049563
 20
668.824018
 30
0.0
 11
301.613495
 21
668.126753
 31
0.0
  0
LINE
  5
2de
100
AcDbEntity
  8
Laag_1
 62
1
100
AcDbLine
 10
301.613495
 20
668.126753
 30
0.0
 11
301.295835
 21
676.070406
 31
0.0
  0
LINE
  5
2df
100
AcDbEntity
  8
Laag_1
 62
1
100
AcDbLine
 10
301.295835
 20
676.070406
 30
0.0
 11
318.731904
 21
676.767670
 31
0.0
  0
LINE
  5
2e0
100
AcDbEntity
  8
Laag_1
 62
1
100
AcDbLine
 10
318.731904
 20
676.767670
 30
0.0
 11
319.049563
 21
668.824018
 31
0.0
  0
LINE
  5
2e1
100
AcDbEntity
  8
Laag_1
 62
1
100
AcDbLine
 10
265.496102
 20
655.363919
 30
0.0
 11
272.223338
 21
651.127553
 31
0.0
  0
LINE
  5
2e2
100
AcDbEntity
  8
Laag_1
 62
1
100
AcDbLine
 10
272.223338
 20
651.127553
 30
0.0
 11
262.924640
 21
636.361472
 31
0.0
  0
LINE
  5
2e3
100
AcDbEntity
  8
Laag_1
 62
1
100
AcDbLine
 10
262.924640
 20
636.361472
 30
0.0
 11
256.197405
 21
640.597838
 31
0.0
  0
LINE
  5
2e4
100
AcDbEntity
  8
Laag_1
 62
1
100
AcDbLine
 10
256.197405
 20
640.597838
 30
0.0
 11
265.496102
 21
655.363919
 31
0.0
  0
LINE
  5
2e5
100
AcDbEntity
  8
Laag_1
 62
1
100
AcDbLine
 10
336.267885
 20
677.468917
 30
0.0
 11
353.703948
 21
678.166173
 31
0.0
  0
LINE
  5
2e6
100
AcDbEntity
  8
Laag_1
 62
1
100
AcDbLine
 10
353.703948
 20
678.166173
 30
0.0
 11
354.021611
 21
670.222522
 31
0.0
  0
LINE
  5
2e7
100
AcDbEntity
  8
Laag_1
 62
1
100
AcDbLine
 10
354.021611
 20
670.222522
 30
0.0
 11
336.585552
 21
669.525272
 31
0.0
  0
LINE
  5
2e8
100
AcDbEntity
  8
Laag_1
 62
1
100
AcDbLine
 10
336.585552
 20
669.525272
 30
0.0
 11
336.267885
 21
677.468917
 31
0.0
  0
SPLINE
  5
2e9
100
AcDbEntity
  8
Laag_1
 62
1
100
AcDbSpline
 70
8
 71
3
 72
8
 73
4
 74
0
 40
0
 40
0
 40
0
 40
0
 40
1
 40
1
 40
1
 40
1
 10
273.850207
 20
675.245057
 30
0.0
 10
275.278044
 20
677.512425
 30
0.0
 10
277.807047
 20
678.845816
 30
0.0
 10
280.484564
 20
678.742957
 30
0.0
  0
SPLINE
  5
2ea
100
AcDbEntity
  8
Laag_1
 62
1
100
AcDbSpline
 70
8
 71
3
 72
8
 73
4
 74
0
 40
0
 40
0
 40
0
 40
0
 40
1
 40
1
 40
1
 40
1
 10
280.484564
 20
678.742957
 30
0.0
 10
283.162081
 20
678.640097
 30
0.0
 10
285.581334
 20
677.116612
 30
0.0
 10
286.831013
 20
674.746385
 30
0.0
  0
SPLINE
  5
2eb
100
AcDbEntity
  8
Laag_1
 62
1
100
AcDbSpline
 70
8
 71
3
 72
8
 73
4
 74
0
 40
0
 40
0
 40
0
 40
0
 40
1
 40
1
 40
1
 40
1
 10
286.831013
 20
674.746385
 30
0.0
 10
288.080692
 20
672.376157
 30
0.0
 10
287.970942
 20
669.519280
 30
0.0
 10
286.543104
 20
667.251913
 30
0.0
  0
SPLINE
  5
2ec
100
AcDbEntity
  8
Laag_1
 62
1
100
AcDbSpline
 70
8
 71
3
 72
8
 73
4
 74
0
 40
0
 40
0
 40
0
 40
0
 40
1
 40
1
 40
1
 40
1
 10
286.543104
 20
667.251913
 30
0.0
 10
285.115267
 20
664.984545
 30
0.0
 10
282.586264
 20
663.651153
 30
0.0
 10
279.908747
 20
663.754013
 30
0.0
  0
SPLINE
  5
2ed
100
AcDbEntity
  8
Laag_1
 62
1
100
AcDbSpline
 70
8
 71
3
 72
8
 73
4
 74
0
 40
0
 40
0
 40
0
 40
0
 40
1
 40
1
 40
1
 40
1
 10
279.908747
 20
663.754013
 30
0.0
 10
277.231230
 20
663.856873
 30
0.0
 10
274.811977
 20
665.380357
 30
0.0
 10
273.562298
 20
667.750585
 30
0.0
  0
SPLINE
  5
2ee
100
AcDbEntity
  8
Laag_1
 62
1
100
AcDbSpline
 70
8
 71
3
 72
8
 73
4
 74
0
 40
0
 40
0
 40
0
 40
0
 40
1
 40
1
 40
1
 40
1
 10
273.562298
 20
667.750585
 30
0.0
 10
272.312619
 20
670.120812
 30
0.0
 10
272.422369
 20
672.977689
 30
0.0
 10
273.850207
 20
675.245057
 30
0.0
  0
LINE
  5
2ef
100
AcDbEntity
  8
Laag_1
 62
1
100
AcDbLine
 10
273.850207
 20
675.245057
 30
0.0
 11
273.850207
 21
675.245057
 31
0.0
  0
LINE
  5
2f0
100
AcDbEntity
  8
Laag_1
 62
1
100
AcDbLine
 10
206.678588
 20
678.050695
 30
0.0
 11
224.115728
 21
677.380833
 31
0.0
  0
LINE
  5
2f1
100
AcDbEntity
  8
Laag_1
 62
1
100
AcDbLine
 10
224.115728
 20
677.380833
 30
0.0
 11
223.810544
 21
669.436686
 31
0.0
  0
LINE
  5
2f2
100
AcDbEntity
  8
Laag_1
 62
1
100
AcDbLine
 10
223.810544
 20
669.436686
 30
0.0
 11
206.373401
 21
670.106550
 31
0.0
  0
LINE
  5
2f3
100
AcDbEntity
  8
Laag_1
 62
1
100
AcDbLine
 10
206.373401
 20
670.106550
 30
0.0
 11
206.678588
 21
678.050695
 31
0.0
  0
SPLINE
  5
2f4
100
AcDbEntity
  8
Laag_1
 62
1
100
AcDbSpline
 70
8
 71
3
 72
8
 73
4
 74
0
 40
0
 40
0
 40
0
 40
0
 40
1
 40
1
 40
1
 40
1
 10
222.328699
 20
710.582030
 30
0.0
 10
223.756042
 20
712.850502
 30
0.0
 10
226.285418
 20
714.184900
 30
0.0
 10
228.963618
 20
714.082350
 30
0.0
  0
SPLINE
  5
2f5
100
AcDbEntity
  8
Laag_1
 62
1
100
AcDbSpline
 70
8
 71
3
 72
8
 73
4
 74
0
 40
0
 40
0
 40
0
 40
0
 40
1
 40
1
 40
1
 40
1
 10
228.963618
 20
714.082350
 30
0.0
 10
231.641819
 20
713.979800
 30
0.0
 10
234.061748
 20
712.455889
 30
0.0
 10
235.311444
 20
710.084911
 30
0.0
  0
SPLINE
  5
2f6
100
AcDbEntity
  8
Laag_1
 62
1
100
AcDbSpline
 70
8
 71
3
 72
8
 73
4
 74
0
 40
0
 40
0
 40
0
 40
0
 40
1
 40
1
 40
1
 40
1
 10
235.311444
 20
710.084911
 30
0.0
 10
236.561139
 20
707.713934
 30
0.0
 10
236.450642
 20
704.856285
 30
0.0
 10
235.021595
 20
702.588886
 30
0.0
  0
SPLINE
  5
2f7
100
AcDbEntity
  8
Laag_1
 62
1
100
AcDbSpline
 70
8
 71
3
 72
8
 73
4
 74
0
 40
0
 40
0
 40
0
 40
0
 40
1
 40
1
 40
1
 40
1
 10
235.021595
 20
702.588886
 30
0.0
 10
233.594252
 20
700.320415
 30
0.0
 10
231.064876
 20
698.986016
 30
0.0
 10
228.386676
 20
699.088566
 30
0.0
  0
SPLINE
  5
2f8
100
AcDbEntity
  8
Laag_1
 62
1
100
AcDbSpline
 70
8
 71
3
 72
8
 73
4
 74
0
 40
0
 40
0
 40
0
 40
0
 40
1
 40
1
 40
1
 40
1
 10
228.386676
 20
699.088566
 30
0.0
 10
225.708475
 20
699.191117
 30
0.0
 10
223.288546
 20
700.715027
 30
0.0
 10
222.038850
 20
703.086005
 30
0.0
  0
SPLINE
  5
2f9
100
AcDbEntity
  8
Laag_1
 62
1
100
AcDbSpline
 70
8
 71
3
 72
8
 73
4
 74
0
 40
0
 40
0
 40
0
 40
0
 40
1
 40
1
 40
1
 40
1
 10
222.038850
 20
703.086005
 30
0.0
 10
220.789155
 20
705.456983
 30
0.0
 10
220.899651
 20
708.314631
 30
0.0
 10
222.328699
 20
710.582030
 30
0.0
  0
LINE
  5
2fa
100
AcDbEntity
  8
Laag_1
 62
1
100
AcDbLine
 10
222.328699
 20
710.582030
 30
0.0
 11
222.328699
 21
710.582030
 31
0.0
  0
LINE
  5
2fb
100
AcDbEntity
  8
Laag_1
 62
1
100
AcDbLine
 10
309.958777
 20
623.322581
 30
0.0
 11
318.097220
 21
607.886638
 31
0.0
  0
LINE
  5
2fc
100
AcDbEntity
  8
Laag_1
 62
1
100
AcDbLine
 10
318.097220
 20
607.886638
 30
0.0
 11
311.064798
 21
604.178859
 31
0.0
  0
LINE
  5
2fd
100
AcDbEntity
  8
Laag_1
 62
1
100
AcDbLine
 10
311.064798
 20
604.178859
 30
0.0
 11
302.926353
 21
619.614803
 31
0.0
  0
LINE
  5
2fe
100
AcDbEntity
  8
Laag_1
 62
1
100
AcDbLine
 10
302.926353
 20
619.614803
 30
0.0
 11
309.958777
 21
623.322581
 31
0.0
  0
SPLINE
  5
2ff
100
AcDbEntity
  8
Laag_1
 62
1
100
AcDbSpline
 70
8
 71
3
 72
8
 73
4
 74
0
 40
0
 40
0
 40
0
 40
0
 40
1
 40
1
 40
1
 40
1
 10
327.979949
 20
644.049888
 30
0.0
 10
329.407292
 20
646.318360
 30
0.0
 10
331.936669
 20
647.652758
 30
0.0
 10
334.614869
 20
647.550208
 30
0.0
  0
SPLINE
  5
300
100
AcDbEntity
  8
Laag_1
 62
1
100
AcDbSpline
 70
8
 71
3
 72
8
 73
4
 74
0
 40
0
 40
0
 40
0
 40
0
 40
1
 40
1
 40
1
 40
1
 10
334.614869
 20
647.550208
 30
0.0
 10
337.293069
 20
647.447658
 30
0.0
 10
339.712999
 20
645.923747
 30
0.0
 10
340.962694
 20
643.552769
 30
0.0
  0
SPLINE
  5
301
100
AcDbEntity
  8
Laag_1
 62
1
100
AcDbSpline
 70
8
 71
3
 72
8
 73
4
 74
0
 40
0
 40
0
 40
0
 40
0
 40
1
 40
1
 40
1
 40
1
 10
340.962694
 20
643.552769
 30
0.0
 10
342.212390
 20
641.181792
 30
0.0
 10
342.101893
 20
638.324143
 30
0.0
 10
340.672846
 20
636.056744
 30
0.0
  0
SPLINE
  5
302
100
AcDbEntity
  8
Laag_1
 62
1
100
AcDbSpline
 70
8
 71
3
 72
8
 73
4
 74
0
 40
0
 40
0
 40
0
 40
0
 40
1
 40
1
 40
1
 40
1
 10
340.672846
 20
636.056744
 30
0.0
 10
339.245503
 20
633.788272
 30
0.0
 10
336.716127
 20
632.453874
 30
0.0
 10
334.037926
 20
632.556424
 30
0.0
  0
SPLINE
  5
303
100
AcDbEntity
  8
Laag_1
 62
1
100
AcDbSpline
 70
8
 71
3
 72
8
 73
4
 74
0
 40
0
 40
0
 40
0
 40
0
 40
1
 40
1
 40
1
 40
1
 10
334.037926
 20
632.556424
 30
0.0
 10
331.359726
 20
632.658974
 30
0.0
 10
328.939796
 20
634.182885
 30
0.0
 10
327.690101
 20
636.553863
 30
0.0
  0
SPLINE
  5
304
100
AcDbEntity
  8
Laag_1
 62
1
100
AcDbSpline
 70
8
 71
3
 72
8
 73
4
 74
0
 40
0
 40
0
 40
0
 40
0
 40
1
 40
1
 40
1
 40
1
 10
327.690101
 20
636.553863
 30
0.0
 10
326.440406
 20
638.924841
 30
0.0
 10
326.550902
 20
641.782489
 30
0.0
 10
327.979949
 20
644.049888
 30
0.0
  0
LINE
  5
305
100
AcDbEntity
  8
Laag_1
 62
1
100
AcDbLine
 10
327.979949
 20
644.049888
 30
0.0
 11
327.979949
 21
644.049888
 31
0.0
  0
LINE
  5
306
100
AcDbEntity
  8
Laag_1
 62
1
100
AcDbLine
 10
241.652799
 20
676.707137
 30
0.0
 11
259.089926
 21
676.037252
 31
0.0
  0
LINE
  5
307
100
AcDbEntity
  8
Laag_1
 62
1
100
AcDbLine
 10
259.089926
 20
676.037252
 30
0.0
 11
258.784754
 21
668.093129
 31
0.0
  0
LINE
  5
308
100
AcDbEntity
  8
Laag_1
 62
1
100
AcDbLine
 10
258.784754
 20
668.093129
 30
0.0
 11
241.347612
 21
668.762992
 31
0.0
  0
LINE
  5
309
100
AcDbEntity
  8
Laag_1
 62
1
100
AcDbLine
 10
241.347612
 20
668.762992
 30
0.0
 11
241.652799
 21
676.707137
 31
0.0
  0
SPLINE
  5
30a
100
AcDbEntity
  8
Laag_1
 62
1
100
AcDbSpline
 70
8
 71
3
 72
8
 73
4
 74
0
 40
0
 40
0
 40
0
 40
0
 40
1
 40
1
 40
1
 40
1
 10
217.421328
 20
645.493487
 30
0.0
 10
218.848919
 20
647.761407
 30
0.0
 10
221.378108
 20
649.095302
 30
0.0
 10
224.055967
 20
648.992597
 30
0.0
  0
SPLINE
  5
30b
100
AcDbEntity
  8
Laag_1
 62
1
100
AcDbSpline
 70
8
 71
3
 72
8
 73
4
 74
0
 40
0
 40
0
 40
0
 40
0
 40
1
 40
1
 40
1
 40
1
 10
224.055967
 20
648.992597
 30
0.0
 10
226.733826
 20
648.889892
 30
0.0
 10
229.153417
 20
647.366194
 30
0.0
 10
230.403104
 20
644.995592
 30
0.0
  0
SPLINE
  5
30c
100
AcDbEntity
  8
Laag_1
 62
1
100
AcDbSpline
 70
8
 71
3
 72
8
 73
4
 74
0
 40
0
 40
0
 40
0
 40
0
 40
1
 40
1
 40
1
 40
1
 10
230.403104
 20
644.995592
 30
0.0
 10
231.652792
 20
642.624989
 30
0.0
 10
231.542669
 20
639.767726
 30
0.0
 10
230.114226
 20
637.500343
 30
0.0
  0
SPLINE
  5
30d
100
AcDbEntity
  8
Laag_1
 62
1
100
AcDbSpline
 70
8
 71
3
 72
8
 73
4
 74
0
 40
0
 40
0
 40
0
 40
0
 40
1
 40
1
 40
1
 40
1
 10
230.114226
 20
637.500343
 30
0.0
 10
228.686636
 20
635.232423
 30
0.0
 10
226.157446
 20
633.898528
 30
0.0
 10
223.479587
 20
634.001233
 30
0.0
  0
SPLINE
  5
30e
100
AcDbEntity
  8
Laag_1
 62
1
100
AcDbSpline
 70
8
 71
3
 72
8
 73
4
 74
0
 40
0
 40
0
 40
0
 40
0
 40
1
 40
1
 40
1
 40
1
 10
223.479587
 20
634.001233
 30
0.0
 10
220.801728
 20
634.103938
 30
0.0
 10
218.382137
 20
635.627635
 30
0.0
 10
217.132450
 20
637.998238
 30
0.0
  0
SPLINE
  5
30f
100
AcDbEntity
  8
Laag_1
 62
1
100
AcDbSpline
 70
8
 71
3
 72
8
 73
4
 74
0
 40
0
 40
0
 40
0
 40
0
 40
1
 40
1
 40
1
 40
1
 10
217.132450
 20
637.998238
 30
0.0
 10
215.882763
 20
640.368841
 30
0.0
 10
215.992886
 20
643.226103
 30
0.0
 10
217.421328
 20
645.493487
 30
0.0
  0
LINE
  5
310
100
AcDbEntity
  8
Laag_1
 62
1
100
AcDbLine
 10
217.421328
 20
645.493487
 30
0.0
 11
217.421328
 21
645.493487
 31
0.0
  0
SPLINE
  5
311
100
AcDbEntity
  8
Laag_1
 62
1
100
AcDbSpline
 70
8
 71
3
 72
8
 73
4
 74
0
 40
0
 40
0
 40
0
 40
0
 40
1
 40
1
 40
1
 40
1
 10
271.401388
 20
611.500430
 30
0.0
 10
272.828979
 20
613.768350
 30
0.0
 10
275.358168
 20
615.102245
 30
0.0
 10
278.036027
 20
614.999540
 30
0.0
  0
SPLINE
  5
312
100
AcDbEntity
  8
Laag_1
 62
1
100
AcDbSpline
 70
8
 71
3
 72
8
 73
4
 74
0
 40
0
 40
0
 40
0
 40
0
 40
1
 40
1
 40
1
 40
1
 10
278.036027
 20
614.999540
 30
0.0
 10
280.713886
 20
614.896835
 30
0.0
 10
283.133477
 20
613.373137
 30
0.0
 10
284.383164
 20
611.002534
 30
0.0
  0
SPLINE
  5
313
100
AcDbEntity
  8
Laag_1
 62
1
100
AcDbSpline
 70
8
 71
3
 72
8
 73
4
 74
0
 40
0
 40
0
 40
0
 40
0
 40
1
 40
1
 40
1
 40
1
 10
284.383164
 20
611.002534
 30
0.0
 10
285.632852
 20
608.631931
 30
0.0
 10
285.522729
 20
605.774669
 30
0.0
 10
284.094286
 20
603.507285
 30
0.0
  0
SPLINE
  5
314
100
AcDbEntity
  8
Laag_1
 62
1
100
AcDbSpline
 70
8
 71
3
 72
8
 73
4
 74
0
 40
0
 40
0
 40
0
 40
0
 40
1
 40
1
 40
1
 40
1
 10
284.094286
 20
603.507285
 30
0.0
 10
282.666448
 20
601.239918
 30
0.0
 10
280.137446
 20
599.906526
 30
0.0
 10
277.459929
 20
600.009386
 30
0.0
  0
SPLINE
  5
315
100
AcDbEntity
  8
Laag_1
 62
1
100
AcDbSpline
 70
8
 71
3
 72
8
 73
4
 74
0
 40
0
 40
0
 40
0
 40
0
 40
1
 40
1
 40
1
 40
1
 10
277.459929
 20
600.009386
 30
0.0
 10
274.782412
 20
600.112245
 30
0.0
 10
272.363159
 20
601.635730
 30
0.0
 10
271.113480
 20
604.005958
 30
0.0
  0
SPLINE
  5
316
100
AcDbEntity
  8
Laag_1
 62
1
100
AcDbSpline
 70
8
 71
3
 72
8
 73
4
 74
0
 40
0
 40
0
 40
0
 40
0
 40
1
 40
1
 40
1
 40
1
 10
271.113480
 20
604.005958
 30
0.0
 10
269.863800
 20
606.376185
 30
0.0
 10
269.973551
 20
609.233062
 30
0.0
 10
271.401388
 20
611.500430
 30
0.0
  0
LINE
  5
317
100
AcDbEntity
  8
Laag_1
 62
1
100
AcDbLine
 10
271.401388
 20
611.500430
 30
0.0
 11
271.401388
 21
611.500430
 31
0.0
  0
LINE
  5
318
100
AcDbEntity
  8
Laag_1
 62
1
100
AcDbLine
 10
293.635239
 20
654.282908
 30
0.0
 11
301.773697
 21
638.846988
 31
0.0
  0
LINE
  5
319
100
AcDbEntity
  8
Laag_1
 62
1
100
AcDbLine
 10
301.773697
 20
638.846988
 30
0.0
 11
294.741276
 21
635.139208
 31
0.0
  0
LINE
  5
31a
100
AcDbEntity
  8
Laag_1
 62
1
100
AcDbLine
 10
294.741276
 20
635.139208
 30
0.0
 11
286.602831
 21
650.575152
 31
0.0
  0
LINE
  5
31b
100
AcDbEntity
  8
Laag_1
 62
1
100
AcDbLine
 10
286.602831
 20
650.575152
 30
0.0
 11
293.635239
 21
654.282908
 31
0.0
  0
LINE
  5
31c
100
AcDbEntity
  8
Laag_1
 62
1
100
AcDbLine
 10
208.250861
 20
732.391462
 30
0.0
 11
200.678509
 21
734.972054
 31
0.0
  0
LINE
  5
31d
100
AcDbEntity
  8
Laag_1
 62
1
100
AcDbLine
 10
200.678509
 20
734.972054
 30
0.0
 11
181.608487
 21
679.013795
 31
0.0
  0
LINE
  5
31e
100
AcDbEntity
  8
Laag_1
 62
1
100
AcDbLine
 10
181.608487
 20
679.013795
 30
0.0
 11
189.141531
 21
678.724413
 31
0.0
  0
LINE
  5
31f
100
AcDbEntity
  8
Laag_1
 62
1
100
AcDbLine
 10
189.141531
 20
678.724413
 30
0.0
 11
188.836344
 21
670.780268
 31
0.0
  0
LINE
  5
320
100
AcDbEntity
  8
Laag_1
 62
1
100
AcDbLine
 10
188.836344
 20
670.780268
 30
0.0
 11
182.411043
 21
671.027090
 31
0.0
  0
LINE
  5
321
100
AcDbEntity
  8
Laag_1
 62
1
100
AcDbLine
 10
182.411043
 20
671.027090
 30
0.0
 11
224.768353
 21
590.689351
 31
0.0
  0
LINE
  5
322
100
AcDbEntity
  8
Laag_1
 62
1
100
AcDbLine
 10
224.768353
 20
590.689351
 30
0.0
 11
228.194753
 21
596.130381
 31
0.0
  0
LINE
  5
323
100
AcDbEntity
  8
Laag_1
 62
1
100
AcDbLine
 10
228.194753
 20
596.130381
 30
0.0
 11
234.921989
 21
591.894015
 31
0.0
  0
LINE
  5
324
100
AcDbEntity
  8
Laag_1
 62
1
100
AcDbLine
 10
234.921989
 20
591.894015
 30
0.0
 11
231.495589
 21
586.452984
 31
0.0
  0
LINE
  5
325
100
AcDbEntity
  8
Laag_1
 62
1
100
AcDbLine
 10
231.495589
 20
586.452984
 30
0.0
 11
322.248765
 21
582.966578
 31
0.0
  0
LINE
  5
326
100
AcDbEntity
  8
Laag_1
 62
1
100
AcDbLine
 10
322.248765
 20
582.966578
 30
0.0
 11
319.249892
 21
588.654475
 31
0.0
  0
LINE
  5
327
100
AcDbEntity
  8
Laag_1
 62
1
100
AcDbLine
 10
319.249892
 20
588.654475
 30
0.0
 11
326.282314
 21
592.362254
 31
0.0
  0
LINE
  5
328
100
AcDbEntity
  8
Laag_1
 62
1
100
AcDbLine
 10
326.282314
 20
592.362254
 30
0.0
 11
329.182048
 21
586.862421
 31
0.0
  0
LINE
  5
329
100
AcDbEntity
  8
Laag_1
 62
1
100
AcDbLine
 10
329.182048
 20
586.862421
 30
0.0
 11
377.770075
 21
671.172207
 31
0.0
  0
LINE
  5
32a
100
AcDbEntity
  8
Laag_1
 62
1
100
AcDbLine
 10
377.770075
 20
671.172207
 30
0.0
 11
371.557595
 21
670.923775
 31
0.0
  0
LINE
  5
32b
100
AcDbEntity
  8
Laag_1
 62
1
100
AcDbLine
 10
371.557595
 20
670.923775
 30
0.0
 11
371.239933
 21
678.867427
 31
0.0
  0
LINE
  5
32c
100
AcDbEntity
  8
Laag_1
 62
1
100
AcDbLine
 10
371.239933
 20
678.867427
 30
0.0
 11
378.771894
 21
679.168625
 31
0.0
  0
LINE
  5
32d
100
AcDbEntity
  8
Laag_1
 62
1
100
AcDbLine
 10
378.771894
 20
679.168625
 30
0.0
 11
359.601234
 21
735.108170
 31
0.0
  0
LINE
  5
32e
100
AcDbEntity
  8
Laag_1
 62
1
100
AcDbLine
 10
359.601234
 20
735.108170
 30
0.0
 11
352.033307
 21
732.514616
 31
0.0
  0
LINE
  5
32f
100
AcDbEntity
  8
Laag_1
 62
1
100
AcDbLine
 10
352.033307
 20
732.514616
 30
0.0
 11
346.343705
 21
749.116753
 31
0.0
  0
LINE
  5
330
100
AcDbEntity
  8
Laag_1
 62
1
100
AcDbLine
 10
346.343705
 20
749.116753
 30
0.0
 11
353.911629
 21
751.710304
 31
0.0
  0
LINE
  5
331
100
AcDbEntity
  8
Laag_1
 62
1
100
AcDbLine
 10
353.911629
 20
751.710304
 30
0.0
 11
348.254443
 21
768.217839
 31
0.0
  0
LINE
  5
332
100
AcDbEntity
  8
Laag_1
 62
1
100
AcDbLine
 10
348.254443
 20
768.217839
 30
0.0
 11
340.686518
 21
765.624287
 31
0.0
  0
LINE
  5
333
100
AcDbEntity
  8
Laag_1
 62
1
100
AcDbLine
 10
340.686518
 20
765.624287
 30
0.0
 11
334.996915
 21
782.226425
 31
0.0
  0
LINE
  5
334
100
AcDbEntity
  8
Laag_1
 62
1
100
AcDbLine
 10
334.996915
 20
782.226425
 30
0.0
 11
342.564840
 21
784.819976
 31
0.0
  0
LINE
  5
335
100
AcDbEntity
  8
Laag_1
 62
1
100
AcDbLine
 10
342.564840
 20
784.819976
 30
0.0
 11
336.907653
 21
801.327511
 31
0.0
  0
LINE
  5
336
100
AcDbEntity
  8
Laag_1
 62
1
100
AcDbLine
 10
336.907653
 20
801.327511
 30
0.0
 11
329.339728
 21
798.733959
 31
0.0
  0
LINE
  5
337
100
AcDbEntity
  8
Laag_1
 62
1
100
AcDbLine
 10
329.339728
 20
798.733959
 30
0.0
 11
323.650124
 21
815.336094
 31
0.0
  0
LINE
  5
338
100
AcDbEntity
  8
Laag_1
 62
1
100
AcDbLine
 10
323.650124
 20
815.336094
 30
0.0
 11
331.218049
 21
817.929646
 31
0.0
  0
LINE
  5
339
100
AcDbEntity
  8
Laag_1
 62
1
100
AcDbLine
 10
331.218049
 20
817.929646
 30
0.0
 11
330.065738
 21
821.292063
 31
0.0
  0
LINE
  5
33a
100
AcDbEntity
  8
Laag_1
 62
1
100
AcDbLine
 10
330.065738
 20
821.292063
 30
0.0
 11
289.065753
 21
821.256284
 31
0.0
  0
LINE
  5
33b
100
AcDbEntity
  8
Laag_1
 62
1
100
AcDbLine
 10
289.065753
 20
821.256284
 30
0.0
 11
289.131204
 21
746.256313
 31
0.0
  0
LINE
  5
33c
100
AcDbEntity
  8
Laag_1
 62
1
100
AcDbLine
 10
289.131204
 20
746.256313
 30
0.0
 11
271.131211
 21
746.240606
 31
0.0
  0
LINE
  5
33d
100
AcDbEntity
  8
Laag_1
 62
1
100
AcDbLine
 10
271.131211
 20
746.240606
 30
0.0
 11
271.065760
 21
821.240577
 31
0.0
  0
LINE
  5
33e
100
AcDbEntity
  8
Laag_1
 62
1
100
AcDbLine
 10
271.065760
 20
821.240577
 30
0.0
 11
230.065775
 21
821.204799
 31
0.0
  0
LINE
  5
33f
100
AcDbEntity
  8
Laag_1
 62
1
100
AcDbLine
 10
230.065775
 20
821.204799
 30
0.0
 11
228.919778
 21
817.842028
 31
0.0
  0
LINE
  5
340
100
AcDbEntity
  8
Laag_1
 62
1
100
AcDbLine
 10
228.919778
 20
817.842028
 30
0.0
 11
236.492133
 21
815.261445
 31
0.0
  0
LINE
  5
341
100
AcDbEntity
  8
Laag_1
 62
1
100
AcDbLine
 10
236.492133
 20
815.261445
 30
0.0
 11
230.830978
 21
798.649587
 31
0.0
  0
LINE
  5
342
100
AcDbEntity
  8
Laag_1
 62
1
100
AcDbLine
 10
230.830978
 20
798.649587
 30
0.0
 11
223.258621
 21
801.230171
 31
0.0
  0
LINE
  5
343
100
AcDbEntity
  8
Laag_1
 62
1
100
AcDbLine
 10
223.258621
 20
801.230171
 30
0.0
 11
217.629721
 21
784.712968
 31
0.0
  0
LINE
  5
344
100
AcDbEntity
  8
Laag_1
 62
1
100
AcDbLine
 10
217.629721
 20
784.712968
 30
0.0
 11
225.202078
 21
782.132384
 31
0.0
  0
LINE
  5
345
100
AcDbEntity
  8
Laag_1
 62
1
100
AcDbLine
 10
225.202078
 20
782.132384
 30
0.0
 11
219.540921
 21
765.520527
 31
0.0
  0
LINE
  5
346
100
AcDbEntity
  8
Laag_1
 62
1
100
AcDbLine
 10
219.540921
 20
765.520527
 30
0.0
 11
211.968564
 21
768.101111
 31
0.0
  0
LINE
  5
347
100
AcDbEntity
  8
Laag_1
 62
1
100
AcDbLine
 10
211.968564
 20
768.101111
 30
0.0
 11
206.339666
 21
751.583910
 31
0.0
  0
LINE
  5
348
100
AcDbEntity
  8
Laag_1
 62
1
100
AcDbLine
 10
206.339666
 20
751.583910
 30
0.0
 11
213.912018
 21
749.003319
 31
0.0
  0
LINE
  5
349
100
AcDbEntity
  8
Laag_1
 62
1
100
AcDbLine
 10
213.912018
 20
749.003319
 30
0.0
 11
208.250861
 21
732.391462
 31
0.0
  0
LINE
  5
34a
100
AcDbEntity
  8
Laag_1
 62
5
100
AcDbLine
 10
542.840620
 20
727.745980
 30
0.0
 11
542.307310
 21
728.002090
 31
0.0
  0
LINE
  5
34b
100
AcDbEntity
  8
Laag_1
 62
5
100
AcDbLine
 10
542.307310
 20
728.002090
 30
0.0
 11
541.769780
 21
728.522760
 31
0.0
  0
LINE
  5
34c
100
AcDbEntity
  8
Laag_1
 62
5
100
AcDbLine
 10
541.769780
 20
728.522760
 30
0.0
 11
541.496800
 21
729.047640
 31
0.0
  0
LINE
  5
34d
100
AcDbEntity
  8
Laag_1
 62
5
100
AcDbLine
 10
541.496800
 20
729.047640
 30
0.0
 11
541.479900
 21
730.105840
 31
0.0
  0
LINE
  5
34e
100
AcDbEntity
  8
Laag_1
 62
5
100
AcDbLine
 10
541.479900
 20
730.105840
 30
0.0
 11
541.736020
 21
730.639150
 31
0.0
  0
LINE
  5
34f
100
AcDbEntity
  8
Laag_1
 62
5
100
AcDbLine
 10
541.736020
 20
730.639150
 30
0.0
 11
542.256680
 21
731.176690
 31
0.0
  0
LINE
  5
350
100
AcDbEntity
  8
Laag_1
 62
5
100
AcDbLine
 10
542.256680
 20
731.176690
 30
0.0
 11
542.781560
 21
731.449670
 31
0.0
  0
LINE
  5
351
100
AcDbEntity
  8
Laag_1
 62
5
100
AcDbLine
 10
542.781560
 20
731.449670
 30
0.0
 11
543.570990
 21
731.726870
 31
0.0
  0
LINE
  5
352
100
AcDbEntity
  8
Laag_1
 62
5
100
AcDbLine
 10
543.570990
 20
731.726870
 30
0.0
 11
544.893750
 21
731.747970
 31
0.0
  0
LINE
  5
353
100
AcDbEntity
  8
Laag_1
 62
5
100
AcDbLine
 10
544.893750
 20
731.747970
 30
0.0
 11
545.691610
 21
731.496060
 31
0.0
  0
LINE
  5
354
100
AcDbEntity
  8
Laag_1
 62
5
100
AcDbLine
 10
545.691610
 20
731.496060
 30
0.0
 11
546.224930
 21
731.239950
 31
0.0
  0
LINE
  5
355
100
AcDbEntity
  8
Laag_1
 62
5
100
AcDbLine
 10
546.224930
 20
731.239950
 30
0.0
 11
546.762460
 21
730.719280
 31
0.0
  0
LINE
  5
356
100
AcDbEntity
  8
Laag_1
 62
5
100
AcDbLine
 10
546.762460
 20
730.719280
 30
0.0
 11
547.035450
 21
730.194400
 31
0.0
  0
LINE
  5
357
100
AcDbEntity
  8
Laag_1
 62
5
100
AcDbLine
 10
547.035450
 20
730.194400
 30
0.0
 11
547.052350
 21
729.136200
 31
0.0
  0
LINE
  5
358
100
AcDbEntity
  8
Laag_1
 62
5
100
AcDbLine
 10
547.052350
 20
729.136200
 30
0.0
 11
546.796230
 21
728.602890
 31
0.0
  0
LINE
  5
359
100
AcDbEntity
  8
Laag_1
 62
5
100
AcDbLine
 10
546.796230
 20
728.602890
 30
0.0
 11
546.275570
 21
728.065350
 31
0.0
  0
LINE
  5
35a
100
AcDbEntity
  8
Laag_1
 62
5
100
AcDbLine
 10
546.275570
 20
728.065350
 30
0.0
 11
545.750680
 21
727.792370
 31
0.0
  0
LINE
  5
35b
100
AcDbEntity
  8
Laag_1
 62
5
100
AcDbLine
 10
502.338810
 20
801.216990
 30
0.0
 11
505.325010
 21
805.902550
 31
0.0
  0
LINE
  5
35c
100
AcDbEntity
  8
Laag_1
 62
5
100
AcDbLine
 10
502.338810
 20
801.216990
 30
0.0
 11
503.900660
 21
800.221580
 31
0.0
  0
LINE
  5
35d
100
AcDbEntity
  8
Laag_1
 62
5
100
AcDbLine
 10
503.900660
 20
800.221580
 30
0.0
 11
504.712230
 21
800.018110
 31
0.0
  0
LINE
  5
35e
100
AcDbEntity
  8
Laag_1
 62
5
100
AcDbLine
 10
504.712230
 20
800.018110
 30
0.0
 11
505.442870
 21
800.179950
 31
0.0
  0
LINE
  5
35f
100
AcDbEntity
  8
Laag_1
 62
5
100
AcDbLine
 10
505.442870
 20
800.179950
 30
0.0
 11
505.950390
 21
800.484000
 31
0.0
  0
LINE
  5
360
100
AcDbEntity
  8
Laag_1
 62
5
100
AcDbLine
 10
505.950390
 20
800.484000
 30
0.0
 11
506.600110
 21
801.011160
 31
0.0
  0
LINE
  5
361
100
AcDbEntity
  8
Laag_1
 62
5
100
AcDbLine
 10
506.600110
 20
801.011160
 30
0.0
 11
507.311120
 21
802.126770
 31
0.0
  0
LINE
  5
362
100
AcDbEntity
  8
Laag_1
 62
5
100
AcDbLine
 10
507.311120
 20
802.126770
 30
0.0
 11
507.514600
 21
802.938340
 31
0.0
  0
LINE
  5
363
100
AcDbEntity
  8
Laag_1
 62
5
100
AcDbLine
 10
507.514600
 20
802.938340
 30
0.0
 11
507.575900
 21
803.526780
 31
0.0
  0
LINE
  5
364
100
AcDbEntity
  8
Laag_1
 62
5
100
AcDbLine
 10
507.575900
 20
803.526780
 30
0.0
 11
507.414050
 21
804.257430
 31
0.0
  0
LINE
  5
365
100
AcDbEntity
  8
Laag_1
 62
5
100
AcDbLine
 10
507.414050
 20
804.257430
 30
0.0
 11
506.886880
 21
804.907150
 31
0.0
  0
LINE
  5
366
100
AcDbEntity
  8
Laag_1
 62
5
100
AcDbLine
 10
506.886880
 20
804.907150
 30
0.0
 11
505.325030
 21
805.902550
 31
0.0
  0
LINE
  5
367
100
AcDbEntity
  8
Laag_1
 62
5
100
AcDbLine
 10
381.721190
 20
727.919980
 30
0.0
 11
376.164940
 21
727.919980
 31
0.0
  0
LINE
  5
368
100
AcDbEntity
  8
Laag_1
 62
5
100
AcDbLine
 10
381.721190
 20
727.919980
 30
0.0
 11
381.721190
 21
730.301230
 31
0.0
  0
LINE
  5
369
100
AcDbEntity
  8
Laag_1
 62
5
100
AcDbLine
 10
381.721190
 20
730.301230
 30
0.0
 11
381.456600
 21
731.094980
 31
0.0
  0
LINE
  5
36a
100
AcDbEntity
  8
Laag_1
 62
5
100
AcDbLine
 10
381.456600
 20
731.094980
 30
0.0
 11
381.192020
 21
731.359570
 31
0.0
  0
LINE
  5
36b
100
AcDbEntity
  8
Laag_1
 62
5
100
AcDbLine
 10
381.192020
 20
731.359570
 30
0.0
 11
380.662850
 21
731.624150
 31
0.0
  0
LINE
  5
36c
100
AcDbEntity
  8
Laag_1
 62
5
100
AcDbLine
 10
380.662850
 20
731.624150
 30
0.0
 11
380.133690
 21
731.624150
 31
0.0
  0
LINE
  5
36d
100
AcDbEntity
  8
Laag_1
 62
5
100
AcDbLine
 10
380.133690
 20
731.624150
 30
0.0
 11
379.604520
 21
731.359570
 31
0.0
  0
LINE
  5
36e
100
AcDbEntity
  8
Laag_1
 62
5
100
AcDbLine
 10
379.604520
 20
731.359570
 30
0.0
 11
379.339940
 21
731.094980
 31
0.0
  0
LINE
  5
36f
100
AcDbEntity
  8
Laag_1
 62
5
100
AcDbLine
 10
379.339940
 20
731.094980
 30
0.0
 11
379.075350
 21
730.301230
 31
0.0
  0
LINE
  5
370
100
AcDbEntity
  8
Laag_1
 62
5
100
AcDbLine
 10
379.075350
 20
727.919980
 30
0.0
 11
379.075350
 21
730.301230
 31
0.0
  0
LINE
  5
371
100
AcDbEntity
  8
Laag_1
 62
5
100
AcDbLine
 10
379.075350
 20
730.301230
 30
0.0
 11
378.810770
 21
731.094980
 31
0.0
  0
LINE
  5
372
100
AcDbEntity
  8
Laag_1
 62
5
100
AcDbLine
 10
378.810770
 20
731.094980
 30
0.0
 11
378.546190
 21
731.359570
 31
0.0
  0
LINE
  5
373
100
AcDbEntity
  8
Laag_1
 62
5
100
AcDbLine
 10
378.546190
 20
731.359570
 30
0.0
 11
378.017020
 21
731.624150
 31
0.0
  0
LINE
  5
374
100
AcDbEntity
  8
Laag_1
 62
5
100
AcDbLine
 10
378.017020
 20
731.624150
 30
0.0
 11
377.223270
 21
731.624150
 31
0.0
  0
LINE
  5
375
100
AcDbEntity
  8
Laag_1
 62
5
100
AcDbLine
 10
377.223270
 20
731.624150
 30
0.0
 11
376.694100
 21
731.359570
 31
0.0
  0
LINE
  5
376
100
AcDbEntity
  8
Laag_1
 62
5
100
AcDbLine
 10
376.694100
 20
731.359570
 30
0.0
 11
376.429520
 21
731.094980
 31
0.0
  0
LINE
  5
377
100
AcDbEntity
  8
Laag_1
 62
5
100
AcDbLine
 10
376.429520
 20
731.094980
 30
0.0
 11
376.164940
 21
730.301230
 31
0.0
  0
LINE
  5
378
100
AcDbEntity
  8
Laag_1
 62
5
100
AcDbLine
 10
376.164940
 20
730.301230
 30
0.0
 11
376.164940
 21
727.919980
 31
0.0
  0
LINE
  5
379
100
AcDbEntity
  8
Laag_1
 62
5
100
AcDbLine
 10
425.355260
 20
805.901690
 30
0.0
 11
425.355250
 21
805.310060
 31
0.0
  0
LINE
  5
37a
100
AcDbEntity
  8
Laag_1
 62
5
100
AcDbLine
 10
425.355250
 20
805.310060
 30
0.0
 11
425.118580
 21
804.600110
 31
0.0
  0
LINE
  5
37b
100
AcDbEntity
  8
Laag_1
 62
5
100
AcDbLine
 10
425.118580
 20
804.600110
 30
0.0
 11
424.763580
 21
804.126820
 31
0.0
  0
LINE
  5
37c
100
AcDbEntity
  8
Laag_1
 62
5
100
AcDbLine
 10
424.763580
 20
804.126820
 30
0.0
 11
423.816970
 21
803.653550
 31
0.0
  0
LINE
  5
37d
100
AcDbEntity
  8
Laag_1
 62
5
100
AcDbLine
 10
423.816970
 20
803.653550
 30
0.0
 11
423.225350
 21
803.653560
 31
0.0
  0
LINE
  5
37e
100
AcDbEntity
  8
Laag_1
 62
5
100
AcDbLine
 10
423.225350
 20
803.653560
 30
0.0
 11
422.515400
 21
803.890230
 31
0.0
  0
LINE
  5
37f
100
AcDbEntity
  8
Laag_1
 62
5
100
AcDbLine
 10
422.515400
 20
803.890230
 30
0.0
 11
422.042110
 21
804.245220
 31
0.0
  0
LINE
  5
380
100
AcDbEntity
  8
Laag_1
 62
5
100
AcDbLine
 10
422.042110
 20
804.245220
 30
0.0
 11
421.450500
 21
804.836860
 31
0.0
  0
LINE
  5
381
100
AcDbEntity
  8
Laag_1
 62
5
100
AcDbLine
 10
421.450500
 20
804.836860
 30
0.0
 11
420.858910
 21
806.020130
 31
0.0
  0
LINE
  5
382
100
AcDbEntity
  8
Laag_1
 62
5
100
AcDbLine
 10
420.858910
 20
806.020130
 30
0.0
 11
420.740600
 21
806.848400
 31
0.0
  0
LINE
  5
383
100
AcDbEntity
  8
Laag_1
 62
5
100
AcDbLine
 10
420.740600
 20
806.848400
 30
0.0
 11
420.740620
 21
807.440040
 31
0.0
  0
LINE
  5
384
100
AcDbEntity
  8
Laag_1
 62
5
100
AcDbLine
 10
420.740620
 20
807.440040
 30
0.0
 11
420.977280
 21
808.149980
 31
0.0
  0
LINE
  5
385
100
AcDbEntity
  8
Laag_1
 62
5
100
AcDbLine
 10
420.977280
 20
808.149980
 30
0.0
 11
421.332270
 21
808.623270
 31
0.0
  0
LINE
  5
386
100
AcDbEntity
  8
Laag_1
 62
5
100
AcDbLine
 10
421.332270
 20
808.623270
 30
0.0
 11
422.278890
 21
809.096550
 31
0.0
  0
LINE
  5
387
100
AcDbEntity
  8
Laag_1
 62
5
100
AcDbLine
 10
422.278890
 20
809.096550
 30
0.0
 11
422.870510
 21
809.096540
 31
0.0
  0
LINE
  5
388
100
AcDbEntity
  8
Laag_1
 62
5
100
AcDbLine
 10
422.870510
 20
809.096540
 30
0.0
 11
423.580460
 21
808.859870
 31
0.0
  0
LINE
  5
389
100
AcDbEntity
  8
Laag_1
 62
5
100
AcDbLine
 10
423.580460
 20
808.859870
 30
0.0
 11
424.053750
 21
808.504870
 31
0.0
  0
LINE
  5
38a
100
AcDbEntity
  8
Laag_1
 62
1
100
AcDbLine
 10
494.943273
 20
778.511490
 30
0.0
 11
488.216037
 21
782.747856
 31
0.0
  0
LINE
  5
38b
100
AcDbEntity
  8
Laag_1
 62
1
100
AcDbLine
 10
488.216037
 20
782.747856
 30
0.0
 11
497.514734
 21
797.513937
 31
0.0
  0
LINE
  5
38c
100
AcDbEntity
  8
Laag_1
 62
1
100
AcDbLine
 10
497.514734
 20
797.513937
 30
0.0
 11
504.241970
 21
793.277571
 31
0.0
  0
LINE
  5
38d
100
AcDbEntity
  8
Laag_1
 62
1
100
AcDbLine
 10
504.241970
 20
793.277571
 30
0.0
 11
494.943273
 21
778.511490
 31
0.0
  0
SPLINE
  5
38e
100
AcDbEntity
  8
Laag_1
 62
1
100
AcDbSpline
 70
8
 71
3
 72
8
 73
4
 74
0
 40
0
 40
0
 40
0
 40
0
 40
1
 40
1
 40
1
 40
1
 10
411.653725
 20
696.458587
 30
0.0
 10
410.225887
 20
694.191219
 30
0.0
 10
407.696884
 20
692.857827
 30
0.0
 10
405.019367
 20
692.960687
 30
0.0
  0
SPLINE
  5
38f
100
AcDbEntity
  8
Laag_1
 62
1
100
AcDbSpline
 70
8
 71
3
 72
8
 73
4
 74
0
 40
0
 40
0
 40
0
 40
0
 40
1
 40
1
 40
1
 40
1
 10
405.019367
 20
692.960687
 30
0.0
 10
402.341850
 20
693.063546
 30
0.0
 10
399.922597
 20
694.587031
 30
0.0
 10
398.672918
 20
696.957259
 30
0.0
  0
SPLINE
  5
390
100
AcDbEntity
  8
Laag_1
 62
1
100
AcDbSpline
 70
8
 71
3
 72
8
 73
4
 74
0
 40
0
 40
0
 40
0
 40
0
 40
1
 40
1
 40
1
 40
1
 10
398.672918
 20
696.957259
 30
0.0
 10
397.423239
 20
699.327486
 30
0.0
 10
397.532989
 20
702.184363
 30
0.0
 10
398.960826
 20
704.451731
 30
0.0
  0
SPLINE
  5
391
100
AcDbEntity
  8
Laag_1
 62
1
100
AcDbSpline
 70
8
 71
3
 72
8
 73
4
 74
0
 40
0
 40
0
 40
0
 40
0
 40
1
 40
1
 40
1
 40
1
 10
398.960826
 20
704.451731
 30
0.0
 10
400.388664
 20
706.719099
 30
0.0
 10
402.917667
 20
708.052491
 30
0.0
 10
405.595184
 20
707.949631
 30
0.0
  0
SPLINE
  5
392
100
AcDbEntity
  8
Laag_1
 62
1
100
AcDbSpline
 70
8
 71
3
 72
8
 73
4
 74
0
 40
0
 40
0
 40
0
 40
0
 40
1
 40
1
 40
1
 40
1
 10
405.595184
 20
707.949631
 30
0.0
 10
408.272701
 20
707.846771
 30
0.0
 10
410.691954
 20
706.323286
 30
0.0
 10
411.941633
 20
703.953059
 30
0.0
  0
SPLINE
  5
393
100
AcDbEntity
  8
Laag_1
 62
1
100
AcDbSpline
 70
8
 71
3
 72
8
 73
4
 74
0
 40
0
 40
0
 40
0
 40
0
 40
1
 40
1
 40
1
 40
1
 10
411.941633
 20
703.953059
 30
0.0
 10
413.191312
 20
701.582831
 30
0.0
 10
413.081562
 20
698.725954
 30
0.0
 10
411.653725
 20
696.458587
 30
0.0
  0
LINE
  5
394
100
AcDbEntity
  8
Laag_1
 62
1
100
AcDbLine
 10
411.653725
 20
696.458587
 30
0.0
 11
411.653725
 21
696.458587
 31
0.0
  0
LINE
  5
395
100
AcDbEntity
  8
Laag_1
 62
1
100
AcDbLine
 10
422.739137
 20
735.434622
 30
0.0
 11
440.175205
 21
736.131887
 31
0.0
  0
LINE
  5
396
100
AcDbEntity
  8
Laag_1
 62
1
100
AcDbLine
 10
440.175205
 20
736.131887
 30
0.0
 11
440.492865
 21
728.188234
 31
0.0
  0
LINE
  5
397
100
AcDbEntity
  8
Laag_1
 62
1
100
AcDbLine
 10
440.492865
 20
728.188234
 30
0.0
 11
423.056796
 21
727.490970
 31
0.0
  0
LINE
  5
398
100
AcDbEntity
  8
Laag_1
 62
1
100
AcDbLine
 10
423.056796
 20
727.490970
 30
0.0
 11
422.739137
 21
735.434622
 31
0.0
  0
LINE
  5
399
100
AcDbEntity
  8
Laag_1
 62
1
100
AcDbLine
 10
476.292598
 20
748.894721
 30
0.0
 11
469.565362
 21
753.131087
 31
0.0
  0
LINE
  5
39a
100
AcDbEntity
  8
Laag_1
 62
1
100
AcDbLine
 10
469.565362
 20
753.131087
 30
0.0
 11
478.864060
 21
767.897168
 31
0.0
  0
LINE
  5
39b
100
AcDbEntity
  8
Laag_1
 62
1
100
AcDbLine
 10
478.864060
 20
767.897168
 30
0.0
 11
485.591295
 21
763.660802
 31
0.0
  0
LINE
  5
39c
100
AcDbEntity
  8
Laag_1
 62
1
100
AcDbLine
 10
485.591295
 20
763.660802
 30
0.0
 11
476.292598
 21
748.894721
 31
0.0
  0
LINE
  5
39d
100
AcDbEntity
  8
Laag_1
 62
1
100
AcDbLine
 10
405.520815
 20
726.789723
 30
0.0
 11
388.084752
 21
726.092467
 31
0.0
  0
LINE
  5
39e
100
AcDbEntity
  8
Laag_1
 62
1
100
AcDbLine
 10
388.084752
 20
726.092467
 30
0.0
 11
387.767090
 21
734.036119
 31
0.0
  0
LINE
  5
39f
100
AcDbEntity
  8
Laag_1
 62
1
100
AcDbLine
 10
387.767090
 20
734.036119
 30
0.0
 11
405.203148
 21
734.733368
 31
0.0
  0
LINE
  5
3a0
100
AcDbEntity
  8
Laag_1
 62
1
100
AcDbLine
 10
405.203148
 20
734.733368
 30
0.0
 11
405.520815
 21
726.789723
 31
0.0
  0
SPLINE
  5
3a1
100
AcDbEntity
  8
Laag_1
 62
1
100
AcDbSpline
 70
8
 71
3
 72
8
 73
4
 74
0
 40
0
 40
0
 40
0
 40
0
 40
1
 40
1
 40
1
 40
1
 10
467.938493
 20
729.013583
 30
0.0
 10
466.510656
 20
726.746215
 30
0.0
 10
463.981653
 20
725.412824
 30
0.0
 10
461.304136
 20
725.515683
 30
0.0
  0
SPLINE
  5
3a2
100
AcDbEntity
  8
Laag_1
 62
1
100
AcDbSpline
 70
8
 71
3
 72
8
 73
4
 74
0
 40
0
 40
0
 40
0
 40
0
 40
1
 40
1
 40
1
 40
1
 10
461.304136
 20
725.515683
 30
0.0
 10
458.626619
 20
725.618543
 30
0.0
 10
456.207366
 20
727.142028
 30
0.0
 10
454.957687
 20
729.512255
 30
0.0
  0
SPLINE
  5
3a3
100
AcDbEntity
  8
Laag_1
 62
1
100
AcDbSpline
 70
8
 71
3
 72
8
 73
4
 74
0
 40
0
 40
0
 40
0
 40
0
 40
1
 40
1
 40
1
 40
1
 10
454.957687
 20
729.512255
 30
0.0
 10
453.708008
 20
731.882483
 30
0.0
 10
453.817758
 20
734.739360
 30
0.0
 10
455.245596
 20
737.006727
 30
0.0
  0
SPLINE
  5
3a4
100
AcDbEntity
  8
Laag_1
 62
1
100
AcDbSpline
 70
8
 71
3
 72
8
 73
4
 74
0
 40
0
 40
0
 40
0
 40
0
 40
1
 40
1
 40
1
 40
1
 10
455.245596
 20
737.006727
 30
0.0
 10
456.673433
 20
739.274095
 30
0.0
 10
459.202436
 20
740.607487
 30
0.0
 10
461.879953
 20
740.504627
 30
0.0
  0
SPLINE
  5
3a5
100
AcDbEntity
  8
Laag_1
 62
1
100
AcDbSpline
 70
8
 71
3
 72
8
 73
4
 74
0
 40
0
 40
0
 40
0
 40
0
 40
1
 40
1
 40
1
 40
1
 10
461.879953
 20
740.504627
 30
0.0
 10
464.557470
 20
740.401768
 30
0.0
 10
466.976723
 20
738.878283
 30
0.0
 10
468.226402
 20
736.508055
 30
0.0
  0
SPLINE
  5
3a6
100
AcDbEntity
  8
Laag_1
 62
1
100
AcDbSpline
 70
8
 71
3
 72
8
 73
4
 74
0
 40
0
 40
0
 40
0
 40
0
 40
1
 40
1
 40
1
 40
1
 10
468.226402
 20
736.508055
 30
0.0
 10
469.476081
 20
734.137828
 30
0.0
 10
469.366331
 20
731.280951
 30
0.0
 10
467.938493
 20
729.013583
 30
0.0
  0
LINE
  5
3a7
100
AcDbEntity
  8
Laag_1
 62
1
100
AcDbLine
 10
467.938493
 20
729.013583
 30
0.0
 11
467.938493
 21
729.013583
 31
0.0
  0
LINE
  5
3a8
100
AcDbEntity
  8
Laag_1
 62
1
100
AcDbLine
 10
535.110112
 20
726.207945
 30
0.0
 11
517.672972
 21
726.877807
 31
0.0
  0
LINE
  5
3a9
100
AcDbEntity
  8
Laag_1
 62
1
100
AcDbLine
 10
517.672972
 20
726.877807
 30
0.0
 11
517.978156
 21
734.821954
 31
0.0
  0
LINE
  5
3aa
100
AcDbEntity
  8
Laag_1
 62
1
100
AcDbLine
 10
517.978156
 20
734.821954
 30
0.0
 11
535.415299
 21
734.152090
 31
0.0
  0
LINE
  5
3ab
100
AcDbEntity
  8
Laag_1
 62
1
100
AcDbLine
 10
535.415299
 20
734.152090
 30
0.0
 11
535.110112
 21
726.207945
 31
0.0
  0
SPLINE
  5
3ac
100
AcDbEntity
  8
Laag_1
 62
1
100
AcDbSpline
 70
8
 71
3
 72
8
 73
4
 74
0
 40
0
 40
0
 40
0
 40
0
 40
1
 40
1
 40
1
 40
1
 10
519.460001
 20
693.676610
 30
0.0
 10
518.032658
 20
691.408138
 30
0.0
 10
515.503282
 20
690.073740
 30
0.0
 10
512.825082
 20
690.176290
 30
0.0
  0
SPLINE
  5
3ad
100
AcDbEntity
  8
Laag_1
 62
1
100
AcDbSpline
 70
8
 71
3
 72
8
 73
4
 74
0
 40
0
 40
0
 40
0
 40
0
 40
1
 40
1
 40
1
 40
1
 10
512.825082
 20
690.176290
 30
0.0
 10
510.146881
 20
690.278840
 30
0.0
 10
507.726952
 20
691.802751
 30
0.0
 10
506.477256
 20
694.173729
 30
0.0
  0
SPLINE
  5
3ae
100
AcDbEntity
  8
Laag_1
 62
1
100
AcDbSpline
 70
8
 71
3
 72
8
 73
4
 74
0
 40
0
 40
0
 40
0
 40
0
 40
1
 40
1
 40
1
 40
1
 10
506.477256
 20
694.173729
 30
0.0
 10
505.227561
 20
696.544706
 30
0.0
 10
505.338058
 20
699.402355
 30
0.0
 10
506.767105
 20
701.669754
 30
0.0
  0
SPLINE
  5
3af
100
AcDbEntity
  8
Laag_1
 62
1
100
AcDbSpline
 70
8
 71
3
 72
8
 73
4
 74
0
 40
0
 40
0
 40
0
 40
0
 40
1
 40
1
 40
1
 40
1
 10
506.767105
 20
701.669754
 30
0.0
 10
508.194448
 20
703.938225
 30
0.0
 10
510.723824
 20
705.272624
 30
0.0
 10
513.402024
 20
705.170074
 30
0.0
  0
SPLINE
  5
3b0
100
AcDbEntity
  8
Laag_1
 62
1
100
AcDbSpline
 70
8
 71
3
 72
8
 73
4
 74
0
 40
0
 40
0
 40
0
 40
0
 40
1
 40
1
 40
1
 40
1
 10
513.402024
 20
705.170074
 30
0.0
 10
516.080225
 20
705.067524
 30
0.0
 10
518.500154
 20
703.543613
 30
0.0
 10
519.749850
 20
701.172635
 30
0.0
  0
SPLINE
  5
3b1
100
AcDbEntity
  8
Laag_1
 62
1
100
AcDbSpline
 70
8
 71
3
 72
8
 73
4
 74
0
 40
0
 40
0
 40
0
 40
0
 40
1
 40
1
 40
1
 40
1
 10
519.749850
 20
701.172635
 30
0.0
 10
520.999545
 20
698.801657
 30
0.0
 10
520.889049
 20
695.944009
 30
0.0
 10
519.460001
 20
693.676610
 30
0.0
  0
LINE
  5
3b2
100
AcDbEntity
  8
Laag_1
 62
1
100
AcDbLine
 10
519.460001
 20
693.676610
 30
0.0
 11
519.460001
 21
693.676610
 31
0.0
  0
LINE
  5
3b3
100
AcDbEntity
  8
Laag_1
 62
1
100
AcDbLine
 10
431.829923
 20
780.936059
 30
0.0
 11
423.691480
 21
796.372002
 31
0.0
  0
LINE
  5
3b4
100
AcDbEntity
  8
Laag_1
 62
1
100
AcDbLine
 10
423.691480
 20
796.372002
 30
0.0
 11
430.723902
 21
800.079781
 31
0.0
  0
LINE
  5
3b5
100
AcDbEntity
  8
Laag_1
 62
1
100
AcDbLine
 10
430.723902
 20
800.079781
 30
0.0
 11
438.862347
 21
784.643837
 31
0.0
  0
LINE
  5
3b6
100
AcDbEntity
  8
Laag_1
 62
1
100
AcDbLine
 10
438.862347
 20
784.643837
 30
0.0
 11
431.829923
 21
780.936059
 31
0.0
  0
SPLINE
  5
3b7
100
AcDbEntity
  8
Laag_1
 62
1
100
AcDbSpline
 70
8
 71
3
 72
8
 73
4
 74
0
 40
0
 40
0
 40
0
 40
0
 40
1
 40
1
 40
1
 40
1
 10
413.808751
 20
760.208752
 30
0.0
 10
412.381408
 20
757.940280
 30
0.0
 10
409.852031
 20
756.605882
 30
0.0
 10
407.173831
 20
756.708432
 30
0.0
  0
SPLINE
  5
3b8
100
AcDbEntity
  8
Laag_1
 62
1
100
AcDbSpline
 70
8
 71
3
 72
8
 73
4
 74
0
 40
0
 40
0
 40
0
 40
0
 40
1
 40
1
 40
1
 40
1
 10
407.173831
 20
756.708432
 30
0.0
 10
404.495631
 20
756.810982
 30
0.0
 10
402.075701
 20
758.334893
 30
0.0
 10
400.826006
 20
760.705871
 30
0.0
  0
SPLINE
  5
3b9
100
AcDbEntity
  8
Laag_1
 62
1
100
AcDbSpline
 70
8
 71
3
 72
8
 73
4
 74
0
 40
0
 40
0
 40
0
 40
0
 40
1
 40
1
 40
1
 40
1
 10
400.826006
 20
760.705871
 30
0.0
 10
399.576310
 20
763.076849
 30
0.0
 10
399.686807
 20
765.934497
 30
0.0
 10
401.115854
 20
768.201896
 30
0.0
  0
SPLINE
  5
3ba
100
AcDbEntity
  8
Laag_1
 62
1
100
AcDbSpline
 70
8
 71
3
 72
8
 73
4
 74
0
 40
0
 40
0
 40
0
 40
0
 40
1
 40
1
 40
1
 40
1
 10
401.115854
 20
768.201896
 30
0.0
 10
402.543197
 20
770.470368
 30
0.0
 10
405.072573
 20
771.804766
 30
0.0
 10
407.750774
 20
771.702216
 30
0.0
  0
SPLINE
  5
3bb
100
AcDbEntity
  8
Laag_1
 62
1
100
AcDbSpline
 70
8
 71
3
 72
8
 73
4
 74
0
 40
0
 40
0
 40
0
 40
0
 40
1
 40
1
 40
1
 40
1
 10
407.750774
 20
771.702216
 30
0.0
 10
410.428974
 20
771.599666
 30
0.0
 10
412.848904
 20
770.075755
 30
0.0
 10
414.098599
 20
767.704777
 30
0.0
  0
SPLINE
  5
3bc
100
AcDbEntity
  8
Laag_1
 62
1
100
AcDbSpline
 70
8
 71
3
 72
8
 73
4
 74
0
 40
0
 40
0
 40
0
 40
0
 40
1
 40
1
 40
1
 40
1
 10
414.098599
 20
767.704777
 30
0.0
 10
415.348294
 20
765.333799
 30
0.0
 10
415.237798
 20
762.476151
 30
0.0
 10
413.808751
 20
760.208752
 30
0.0
  0
LINE
  5
3bd
100
AcDbEntity
  8
Laag_1
 62
1
100
AcDbLine
 10
413.808751
 20
760.208752
 30
0.0
 11
413.808751
 21
760.208752
 31
0.0
  0
LINE
  5
3be
100
AcDbEntity
  8
Laag_1
 62
1
100
AcDbLine
 10
500.135901
 20
727.551503
 30
0.0
 11
482.698774
 21
728.221388
 31
0.0
  0
LINE
  5
3bf
100
AcDbEntity
  8
Laag_1
 62
1
100
AcDbLine
 10
482.698774
 20
728.221388
 30
0.0
 11
483.003946
 21
736.165511
 31
0.0
  0
LINE
  5
3c0
100
AcDbEntity
  8
Laag_1
 62
1
100
AcDbLine
 10
483.003946
 20
736.165511
 30
0.0
 11
500.441088
 21
735.495648
 31
0.0
  0
LINE
  5
3c1
100
AcDbEntity
  8
Laag_1
 62
1
100
AcDbLine
 10
500.441088
 20
735.495648
 30
0.0
 11
500.135901
 21
727.551503
 31
0.0
  0
SPLINE
  5
3c2
100
AcDbEntity
  8
Laag_1
 62
1
100
AcDbSpline
 70
8
 71
3
 72
8
 73
4
 74
0
 40
0
 40
0
 40
0
 40
0
 40
1
 40
1
 40
1
 40
1
 10
524.367372
 20
758.765153
 30
0.0
 10
522.939781
 20
756.497233
 30
0.0
 10
520.410592
 20
755.163338
 30
0.0
 10
517.732733
 20
755.266043
 30
0.0
  0
SPLINE
  5
3c3
100
AcDbEntity
  8
Laag_1
 62
1
100
AcDbSpline
 70
8
 71
3
 72
8
 73
4
 74
0
 40
0
 40
0
 40
0
 40
0
 40
1
 40
1
 40
1
 40
1
 10
517.732733
 20
755.266043
 30
0.0
 10
515.054874
 20
755.368748
 30
0.0
 10
512.635283
 20
756.892446
 30
0.0
 10
511.385596
 20
759.263048
 30
0.0
  0
SPLINE
  5
3c4
100
AcDbEntity
  8
Laag_1
 62
1
100
AcDbSpline
 70
8
 71
3
 72
8
 73
4
 74
0
 40
0
 40
0
 40
0
 40
0
 40
1
 40
1
 40
1
 40
1
 10
511.385596
 20
759.263048
 30
0.0
 10
510.135908
 20
761.633651
 30
0.0
 10
510.246031
 20
764.490914
 30
0.0
 10
511.674474
 20
766.758297
 30
0.0
  0
SPLINE
  5
3c5
100
AcDbEntity
  8
Laag_1
 62
1
100
AcDbSpline
 70
8
 71
3
 72
8
 73
4
 74
0
 40
0
 40
0
 40
0
 40
0
 40
1
 40
1
 40
1
 40
1
 10
511.674474
 20
766.758297
 30
0.0
 10
513.102064
 20
769.026217
 30
0.0
 10
515.631254
 20
770.360112
 30
0.0
 10
518.309113
 20
770.257407
 30
0.0
  0
SPLINE
  5
3c6
100
AcDbEntity
  8
Laag_1
 62
1
100
AcDbSpline
 70
8
 71
3
 72
8
 73
4
 74
0
 40
0
 40
0
 40
0
 40
0
 40
1
 40
1
 40
1
 40
1
 10
518.309113
 20
770.257407
 30
0.0
 10
520.986972
 20
770.154702
 30
0.0
 10
523.406563
 20
768.631005
 30
0.0
 10
524.656250
 20
766.260402
 30
0.0
  0
SPLINE
  5
3c7
100
AcDbEntity
  8
Laag_1
 62
1
100
AcDbSpline
 70
8
 71
3
 72
8
 73
4
 74
0
 40
0
 40
0
 40
0
 40
0
 40
1
 40
1
 40
1
 40
1
 10
524.656250
 20
766.260402
 30
0.0
 10
525.905937
 20
763.889799
 30
0.0
 10
525.795814
 20
761.032537
 30
0.0
 10
524.367372
 20
758.765153
 30
0.0
  0
LINE
  5
3c8
100
AcDbEntity
  8
Laag_1
 62
1
100
AcDbLine
 10
524.367372
 20
758.765153
 30
0.0
 11
524.367372
 21
758.765153
 31
0.0
  0
SPLINE
  5
3c9
100
AcDbEntity
  8
Laag_1
 62
1
100
AcDbSpline
 70
8
 71
3
 72
8
 73
4
 74
0
 40
0
 40
0
 40
0
 40
0
 40
1
 40
1
 40
1
 40
1
 10
470.387312
 20
792.758210
 30
0.0
 10
468.959721
 20
790.490290
 30
0.0
 10
466.430532
 20
789.156395
 30
0.0
 10
463.752673
 20
789.259100
 30
0.0
  0
SPLINE
  5
3ca
100
AcDbEntity
  8
Laag_1
 62
1
100
AcDbSpline
 70
8
 71
3
 72
8
 73
4
 74
0
 40
0
 40
0
 40
0
 40
0
 40
1
 40
1
 40
1
 40
1
 10
463.752673
 20
789.259100
 30
0.0
 10
461.074814
 20
789.361805
 30
0.0
 10
458.655223
 20
790.885503
 30
0.0
 10
457.405536
 20
793.256106
 30
0.0
  0
SPLINE
  5
3cb
100
AcDbEntity
  8
Laag_1
 62
1
100
AcDbSpline
 70
8
 71
3
 72
8
 73
4
 74
0
 40
0
 40
0
 40
0
 40
0
 40
1
 40
1
 40
1
 40
1
 10
457.405536
 20
793.256106
 30
0.0
 10
456.155848
 20
795.626709
 30
0.0
 10
456.265971
 20
798.483971
 30
0.0
 10
457.694414
 20
800.751355
 30
0.0
  0
SPLINE
  5
3cc
100
AcDbEntity
  8
Laag_1
 62
1
100
AcDbSpline
 70
8
 71
3
 72
8
 73
4
 74
0
 40
0
 40
0
 40
0
 40
0
 40
1
 40
1
 40
1
 40
1
 10
457.694414
 20
800.751355
 30
0.0
 10
459.122252
 20
803.018722
 30
0.0
 10
461.651254
 20
804.352114
 30
0.0
 10
464.328771
 20
804.249254
 30
0.0
  0
SPLINE
  5
3cd
100
AcDbEntity
  8
Laag_1
 62
1
100
AcDbSpline
 70
8
 71
3
 72
8
 73
4
 74
0
 40
0
 40
0
 40
0
 40
0
 40
1
 40
1
 40
1
 40
1
 10
464.328771
 20
804.249254
 30
0.0
 10
467.006288
 20
804.146395
 30
0.0
 10
469.425541
 20
802.622910
 30
0.0
 10
470.675220
 20
800.252682
 30
0.0
  0
SPLINE
  5
3ce
100
AcDbEntity
  8
Laag_1
 62
1
100
AcDbSpline
 70
8
 71
3
 72
8
 73
4
 74
0
 40
0
 40
0
 40
0
 40
0
 40
1
 40
1
 40
1
 40
1
 10
470.675220
 20
800.252682
 30
0.0
 10
471.924900
 20
797.882455
 30
0.0
 10
471.815149
 20
795.025578
 30
0.0
 10
470.387312
 20
792.758210
 30
0.0
  0
LINE
  5
3cf
100
AcDbEntity
  8
Laag_1
 62
1
100
AcDbLine
 10
470.387312
 20
792.758210
 30
0.0
 11
470.387312
 21
792.758210
 31
0.0
  0
LINE
  5
3d0
100
AcDbEntity
  8
Laag_1
 62
1
100
AcDbLine
 10
448.153461
 20
749.975732
 30
0.0
 11
440.015003
 21
765.411653
 31
0.0
  0
LINE
  5
3d1
100
AcDbEntity
  8
Laag_1
 62
1
100
AcDbLine
 10
440.015003
 20
765.411653
 30
0.0
 11
447.047424
 21
769.119432
 31
0.0
  0
LINE
  5
3d2
100
AcDbEntity
  8
Laag_1
 62
1
100
AcDbLine
 10
447.047424
 20
769.119432
 30
0.0
 11
455.185869
 21
753.683488
 31
0.0
  0
LINE
  5
3d3
100
AcDbEntity
  8
Laag_1
 62
1
100
AcDbLine
 10
455.185869
 20
753.683488
 30
0.0
 11
448.153461
 21
749.975732
 31
0.0
  0
LINE
  5
3d4
100
AcDbEntity
  8
Laag_1
 62
1
100
AcDbLine
 10
533.537839
 20
671.867178
 30
0.0
 11
541.110191
 21
669.286586
 31
0.0
  0
LINE
  5
3d5
100
AcDbEntity
  8
Laag_1
 62
1
100
AcDbLine
 10
541.110191
 20
669.286586
 30
0.0
 11
560.180213
 21
725.244845
 31
0.0
  0
LINE
  5
3d6
100
AcDbEntity
  8
Laag_1
 62
1
100
AcDbLine
 10
560.180213
 20
725.244845
 30
0.0
 11
552.647169
 21
725.534227
 31
0.0
  0
LINE
  5
3d7
100
AcDbEntity
  8
Laag_1
 62
1
100
AcDbLine
 10
552.647169
 20
725.534227
 30
0.0
 11
552.952356
 21
733.478372
 31
0.0
  0
LINE
  5
3d8
100
AcDbEntity
  8
Laag_1
 62
1
100
AcDbLine
 10
552.952356
 20
733.478372
 30
0.0
 11
559.377657
 21
733.231550
 31
0.0
  0
LINE
  5
3d9
100
AcDbEntity
  8
Laag_1
 62
1
100
AcDbLine
 10
559.377657
 20
733.231550
 30
0.0
 11
517.020347
 21
813.569289
 31
0.0
  0
LINE
  5
3da
100
AcDbEntity
  8
Laag_1
 62
1
100
AcDbLine
 10
517.020347
 20
813.569289
 30
0.0
 11
513.593947
 21
808.128259
 31
0.0
  0
LINE
  5
3db
100
AcDbEntity
  8
Laag_1
 62
1
100
AcDbLine
 10
513.593947
 20
808.128259
 30
0.0
 11
506.866711
 21
812.364625
 31
0.0
  0
LINE
  5
3dc
100
AcDbEntity
  8
Laag_1
 62
1
100
AcDbLine
 10
506.866711
 20
812.364625
 30
0.0
 11
510.293111
 21
817.805656
 31
0.0
  0
LINE
  5
3dd
100
AcDbEntity
  8
Laag_1
 62
1
100
AcDbLine
 10
510.293111
 20
817.805656
 30
0.0
 11
419.539935
 21
821.292062
 31
0.0
  0
LINE
  5
3de
100
AcDbEntity
  8
Laag_1
 62
1
100
AcDbLine
 10
419.539935
 20
821.292062
 30
0.0
 11
422.538808
 21
815.604165
 31
0.0
  0
LINE
  5
3df
100
AcDbEntity
  8
Laag_1
 62
1
100
AcDbLine
 10
422.538808
 20
815.604165
 30
0.0
 11
415.506386
 21
811.896386
 31
0.0
  0
LINE
  5
3e0
100
AcDbEntity
  8
Laag_1
 62
1
100
AcDbLine
 10
415.506386
 20
811.896386
 30
0.0
 11
412.606652
 21
817.396219
 31
0.0
  0
LINE
  5
3e1
100
AcDbEntity
  8
Laag_1
 62
1
100
AcDbLine
 10
412.606652
 20
817.396219
 30
0.0
 11
364.018625
 21
733.086433
 31
0.0
  0
LINE
  5
3e2
100
AcDbEntity
  8
Laag_1
 62
1
100
AcDbLine
 10
364.018625
 20
733.086433
 30
0.0
 11
370.231105
 21
733.334865
 31
0.0
  0
LINE
  5
3e3
100
AcDbEntity
  8
Laag_1
 62
1
100
AcDbLine
 10
370.231105
 20
733.334865
 30
0.0
 11
370.548767
 21
725.391213
 31
0.0
  0
LINE
  5
3e4
100
AcDbEntity
  8
Laag_1
 62
1
100
AcDbLine
 10
370.548767
 20
725.391213
 30
0.0
 11
363.016806
 21
725.090015
 31
0.0
  0
LINE
  5
3e5
100
AcDbEntity
  8
Laag_1
 62
1
100
AcDbLine
 10
363.016806
 20
725.090015
 30
0.0
 11
382.187467
 21
669.150470
 31
0.0
  0
LINE
  5
3e6
100
AcDbEntity
  8
Laag_1
 62
1
100
AcDbLine
 10
382.187467
 20
669.150470
 30
0.0
 11
389.755393
 21
671.744024
 31
0.0
  0
LINE
  5
3e7
100
AcDbEntity
  8
Laag_1
 62
1
100
AcDbLine
 10
389.755393
 20
671.744024
 30
0.0
 11
395.444996
 21
655.141887
 31
0.0
  0
LINE
  5
3e8
100
AcDbEntity
  8
Laag_1
 62
1
100
AcDbLine
 10
395.444996
 20
655.141887
 30
0.0
 11
387.877071
 21
652.548336
 31
0.0
  0
LINE
  5
3e9
100
AcDbEntity
  8
Laag_1
 62
1
100
AcDbLine
 10
387.877071
 20
652.548336
 30
0.0
 11
393.534257
 21
636.040801
 31
0.0
  0
LINE
  5
3ea
100
AcDbEntity
  8
Laag_1
 62
1
100
AcDbLine
 10
393.534257
 20
636.040801
 30
0.0
 11
401.102182
 21
638.634353
 31
0.0
  0
LINE
  5
3eb
100
AcDbEntity
  8
Laag_1
 62
1
100
AcDbLine
 10
401.102182
 20
638.634353
 30
0.0
 11
406.791785
 21
622.032215
 31
0.0
  0
LINE
  5
3ec
100
AcDbEntity
  8
Laag_1
 62
1
100
AcDbLine
 10
406.791785
 20
622.032215
 30
0.0
 11
399.223860
 21
619.438664
 31
0.0
  0
LINE
  5
3ed
100
AcDbEntity
  8
Laag_1
 62
1
100
AcDbLine
 10
399.223860
 20
619.438664
 30
0.0
 11
404.881047
 21
602.931129
 31
0.0
  0
LINE
  5
3ee
100
AcDbEntity
  8
Laag_1
 62
1
100
AcDbLine
 10
404.881047
 20
602.931129
 30
0.0
 11
412.448972
 21
605.524681
 31
0.0
  0
LINE
  5
3ef
100
AcDbEntity
  8
Laag_1
 62
1
100
AcDbLine
 10
412.448972
 20
605.524681
 30
0.0
 11
418.138576
 21
588.922546
 31
0.0
  0
LINE
  5
3f0
100
AcDbEntity
  8
Laag_1
 62
1
100
AcDbLine
 10
418.138576
 20
588.922546
 30
0.0
 11
410.570651
 21
586.328994
 31
0.0
  0
LINE
  5
3f1
100
AcDbEntity
  8
Laag_1
 62
1
100
AcDbLine
 10
410.570651
 20
586.328994
 30
0.0
 11
411.722962
 21
582.966577
 31
0.0
  0
LINE
  5
3f2
100
AcDbEntity
  8
Laag_1
 62
1
100
AcDbLine
 10
411.722962
 20
582.966577
 30
0.0
 11
452.722947
 21
583.002356
 31
0.0
  0
LINE
  5
3f3
100
AcDbEntity
  8
Laag_1
 62
1
100
AcDbLine
 10
452.722947
 20
583.002356
 30
0.0
 11
452.657496
 21
658.002327
 31
0.0
  0
LINE
  5
3f4
100
AcDbEntity
  8
Laag_1
 62
1
100
AcDbLine
 10
452.657496
 20
658.002327
 30
0.0
 11
470.657489
 21
658.018034
 31
0.0
  0
LINE
  5
3f5
100
AcDbEntity
  8
Laag_1
 62
1
100
AcDbLine
 10
470.657489
 20
658.018034
 30
0.0
 11
470.722940
 21
583.018063
 31
0.0
  0
LINE
  5
3f6
100
AcDbEntity
  8
Laag_1
 62
1
100
AcDbLine
 10
470.722940
 20
583.018063
 30
0.0
 11
511.722925
 21
583.053841
 31
0.0
  0
LINE
  5
3f7
100
AcDbEntity
  8
Laag_1
 62
1
100
AcDbLine
 10
511.722925
 20
583.053841
 30
0.0
 11
512.868922
 21
586.416612
 31
0.0
  0
LINE
  5
3f8
100
AcDbEntity
  8
Laag_1
 62
1
100
AcDbLine
 10
512.868922
 20
586.416612
 30
0.0
 11
505.296567
 21
588.997195
 31
0.0
  0
LINE
  5
3f9
100
AcDbEntity
  8
Laag_1
 62
1
100
AcDbLine
 10
505.296567
 20
588.997195
 30
0.0
 11
510.957722
 21
605.609054
 31
0.0
  0
LINE
  5
3fa
100
AcDbEntity
  8
Laag_1
 62
1
100
AcDbLine
 10
510.957722
 20
605.609054
 30
0.0
 11
518.530079
 21
603.028469
 31
0.0
  0
LINE
  5
3fb
100
AcDbEntity
  8
Laag_1
 62
1
100
AcDbLine
 10
518.530079
 20
603.028469
 30
0.0
 11
524.158979
 21
619.545672
 31
0.0
  0
LINE
  5
3fc
100
AcDbEntity
  8
Laag_1
 62
1
100
AcDbLine
 10
524.158979
 20
619.545672
 30
0.0
 11
516.586622
 21
622.126256
 31
0.0
  0
LINE
  5
3fd
100
AcDbEntity
  8
Laag_1
 62
1
100
AcDbLine
 10
516.586622
 20
622.126256
 30
0.0
 11
522.247779
 21
638.738113
 31
0.0
  0
LINE
  5
3fe
100
AcDbEntity
  8
Laag_1
 62
1
100
AcDbLine
 10
522.247779
 20
638.738113
 30
0.0
 11
529.820136
 21
636.157529
 31
0.0
  0
LINE
  5
3ff
100
AcDbEntity
  8
Laag_1
 62
1
100
AcDbLine
 10
529.820136
 20
636.157529
 30
0.0
 11
535.449034
 21
652.674730
 31
0.0
  0
LINE
  5
400
100
AcDbEntity
  8
Laag_1
 62
1
100
AcDbLine
 10
535.449034
 20
652.674730
 30
0.0
 11
527.876682
 21
655.255321
 31
0.0
  0
LINE
  5
401
100
AcDbEntity
  8
Laag_1
 62
1
100
AcDbLine
 10
527.876682
 20
655.255321
 30
0.0
 11
533.537839
 21
671.867178
 31
0.0
  0
LINE
  5
402
100
AcDbEntity
  8
Laag_1
 62
5
100
AcDbLine
 10
561.782420
 20
676.512700
 30
0.0
 11
562.315730
 21
676.256590
 31
0.0
  0
LINE
  5
403
100
AcDbEntity
  8
Laag_1
 62
5
100
AcDbLine
 10
562.315730
 20
676.256590
 30
0.0
 11
562.853260
 21
675.735920
 31
0.0
  0
LINE
  5
404
100
AcDbEntity
  8
Laag_1
 62
5
100
AcDbLine
 10
562.853260
 20
675.735920
 30
0.0
 11
563.126240
 21
675.211040
 31
0.0
  0
LINE
  5
405
100
AcDbEntity
  8
Laag_1
 62
5
100
AcDbLine
 10
563.126240
 20
675.211040
 30
0.0
 11
563.143140
 21
674.152840
 31
0.0
  0
LINE
  5
406
100
AcDbEntity
  8
Laag_1
 62
5
100
AcDbLine
 10
563.143140
 20
674.152840
 30
0.0
 11
562.887020
 21
673.619530
 31
0.0
  0
LINE
  5
407
100
AcDbEntity
  8
Laag_1
 62
5
100
AcDbLine
 10
562.887020
 20
673.619530
 30
0.0
 11
562.366360
 21
673.081990
 31
0.0
  0
LINE
  5
408
100
AcDbEntity
  8
Laag_1
 62
5
100
AcDbLine
 10
562.366360
 20
673.081990
 30
0.0
 11
561.841480
 21
672.809010
 31
0.0
  0
LINE
  5
409
100
AcDbEntity
  8
Laag_1
 62
5
100
AcDbLine
 10
561.841480
 20
672.809010
 30
0.0
 11
561.052050
 21
672.531810
 31
0.0
  0
LINE
  5
40a
100
AcDbEntity
  8
Laag_1
 62
5
100
AcDbLine
 10
561.052050
 20
672.531810
 30
0.0
 11
559.729290
 21
672.510710
 31
0.0
  0
LINE
  5
40b
100
AcDbEntity
  8
Laag_1
 62
5
100
AcDbLine
 10
559.729290
 20
672.510710
 30
0.0
 11
558.931430
 21
672.762620
 31
0.0
  0
LINE
  5
40c
100
AcDbEntity
  8
Laag_1
 62
5
100
AcDbLine
 10
558.931430
 20
672.762620
 30
0.0
 11
558.398110
 21
673.018730
 31
0.0
  0
LINE
  5
40d
100
AcDbEntity
  8
Laag_1
 62
5
100
AcDbLine
 10
558.398110
 20
673.018730
 30
0.0
 11
557.860580
 21
673.539400
 31
0.0
  0
LINE
  5
40e
100
AcDbEntity
  8
Laag_1
 62
5
100
AcDbLine
 10
557.860580
 20
673.539400
 30
0.0
 11
557.587590
 21
674.064280
 31
0.0
  0
LINE
  5
40f
100
AcDbEntity
  8
Laag_1
 62
5
100
AcDbLine
 10
557.587590
 20
674.064280
 30
0.0
 11
557.570690
 21
675.122480
 31
0.0
  0
LINE
  5
410
100
AcDbEntity
  8
Laag_1
 62
5
100
AcDbLine
 10
557.570690
 20
675.122480
 30
0.0
 11
557.826810
 21
675.655790
 31
0.0
  0
LINE
  5
411
100
AcDbEntity
  8
Laag_1
 62
5
100
AcDbLine
 10
557.826810
 20
675.655790
 30
0.0
 11
558.347470
 21
676.193330
 31
0.0
  0
LINE
  5
412
100
AcDbEntity
  8
Laag_1
 62
5
100
AcDbLine
 10
558.347470
 20
676.193330
 30
0.0
 11
558.872360
 21
676.466310
 31
0.0
  0
LINE
  5
413
100
AcDbEntity
  8
Laag_1
 62
5
100
AcDbLine
 10
602.284230
 20
603.041690
 30
0.0
 11
599.298030
 21
598.356130
 31
0.0
  0
LINE
  5
414
100
AcDbEntity
  8
Laag_1
 62
5
100
AcDbLine
 10
602.284230
 20
603.041690
 30
0.0
 11
600.722380
 21
604.037100
 31
0.0
  0
LINE
  5
415
100
AcDbEntity
  8
Laag_1
 62
5
100
AcDbLine
 10
600.722380
 20
604.037100
 30
0.0
 11
599.910810
 21
604.240570
 31
0.0
  0
LINE
  5
416
100
AcDbEntity
  8
Laag_1
 62
5
100
AcDbLine
 10
599.910810
 20
604.240570
 30
0.0
 11
599.180170
 21
604.078730
 31
0.0
  0
LINE
  5
417
100
AcDbEntity
  8
Laag_1
 62
5
100
AcDbLine
 10
599.180170
 20
604.078730
 30
0.0
 11
598.672650
 21
603.774680
 31
0.0
  0
LINE
  5
418
100
AcDbEntity
  8
Laag_1
 62
5
100
AcDbLine
 10
598.672650
 20
603.774680
 30
0.0
 11
598.022930
 21
603.247520
 31
0.0
  0
LINE
  5
419
100
AcDbEntity
  8
Laag_1
 62
5
100
AcDbLine
 10
598.022930
 20
603.247520
 30
0.0
 11
597.311920
 21
602.131910
 31
0.0
  0
LINE
  5
41a
100
AcDbEntity
  8
Laag_1
 62
5
100
AcDbLine
 10
597.311920
 20
602.131910
 30
0.0
 11
597.108440
 21
601.320340
 31
0.0
  0
LINE
  5
41b
100
AcDbEntity
  8
Laag_1
 62
5
100
AcDbLine
 10
597.108440
 20
601.320340
 30
0.0
 11
597.047140
 21
600.731900
 31
0.0
  0
LINE
  5
41c
100
AcDbEntity
  8
Laag_1
 62
5
100
AcDbLine
 10
597.047140
 20
600.731900
 30
0.0
 11
597.208990
 21
600.001250
 31
0.0
  0
LINE
  5
41d
100
AcDbEntity
  8
Laag_1
 62
5
100
AcDbLine
 10
597.208990
 20
600.001250
 30
0.0
 11
597.736160
 21
599.351530
 31
0.0
  0
LINE
  5
41e
100
AcDbEntity
  8
Laag_1
 62
5
100
AcDbLine
 10
597.736160
 20
599.351530
 30
0.0
 11
599.298010
 21
598.356130
 31
0.0
  0
LINE
  5
41f
100
AcDbEntity
  8
Laag_1
 62
5
100
AcDbLine
 10
722.901850
 20
676.338700
 30
0.0
 11
728.458100
 21
676.338700
 31
0.0
  0
LINE
  5
420
100
AcDbEntity
  8
Laag_1
 62
5
100
AcDbLine
 10
722.901850
 20
676.338700
 30
0.0
 11
722.901850
 21
673.957450
 31
0.0
  0
LINE
  5
421
100
AcDbEntity
  8
Laag_1
 62
5
100
AcDbLine
 10
722.901850
 20
673.957450
 30
0.0
 11
723.166440
 21
673.163700
 31
0.0
  0
LINE
  5
422
100
AcDbEntity
  8
Laag_1
 62
5
100
AcDbLine
 10
723.166440
 20
673.163700
 30
0.0
 11
723.431020
 21
672.899110
 31
0.0
  0
LINE
  5
423
100
AcDbEntity
  8
Laag_1
 62
5
100
AcDbLine
 10
723.431020
 20
672.899110
 30
0.0
 11
723.960190
 21
672.634530
 31
0.0
  0
LINE
  5
424
100
AcDbEntity
  8
Laag_1
 62
5
100
AcDbLine
 10
723.960190
 20
672.634530
 30
0.0
 11
724.489350
 21
672.634530
 31
0.0
  0
LINE
  5
425
100
AcDbEntity
  8
Laag_1
 62
5
100
AcDbLine
 10
724.489350
 20
672.634530
 30
0.0
 11
725.018520
 21
672.899110
 31
0.0
  0
LINE
  5
426
100
AcDbEntity
  8
Laag_1
 62
5
100
AcDbLine
 10
725.018520
 20
672.899110
 30
0.0
 11
725.283100
 21
673.163700
 31
0.0
  0
LINE
  5
427
100
AcDbEntity
  8
Laag_1
 62
5
100
AcDbLine
 10
725.283100
 20
673.163700
 30
0.0
 11
725.547690
 21
673.957450
 31
0.0
  0
LINE
  5
428
100
AcDbEntity
  8
Laag_1
 62
5
100
AcDbLine
 10
725.547690
 20
676.338700
 30
0.0
 11
725.547690
 21
673.957450
 31
0.0
  0
LINE
  5
429
100
AcDbEntity
  8
Laag_1
 62
5
100
AcDbLine
 10
725.547690
 20
673.957450
 30
0.0
 11
725.812270
 21
673.163700
 31
0.0
  0
LINE
  5
42a
100
AcDbEntity
  8
Laag_1
 62
5
100
AcDbLine
 10
725.812270
 20
673.163700
 30
0.0
 11
726.076850
 21
672.899110
 31
0.0
  0
LINE
  5
42b
100
AcDbEntity
  8
Laag_1
 62
5
100
AcDbLine
 10
726.076850
 20
672.899110
 30
0.0
 11
726.606020
 21
672.634530
 31
0.0
  0
LINE
  5
42c
100
AcDbEntity
  8
Laag_1
 62
5
100
AcDbLine
 10
726.606020
 20
672.634530
 30
0.0
 11
727.399770
 21
672.634530
 31
0.0
  0
LINE
  5
42d
100
AcDbEntity
  8
Laag_1
 62
5
100
AcDbLine
 10
727.399770
 20
672.634530
 30
0.0
 11
727.928940
 21
672.899110
 31
0.0
  0
LINE
  5
42e
100
AcDbEntity
  8
Laag_1
 62
5
100
AcDbLine
 10
727.928940
 20
672.899110
 30
0.0
 11
728.193520
 21
673.163700
 31
0.0
  0
LINE
  5
42f
100
AcDbEntity
  8
Laag_1
 62
5
100
AcDbLine
 10
728.193520
 20
673.163700
 30
0.0
 11
728.458100
 21
673.957450
 31
0.0
  0
LINE
  5
430
100
AcDbEntity
  8
Laag_1
 62
5
100
AcDbLine
 10
728.458100
 20
673.957450
 30
0.0
 11
728.458100
 21
676.338700
 31
0.0
  0
LINE
  5
431
100
AcDbEntity
  8
Laag_1
 62
5
100
AcDbLine
 10
679.267780
 20
598.356990
 30
0.0
 11
679.267790
 21
598.948620
 31
0.0
  0
LINE
  5
432
100
AcDbEntity
  8
Laag_1
 62
5
100
AcDbLine
 10
679.267790
 20
598.948620
 30
0.0
 11
679.504460
 21
599.658570
 31
0.0
  0
LINE
  5
433
100
AcDbEntity
  8
Laag_1
 62
5
100
AcDbLine
 10
679.504460
 20
599.658570
 30
0.0
 11
679.859460
 21
600.131860
 31
0.0
  0
LINE
  5
434
100
AcDbEntity
  8
Laag_1
 62
5
100
AcDbLine
 10
679.859460
 20
600.131860
 30
0.0
 11
680.806070
 21
600.605130
 31
0.0
  0
LINE
  5
435
100
AcDbEntity
  8
Laag_1
 62
5
100
AcDbLine
 10
680.806070
 20
600.605130
 30
0.0
 11
681.397690
 21
600.605120
 31
0.0
  0
LINE
  5
436
100
AcDbEntity
  8
Laag_1
 62
5
100
AcDbLine
 10
681.397690
 20
600.605120
 30
0.0
 11
682.107640
 21
600.368450
 31
0.0
  0
LINE
  5
437
100
AcDbEntity
  8
Laag_1
 62
5
100
AcDbLine
 10
682.107640
 20
600.368450
 30
0.0
 11
682.580930
 21
600.013460
 31
0.0
  0
LINE
  5
438
100
AcDbEntity
  8
Laag_1
 62
5
100
AcDbLine
 10
682.580930
 20
600.013460
 30
0.0
 11
683.172540
 21
599.421820
 31
0.0
  0
LINE
  5
439
100
AcDbEntity
  8
Laag_1
 62
5
100
AcDbLine
 10
683.172540
 20
599.421820
 30
0.0
 11
683.764130
 21
598.238550
 31
0.0
  0
LINE
  5
43a
100
AcDbEntity
  8
Laag_1
 62
5
100
AcDbLine
 10
683.764130
 20
598.238550
 30
0.0
 11
683.882440
 21
597.410280
 31
0.0
  0
LINE
  5
43b
100
AcDbEntity
  8
Laag_1
 62
5
100
AcDbLine
 10
683.882440
 20
597.410280
 30
0.0
 11
683.882420
 21
596.818640
 31
0.0
  0
LINE
  5
43c
100
AcDbEntity
  8
Laag_1
 62
5
100
AcDbLine
 10
683.882420
 20
596.818640
 30
0.0
 11
683.645760
 21
596.108700
 31
0.0
  0
LINE
  5
43d
100
AcDbEntity
  8
Laag_1
 62
5
100
AcDbLine
 10
683.645760
 20
596.108700
 30
0.0
 11
683.290770
 21
595.635410
 31
0.0
  0
LINE
  5
43e
100
AcDbEntity
  8
Laag_1
 62
5
100
AcDbLine
 10
683.290770
 20
595.635410
 30
0.0
 11
682.344150
 21
595.162130
 31
0.0
  0
LINE
  5
43f
100
AcDbEntity
  8
Laag_1
 62
5
100
AcDbLine
 10
682.344150
 20
595.162130
 30
0.0
 11
681.752530
 21
595.162140
 31
0.0
  0
LINE
  5
440
100
AcDbEntity
  8
Laag_1
 62
5
100
AcDbLine
 10
681.752530
 20
595.162140
 30
0.0
 11
681.042580
 21
595.398810
 31
0.0
  0
LINE
  5
441
100
AcDbEntity
  8
Laag_1
 62
5
100
AcDbLine
 10
681.042580
 20
595.398810
 30
0.0
 11
680.569290
 21
595.753810
 31
0.0
  0
LINE
  5
442
100
AcDbEntity
  8
Laag_1
 62
1
100
AcDbLine
 10
609.679767
 20
625.747190
 30
0.0
 11
616.407003
 21
621.510824
 31
0.0
  0
LINE
  5
443
100
AcDbEntity
  8
Laag_1
 62
1
100
AcDbLine
 10
616.407003
 20
621.510824
 30
0.0
 11
607.108306
 21
606.744743
 31
0.0
  0
LINE
  5
444
100
AcDbEntity
  8
Laag_1
 62
1
100
AcDbLine
 10
607.108306
 20
606.744743
 30
0.0
 11
600.381070
 21
610.981109
 31
0.0
  0
LINE
  5
445
100
AcDbEntity
  8
Laag_1
 62
1
100
AcDbLine
 10
600.381070
 20
610.981109
 30
0.0
 11
609.679767
 21
625.747190
 31
0.0
  0
SPLINE
  5
446
100
AcDbEntity
  8
Laag_1
 62
1
100
AcDbSpline
 70
8
 71
3
 72
8
 73
4
 74
0
 40
0
 40
0
 40
0
 40
0
 40
1
 40
1
 40
1
 40
1
 10
692.969315
 20
707.800094
 30
0.0
 10
694.397153
 20
710.067461
 30
0.0
 10
696.926156
 20
711.400853
 30
0.0
 10
699.603673
 20
711.297994
 30
0.0
  0
SPLINE
  5
447
100
AcDbEntity
  8
Laag_1
 62
1
100
AcDbSpline
 70
8
 71
3
 72
8
 73
4
 74
0
 40
0
 40
0
 40
0
 40
0
 40
1
 40
1
 40
1
 40
1
 10
699.603673
 20
711.297994
 30
0.0
 10
702.281190
 20
711.195134
 30
0.0
 10
704.700443
 20
709.671649
 30
0.0
 10
705.950122
 20
707.301421
 30
0.0
  0
SPLINE
  5
448
100
AcDbEntity
  8
Laag_1
 62
1
100
AcDbSpline
 70
8
 71
3
 72
8
 73
4
 74
0
 40
0
 40
0
 40
0
 40
0
 40
1
 40
1
 40
1
 40
1
 10
705.950122
 20
707.301421
 30
0.0
 10
707.199801
 20
704.931194
 30
0.0
 10
707.090051
 20
702.074317
 30
0.0
 10
705.662214
 20
699.806949
 30
0.0
  0
SPLINE
  5
449
100
AcDbEntity
  8
Laag_1
 62
1
100
AcDbSpline
 70
8
 71
3
 72
8
 73
4
 74
0
 40
0
 40
0
 40
0
 40
0
 40
1
 40
1
 40
1
 40
1
 10
705.662214
 20
699.806949
 30
0.0
 10
704.234376
 20
697.539581
 30
0.0
 10
701.705373
 20
696.206189
 30
0.0
 10
699.027856
 20
696.309049
 30
0.0
  0
SPLINE
  5
44a
100
AcDbEntity
  8
Laag_1
 62
1
100
AcDbSpline
 70
8
 71
3
 72
8
 73
4
 74
0
 40
0
 40
0
 40
0
 40
0
 40
1
 40
1
 40
1
 40
1
 10
699.027856
 20
696.309049
 30
0.0
 10
696.350339
 20
696.411909
 30
0.0
 10
693.931086
 20
697.935394
 30
0.0
 10
692.681407
 20
700.305621
 30
0.0
  0
SPLINE
  5
44b
100
AcDbEntity
  8
Laag_1
 62
1
100
AcDbSpline
 70
8
 71
3
 72
8
 73
4
 74
0
 40
0
 40
0
 40
0
 40
0
 40
1
 40
1
 40
1
 40
1
 10
692.681407
 20
700.305621
 30
0.0
 10
691.431728
 20
702.675849
 30
0.0
 10
691.541478
 20
705.532726
 30
0.0
 10
692.969315
 20
707.800094
 30
0.0
  0
LINE
  5
44c
100
AcDbEntity
  8
Laag_1
 62
1
100
AcDbLine
 10
692.969315
 20
707.800094
 30
0.0
 11
692.969315
 21
707.800094
 31
0.0
  0
LINE
  5
44d
100
AcDbEntity
  8
Laag_1
 62
1
100
AcDbLine
 10
681.883903
 20
668.824058
 30
0.0
 11
664.447836
 21
668.126793
 31
0.0
  0
LINE
  5
44e
100
AcDbEntity
  8
Laag_1
 62
1
100
AcDbLine
 10
664.447836
 20
668.126793
 30
0.0
 11
664.130175
 21
676.070446
 31
0.0
  0
LINE
  5
44f
100
AcDbEntity
  8
Laag_1
 62
1
100
AcDbLine
 10
664.130175
 20
676.070446
 30
0.0
 11
681.566244
 21
676.767710
 31
0.0
  0
LINE
  5
450
100
AcDbEntity
  8
Laag_1
 62
1
100
AcDbLine
 10
681.566244
 20
676.767710
 30
0.0
 11
681.883903
 21
668.824058
 31
0.0
  0
LINE
  5
451
100
AcDbEntity
  8
Laag_1
 62
1
100
AcDbLine
 10
628.330442
 20
655.363959
 30
0.0
 11
635.057678
 21
651.127593
 31
0.0
  0
LINE
  5
452
100
AcDbEntity
  8
Laag_1
 62
1
100
AcDbLine
 10
635.057678
 20
651.127593
 30
0.0
 11
625.758980
 21
636.361512
 31
0.0
  0
LINE
  5
453
100
AcDbEntity
  8
Laag_1
 62
1
100
AcDbLine
 10
625.758980
 20
636.361512
 30
0.0
 11
619.031745
 21
640.597878
 31
0.0
  0
LINE
  5
454
100
AcDbEntity
  8
Laag_1
 62
1
100
AcDbLine
 10
619.031745
 20
640.597878
 30
0.0
 11
628.330442
 21
655.363959
 31
0.0
  0
LINE
  5
455
100
AcDbEntity
  8
Laag_1
 62
1
100
AcDbLine
 10
699.102225
 20
677.468957
 30
0.0
 11
716.538288
 21
678.166213
 31
0.0
  0
LINE
  5
456
100
AcDbEntity
  8
Laag_1
 62
1
100
AcDbLine
 10
716.538288
 20
678.166213
 30
0.0
 11
716.855951
 21
670.222562
 31
0.0
  0
LINE
  5
457
100
AcDbEntity
  8
Laag_1
 62
1
100
AcDbLine
 10
716.855951
 20
670.222562
 30
0.0
 11
699.419892
 21
669.525312
 31
0.0
  0
LINE
  5
458
100
AcDbEntity
  8
Laag_1
 62
1
100
AcDbLine
 10
699.419892
 20
669.525312
 30
0.0
 11
699.102225
 21
677.468957
 31
0.0
  0
SPLINE
  5
459
100
AcDbEntity
  8
Laag_1
 62
1
100
AcDbSpline
 70
8
 71
3
 72
8
 73
4
 74
0
 40
0
 40
0
 40
0
 40
0
 40
1
 40
1
 40
1
 40
1
 10
636.684547
 20
675.245097
 30
0.0
 10
638.112384
 20
677.512465
 30
0.0
 10
640.641387
 20
678.845856
 30
0.0
 10
643.318904
 20
678.742997
 30
0.0
  0
SPLINE
  5
45a
100
AcDbEntity
  8
Laag_1
 62
1
100
AcDbSpline
 70
8
 71
3
 72
8
 73
4
 74
0
 40
0
 40
0
 40
0
 40
0
 40
1
 40
1
 40
1
 40
1
 10
643.318904
 20
678.742997
 30
0.0
 10
645.996421
 20
678.640137
 30
0.0
 10
648.415674
 20
677.116652
 30
0.0
 10
649.665353
 20
674.746425
 30
0.0
  0
SPLINE
  5
45b
100
AcDbEntity
  8
Laag_1
 62
1
100
AcDbSpline
 70
8
 71
3
 72
8
 73
4
 74
0
 40
0
 40
0
 40
0
 40
0
 40
1
 40
1
 40
1
 40
1
 10
649.665353
 20
674.746425
 30
0.0
 10
650.915032
 20
672.376197
 30
0.0
 10
650.805282
 20
669.519320
 30
0.0
 10
649.377444
 20
667.251953
 30
0.0
  0
SPLINE
  5
45c
100
AcDbEntity
  8
Laag_1
 62
1
100
AcDbSpline
 70
8
 71
3
 72
8
 73
4
 74
0
 40
0
 40
0
 40
0
 40
0
 40
1
 40
1
 40
1
 40
1
 10
649.377444
 20
667.251953
 30
0.0
 10
647.949607
 20
664.984585
 30
0.0
 10
645.420604
 20
663.651193
 30
0.0
 10
642.743087
 20
663.754053
 30
0.0
  0
SPLINE
  5
45d
100
AcDbEntity
  8
Laag_1
 62
1
100
AcDbSpline
 70
8
 71
3
 72
8
 73
4
 74
0
 40
0
 40
0
 40
0
 40
0
 40
1
 40
1
 40
1
 40
1
 10
642.743087
 20
663.754053
 30
0.0
 10
640.065570
 20
663.856913
 30
0.0
 10
637.646317
 20
665.380397
 30
0.0
 10
636.396638
 20
667.750625
 30
0.0
  0
SPLINE
  5
45e
100
AcDbEntity
  8
Laag_1
 62
1
100
AcDbSpline
 70
8
 71
3
 72
8
 73
4
 74
0
 40
0
 40
0
 40
0
 40
0
 40
1
 40
1
 40
1
 40
1
 10
636.396638
 20
667.750625
 30
0.0
 10
635.146959
 20
670.120852
 30
0.0
 10
635.256709
 20
672.977729
 30
0.0
 10
636.684547
 20
675.245097
 30
0.0
  0
LINE
  5
45f
100
AcDbEntity
  8
Laag_1
 62
1
100
AcDbLine
 10
636.684547
 20
675.245097
 30
0.0
 11
636.684547
 21
675.245097
 31
0.0
  0
LINE
  5
460
100
AcDbEntity
  8
Laag_1
 62
1
100
AcDbLine
 10
569.512928
 20
678.050735
 30
0.0
 11
586.950068
 21
677.380873
 31
0.0
  0
LINE
  5
461
100
AcDbEntity
  8
Laag_1
 62
1
100
AcDbLine
 10
586.950068
 20
677.380873
 30
0.0
 11
586.644884
 21
669.436726
 31
0.0
  0
LINE
  5
462
100
AcDbEntity
  8
Laag_1
 62
1
100
AcDbLine
 10
586.644884
 20
669.436726
 30
0.0
 11
569.207741
 21
670.106590
 31
0.0
  0
LINE
  5
463
100
AcDbEntity
  8
Laag_1
 62
1
100
AcDbLine
 10
569.207741
 20
670.106590
 30
0.0
 11
569.512928
 21
678.050735
 31
0.0
  0
SPLINE
  5
464
100
AcDbEntity
  8
Laag_1
 62
1
100
AcDbSpline
 70
8
 71
3
 72
8
 73
4
 74
0
 40
0
 40
0
 40
0
 40
0
 40
1
 40
1
 40
1
 40
1
 10
585.163039
 20
710.582070
 30
0.0
 10
586.590382
 20
712.850542
 30
0.0
 10
589.119758
 20
714.184940
 30
0.0
 10
591.797958
 20
714.082390
 30
0.0
  0
SPLINE
  5
465
100
AcDbEntity
  8
Laag_1
 62
1
100
AcDbSpline
 70
8
 71
3
 72
8
 73
4
 74
0
 40
0
 40
0
 40
0
 40
0
 40
1
 40
1
 40
1
 40
1
 10
591.797958
 20
714.082390
 30
0.0
 10
594.476159
 20
713.979840
 30
0.0
 10
596.896088
 20
712.455929
 30
0.0
 10
598.145784
 20
710.084951
 30
0.0
  0
SPLINE
  5
466
100
AcDbEntity
  8
Laag_1
 62
1
100
AcDbSpline
 70
8
 71
3
 72
8
 73
4
 74
0
 40
0
 40
0
 40
0
 40
0
 40
1
 40
1
 40
1
 40
1
 10
598.145784
 20
710.084951
 30
0.0
 10
599.395479
 20
707.713974
 30
0.0
 10
599.284983
 20
704.856325
 30
0.0
 10
597.855935
 20
702.588926
 30
0.0
  0
SPLINE
  5
467
100
AcDbEntity
  8
Laag_1
 62
1
100
AcDbSpline
 70
8
 71
3
 72
8
 73
4
 74
0
 40
0
 40
0
 40
0
 40
0
 40
1
 40
1
 40
1
 40
1
 10
597.855935
 20
702.588926
 30
0.0
 10
596.428592
 20
700.320455
 30
0.0
 10
593.899216
 20
698.986056
 30
0.0
 10
591.221016
 20
699.088606
 30
0.0
  0
SPLINE
  5
468
100
AcDbEntity
  8
Laag_1
 62
1
100
AcDbSpline
 70
8
 71
3
 72
8
 73
4
 74
0
 40
0
 40
0
 40
0
 40
0
 40
1
 40
1
 40
1
 40
1
 10
591.221016
 20
699.088606
 30
0.0
 10
588.542815
 20
699.191157
 30
0.0
 10
586.122886
 20
700.715067
 30
0.0
 10
584.873190
 20
703.086045
 30
0.0
  0
SPLINE
  5
469
100
AcDbEntity
  8
Laag_1
 62
1
100
AcDbSpline
 70
8
 71
3
 72
8
 73
4
 74
0
 40
0
 40
0
 40
0
 40
0
 40
1
 40
1
 40
1
 40
1
 10
584.873190
 20
703.086045
 30
0.0
 10
583.623495
 20
705.457023
 30
0.0
 10
583.733991
 20
708.314671
 30
0.0
 10
585.163039
 20
710.582070
 30
0.0
  0
LINE
  5
46a
100
AcDbEntity
  8
Laag_1
 62
1
100
AcDbLine
 10
585.163039
 20
710.582070
 30
0.0
 11
585.163039
 21
710.582070
 31
0.0
  0
LINE
  5
46b
100
AcDbEntity
  8
Laag_1
 62
1
100
AcDbLine
 10
672.793117
 20
623.322621
 30
0.0
 11
680.931560
 21
607.886678
 31
0.0
  0
LINE
  5
46c
100
AcDbEntity
  8
Laag_1
 62
1
100
AcDbLine
 10
680.931560
 20
607.886678
 30
0.0
 11
673.899139
 21
604.178899
 31
0.0
  0
LINE
  5
46d
100
AcDbEntity
  8
Laag_1
 62
1
100
AcDbLine
 10
673.899139
 20
604.178899
 30
0.0
 11
665.760693
 21
619.614843
 31
0.0
  0
LINE
  5
46e
100
AcDbEntity
  8
Laag_1
 62
1
100
AcDbLine
 10
665.760693
 20
619.614843
 30
0.0
 11
672.793117
 21
623.322621
 31
0.0
  0
SPLINE
  5
46f
100
AcDbEntity
  8
Laag_1
 62
1
100
AcDbSpline
 70
8
 71
3
 72
8
 73
4
 74
0
 40
0
 40
0
 40
0
 40
0
 40
1
 40
1
 40
1
 40
1
 10
690.814289
 20
644.049928
 30
0.0
 10
692.241632
 20
646.318400
 30
0.0
 10
694.771009
 20
647.652798
 30
0.0
 10
697.449209
 20
647.550248
 30
0.0
  0
SPLINE
  5
470
100
AcDbEntity
  8
Laag_1
 62
1
100
AcDbSpline
 70
8
 71
3
 72
8
 73
4
 74
0
 40
0
 40
0
 40
0
 40
0
 40
1
 40
1
 40
1
 40
1
 10
697.449209
 20
647.550248
 30
0.0
 10
700.127409
 20
647.447698
 30
0.0
 10
702.547339
 20
645.923787
 30
0.0
 10
703.797034
 20
643.552809
 30
0.0
  0
SPLINE
  5
471
100
AcDbEntity
  8
Laag_1
 62
1
100
AcDbSpline
 70
8
 71
3
 72
8
 73
4
 74
0
 40
0
 40
0
 40
0
 40
0
 40
1
 40
1
 40
1
 40
1
 10
703.797034
 20
643.552809
 30
0.0
 10
705.046730
 20
641.181832
 30
0.0
 10
704.936233
 20
638.324183
 30
0.0
 10
703.507186
 20
636.056784
 30
0.0
  0
SPLINE
  5
472
100
AcDbEntity
  8
Laag_1
 62
1
100
AcDbSpline
 70
8
 71
3
 72
8
 73
4
 74
0
 40
0
 40
0
 40
0
 40
0
 40
1
 40
1
 40
1
 40
1
 10
703.507186
 20
636.056784
 30
0.0
 10
702.079843
 20
633.788312
 30
0.0
 10
699.550467
 20
632.453914
 30
0.0
 10
696.872266
 20
632.556464
 30
0.0
  0
SPLINE
  5
473
100
AcDbEntity
  8
Laag_1
 62
1
100
AcDbSpline
 70
8
 71
3
 72
8
 73
4
 74
0
 40
0
 40
0
 40
0
 40
0
 40
1
 40
1
 40
1
 40
1
 10
696.872266
 20
632.556464
 30
0.0
 10
694.194066
 20
632.659014
 30
0.0
 10
691.774136
 20
634.182925
 30
0.0
 10
690.524441
 20
636.553903
 30
0.0
  0
SPLINE
  5
474
100
AcDbEntity
  8
Laag_1
 62
1
100
AcDbSpline
 70
8
 71
3
 72
8
 73
4
 74
0
 40
0
 40
0
 40
0
 40
0
 40
1
 40
1
 40
1
 40
1
 10
690.524441
 20
636.553903
 30
0.0
 10
689.274746
 20
638.924881
 30
0.0
 10
689.385242
 20
641.782529
 30
0.0
 10
690.814289
 20
644.049928
 30
0.0
  0
LINE
  5
475
100
AcDbEntity
  8
Laag_1
 62
1
100
AcDbLine
 10
690.814289
 20
644.049928
 30
0.0
 11
690.814289
 21
644.049928
 31
0.0
  0
LINE
  5
476
100
AcDbEntity
  8
Laag_1
 62
1
100
AcDbLine
 10
604.487139
 20
676.707177
 30
0.0
 11
621.924267
 21
676.037292
 31
0.0
  0
LINE
  5
477
100
AcDbEntity
  8
Laag_1
 62
1
100
AcDbLine
 10
621.924267
 20
676.037292
 30
0.0
 11
621.619094
 21
668.093169
 31
0.0
  0
LINE
  5
478
100
AcDbEntity
  8
Laag_1
 62
1
100
AcDbLine
 10
621.619094
 20
668.093169
 30
0.0
 11
604.181952
 21
668.763032
 31
0.0
  0
LINE
  5
479
100
AcDbEntity
  8
Laag_1
 62
1
100
AcDbLine
 10
604.181952
 20
668.763032
 30
0.0
 11
604.487139
 21
676.707177
 31
0.0
  0
SPLINE
  5
47a
100
AcDbEntity
  8
Laag_1
 62
1
100
AcDbSpline
 70
8
 71
3
 72
8
 73
4
 74
0
 40
0
 40
0
 40
0
 40
0
 40
1
 40
1
 40
1
 40
1
 10
580.255668
 20
645.493527
 30
0.0
 10
581.683259
 20
647.761447
 30
0.0
 10
584.212448
 20
649.095342
 30
0.0
 10
586.890307
 20
648.992637
 30
0.0
  0
SPLINE
  5
47b
100
AcDbEntity
  8
Laag_1
 62
1
100
AcDbSpline
 70
8
 71
3
 72
8
 73
4
 74
0
 40
0
 40
0
 40
0
 40
0
 40
1
 40
1
 40
1
 40
1
 10
586.890307
 20
648.992637
 30
0.0
 10
589.568166
 20
648.889932
 30
0.0
 10
591.987757
 20
647.366234
 30
0.0
 10
593.237444
 20
644.995632
 30
0.0
  0
SPLINE
  5
47c
100
AcDbEntity
  8
Laag_1
 62
1
100
AcDbSpline
 70
8
 71
3
 72
8
 73
4
 74
0
 40
0
 40
0
 40
0
 40
0
 40
1
 40
1
 40
1
 40
1
 10
593.237444
 20
644.995632
 30
0.0
 10
594.487132
 20
642.625029
 30
0.0
 10
594.377009
 20
639.767766
 30
0.0
 10
592.948566
 20
637.500383
 30
0.0
  0
SPLINE
  5
47d
100
AcDbEntity
  8
Laag_1
 62
1
100
AcDbSpline
 70
8
 71
3
 72
8
 73
4
 74
0
 40
0
 40
0
 40
0
 40
0
 40
1
 40
1
 40
1
 40
1
 10
592.948566
 20
637.500383
 30
0.0
 10
591.520976
 20
635.232463
 30
0.0
 10
588.991786
 20
633.898568
 30
0.0
 10
586.313927
 20
634.001273
 30
0.0
  0
SPLINE
  5
47e
100
AcDbEntity
  8
Laag_1
 62
1
100
AcDbSpline
 70
8
 71
3
 72
8
 73
4
 74
0
 40
0
 40
0
 40
0
 40
0
 40
1
 40
1
 40
1
 40
1
 10
586.313927
 20
634.001273
 30
0.0
 10
583.636068
 20
634.103978
 30
0.0
 10
581.216477
 20
635.627675
 30
0.0
 10
579.966790
 20
637.998278
 30
0.0
  0
SPLINE
  5
47f
100
AcDbEntity
  8
Laag_1
 62
1
100
AcDbSpline
 70
8
 71
3
 72
8
 73
4
 74
0
 40
0
 40
0
 40
0
 40
0
 40
1
 40
1
 40
1
 40
1
 10
579.966790
 20
637.998278
 30
0.0
 10
578.717103
 20
640.368881
 30
0.0
 10
578.827226
 20
643.226143
 30
0.0
 10
580.255668
 20
645.493527
 30
0.0
  0
LINE
  5
480
100
AcDbEntity
  8
Laag_1
 62
1
100
AcDbLine
 10
580.255668
 20
645.493527
 30
0.0
 11
580.255668
 21
645.493527
 31
0.0
  0
SPLINE
  5
481
100
AcDbEntity
  8
Laag_1
 62
1
100
AcDbSpline
 70
8
 71
3
 72
8
 73
4
 74
0
 40
0
 40
0
 40
0
 40
0
 40
1
 40
1
 40
1
 40
1
 10
634.235728
 20
611.500470
 30
0.0
 10
635.663319
 20
613.768390
 30
0.0
 10
638.192508
 20
615.102285
 30
0.0
 10
640.870367
 20
614.999580
 30
0.0
  0
SPLINE
  5
482
100
AcDbEntity
  8
Laag_1
 62
1
100
AcDbSpline
 70
8
 71
3
 72
8
 73
4
 74
0
 40
0
 40
0
 40
0
 40
0
 40
1
 40
1
 40
1
 40
1
 10
640.870367
 20
614.999580
 30
0.0
 10
643.548226
 20
614.896875
 30
0.0
 10
645.967817
 20
613.373177
 30
0.0
 10
647.217504
 20
611.002574
 30
0.0
  0
SPLINE
  5
483
100
AcDbEntity
  8
Laag_1
 62
1
100
AcDbSpline
 70
8
 71
3
 72
8
 73
4
 74
0
 40
0
 40
0
 40
0
 40
0
 40
1
 40
1
 40
1
 40
1
 10
647.217504
 20
611.002574
 30
0.0
 10
648.467192
 20
608.631971
 30
0.0
 10
648.357069
 20
605.774709
 30
0.0
 10
646.928626
 20
603.507325
 30
0.0
  0
SPLINE
  5
484
100
AcDbEntity
  8
Laag_1
 62
1
100
AcDbSpline
 70
8
 71
3
 72
8
 73
4
 74
0
 40
0
 40
0
 40
0
 40
0
 40
1
 40
1
 40
1
 40
1
 10
646.928626
 20
603.507325
 30
0.0
 10
645.500788
 20
601.239958
 30
0.0
 10
642.971786
 20
599.906566
 30
0.0
 10
640.294269
 20
600.009426
 30
0.0
  0
SPLINE
  5
485
100
AcDbEntity
  8
Laag_1
 62
1
100
AcDbSpline
 70
8
 71
3
 72
8
 73
4
 74
0
 40
0
 40
0
 40
0
 40
0
 40
1
 40
1
 40
1
 40
1
 10
640.294269
 20
600.009426
 30
0.0
 10
637.616752
 20
600.112285
 30
0.0
 10
635.197499
 20
601.635770
 30
0.0
 10
633.947820
 20
604.005998
 30
0.0
  0
SPLINE
  5
486
100
AcDbEntity
  8
Laag_1
 62
1
100
AcDbSpline
 70
8
 71
3
 72
8
 73
4
 74
0
 40
0
 40
0
 40
0
 40
0
 40
1
 40
1
 40
1
 40
1
 10
633.947820
 20
604.005998
 30
0.0
 10
632.698141
 20
606.376225
 30
0.0
 10
632.807891
 20
609.233102
 30
0.0
 10
634.235728
 20
611.500470
 30
0.0
  0
LINE
  5
487
100
AcDbEntity
  8
Laag_1
 62
1
100
AcDbLine
 10
634.235728
 20
611.500470
 30
0.0
 11
634.235728
 21
611.500470
 31
0.0
  0
LINE
  5
488
100
AcDbEntity
  8
Laag_1
 62
1
100
AcDbLine
 10
656.469579
 20
654.282948
 30
0.0
 11
664.608037
 21
638.847028
 31
0.0
  0
LINE
  5
489
100
AcDbEntity
  8
Laag_1
 62
1
100
AcDbLine
 10
664.608037
 20
638.847028
 30
0.0
 11
657.575616
 21
635.139248
 31
0.0
  0
LINE
  5
48a
100
AcDbEntity
  8
Laag_1
 62
1
100
AcDbLine
 10
657.575616
 20
635.139248
 30
0.0
 11
649.437171
 21
650.575192
 31
0.0
  0
LINE
  5
48b
100
AcDbEntity
  8
Laag_1
 62
1
100
AcDbLine
 10
649.437171
 20
650.575192
 30
0.0
 11
656.469579
 21
654.282948
 31
0.0
  0
LINE
  5
48c
100
AcDbEntity
  8
Laag_1
 62
1
100
AcDbLine
 10
571.085201
 20
732.391502
 30
0.0
 11
563.512849
 21
734.972094
 31
0.0
  0
LINE
  5
48d
100
AcDbEntity
  8
Laag_1
 62
1
100
AcDbLine
 10
563.512849
 20
734.972094
 30
0.0
 11
544.442827
 21
679.013835
 31
0.0
  0
LINE
  5
48e
100
AcDbEntity
  8
Laag_1
 62
1
100
AcDbLine
 10
544.442827
 20
679.013835
 30
0.0
 11
551.975871
 21
678.724453
 31
0.0
  0
LINE
  5
48f
100
AcDbEntity
  8
Laag_1
 62
1
100
AcDbLine
 10
551.975871
 20
678.724453
 30
0.0
 11
551.670684
 21
670.780308
 31
0.0
  0
LINE
  5
490
100
AcDbEntity
  8
Laag_1
 62
1
100
AcDbLine
 10
551.670684
 20
670.780308
 30
0.0
 11
545.245383
 21
671.027130
 31
0.0
  0
LINE
  5
491
100
AcDbEntity
  8
Laag_1
 62
1
100
AcDbLine
 10
545.245383
 20
671.027130
 30
0.0
 11
587.602693
 21
590.689391
 31
0.0
  0
LINE
  5
492
100
AcDbEntity
  8
Laag_1
 62
1
100
AcDbLine
 10
587.602693
 20
590.689391
 30
0.0
 11
591.029093
 21
596.130421
 31
0.0
  0
LINE
  5
493
100
AcDbEntity
  8
Laag_1
 62
1
100
AcDbLine
 10
591.029093
 20
596.130421
 30
0.0
 11
597.756329
 21
591.894055
 31
0.0
  0
LINE
  5
494
100
AcDbEntity
  8
Laag_1
 62
1
100
AcDbLine
 10
597.756329
 20
591.894055
 30
0.0
 11
594.329929
 21
586.453024
 31
0.0
  0
LINE
  5
495
100
AcDbEntity
  8
Laag_1
 62
1
100
AcDbLine
 10
594.329929
 20
586.453024
 30
0.0
 11
685.083105
 21
582.966618
 31
0.0
  0
LINE
  5
496
100
AcDbEntity
  8
Laag_1
 62
1
100
AcDbLine
 10
685.083105
 20
582.966618
 30
0.0
 11
682.084232
 21
588.654515
 31
0.0
  0
LINE
  5
497
100
AcDbEntity
  8
Laag_1
 62
1
100
AcDbLine
 10
682.084232
 20
588.654515
 30
0.0
 11
689.116654
 21
592.362294
 31
0.0
  0
LINE
  5
498
100
AcDbEntity
  8
Laag_1
 62
1
100
AcDbLine
 10
689.116654
 20
592.362294
 30
0.0
 11
692.016388
 21
586.862461
 31
0.0
  0
LINE
  5
499
100
AcDbEntity
  8
Laag_1
 62
1
100
AcDbLine
 10
692.016388
 20
586.862461
 30
0.0
 11
740.604415
 21
671.172247
 31
0.0
  0
LINE
  5
49a
100
AcDbEntity
  8
Laag_1
 62
1
100
AcDbLine
 10
740.604415
 20
671.172247
 30
0.0
 11
734.391935
 21
670.923815
 31
0.0
  0
LINE
  5
49b
100
AcDbEntity
  8
Laag_1
 62
1
100
AcDbLine
 10
734.391935
 20
670.923815
 30
0.0
 11
734.074273
 21
678.867467
 31
0.0
  0
LINE
  5
49c
100
AcDbEntity
  8
Laag_1
 62
1
100
AcDbLine
 10
734.074273
 20
678.867467
 30
0.0
 11
741.606234
 21
679.168665
 31
0.0
  0
LINE
  5
49d
100
AcDbEntity
  8
Laag_1
 62
1
100
AcDbLine
 10
741.606234
 20
679.168665
 30
0.0
 11
722.435574
 21
735.108210
 31
0.0
  0
LINE
  5
49e
100
AcDbEntity
  8
Laag_1
 62
1
100
AcDbLine
 10
722.435574
 20
735.108210
 30
0.0
 11
714.867647
 21
732.514656
 31
0.0
  0
LINE
  5
49f
100
AcDbEntity
  8
Laag_1
 62
1
100
AcDbLine
 10
714.867647
 20
732.514656
 30
0.0
 11
709.178045
 21
749.116793
 31
0.0
  0
LINE
  5
4a0
100
AcDbEntity
  8
Laag_1
 62
1
100
AcDbLine
 10
709.178045
 20
749.116793
 30
0.0
 11
716.745969
 21
751.710344
 31
0.0
  0
LINE
  5
4a1
100
AcDbEntity
  8
Laag_1
 62
1
100
AcDbLine
 10
716.745969
 20
751.710344
 30
0.0
 11
711.088783
 21
768.217879
 31
0.0
  0
LINE
  5
4a2
100
AcDbEntity
  8
Laag_1
 62
1
100
AcDbLine
 10
711.088783
 20
768.217879
 30
0.0
 11
703.520858
 21
765.624327
 31
0.0
  0
LINE
  5
4a3
100
AcDbEntity
  8
Laag_1
 62
1
100
AcDbLine
 10
703.520858
 20
765.624327
 30
0.0
 11
697.831255
 21
782.226465
 31
0.0
  0
LINE
  5
4a4
100
AcDbEntity
  8
Laag_1
 62
1
100
AcDbLine
 10
697.831255
 20
782.226465
 30
0.0
 11
705.399180
 21
784.820016
 31
0.0
  0
LINE
  5
4a5
100
AcDbEntity
  8
Laag_1
 62
1
100
AcDbLine
 10
705.399180
 20
784.820016
 30
0.0
 11
699.741993
 21
801.327551
 31
0.0
  0
LINE
  5
4a6
100
AcDbEntity
  8
Laag_1
 62
1
100
AcDbLine
 10
699.741993
 20
801.327551
 30
0.0
 11
692.174068
 21
798.733999
 31
0.0
  0
LINE
  5
4a7
100
AcDbEntity
  8
Laag_1
 62
1
100
AcDbLine
 10
692.174068
 20
798.733999
 30
0.0
 11
686.484464
 21
815.336134
 31
0.0
  0
LINE
  5
4a8
100
AcDbEntity
  8
Laag_1
 62
1
100
AcDbLine
 10
686.484464
 20
815.336134
 30
0.0
 11
694.052389
 21
817.929686
 31
0.0
  0
LINE
  5
4a9
100
AcDbEntity
  8
Laag_1
 62
1
100
AcDbLine
 10
694.052389
 20
817.929686
 30
0.0
 11
692.900078
 21
821.292103
 31
0.0
  0
LINE
  5
4aa
100
AcDbEntity
  8
Laag_1
 62
1
100
AcDbLine
 10
692.900078
 20
821.292103
 30
0.0
 11
651.900093
 21
821.256324
 31
0.0
  0
LINE
  5
4ab
100
AcDbEntity
  8
Laag_1
 62
1
100
AcDbLine
 10
651.900093
 20
821.256324
 30
0.0
 11
651.965544
 21
746.256353
 31
0.0
  0
LINE
  5
4ac
100
AcDbEntity
  8
Laag_1
 62
1
100
AcDbLine
 10
651.965544
 20
746.256353
 30
0.0
 11
633.965551
 21
746.240646
 31
0.0
  0
LINE
  5
4ad
100
AcDbEntity
  8
Laag_1
 62
1
100
AcDbLine
 10
633.965551
 20
746.240646
 30
0.0
 11
633.900100
 21
821.240617
 31
0.0
  0
LINE
  5
4ae
100
AcDbEntity
  8
Laag_1
 62
1
100
AcDbLine
 10
633.900100
 20
821.240617
 30
0.0
 11
592.900115
 21
821.204839
 31
0.0
  0
LINE
  5
4af
100
AcDbEntity
  8
Laag_1
 62
1
100
AcDbLine
 10
592.900115
 20
821.204839
 30
0.0
 11
591.754118
 21
817.842068
 31
0.0
  0
LINE
  5
4b0
100
AcDbEntity
  8
Laag_1
 62
1
100
AcDbLine
 10
591.754118
 20
817.842068
 30
0.0
 11
599.326473
 21
815.261485
 31
0.0
  0
LINE
  5
4b1
100
AcDbEntity
  8
Laag_1
 62
1
100
AcDbLine
 10
599.326473
 20
815.261485
 30
0.0
 11
593.665318
 21
798.649627
 31
0.0
  0
LINE
  5
4b2
100
AcDbEntity
  8
Laag_1
 62
1
100
AcDbLine
 10
593.665318
 20
798.649627
 30
0.0
 11
586.092961
 21
801.230211
 31
0.0
  0
LINE
  5
4b3
100
AcDbEntity
  8
Laag_1
 62
1
100
AcDbLine
 10
586.092961
 20
801.230211
 30
0.0
 11
580.464061
 21
784.713008
 31
0.0
  0
LINE
  5
4b4
100
AcDbEntity
  8
Laag_1
 62
1
100
AcDbLine
 10
580.464061
 20
784.713008
 30
0.0
 11
588.036418
 21
782.132424
 31
0.0
  0
LINE
  5
4b5
100
AcDbEntity
  8
Laag_1
 62
1
100
AcDbLine
 10
588.036418
 20
782.132424
 30
0.0
 11
582.375261
 21
765.520567
 31
0.0
  0
LINE
  5
4b6
100
AcDbEntity
  8
Laag_1
 62
1
100
AcDbLine
 10
582.375261
 20
765.520567
 30
0.0
 11
574.802904
 21
768.101151
 31
0.0
  0
LINE
  5
4b7
100
AcDbEntity
  8
Laag_1
 62
1
100
AcDbLine
 10
574.802904
 20
768.101151
 30
0.0
 11
569.174006
 21
751.583950
 31
0.0
  0
LINE
  5
4b8
100
AcDbEntity
  8
Laag_1
 62
1
100
AcDbLine
 10
569.174006
 20
751.583950
 30
0.0
 11
576.746358
 21
749.003359
 31
0.0
  0
LINE
  5
4b9
100
AcDbEntity
  8
Laag_1
 62
1
100
AcDbLine
 10
576.746358
 20
749.003359
 30
0.0
 11
571.085201
 21
732.391502
 31
0.0
  0
LINE
  5
4ba
100
AcDbEntity
  8
Laag_1
 62
5
100
AcDbLine
 10
905.675040
 20
727.746020
 30
0.0
 11
905.141730
 21
728.002130
 31
0.0
  0
LINE
  5
4bb
100
AcDbEntity
  8
Laag_1
 62
5
100
AcDbLine
 10
905.141730
 20
728.002130
 30
0.0
 11
904.604200
 21
728.522800
 31
0.0
  0
LINE
  5
4bc
100
AcDbEntity
  8
Laag_1
 62
5
100
AcDbLine
 10
904.604200
 20
728.522800
 30
0.0
 11
904.331220
 21
729.047680
 31
0.0
  0
LINE
  5
4bd
100
AcDbEntity
  8
Laag_1
 62
5
100
AcDbLine
 10
904.331220
 20
729.047680
 30
0.0
 11
904.314320
 21
730.105880
 31
0.0
  0
LINE
  5
4be
100
AcDbEntity
  8
Laag_1
 62
5
100
AcDbLine
 10
904.314320
 20
730.105880
 30
0.0
 11
904.570440
 21
730.639190
 31
0.0
  0
LINE
  5
4bf
100
AcDbEntity
  8
Laag_1
 62
5
100
AcDbLine
 10
904.570440
 20
730.639190
 30
0.0
 11
905.091100
 21
731.176730
 31
0.0
  0
LINE
  5
4c0
100
AcDbEntity
  8
Laag_1
 62
5
100
AcDbLine
 10
905.091100
 20
731.176730
 30
0.0
 11
905.615980
 21
731.449710
 31
0.0
  0
LINE
  5
4c1
100
AcDbEntity
  8
Laag_1
 62
5
100
AcDbLine
 10
905.615980
 20
731.449710
 30
0.0
 11
906.405410
 21
731.726910
 31
0.0
  0
LINE
  5
4c2
100
AcDbEntity
  8
Laag_1
 62
5
100
AcDbLine
 10
906.405410
 20
731.726910
 30
0.0
 11
907.728170
 21
731.748010
 31
0.0
  0
LINE
  5
4c3
100
AcDbEntity
  8
Laag_1
 62
5
100
AcDbLine
 10
907.728170
 20
731.748010
 30
0.0
 11
908.526030
 21
731.496100
 31
0.0
  0
LINE
  5
4c4
100
AcDbEntity
  8
Laag_1
 62
5
100
AcDbLine
 10
908.526030
 20
731.496100
 30
0.0
 11
909.059350
 21
731.239990
 31
0.0
  0
LINE
  5
4c5
100
AcDbEntity
  8
Laag_1
 62
5
100
AcDbLine
 10
909.059350
 20
731.239990
 30
0.0
 11
909.596880
 21
730.719320
 31
0.0
  0
LINE
  5
4c6
100
AcDbEntity
  8
Laag_1
 62
5
100
AcDbLine
 10
909.596880
 20
730.719320
 30
0.0
 11
909.869870
 21
730.194440
 31
0.0
  0
LINE
  5
4c7
100
AcDbEntity
  8
Laag_1
 62
5
100
AcDbLine
 10
909.869870
 20
730.194440
 30
0.0
 11
909.886770
 21
729.136240
 31
0.0
  0
LINE
  5
4c8
100
AcDbEntity
  8
Laag_1
 62
5
100
AcDbLine
 10
909.886770
 20
729.136240
 30
0.0
 11
909.630650
 21
728.602930
 31
0.0
  0
LINE
  5
4c9
100
AcDbEntity
  8
Laag_1
 62
5
100
AcDbLine
 10
909.630650
 20
728.602930
 30
0.0
 11
909.109990
 21
728.065390
 31
0.0
  0
LINE
  5
4ca
100
AcDbEntity
  8
Laag_1
 62
5
100
AcDbLine
 10
909.109990
 20
728.065390
 30
0.0
 11
908.585100
 21
727.792410
 31
0.0
  0
LINE
  5
4cb
100
AcDbEntity
  8
Laag_1
 62
5
100
AcDbLine
 10
865.173230
 20
801.217030
 30
0.0
 11
868.159430
 21
805.902590
 31
0.0
  0
LINE
  5
4cc
100
AcDbEntity
  8
Laag_1
 62
5
100
AcDbLine
 10
865.173230
 20
801.217030
 30
0.0
 11
866.735080
 21
800.221620
 31
0.0
  0
LINE
  5
4cd
100
AcDbEntity
  8
Laag_1
 62
5
100
AcDbLine
 10
866.735080
 20
800.221620
 30
0.0
 11
867.546650
 21
800.018150
 31
0.0
  0
LINE
  5
4ce
100
AcDbEntity
  8
Laag_1
 62
5
100
AcDbLine
 10
867.546650
 20
800.018150
 30
0.0
 11
868.277290
 21
800.179990
 31
0.0
  0
LINE
  5
4cf
100
AcDbEntity
  8
Laag_1
 62
5
100
AcDbLine
 10
868.277290
 20
800.179990
 30
0.0
 11
868.784810
 21
800.484040
 31
0.0
  0
LINE
  5
4d0
100
AcDbEntity
  8
Laag_1
 62
5
100
AcDbLine
 10
868.784810
 20
800.484040
 30
0.0
 11
869.434530
 21
801.011200
 31
0.0
  0
LINE
  5
4d1
100
AcDbEntity
  8
Laag_1
 62
5
100
AcDbLine
 10
869.434530
 20
801.011200
 30
0.0
 11
870.145540
 21
802.126810
 31
0.0
  0
LINE
  5
4d2
100
AcDbEntity
  8
Laag_1
 62
5
100
AcDbLine
 10
870.145540
 20
802.126810
 30
0.0
 11
870.349020
 21
802.938380
 31
0.0
  0
LINE
  5
4d3
100
AcDbEntity
  8
Laag_1
 62
5
100
AcDbLine
 10
870.349020
 20
802.938380
 30
0.0
 11
870.410320
 21
803.526820
 31
0.0
  0
LINE
  5
4d4
100
AcDbEntity
  8
Laag_1
 62
5
100
AcDbLine
 10
870.410320
 20
803.526820
 30
0.0
 11
870.248470
 21
804.257470
 31
0.0
  0
LINE
  5
4d5
100
AcDbEntity
  8
Laag_1
 62
5
100
AcDbLine
 10
870.248470
 20
804.257470
 30
0.0
 11
869.721300
 21
804.907190
 31
0.0
  0
LINE
  5
4d6
100
AcDbEntity
  8
Laag_1
 62
5
100
AcDbLine
 10
869.721300
 20
804.907190
 30
0.0
 11
868.159450
 21
805.902590
 31
0.0
  0
LINE
  5
4d7
100
AcDbEntity
  8
Laag_1
 62
5
100
AcDbLine
 10
744.555610
 20
727.920020
 30
0.0
 11
738.999360
 21
727.920020
 31
0.0
  0
LINE
  5
4d8
100
AcDbEntity
  8
Laag_1
 62
5
100
AcDbLine
 10
744.555610
 20
727.920020
 30
0.0
 11
744.555610
 21
730.301270
 31
0.0
  0
LINE
  5
4d9
100
AcDbEntity
  8
Laag_1
 62
5
100
AcDbLine
 10
744.555610
 20
730.301270
 30
0.0
 11
744.291020
 21
731.095020
 31
0.0
  0
LINE
  5
4da
100
AcDbEntity
  8
Laag_1
 62
5
100
AcDbLine
 10
744.291020
 20
731.095020
 30
0.0
 11
744.026440
 21
731.359610
 31
0.0
  0
LINE
  5
4db
100
AcDbEntity
  8
Laag_1
 62
5
100
AcDbLine
 10
744.026440
 20
731.359610
 30
0.0
 11
743.497270
 21
731.624190
 31
0.0
  0
LINE
  5
4dc
100
AcDbEntity
  8
Laag_1
 62
5
100
AcDbLine
 10
743.497270
 20
731.624190
 30
0.0
 11
742.968110
 21
731.624190
 31
0.0
  0
LINE
  5
4dd
100
AcDbEntity
  8
Laag_1
 62
5
100
AcDbLine
 10
742.968110
 20
731.624190
 30
0.0
 11
742.438940
 21
731.359610
 31
0.0
  0
LINE
  5
4de
100
AcDbEntity
  8
Laag_1
 62
5
100
AcDbLine
 10
742.438940
 20
731.359610
 30
0.0
 11
742.174360
 21
731.095020
 31
0.0
  0
LINE
  5
4df
100
AcDbEntity
  8
Laag_1
 62
5
100
AcDbLine
 10
742.174360
 20
731.095020
 30
0.0
 11
741.909770
 21
730.301270
 31
0.0
  0
LINE
  5
4e0
100
AcDbEntity
  8
Laag_1
 62
5
100
AcDbLine
 10
741.909770
 20
727.920020
 30
0.0
 11
741.909770
 21
730.301270
 31
0.0
  0
LINE
  5
4e1
100
AcDbEntity
  8
Laag_1
 62
5
100
AcDbLine
 10
741.909770
 20
730.301270
 30
0.0
 11
741.645190
 21
731.095020
 31
0.0
  0
LINE
  5
4e2
100
AcDbEntity
  8
Laag_1
 62
5
100
AcDbLine
 10
741.645190
 20
731.095020
 30
0.0
 11
741.380610
 21
731.359610
 31
0.0
  0
LINE
  5
4e3
100
AcDbEntity
  8
Laag_1
 62
5
100
AcDbLine
 10
741.380610
 20
731.359610
 30
0.0
 11
740.851440
 21
731.624190
 31
0.0
  0
LINE
  5
4e4
100
AcDbEntity
  8
Laag_1
 62
5
100
AcDbLine
 10
740.851440
 20
731.624190
 30
0.0
 11
740.057690
 21
731.624190
 31
0.0
  0
LINE
  5
4e5
100
AcDbEntity
  8
Laag_1
 62
5
100
AcDbLine
 10
740.057690
 20
731.624190
 30
0.0
 11
739.528520
 21
731.359610
 31
0.0
  0
LINE
  5
4e6
100
AcDbEntity
  8
Laag_1
 62
5
100
AcDbLine
 10
739.528520
 20
731.359610
 30
0.0
 11
739.263940
 21
731.095020
 31
0.0
  0
LINE
  5
4e7
100
AcDbEntity
  8
Laag_1
 62
5
100
AcDbLine
 10
739.263940
 20
731.095020
 30
0.0
 11
738.999360
 21
730.301270
 31
0.0
  0
LINE
  5
4e8
100
AcDbEntity
  8
Laag_1
 62
5
100
AcDbLine
 10
738.999360
 20
730.301270
 30
0.0
 11
738.999360
 21
727.920020
 31
0.0
  0
LINE
  5
4e9
100
AcDbEntity
  8
Laag_1
 62
5
100
AcDbLine
 10
788.189680
 20
805.901730
 30
0.0
 11
788.189670
 21
805.310100
 31
0.0
  0
LINE
  5
4ea
100
AcDbEntity
  8
Laag_1
 62
5
100
AcDbLine
 10
788.189670
 20
805.310100
 30
0.0
 11
787.953000
 21
804.600150
 31
0.0
  0
LINE
  5
4eb
100
AcDbEntity
  8
Laag_1
 62
5
100
AcDbLine
 10
787.953000
 20
804.600150
 30
0.0
 11
787.598000
 21
804.126860
 31
0.0
  0
LINE
  5
4ec
100
AcDbEntity
  8
Laag_1
 62
5
100
AcDbLine
 10
787.598000
 20
804.126860
 30
0.0
 11
786.651390
 21
803.653590
 31
0.0
  0
LINE
  5
4ed
100
AcDbEntity
  8
Laag_1
 62
5
100
AcDbLine
 10
786.651390
 20
803.653590
 30
0.0
 11
786.059770
 21
803.653600
 31
0.0
  0
LINE
  5
4ee
100
AcDbEntity
  8
Laag_1
 62
5
100
AcDbLine
 10
786.059770
 20
803.653600
 30
0.0
 11
785.349820
 21
803.890270
 31
0.0
  0
LINE
  5
4ef
100
AcDbEntity
  8
Laag_1
 62
5
100
AcDbLine
 10
785.349820
 20
803.890270
 30
0.0
 11
784.876530
 21
804.245260
 31
0.0
  0
LINE
  5
4f0
100
AcDbEntity
  8
Laag_1
 62
5
100
AcDbLine
 10
784.876530
 20
804.245260
 30
0.0
 11
784.284920
 21
804.836900
 31
0.0
  0
LINE
  5
4f1
100
AcDbEntity
  8
Laag_1
 62
5
100
AcDbLine
 10
784.284920
 20
804.836900
 30
0.0
 11
783.693330
 21
806.020170
 31
0.0
  0
LINE
  5
4f2
100
AcDbEntity
  8
Laag_1
 62
5
100
AcDbLine
 10
783.693330
 20
806.020170
 30
0.0
 11
783.575020
 21
806.848440
 31
0.0
  0
LINE
  5
4f3
100
AcDbEntity
  8
Laag_1
 62
5
100
AcDbLine
 10
783.575020
 20
806.848440
 30
0.0
 11
783.575040
 21
807.440080
 31
0.0
  0
LINE
  5
4f4
100
AcDbEntity
  8
Laag_1
 62
5
100
AcDbLine
 10
783.575040
 20
807.440080
 30
0.0
 11
783.811700
 21
808.150020
 31
0.0
  0
LINE
  5
4f5
100
AcDbEntity
  8
Laag_1
 62
5
100
AcDbLine
 10
783.811700
 20
808.150020
 30
0.0
 11
784.166690
 21
808.623310
 31
0.0
  0
LINE
  5
4f6
100
AcDbEntity
  8
Laag_1
 62
5
100
AcDbLine
 10
784.166690
 20
808.623310
 30
0.0
 11
785.113310
 21
809.096590
 31
0.0
  0
LINE
  5
4f7
100
AcDbEntity
  8
Laag_1
 62
5
100
AcDbLine
 10
785.113310
 20
809.096590
 30
0.0
 11
785.704930
 21
809.096580
 31
0.0
  0
LINE
  5
4f8
100
AcDbEntity
  8
Laag_1
 62
5
100
AcDbLine
 10
785.704930
 20
809.096580
 30
0.0
 11
786.414880
 21
808.859910
 31
0.0
  0
LINE
  5
4f9
100
AcDbEntity
  8
Laag_1
 62
5
100
AcDbLine
 10
786.414880
 20
808.859910
 30
0.0
 11
786.888170
 21
808.504910
 31
0.0
  0
LINE
  5
4fa
100
AcDbEntity
  8
Laag_1
 62
1
100
AcDbLine
 10
857.777693
 20
778.511530
 30
0.0
 11
851.050457
 21
782.747896
 31
0.0
  0
LINE
  5
4fb
100
AcDbEntity
  8
Laag_1
 62
1
100
AcDbLine
 10
851.050457
 20
782.747896
 30
0.0
 11
860.349154
 21
797.513977
 31
0.0
  0
LINE
  5
4fc
100
AcDbEntity
  8
Laag_1
 62
1
100
AcDbLine
 10
860.349154
 20
797.513977
 30
0.0
 11
867.076390
 21
793.277611
 31
0.0
  0
LINE
  5
4fd
100
AcDbEntity
  8
Laag_1
 62
1
100
AcDbLine
 10
867.076390
 20
793.277611
 30
0.0
 11
857.777693
 21
778.511530
 31
0.0
  0
SPLINE
  5
4fe
100
AcDbEntity
  8
Laag_1
 62
1
100
AcDbSpline
 70
8
 71
3
 72
8
 73
4
 74
0
 40
0
 40
0
 40
0
 40
0
 40
1
 40
1
 40
1
 40
1
 10
774.488145
 20
696.458627
 30
0.0
 10
773.060307
 20
694.191259
 30
0.0
 10
770.531304
 20
692.857867
 30
0.0
 10
767.853787
 20
692.960727
 30
0.0
  0
SPLINE
  5
4ff
100
AcDbEntity
  8
Laag_1
 62
1
100
AcDbSpline
 70
8
 71
3
 72
8
 73
4
 74
0
 40
0
 40
0
 40
0
 40
0
 40
1
 40
1
 40
1
 40
1
 10
767.853787
 20
692.960727
 30
0.0
 10
765.176270
 20
693.063586
 30
0.0
 10
762.757017
 20
694.587071
 30
0.0
 10
761.507338
 20
696.957299
 30
0.0
  0
SPLINE
  5
500
100
AcDbEntity
  8
Laag_1
 62
1
100
AcDbSpline
 70
8
 71
3
 72
8
 73
4
 74
0
 40
0
 40
0
 40
0
 40
0
 40
1
 40
1
 40
1
 40
1
 10
761.507338
 20
696.957299
 30
0.0
 10
760.257659
 20
699.327526
 30
0.0
 10
760.367409
 20
702.184403
 30
0.0
 10
761.795246
 20
704.451771
 30
0.0
  0
SPLINE
  5
501
100
AcDbEntity
  8
Laag_1
 62
1
100
AcDbSpline
 70
8
 71
3
 72
8
 73
4
 74
0
 40
0
 40
0
 40
0
 40
0
 40
1
 40
1
 40
1
 40
1
 10
761.795246
 20
704.451771
 30
0.0
 10
763.223084
 20
706.719139
 30
0.0
 10
765.752087
 20
708.052531
 30
0.0
 10
768.429604
 20
707.949671
 30
0.0
  0
SPLINE
  5
502
100
AcDbEntity
  8
Laag_1
 62
1
100
AcDbSpline
 70
8
 71
3
 72
8
 73
4
 74
0
 40
0
 40
0
 40
0
 40
0
 40
1
 40
1
 40
1
 40
1
 10
768.429604
 20
707.949671
 30
0.0
 10
771.107121
 20
707.846811
 30
0.0
 10
773.526374
 20
706.323326
 30
0.0
 10
774.776053
 20
703.953099
 30
0.0
  0
SPLINE
  5
503
100
AcDbEntity
  8
Laag_1
 62
1
100
AcDbSpline
 70
8
 71
3
 72
8
 73
4
 74
0
 40
0
 40
0
 40
0
 40
0
 40
1
 40
1
 40
1
 40
1
 10
774.776053
 20
703.953099
 30
0.0
 10
776.025732
 20
701.582871
 30
0.0
 10
775.915982
 20
698.725994
 30
0.0
 10
774.488145
 20
696.458627
 30
0.0
  0
LINE
  5
504
100
AcDbEntity
  8
Laag_1
 62
1
100
AcDbLine
 10
774.488145
 20
696.458627
 30
0.0
 11
774.488145
 21
696.458627
 31
0.0
  0
LINE
  5
505
100
AcDbEntity
  8
Laag_1
 62
1
100
AcDbLine
 10
785.573557
 20
735.434662
 30
0.0
 11
803.009625
 21
736.131927
 31
0.0
  0
LINE
  5
506
100
AcDbEntity
  8
Laag_1
 62
1
100
AcDbLine
 10
803.009625
 20
736.131927
 30
0.0
 11
803.327285
 21
728.188274
 31
0.0
  0
LINE
  5
507
100
AcDbEntity
  8
Laag_1
 62
1
100
AcDbLine
 10
803.327285
 20
728.188274
 30
0.0
 11
785.891216
 21
727.491010
 31
0.0
  0
LINE
  5
508
100
AcDbEntity
  8
Laag_1
 62
1
100
AcDbLine
 10
785.891216
 20
727.491010
 30
0.0
 11
785.573557
 21
735.434662
 31
0.0
  0
LINE
  5
509
100
AcDbEntity
  8
Laag_1
 62
1
100
AcDbLine
 10
839.127018
 20
748.894761
 30
0.0
 11
832.399783
 21
753.131127
 31
0.0
  0
LINE
  5
50a
100
AcDbEntity
  8
Laag_1
 62
1
100
AcDbLine
 10
832.399783
 20
753.131127
 30
0.0
 11
841.698480
 21
767.897208
 31
0.0
  0
LINE
  5
50b
100
AcDbEntity
  8
Laag_1
 62
1
100
AcDbLine
 10
841.698480
 20
767.897208
 30
0.0
 11
848.425715
 21
763.660842
 31
0.0
  0
LINE
  5
50c
100
AcDbEntity
  8
Laag_1
 62
1
100
AcDbLine
 10
848.425715
 20
763.660842
 30
0.0
 11
839.127018
 21
748.894761
 31
0.0
  0
LINE
  5
50d
100
AcDbEntity
  8
Laag_1
 62
1
100
AcDbLine
 10
768.355235
 20
726.789763
 30
0.0
 11
750.919172
 21
726.092507
 31
0.0
  0
LINE
  5
50e
100
AcDbEntity
  8
Laag_1
 62
1
100
AcDbLine
 10
750.919172
 20
726.092507
 30
0.0
 11
750.601510
 21
734.036159
 31
0.0
  0
LINE
  5
50f
100
AcDbEntity
  8
Laag_1
 62
1
100
AcDbLine
 10
750.601510
 20
734.036159
 30
0.0
 11
768.037568
 21
734.733408
 31
0.0
  0
LINE
  5
510
100
AcDbEntity
  8
Laag_1
 62
1
100
AcDbLine
 10
768.037568
 20
734.733408
 30
0.0
 11
768.355235
 21
726.789763
 31
0.0
  0
SPLINE
  5
511
100
AcDbEntity
  8
Laag_1
 62
1
100
AcDbSpline
 70
8
 71
3
 72
8
 73
4
 74
0
 40
0
 40
0
 40
0
 40
0
 40
1
 40
1
 40
1
 40
1
 10
830.772913
 20
729.013623
 30
0.0
 10
829.345076
 20
726.746255
 30
0.0
 10
826.816073
 20
725.412864
 30
0.0
 10
824.138556
 20
725.515723
 30
0.0
  0
SPLINE
  5
512
100
AcDbEntity
  8
Laag_1
 62
1
100
AcDbSpline
 70
8
 71
3
 72
8
 73
4
 74
0
 40
0
 40
0
 40
0
 40
0
 40
1
 40
1
 40
1
 40
1
 10
824.138556
 20
725.515723
 30
0.0
 10
821.461039
 20
725.618583
 30
0.0
 10
819.041786
 20
727.142068
 30
0.0
 10
817.792107
 20
729.512295
 30
0.0
  0
SPLINE
  5
513
100
AcDbEntity
  8
Laag_1
 62
1
100
AcDbSpline
 70
8
 71
3
 72
8
 73
4
 74
0
 40
0
 40
0
 40
0
 40
0
 40
1
 40
1
 40
1
 40
1
 10
817.792107
 20
729.512295
 30
0.0
 10
816.542428
 20
731.882523
 30
0.0
 10
816.652178
 20
734.739400
 30
0.0
 10
818.080016
 20
737.006767
 30
0.0
  0
SPLINE
  5
514
100
AcDbEntity
  8
Laag_1
 62
1
100
AcDbSpline
 70
8
 71
3
 72
8
 73
4
 74
0
 40
0
 40
0
 40
0
 40
0
 40
1
 40
1
 40
1
 40
1
 10
818.080016
 20
737.006767
 30
0.0
 10
819.507853
 20
739.274135
 30
0.0
 10
822.036856
 20
740.607527
 30
0.0
 10
824.714373
 20
740.504667
 30
0.0
  0
SPLINE
  5
515
100
AcDbEntity
  8
Laag_1
 62
1
100
AcDbSpline
 70
8
 71
3
 72
8
 73
4
 74
0
 40
0
 40
0
 40
0
 40
0
 40
1
 40
1
 40
1
 40
1
 10
824.714373
 20
740.504667
 30
0.0
 10
827.391890
 20
740.401808
 30
0.0
 10
829.811143
 20
738.878323
 30
0.0
 10
831.060822
 20
736.508095
 30
0.0
  0
SPLINE
  5
516
100
AcDbEntity
  8
Laag_1
 62
1
100
AcDbSpline
 70
8
 71
3
 72
8
 73
4
 74
0
 40
0
 40
0
 40
0
 40
0
 40
1
 40
1
 40
1
 40
1
 10
831.060822
 20
736.508095
 30
0.0
 10
832.310501
 20
734.137868
 30
0.0
 10
832.200751
 20
731.280991
 30
0.0
 10
830.772913
 20
729.013623
 30
0.0
  0
LINE
  5
517
100
AcDbEntity
  8
Laag_1
 62
1
100
AcDbLine
 10
830.772913
 20
729.013623
 30
0.0
 11
830.772913
 21
729.013623
 31
0.0
  0
LINE
  5
518
100
AcDbEntity
  8
Laag_1
 62
1
100
AcDbLine
 10
897.944532
 20
726.207985
 30
0.0
 11
880.507392
 21
726.877847
 31
0.0
  0
LINE
  5
519
100
AcDbEntity
  8
Laag_1
 62
1
100
AcDbLine
 10
880.507392
 20
726.877847
 30
0.0
 11
880.812576
 21
734.821994
 31
0.0
  0
LINE
  5
51a
100
AcDbEntity
  8
Laag_1
 62
1
100
AcDbLine
 10
880.812576
 20
734.821994
 30
0.0
 11
898.249719
 21
734.152130
 31
0.0
  0
LINE
  5
51b
100
AcDbEntity
  8
Laag_1
 62
1
100
AcDbLine
 10
898.249719
 20
734.152130
 30
0.0
 11
897.944532
 21
726.207985
 31
0.0
  0
SPLINE
  5
51c
100
AcDbEntity
  8
Laag_1
 62
1
100
AcDbSpline
 70
8
 71
3
 72
8
 73
4
 74
0
 40
0
 40
0
 40
0
 40
0
 40
1
 40
1
 40
1
 40
1
 10
882.294421
 20
693.676650
 30
0.0
 10
880.867078
 20
691.408178
 30
0.0
 10
878.337702
 20
690.073780
 30
0.0
 10
875.659502
 20
690.176330
 30
0.0
  0
SPLINE
  5
51d
100
AcDbEntity
  8
Laag_1
 62
1
100
AcDbSpline
 70
8
 71
3
 72
8
 73
4
 74
0
 40
0
 40
0
 40
0
 40
0
 40
1
 40
1
 40
1
 40
1
 10
875.659502
 20
690.176330
 30
0.0
 10
872.981301
 20
690.278880
 30
0.0
 10
870.561372
 20
691.802791
 30
0.0
 10
869.311676
 20
694.173769
 30
0.0
  0
SPLINE
  5
51e
100
AcDbEntity
  8
Laag_1
 62
1
100
AcDbSpline
 70
8
 71
3
 72
8
 73
4
 74
0
 40
0
 40
0
 40
0
 40
0
 40
1
 40
1
 40
1
 40
1
 10
869.311676
 20
694.173769
 30
0.0
 10
868.061981
 20
696.544746
 30
0.0
 10
868.172478
 20
699.402395
 30
0.0
 10
869.601525
 20
701.669794
 30
0.0
  0
SPLINE
  5
51f
100
AcDbEntity
  8
Laag_1
 62
1
100
AcDbSpline
 70
8
 71
3
 72
8
 73
4
 74
0
 40
0
 40
0
 40
0
 40
0
 40
1
 40
1
 40
1
 40
1
 10
869.601525
 20
701.669794
 30
0.0
 10
871.028868
 20
703.938265
 30
0.0
 10
873.558244
 20
705.272664
 30
0.0
 10
876.236444
 20
705.170114
 30
0.0
  0
SPLINE
  5
520
100
AcDbEntity
  8
Laag_1
 62
1
100
AcDbSpline
 70
8
 71
3
 72
8
 73
4
 74
0
 40
0
 40
0
 40
0
 40
0
 40
1
 40
1
 40
1
 40
1
 10
876.236444
 20
705.170114
 30
0.0
 10
878.914645
 20
705.067564
 30
0.0
 10
881.334574
 20
703.543653
 30
0.0
 10
882.584270
 20
701.172675
 30
0.0
  0
SPLINE
  5
521
100
AcDbEntity
  8
Laag_1
 62
1
100
AcDbSpline
 70
8
 71
3
 72
8
 73
4
 74
0
 40
0
 40
0
 40
0
 40
0
 40
1
 40
1
 40
1
 40
1
 10
882.584270
 20
701.172675
 30
0.0
 10
883.833965
 20
698.801697
 30
0.0
 10
883.723469
 20
695.944049
 30
0.0
 10
882.294421
 20
693.676650
 30
0.0
  0
LINE
  5
522
100
AcDbEntity
  8
Laag_1
 62
1
100
AcDbLine
 10
882.294421
 20
693.676650
 30
0.0
 11
882.294421
 21
693.676650
 31
0.0
  0
LINE
  5
523
100
AcDbEntity
  8
Laag_1
 62
1
100
AcDbLine
 10
794.664343
 20
780.936099
 30
0.0
 11
786.525900
 21
796.372042
 31
0.0
  0
LINE
  5
524
100
AcDbEntity
  8
Laag_1
 62
1
100
AcDbLine
 10
786.525900
 20
796.372042
 30
0.0
 11
793.558322
 21
800.079821
 31
0.0
  0
LINE
  5
525
100
AcDbEntity
  8
Laag_1
 62
1
100
AcDbLine
 10
793.558322
 20
800.079821
 30
0.0
 11
801.696767
 21
784.643877
 31
0.0
  0
LINE
  5
526
100
AcDbEntity
  8
Laag_1
 62
1
100
AcDbLine
 10
801.696767
 20
784.643877
 30
0.0
 11
794.664343
 21
780.936099
 31
0.0
  0
SPLINE
  5
527
100
AcDbEntity
  8
Laag_1
 62
1
100
AcDbSpline
 70
8
 71
3
 72
8
 73
4
 74
0
 40
0
 40
0
 40
0
 40
0
 40
1
 40
1
 40
1
 40
1
 10
776.643171
 20
760.208792
 30
0.0
 10
775.215828
 20
757.940320
 30
0.0
 10
772.686451
 20
756.605922
 30
0.0
 10
770.008251
 20
756.708472
 30
0.0
  0
SPLINE
  5
528
100
AcDbEntity
  8
Laag_1
 62
1
100
AcDbSpline
 70
8
 71
3
 72
8
 73
4
 74
0
 40
0
 40
0
 40
0
 40
0
 40
1
 40
1
 40
1
 40
1
 10
770.008251
 20
756.708472
 30
0.0
 10
767.330051
 20
756.811022
 30
0.0
 10
764.910121
 20
758.334933
 30
0.0
 10
763.660426
 20
760.705911
 30
0.0
  0
SPLINE
  5
529
100
AcDbEntity
  8
Laag_1
 62
1
100
AcDbSpline
 70
8
 71
3
 72
8
 73
4
 74
0
 40
0
 40
0
 40
0
 40
0
 40
1
 40
1
 40
1
 40
1
 10
763.660426
 20
760.705911
 30
0.0
 10
762.410730
 20
763.076889
 30
0.0
 10
762.521227
 20
765.934537
 30
0.0
 10
763.950274
 20
768.201936
 30
0.0
  0
SPLINE
  5
52a
100
AcDbEntity
  8
Laag_1
 62
1
100
AcDbSpline
 70
8
 71
3
 72
8
 73
4
 74
0
 40
0
 40
0
 40
0
 40
0
 40
1
 40
1
 40
1
 40
1
 10
763.950274
 20
768.201936
 30
0.0
 10
765.377617
 20
770.470408
 30
0.0
 10
767.906993
 20
771.804806
 30
0.0
 10
770.585194
 20
771.702256
 30
0.0
  0
SPLINE
  5
52b
100
AcDbEntity
  8
Laag_1
 62
1
100
AcDbSpline
 70
8
 71
3
 72
8
 73
4
 74
0
 40
0
 40
0
 40
0
 40
0
 40
1
 40
1
 40
1
 40
1
 10
770.585194
 20
771.702256
 30
0.0
 10
773.263394
 20
771.599706
 30
0.0
 10
775.683324
 20
770.075795
 30
0.0
 10
776.933019
 20
767.704817
 30
0.0
  0
SPLINE
  5
52c
100
AcDbEntity
  8
Laag_1
 62
1
100
AcDbSpline
 70
8
 71
3
 72
8
 73
4
 74
0
 40
0
 40
0
 40
0
 40
0
 40
1
 40
1
 40
1
 40
1
 10
776.933019
 20
767.704817
 30
0.0
 10
778.182714
 20
765.333839
 30
0.0
 10
778.072218
 20
762.476191
 30
0.0
 10
776.643171
 20
760.208792
 30
0.0
  0
LINE
  5
52d
100
AcDbEntity
  8
Laag_1
 62
1
100
AcDbLine
 10
776.643171
 20
760.208792
 30
0.0
 11
776.643171
 21
760.208792
 31
0.0
  0
LINE
  5
52e
100
AcDbEntity
  8
Laag_1
 62
1
100
AcDbLine
 10
862.970321
 20
727.551543
 30
0.0
 11
845.533194
 21
728.221428
 31
0.0
  0
LINE
  5
52f
100
AcDbEntity
  8
Laag_1
 62
1
100
AcDbLine
 10
845.533194
 20
728.221428
 30
0.0
 11
845.838366
 21
736.165551
 31
0.0
  0
LINE
  5
530
100
AcDbEntity
  8
Laag_1
 62
1
100
AcDbLine
 10
845.838366
 20
736.165551
 30
0.0
 11
863.275508
 21
735.495688
 31
0.0
  0
LINE
  5
531
100
AcDbEntity
  8
Laag_1
 62
1
100
AcDbLine
 10
863.275508
 20
735.495688
 30
0.0
 11
862.970321
 21
727.551543
 31
0.0
  0
SPLINE
  5
532
100
AcDbEntity
  8
Laag_1
 62
1
100
AcDbSpline
 70
8
 71
3
 72
8
 73
4
 74
0
 40
0
 40
0
 40
0
 40
0
 40
1
 40
1
 40
1
 40
1
 10
887.201792
 20
758.765193
 30
0.0
 10
885.774201
 20
756.497273
 30
0.0
 10
883.245012
 20
755.163378
 30
0.0
 10
880.567153
 20
755.266083
 30
0.0
  0
SPLINE
  5
533
100
AcDbEntity
  8
Laag_1
 62
1
100
AcDbSpline
 70
8
 71
3
 72
8
 73
4
 74
0
 40
0
 40
0
 40
0
 40
0
 40
1
 40
1
 40
1
 40
1
 10
880.567153
 20
755.266083
 30
0.0
 10
877.889294
 20
755.368788
 30
0.0
 10
875.469703
 20
756.892486
 30
0.0
 10
874.220016
 20
759.263088
 30
0.0
  0
SPLINE
  5
534
100
AcDbEntity
  8
Laag_1
 62
1
100
AcDbSpline
 70
8
 71
3
 72
8
 73
4
 74
0
 40
0
 40
0
 40
0
 40
0
 40
1
 40
1
 40
1
 40
1
 10
874.220016
 20
759.263088
 30
0.0
 10
872.970328
 20
761.633691
 30
0.0
 10
873.080451
 20
764.490954
 30
0.0
 10
874.508894
 20
766.758337
 30
0.0
  0
SPLINE
  5
535
100
AcDbEntity
  8
Laag_1
 62
1
100
AcDbSpline
 70
8
 71
3
 72
8
 73
4
 74
0
 40
0
 40
0
 40
0
 40
0
 40
1
 40
1
 40
1
 40
1
 10
874.508894
 20
766.758337
 30
0.0
 10
875.936484
 20
769.026257
 30
0.0
 10
878.465674
 20
770.360152
 30
0.0
 10
881.143533
 20
770.257447
 30
0.0
  0
SPLINE
  5
536
100
AcDbEntity
  8
Laag_1
 62
1
100
AcDbSpline
 70
8
 71
3
 72
8
 73
4
 74
0
 40
0
 40
0
 40
0
 40
0
 40
1
 40
1
 40
1
 40
1
 10
881.143533
 20
770.257447
 30
0.0
 10
883.821392
 20
770.154742
 30
0.0
 10
886.240983
 20
768.631045
 30
0.0
 10
887.490670
 20
766.260442
 30
0.0
  0
SPLINE
  5
537
100
AcDbEntity
  8
Laag_1
 62
1
100
AcDbSpline
 70
8
 71
3
 72
8
 73
4
 74
0
 40
0
 40
0
 40
0
 40
0
 40
1
 40
1
 40
1
 40
1
 10
887.490670
 20
766.260442
 30
0.0
 10
888.740357
 20
763.889839
 30
0.0
 10
888.630234
 20
761.032577
 30
0.0
 10
887.201792
 20
758.765193
 30
0.0
  0
LINE
  5
538
100
AcDbEntity
  8
Laag_1
 62
1
100
AcDbLine
 10
887.201792
 20
758.765193
 30
0.0
 11
887.201792
 21
758.765193
 31
0.0
  0
SPLINE
  5
539
100
AcDbEntity
  8
Laag_1
 62
1
100
AcDbSpline
 70
8
 71
3
 72
8
 73
4
 74
0
 40
0
 40
0
 40
0
 40
0
 40
1
 40
1
 40
1
 40
1
 10
833.221732
 20
792.758250
 30
0.0
 10
831.794141
 20
790.490330
 30
0.0
 10
829.264952
 20
789.156435
 30
0.0
 10
826.587093
 20
789.259140
 30
0.0
  0
SPLINE
  5
53a
100
AcDbEntity
  8
Laag_1
 62
1
100
AcDbSpline
 70
8
 71
3
 72
8
 73
4
 74
0
 40
0
 40
0
 40
0
 40
0
 40
1
 40
1
 40
1
 40
1
 10
826.587093
 20
789.259140
 30
0.0
 10
823.909234
 20
789.361845
 30
0.0
 10
821.489643
 20
790.885543
 30
0.0
 10
820.239956
 20
793.256146
 30
0.0
  0
SPLINE
  5
53b
100
AcDbEntity
  8
Laag_1
 62
1
100
AcDbSpline
 70
8
 71
3
 72
8
 73
4
 74
0
 40
0
 40
0
 40
0
 40
0
 40
1
 40
1
 40
1
 40
1
 10
820.239956
 20
793.256146
 30
0.0
 10
818.990268
 20
795.626749
 30
0.0
 10
819.100392
 20
798.484011
 30
0.0
 10
820.528834
 20
800.751395
 30
0.0
  0
SPLINE
  5
53c
100
AcDbEntity
  8
Laag_1
 62
1
100
AcDbSpline
 70
8
 71
3
 72
8
 73
4
 74
0
 40
0
 40
0
 40
0
 40
0
 40
1
 40
1
 40
1
 40
1
 10
820.528834
 20
800.751395
 30
0.0
 10
821.956672
 20
803.018762
 30
0.0
 10
824.485674
 20
804.352154
 30
0.0
 10
827.163191
 20
804.249294
 30
0.0
  0
SPLINE
  5
53d
100
AcDbEntity
  8
Laag_1
 62
1
100
AcDbSpline
 70
8
 71
3
 72
8
 73
4
 74
0
 40
0
 40
0
 40
0
 40
0
 40
1
 40
1
 40
1
 40
1
 10
827.163191
 20
804.249294
 30
0.0
 10
829.840708
 20
804.146435
 30
0.0
 10
832.259961
 20
802.622950
 30
0.0
 10
833.509640
 20
800.252722
 30
0.0
  0
SPLINE
  5
53e
100
AcDbEntity
  8
Laag_1
 62
1
100
AcDbSpline
 70
8
 71
3
 72
8
 73
4
 74
0
 40
0
 40
0
 40
0
 40
0
 40
1
 40
1
 40
1
 40
1
 10
833.509640
 20
800.252722
 30
0.0
 10
834.759320
 20
797.882495
 30
0.0
 10
834.649569
 20
795.025618
 30
0.0
 10
833.221732
 20
792.758250
 30
0.0
  0
LINE
  5
53f
100
AcDbEntity
  8
Laag_1
 62
1
100
AcDbLine
 10
833.221732
 20
792.758250
 30
0.0
 11
833.221732
 21
792.758250
 31
0.0
  0
LINE
  5
540
100
AcDbEntity
  8
Laag_1
 62
1
100
AcDbLine
 10
810.987881
 20
749.975772
 30
0.0
 11
802.849423
 21
765.411693
 31
0.0
  0
LINE
  5
541
100
AcDbEntity
  8
Laag_1
 62
1
100
AcDbLine
 10
802.849423
 20
765.411693
 30
0.0
 11
809.881844
 21
769.119472
 31
0.0
  0
LINE
  5
542
100
AcDbEntity
  8
Laag_1
 62
1
100
AcDbLine
 10
809.881844
 20
769.119472
 30
0.0
 11
818.020289
 21
753.683528
 31
0.0
  0
LINE
  5
543
100
AcDbEntity
  8
Laag_1
 62
1
100
AcDbLine
 10
818.020289
 20
753.683528
 30
0.0
 11
810.987881
 21
749.975772
 31
0.0
  0
LINE
  5
544
100
AcDbEntity
  8
Laag_1
 62
1
100
AcDbLine
 10
896.372259
 20
671.867218
 30
0.0
 11
903.944611
 21
669.286626
 31
0.0
  0
LINE
  5
545
100
AcDbEntity
  8
Laag_1
 62
1
100
AcDbLine
 10
903.944611
 20
669.286626
 30
0.0
 11
923.014633
 21
725.244885
 31
0.0
  0
LINE
  5
546
100
AcDbEntity
  8
Laag_1
 62
1
100
AcDbLine
 10
923.014633
 20
725.244885
 30
0.0
 11
915.481589
 21
725.534267
 31
0.0
  0
LINE
  5
547
100
AcDbEntity
  8
Laag_1
 62
1
100
AcDbLine
 10
915.481589
 20
725.534267
 30
0.0
 11
915.786776
 21
733.478412
 31
0.0
  0
LINE
  5
548
100
AcDbEntity
  8
Laag_1
 62
1
100
AcDbLine
 10
915.786776
 20
733.478412
 30
0.0
 11
922.212077
 21
733.231590
 31
0.0
  0
LINE
  5
549
100
AcDbEntity
  8
Laag_1
 62
1
100
AcDbLine
 10
922.212077
 20
733.231590
 30
0.0
 11
879.854767
 21
813.569329
 31
0.0
  0
LINE
  5
54a
100
AcDbEntity
  8
Laag_1
 62
1
100
AcDbLine
 10
879.854767
 20
813.569329
 30
0.0
 11
876.428367
 21
808.128299
 31
0.0
  0
LINE
  5
54b
100
AcDbEntity
  8
Laag_1
 62
1
100
AcDbLine
 10
876.428367
 20
808.128299
 30
0.0
 11
869.701131
 21
812.364665
 31
0.0
  0
LINE
  5
54c
100
AcDbEntity
  8
Laag_1
 62
1
100
AcDbLine
 10
869.701131
 20
812.364665
 30
0.0
 11
873.127531
 21
817.805696
 31
0.0
  0
LINE
  5
54d
100
AcDbEntity
  8
Laag_1
 62
1
100
AcDbLine
 10
873.127531
 20
817.805696
 30
0.0
 11
782.374355
 21
821.292102
 31
0.0
  0
LINE
  5
54e
100
AcDbEntity
  8
Laag_1
 62
1
100
AcDbLine
 10
782.374355
 20
821.292102
 30
0.0
 11
785.373228
 21
815.604205
 31
0.0
  0
LINE
  5
54f
100
AcDbEntity
  8
Laag_1
 62
1
100
AcDbLine
 10
785.373228
 20
815.604205
 30
0.0
 11
778.340806
 21
811.896426
 31
0.0
  0
LINE
  5
550
100
AcDbEntity
  8
Laag_1
 62
1
100
AcDbLine
 10
778.340806
 20
811.896426
 30
0.0
 11
775.441072
 21
817.396259
 31
0.0
  0
LINE
  5
551
100
AcDbEntity
  8
Laag_1
 62
1
100
AcDbLine
 10
775.441072
 20
817.396259
 30
0.0
 11
726.853045
 21
733.086473
 31
0.0
  0
LINE
  5
552
100
AcDbEntity
  8
Laag_1
 62
1
100
AcDbLine
 10
726.853045
 20
733.086473
 30
0.0
 11
733.065525
 21
733.334905
 31
0.0
  0
LINE
  5
553
100
AcDbEntity
  8
Laag_1
 62
1
100
AcDbLine
 10
733.065525
 20
733.334905
 30
0.0
 11
733.383187
 21
725.391253
 31
0.0
  0
LINE
  5
554
100
AcDbEntity
  8
Laag_1
 62
1
100
AcDbLine
 10
733.383187
 20
725.391253
 30
0.0
 11
725.851226
 21
725.090055
 31
0.0
  0
LINE
  5
555
100
AcDbEntity
  8
Laag_1
 62
1
100
AcDbLine
 10
725.851226
 20
725.090055
 30
0.0
 11
745.021887
 21
669.150510
 31
0.0
  0
LINE
  5
556
100
AcDbEntity
  8
Laag_1
 62
1
100
AcDbLine
 10
745.021887
 20
669.150510
 30
0.0
 11
752.589813
 21
671.744064
 31
0.0
  0
LINE
  5
557
100
AcDbEntity
  8
Laag_1
 62
1
100
AcDbLine
 10
752.589813
 20
671.744064
 30
0.0
 11
758.279416
 21
655.141927
 31
0.0
  0
LINE
  5
558
100
AcDbEntity
  8
Laag_1
 62
1
100
AcDbLine
 10
758.279416
 20
655.141927
 30
0.0
 11
750.711491
 21
652.548376
 31
0.0
  0
LINE
  5
559
100
AcDbEntity
  8
Laag_1
 62
1
100
AcDbLine
 10
750.711491
 20
652.548376
 30
0.0
 11
756.368677
 21
636.040841
 31
0.0
  0
LINE
  5
55a
100
AcDbEntity
  8
Laag_1
 62
1
100
AcDbLine
 10
756.368677
 20
636.040841
 30
0.0
 11
763.936602
 21
638.634393
 31
0.0
  0
LINE
  5
55b
100
AcDbEntity
  8
Laag_1
 62
1
100
AcDbLine
 10
763.936602
 20
638.634393
 30
0.0
 11
769.626205
 21
622.032255
 31
0.0
  0
LINE
  5
55c
100
AcDbEntity
  8
Laag_1
 62
1
100
AcDbLine
 10
769.626205
 20
622.032255
 30
0.0
 11
762.058280
 21
619.438704
 31
0.0
  0
LINE
  5
55d
100
AcDbEntity
  8
Laag_1
 62
1
100
AcDbLine
 10
762.058280
 20
619.438704
 30
0.0
 11
767.715467
 21
602.931169
 31
0.0
  0
LINE
  5
55e
100
AcDbEntity
  8
Laag_1
 62
1
100
AcDbLine
 10
767.715467
 20
602.931169
 30
0.0
 11
775.283392
 21
605.524721
 31
0.0
  0
LINE
  5
55f
100
AcDbEntity
  8
Laag_1
 62
1
100
AcDbLine
 10
775.283392
 20
605.524721
 30
0.0
 11
780.972996
 21
588.922586
 31
0.0
  0
LINE
  5
560
100
AcDbEntity
  8
Laag_1
 62
1
100
AcDbLine
 10
780.972996
 20
588.922586
 30
0.0
 11
773.405071
 21
586.329034
 31
0.0
  0
LINE
  5
561
100
AcDbEntity
  8
Laag_1
 62
1
100
AcDbLine
 10
773.405071
 20
586.329034
 30
0.0
 11
774.557382
 21
582.966617
 31
0.0
  0
LINE
  5
562
100
AcDbEntity
  8
Laag_1
 62
1
100
AcDbLine
 10
774.557382
 20
582.966617
 30
0.0
 11
815.557367
 21
583.002396
 31
0.0
  0
LINE
  5
563
100
AcDbEntity
  8
Laag_1
 62
1
100
AcDbLine
 10
815.557367
 20
583.002396
 30
0.0
 11
815.491916
 21
658.002367
 31
0.0
  0
LINE
  5
564
100
AcDbEntity
  8
Laag_1
 62
1
100
AcDbLine
 10
815.491916
 20
658.002367
 30
0.0
 11
833.491909
 21
658.018074
 31
0.0
  0
LINE
  5
565
100
AcDbEntity
  8
Laag_1
 62
1
100
AcDbLine
 10
833.491909
 20
658.018074
 30
0.0
 11
833.557360
 21
583.018103
 31
0.0
  0
LINE
  5
566
100
AcDbEntity
  8
Laag_1
 62
1
100
AcDbLine
 10
833.557360
 20
583.018103
 30
0.0
 11
874.557345
 21
583.053881
 31
0.0
  0
LINE
  5
567
100
AcDbEntity
  8
Laag_1
 62
1
100
AcDbLine
 10
874.557345
 20
583.053881
 30
0.0
 11
875.703342
 21
586.416652
 31
0.0
  0
LINE
  5
568
100
AcDbEntity
  8
Laag_1
 62
1
100
AcDbLine
 10
875.703342
 20
586.416652
 30
0.0
 11
868.130987
 21
588.997235
 31
0.0
  0
LINE
  5
569
100
AcDbEntity
  8
Laag_1
 62
1
100
AcDbLine
 10
868.130987
 20
588.997235
 30
0.0
 11
873.792142
 21
605.609094
 31
0.0
  0
LINE
  5
56a
100
AcDbEntity
  8
Laag_1
 62
1
100
AcDbLine
 10
873.792142
 20
605.609094
 30
0.0
 11
881.364499
 21
603.028509
 31
0.0
  0
LINE
  5
56b
100
AcDbEntity
  8
Laag_1
 62
1
100
AcDbLine
 10
881.364499
 20
603.028509
 30
0.0
 11
886.993399
 21
619.545712
 31
0.0
  0
LINE
  5
56c
100
AcDbEntity
  8
Laag_1
 62
1
100
AcDbLine
 10
886.993399
 20
619.545712
 30
0.0
 11
879.421042
 21
622.126296
 31
0.0
  0
LINE
  5
56d
100
AcDbEntity
  8
Laag_1
 62
1
100
AcDbLine
 10
879.421042
 20
622.126296
 30
0.0
 11
885.082199
 21
638.738153
 31
0.0
  0
LINE
  5
56e
100
AcDbEntity
  8
Laag_1
 62
1
100
AcDbLine
 10
885.082199
 20
638.738153
 30
0.0
 11
892.654556
 21
636.157569
 31
0.0
  0
LINE
  5
56f
100
AcDbEntity
  8
Laag_1
 62
1
100
AcDbLine
 10
892.654556
 20
636.157569
 30
0.0
 11
898.283454
 21
652.674770
 31
0.0
  0
LINE
  5
570
100
AcDbEntity
  8
Laag_1
 62
1
100
AcDbLine
 10
898.283454
 20
652.674770
 30
0.0
 11
890.711102
 21
655.255361
 31
0.0
  0
LINE
  5
571
100
AcDbEntity
  8
Laag_1
 62
1
100
AcDbLine
 10
890.711102
 20
655.255361
 30
0.0
 11
896.372259
 21
671.867218
 31
0.0
  0
LINE
  5
572
100
AcDbEntity
  8
Laag_1
 62
5
100
AcDbLine
 10
356.617692
 20
493.343440
 30
0.0
 11
362.173942
 21
493.343440
 31
0.0
  0
LINE
  5
573
100
AcDbEntity
  8
Laag_1
 62
5
100
AcDbLine
 10
356.617692
 20
493.343440
 30
0.0
 11
356.617692
 21
490.962190
 31
0.0
  0
LINE
  5
574
100
AcDbEntity
  8
Laag_1
 62
5
100
AcDbLine
 10
356.617692
 20
490.962190
 30
0.0
 11
356.882282
 21
490.168440
 31
0.0
  0
LINE
  5
575
100
AcDbEntity
  8
Laag_1
 62
5
100
AcDbLine
 10
356.882282
 20
490.168440
 30
0.0
 11
357.146862
 21
489.903850
 31
0.0
  0
LINE
  5
576
100
AcDbEntity
  8
Laag_1
 62
5
100
AcDbLine
 10
357.146862
 20
489.903850
 30
0.0
 11
357.676032
 21
489.639270
 31
0.0
  0
LINE
  5
577
100
AcDbEntity
  8
Laag_1
 62
5
100
AcDbLine
 10
357.676032
 20
489.639270
 30
0.0
 11
358.205192
 21
489.639270
 31
0.0
  0
LINE
  5
578
100
AcDbEntity
  8
Laag_1
 62
5
100
AcDbLine
 10
358.205192
 20
489.639270
 30
0.0
 11
358.734362
 21
489.903850
 31
0.0
  0
LINE
  5
579
100
AcDbEntity
  8
Laag_1
 62
5
100
AcDbLine
 10
358.734362
 20
489.903850
 30
0.0
 11
358.998942
 21
490.168440
 31
0.0
  0
LINE
  5
57a
100
AcDbEntity
  8
Laag_1
 62
5
100
AcDbLine
 10
358.998942
 20
490.168440
 30
0.0
 11
359.263532
 21
490.962190
 31
0.0
  0
LINE
  5
57b
100
AcDbEntity
  8
Laag_1
 62
5
100
AcDbLine
 10
359.263532
 20
493.343440
 30
0.0
 11
359.263532
 21
490.962190
 31
0.0
  0
LINE
  5
57c
100
AcDbEntity
  8
Laag_1
 62
5
100
AcDbLine
 10
359.263532
 20
490.962190
 30
0.0
 11
359.528112
 21
490.168440
 31
0.0
  0
LINE
  5
57d
100
AcDbEntity
  8
Laag_1
 62
5
100
AcDbLine
 10
359.528112
 20
490.168440
 30
0.0
 11
359.792692
 21
489.903850
 31
0.0
  0
LINE
  5
57e
100
AcDbEntity
  8
Laag_1
 62
5
100
AcDbLine
 10
359.792692
 20
489.903850
 30
0.0
 11
360.321862
 21
489.639270
 31
0.0
  0
LINE
  5
57f
100
AcDbEntity
  8
Laag_1
 62
5
100
AcDbLine
 10
360.321862
 20
489.639270
 30
0.0
 11
361.115612
 21
489.639270
 31
0.0
  0
LINE
  5
580
100
AcDbEntity
  8
Laag_1
 62
5
100
AcDbLine
 10
361.115612
 20
489.639270
 30
0.0
 11
361.644782
 21
489.903850
 31
0.0
  0
LINE
  5
581
100
AcDbEntity
  8
Laag_1
 62
5
100
AcDbLine
 10
361.644782
 20
489.903850
 30
0.0
 11
361.909362
 21
490.168440
 31
0.0
  0
LINE
  5
582
100
AcDbEntity
  8
Laag_1
 62
5
100
AcDbLine
 10
361.909362
 20
490.168440
 30
0.0
 11
362.173942
 21
490.962190
 31
0.0
  0
LINE
  5
583
100
AcDbEntity
  8
Laag_1
 62
5
100
AcDbLine
 10
362.173942
 20
490.962190
 30
0.0
 11
362.173942
 21
493.343440
 31
0.0
  0
LINE
  5
584
100
AcDbEntity
  8
Laag_1
 62
1
100
AcDbLine
 10
314.834722
 20
558.146642
 30
0.0
 11
306.696279
 21
542.710699
 31
0.0
  0
LINE
  5
585
100
AcDbEntity
  8
Laag_1
 62
1
100
AcDbLine
 10
306.696279
 20
542.710699
 30
0.0
 11
299.663855
 21
546.418477
 31
0.0
  0
LINE
  5
586
100
AcDbEntity
  8
Laag_1
 62
1
100
AcDbLine
 10
299.663855
 20
546.418477
 30
0.0
 11
307.802300
 21
561.854421
 31
0.0
  0
LINE
  5
587
100
AcDbEntity
  8
Laag_1
 62
1
100
AcDbLine
 10
307.802300
 20
561.854421
 30
0.0
 11
314.834722
 21
558.146642
 31
0.0
  0
LINE
  5
588
100
AcDbEntity
  8
Laag_1
 62
1
100
AcDbLine
 10
220.853230
 20
488.652447
 30
0.0
 11
203.416090
 21
487.982585
 31
0.0
  0
LINE
  5
589
100
AcDbEntity
  8
Laag_1
 62
1
100
AcDbLine
 10
203.416090
 20
487.982585
 30
0.0
 11
203.110903
 21
495.926730
 31
0.0
  0
LINE
  5
58a
100
AcDbEntity
  8
Laag_1
 62
1
100
AcDbLine
 10
203.110903
 20
495.926730
 30
0.0
 11
220.548046
 21
496.596594
 31
0.0
  0
LINE
  5
58b
100
AcDbEntity
  8
Laag_1
 62
1
100
AcDbLine
 10
220.548046
 20
496.596594
 30
0.0
 11
220.853230
 21
488.652447
 31
0.0
  0
LINE
  5
58c
100
AcDbEntity
  8
Laag_1
 62
1
100
AcDbLine
 10
255.827428
 20
489.996028
 30
0.0
 11
238.390301
 21
489.326143
 31
0.0
  0
LINE
  5
58d
100
AcDbEntity
  8
Laag_1
 62
1
100
AcDbLine
 10
238.390301
 20
489.326143
 30
0.0
 11
238.085114
 21
497.270288
 31
0.0
  0
LINE
  5
58e
100
AcDbEntity
  8
Laag_1
 62
1
100
AcDbLine
 10
238.085114
 20
497.270288
 30
0.0
 11
255.522256
 21
497.940151
 31
0.0
  0
LINE
  5
58f
100
AcDbEntity
  8
Laag_1
 62
1
100
AcDbLine
 10
255.522256
 20
497.940151
 30
0.0
 11
255.827428
 21
489.996028
 31
0.0
  0
SPLINE
  5
590
100
AcDbEntity
  8
Laag_1
 62
1
100
AcDbSpline
 70
8
 71
3
 72
8
 73
4
 74
0
 40
0
 40
0
 40
0
 40
0
 40
1
 40
1
 40
1
 40
1
 10
337.410348
 20
529.976536
 30
0.0
 10
338.839395
 20
527.709137
 30
0.0
 10
338.949892
 20
524.851489
 30
0.0
 10
337.700196
 20
522.480511
 30
0.0
  0
SPLINE
  5
591
100
AcDbEntity
  8
Laag_1
 62
1
100
AcDbSpline
 70
8
 71
3
 72
8
 73
4
 74
0
 40
0
 40
0
 40
0
 40
0
 40
1
 40
1
 40
1
 40
1
 10
337.700196
 20
522.480511
 30
0.0
 10
336.450501
 20
520.109533
 30
0.0
 10
334.030571
 20
518.585622
 30
0.0
 10
331.352371
 20
518.483072
 30
0.0
  0
SPLINE
  5
592
100
AcDbEntity
  8
Laag_1
 62
1
100
AcDbSpline
 70
8
 71
3
 72
8
 73
4
 74
0
 40
0
 40
0
 40
0
 40
0
 40
1
 40
1
 40
1
 40
1
 10
331.352371
 20
518.483072
 30
0.0
 10
328.674171
 20
518.380522
 30
0.0
 10
326.144794
 20
519.714920
 30
0.0
 10
324.717451
 20
521.983392
 30
0.0
  0
SPLINE
  5
593
100
AcDbEntity
  8
Laag_1
 62
1
100
AcDbSpline
 70
8
 71
3
 72
8
 73
4
 74
0
 40
0
 40
0
 40
0
 40
0
 40
1
 40
1
 40
1
 40
1
 10
324.717451
 20
521.983392
 30
0.0
 10
323.288404
 20
524.250791
 30
0.0
 10
323.177908
 20
527.108439
 30
0.0
 10
324.427603
 20
529.479417
 30
0.0
  0
SPLINE
  5
594
100
AcDbEntity
  8
Laag_1
 62
1
100
AcDbSpline
 70
8
 71
3
 72
8
 73
4
 74
0
 40
0
 40
0
 40
0
 40
0
 40
1
 40
1
 40
1
 40
1
 10
324.427603
 20
529.479417
 30
0.0
 10
325.677298
 20
531.850395
 30
0.0
 10
328.097228
 20
533.374306
 30
0.0
 10
330.775428
 20
533.476856
 30
0.0
  0
SPLINE
  5
595
100
AcDbEntity
  8
Laag_1
 62
1
100
AcDbSpline
 70
8
 71
3
 72
8
 73
4
 74
0
 40
0
 40
0
 40
0
 40
0
 40
1
 40
1
 40
1
 40
1
 10
330.775428
 20
533.476856
 30
0.0
 10
333.453629
 20
533.579406
 30
0.0
 10
335.983005
 20
532.245008
 30
0.0
 10
337.410348
 20
529.976536
 30
0.0
  0
LINE
  5
596
100
AcDbEntity
  8
Laag_1
 62
1
100
AcDbLine
 10
337.410348
 20
529.976536
 30
0.0
 11
337.410348
 21
529.976536
 31
0.0
  0
LINE
  5
597
100
AcDbEntity
  8
Laag_1
 62
1
100
AcDbLine
 10
298.350997
 20
497.906527
 30
0.0
 11
315.787065
 21
497.209262
 31
0.0
  0
LINE
  5
598
100
AcDbEntity
  8
Laag_1
 62
1
100
AcDbLine
 10
315.787065
 20
497.209262
 30
0.0
 11
315.469406
 21
489.265610
 31
0.0
  0
LINE
  5
599
100
AcDbEntity
  8
Laag_1
 62
1
100
AcDbLine
 10
315.469406
 20
489.265610
 30
0.0
 11
298.033337
 21
489.962874
 31
0.0
  0
LINE
  5
59a
100
AcDbEntity
  8
Laag_1
 62
1
100
AcDbLine
 10
298.033337
 20
489.962874
 30
0.0
 11
298.350997
 21
497.906527
 31
0.0
  0
SPLINE
  5
59b
100
AcDbEntity
  8
Laag_1
 62
1
100
AcDbSpline
 70
8
 71
3
 72
8
 73
4
 74
0
 40
0
 40
0
 40
0
 40
0
 40
1
 40
1
 40
1
 40
1
 10
283.280606
 20
498.781367
 30
0.0
 10
284.708444
 20
496.514000
 30
0.0
 10
284.818194
 20
493.657123
 30
0.0
 10
283.568515
 20
491.286895
 30
0.0
  0
SPLINE
  5
59c
100
AcDbEntity
  8
Laag_1
 62
1
100
AcDbSpline
 70
8
 71
3
 72
8
 73
4
 74
0
 40
0
 40
0
 40
0
 40
0
 40
1
 40
1
 40
1
 40
1
 10
283.568515
 20
491.286895
 30
0.0
 10
282.318836
 20
488.916668
 30
0.0
 10
279.899583
 20
487.393183
 30
0.0
 10
277.222066
 20
487.290323
 30
0.0
  0
SPLINE
  5
59d
100
AcDbEntity
  8
Laag_1
 62
1
100
AcDbSpline
 70
8
 71
3
 72
8
 73
4
 74
0
 40
0
 40
0
 40
0
 40
0
 40
1
 40
1
 40
1
 40
1
 10
277.222066
 20
487.290323
 30
0.0
 10
274.544549
 20
487.187464
 30
0.0
 10
272.015546
 20
488.520855
 30
0.0
 10
270.587709
 20
490.788223
 30
0.0
  0
SPLINE
  5
59e
100
AcDbEntity
  8
Laag_1
 62
1
100
AcDbSpline
 70
8
 71
3
 72
8
 73
4
 74
0
 40
0
 40
0
 40
0
 40
0
 40
1
 40
1
 40
1
 40
1
 10
270.587709
 20
490.788223
 30
0.0
 10
269.159871
 20
493.055591
 30
0.0
 10
269.050121
 20
495.912468
 30
0.0
 10
270.299800
 20
498.282695
 30
0.0
  0
SPLINE
  5
59f
100
AcDbEntity
  8
Laag_1
 62
1
100
AcDbSpline
 70
8
 71
3
 72
8
 73
4
 74
0
 40
0
 40
0
 40
0
 40
0
 40
1
 40
1
 40
1
 40
1
 10
270.299800
 20
498.282695
 30
0.0
 10
271.549479
 20
500.652923
 30
0.0
 10
273.968732
 20
502.176408
 30
0.0
 10
276.646249
 20
502.279267
 30
0.0
  0
SPLINE
  5
5a0
100
AcDbEntity
  8
Laag_1
 62
1
100
AcDbSpline
 70
8
 71
3
 72
8
 73
4
 74
0
 40
0
 40
0
 40
0
 40
0
 40
1
 40
1
 40
1
 40
1
 10
276.646249
 20
502.279267
 30
0.0
 10
279.323766
 20
502.382127
 30
0.0
 10
281.852769
 20
501.048735
 30
0.0
 10
283.280606
 20
498.781367
 30
0.0
  0
LINE
  5
5a1
100
AcDbEntity
  8
Laag_1
 62
1
100
AcDbLine
 10
283.280606
 20
498.781367
 30
0.0
 11
283.280606
 21
498.781367
 31
0.0
  0
SPLINE
  5
5a2
100
AcDbEntity
  8
Laag_1
 62
1
100
AcDbSpline
 70
8
 71
3
 72
8
 73
4
 74
0
 40
0
 40
0
 40
0
 40
0
 40
1
 40
1
 40
1
 40
1
 10
339.565376
 20
466.226371
 30
0.0
 10
340.993213
 20
463.959003
 30
0.0
 10
341.102963
 20
461.102126
 30
0.0
 10
339.853284
 20
458.731899
 30
0.0
  0
SPLINE
  5
5a3
100
AcDbEntity
  8
Laag_1
 62
1
100
AcDbSpline
 70
8
 71
3
 72
8
 73
4
 74
0
 40
0
 40
0
 40
0
 40
0
 40
1
 40
1
 40
1
 40
1
 10
339.853284
 20
458.731899
 30
0.0
 10
338.603605
 20
456.361671
 30
0.0
 10
336.184352
 20
454.838186
 30
0.0
 10
333.506835
 20
454.735327
 30
0.0
  0
SPLINE
  5
5a4
100
AcDbEntity
  8
Laag_1
 62
1
100
AcDbSpline
 70
8
 71
3
 72
8
 73
4
 74
0
 40
0
 40
0
 40
0
 40
0
 40
1
 40
1
 40
1
 40
1
 10
333.506835
 20
454.735327
 30
0.0
 10
330.829318
 20
454.632467
 30
0.0
 10
328.300315
 20
455.965859
 30
0.0
 10
326.872477
 20
458.233227
 30
0.0
  0
SPLINE
  5
5a5
100
AcDbEntity
  8
Laag_1
 62
1
100
AcDbSpline
 70
8
 71
3
 72
8
 73
4
 74
0
 40
0
 40
0
 40
0
 40
0
 40
1
 40
1
 40
1
 40
1
 10
326.872477
 20
458.233227
 30
0.0
 10
325.444640
 20
460.500594
 30
0.0
 10
325.334890
 20
463.357471
 30
0.0
 10
326.584569
 20
465.727699
 30
0.0
  0
SPLINE
  5
5a6
100
AcDbEntity
  8
Laag_1
 62
1
100
AcDbSpline
 70
8
 71
3
 72
8
 73
4
 74
0
 40
0
 40
0
 40
0
 40
0
 40
1
 40
1
 40
1
 40
1
 10
326.584569
 20
465.727699
 30
0.0
 10
327.834248
 20
468.097926
 30
0.0
 10
330.253501
 20
469.621411
 30
0.0
 10
332.931018
 20
469.724271
 30
0.0
  0
SPLINE
  5
5a7
100
AcDbEntity
  8
Laag_1
 62
1
100
AcDbSpline
 70
8
 71
3
 72
8
 73
4
 74
0
 40
0
 40
0
 40
0
 40
0
 40
1
 40
1
 40
1
 40
1
 10
332.931018
 20
469.724271
 30
0.0
 10
335.608535
 20
469.827131
 30
0.0
 10
338.137538
 20
468.493739
 30
0.0
 10
339.565376
 20
466.226371
 30
0.0
  0
LINE
  5
5a8
100
AcDbEntity
  8
Laag_1
 62
1
100
AcDbLine
 10
339.565376
 20
466.226371
 30
0.0
 11
339.565376
 21
466.226371
 31
0.0
  0
LINE
  5
5a9
100
AcDbEntity
  8
Laag_1
 62
1
100
AcDbLine
 10
268.960840
 20
514.905727
 30
0.0
 11
262.233604
 21
510.669361
 31
0.0
  0
LINE
  5
5aa
100
AcDbEntity
  8
Laag_1
 62
1
100
AcDbLine
 10
262.233604
 20
510.669361
 30
0.0
 11
252.934907
 21
525.435442
 31
0.0
  0
LINE
  5
5ab
100
AcDbEntity
  8
Laag_1
 62
1
100
AcDbLine
 10
252.934907
 20
525.435442
 30
0.0
 11
259.662142
 21
529.671808
 31
0.0
  0
LINE
  5
5ac
100
AcDbEntity
  8
Laag_1
 62
1
100
AcDbLine
 10
259.662142
 20
529.671808
 30
0.0
 11
268.960840
 21
514.905727
 31
0.0
  0
SPLINE
  5
5ad
100
AcDbEntity
  8
Laag_1
 62
1
100
AcDbSpline
 70
8
 71
3
 72
8
 73
4
 74
0
 40
0
 40
0
 40
0
 40
0
 40
1
 40
1
 40
1
 40
1
 10
231.759097
 20
463.444394
 30
0.0
 10
233.188144
 20
461.176995
 30
0.0
 10
233.298641
 20
458.319346
 30
0.0
 10
232.048946
 20
455.948369
 30
0.0
  0
SPLINE
  5
5ae
100
AcDbEntity
  8
Laag_1
 62
1
100
AcDbSpline
 70
8
 71
3
 72
8
 73
4
 74
0
 40
0
 40
0
 40
0
 40
0
 40
1
 40
1
 40
1
 40
1
 10
232.048946
 20
455.948369
 30
0.0
 10
230.799250
 20
453.577391
 30
0.0
 10
228.379321
 20
452.053480
 30
0.0
 10
225.701120
 20
451.950930
 30
0.0
  0
SPLINE
  5
5af
100
AcDbEntity
  8
Laag_1
 62
1
100
AcDbSpline
 70
8
 71
3
 72
8
 73
4
 74
0
 40
0
 40
0
 40
0
 40
0
 40
1
 40
1
 40
1
 40
1
 10
225.701120
 20
451.950930
 30
0.0
 10
223.022920
 20
451.848380
 30
0.0
 10
220.493544
 20
453.182778
 30
0.0
 10
219.066201
 20
455.451250
 30
0.0
  0
SPLINE
  5
5b0
100
AcDbEntity
  8
Laag_1
 62
1
100
AcDbSpline
 70
8
 71
3
 72
8
 73
4
 74
0
 40
0
 40
0
 40
0
 40
0
 40
1
 40
1
 40
1
 40
1
 10
219.066201
 20
455.451250
 30
0.0
 10
217.637153
 20
457.718649
 30
0.0
 10
217.526657
 20
460.576297
 30
0.0
 10
218.776352
 20
462.947275
 30
0.0
  0
SPLINE
  5
5b1
100
AcDbEntity
  8
Laag_1
 62
1
100
AcDbSpline
 70
8
 71
3
 72
8
 73
4
 74
0
 40
0
 40
0
 40
0
 40
0
 40
1
 40
1
 40
1
 40
1
 10
218.776352
 20
462.947275
 30
0.0
 10
220.026048
 20
465.318253
 30
0.0
 10
222.445977
 20
466.842164
 30
0.0
 10
225.124178
 20
466.944714
 30
0.0
  0
SPLINE
  5
5b2
100
AcDbEntity
  8
Laag_1
 62
1
100
AcDbSpline
 70
8
 71
3
 72
8
 73
4
 74
0
 40
0
 40
0
 40
0
 40
0
 40
1
 40
1
 40
1
 40
1
 10
225.124178
 20
466.944714
 30
0.0
 10
227.802378
 20
467.047264
 30
0.0
 10
230.331754
 20
465.712865
 30
0.0
 10
231.759097
 20
463.444394
 30
0.0
  0
LINE
  5
5b3
100
AcDbEntity
  8
Laag_1
 62
1
100
AcDbLine
 10
231.759097
 20
463.444394
 30
0.0
 11
231.759097
 21
463.444394
 31
0.0
  0
LINE
  5
5b4
100
AcDbEntity
  8
Laag_1
 62
1
100
AcDbLine
 10
350.441450
 20
487.867107
 30
0.0
 11
333.005387
 21
488.564363
 31
0.0
  0
LINE
  5
5b5
100
AcDbEntity
  8
Laag_1
 62
1
100
AcDbLine
 10
333.005387
 20
488.564363
 30
0.0
 11
333.323054
 21
496.508008
 31
0.0
  0
LINE
  5
5b6
100
AcDbEntity
  8
Laag_1
 62
1
100
AcDbLine
 10
333.323054
 20
496.508008
 30
0.0
 11
350.759113
 21
495.810759
 31
0.0
  0
LINE
  5
5b7
100
AcDbEntity
  8
Laag_1
 62
1
100
AcDbLine
 10
350.759113
 20
495.810759
 30
0.0
 11
350.441450
 21
487.867107
 31
0.0
  0
LINE
  5
5b8
100
AcDbEntity
  8
Laag_1
 62
1
100
AcDbLine
 10
250.310165
 20
544.522496
 30
0.0
 11
243.582929
 21
540.286130
 31
0.0
  0
LINE
  5
5b9
100
AcDbEntity
  8
Laag_1
 62
1
100
AcDbLine
 10
243.582929
 20
540.286130
 30
0.0
 11
234.284232
 21
555.052211
 31
0.0
  0
LINE
  5
5ba
100
AcDbEntity
  8
Laag_1
 62
1
100
AcDbLine
 10
234.284232
 20
555.052211
 30
0.0
 11
241.011468
 21
559.288577
 31
0.0
  0
LINE
  5
5bb
100
AcDbEntity
  8
Laag_1
 62
1
100
AcDbLine
 10
241.011468
 20
559.288577
 30
0.0
 11
250.310165
 21
544.522496
 31
0.0
  0
LINE
  5
5bc
100
AcDbEntity
  8
Laag_1
 62
1
100
AcDbLine
 10
298.511199
 20
527.186292
 30
0.0
 11
290.372741
 21
511.750372
 31
0.0
  0
LINE
  5
5bd
100
AcDbEntity
  8
Laag_1
 62
1
100
AcDbLine
 10
290.372741
 20
511.750372
 30
0.0
 11
283.340333
 21
515.458128
 31
0.0
  0
LINE
  5
5be
100
AcDbEntity
  8
Laag_1
 62
1
100
AcDbLine
 10
283.340333
 20
515.458128
 30
0.0
 11
291.478778
 21
530.894072
 31
0.0
  0
LINE
  5
5bf
100
AcDbEntity
  8
Laag_1
 62
1
100
AcDbLine
 10
291.478778
 20
530.894072
 30
0.0
 11
298.511199
 21
527.186292
 31
0.0
  0
SPLINE
  5
5c0
100
AcDbEntity
  8
Laag_1
 62
1
100
AcDbSpline
 70
8
 71
3
 72
8
 73
4
 74
0
 40
0
 40
0
 40
0
 40
0
 40
1
 40
1
 40
1
 40
1
 10
280.831788
 20
562.525995
 30
0.0
 10
282.260231
 20
560.258611
 30
0.0
 10
282.370354
 20
557.401349
 30
0.0
 10
281.120666
 20
555.030746
 30
0.0
  0
SPLINE
  5
5c1
100
AcDbEntity
  8
Laag_1
 62
1
100
AcDbSpline
 70
8
 71
3
 72
8
 73
4
 74
0
 40
0
 40
0
 40
0
 40
0
 40
1
 40
1
 40
1
 40
1
 10
281.120666
 20
555.030746
 30
0.0
 10
279.870979
 20
552.660143
 30
0.0
 10
277.451388
 20
551.136445
 30
0.0
 10
274.773529
 20
551.033740
 30
0.0
  0
SPLINE
  5
5c2
100
AcDbEntity
  8
Laag_1
 62
1
100
AcDbSpline
 70
8
 71
3
 72
8
 73
4
 74
0
 40
0
 40
0
 40
0
 40
0
 40
1
 40
1
 40
1
 40
1
 10
274.773529
 20
551.033740
 30
0.0
 10
272.095670
 20
550.931035
 30
0.0
 10
269.566481
 20
552.264930
 30
0.0
 10
268.138890
 20
554.532850
 30
0.0
  0
SPLINE
  5
5c3
100
AcDbEntity
  8
Laag_1
 62
1
100
AcDbSpline
 70
8
 71
3
 72
8
 73
4
 74
0
 40
0
 40
0
 40
0
 40
0
 40
1
 40
1
 40
1
 40
1
 10
268.138890
 20
554.532850
 30
0.0
 10
266.710448
 20
556.800234
 30
0.0
 10
266.600325
 20
559.657496
 30
0.0
 10
267.850012
 20
562.028099
 30
0.0
  0
SPLINE
  5
5c4
100
AcDbEntity
  8
Laag_1
 62
1
100
AcDbSpline
 70
8
 71
3
 72
8
 73
4
 74
0
 40
0
 40
0
 40
0
 40
0
 40
1
 40
1
 40
1
 40
1
 10
267.850012
 20
562.028099
 30
0.0
 10
269.099699
 20
564.398702
 30
0.0
 10
271.519290
 20
565.922400
 30
0.0
 10
274.197149
 20
566.025105
 30
0.0
  0
SPLINE
  5
5c5
100
AcDbEntity
  8
Laag_1
 62
1
100
AcDbSpline
 70
8
 71
3
 72
8
 73
4
 74
0
 40
0
 40
0
 40
0
 40
0
 40
1
 40
1
 40
1
 40
1
 10
274.197149
 20
566.025105
 30
0.0
 10
276.875008
 20
566.127810
 30
0.0
 10
279.404198
 20
564.793915
 30
0.0
 10
280.831788
 20
562.525995
 30
0.0
  0
LINE
  5
5c6
100
AcDbEntity
  8
Laag_1
 62
1
100
AcDbLine
 10
280.831788
 20
562.525995
 30
0.0
 11
280.831788
 21
562.525995
 31
0.0
  0
SPLINE
  5
5c7
100
AcDbEntity
  8
Laag_1
 62
1
100
AcDbSpline
 70
8
 71
3
 72
8
 73
4
 74
0
 40
0
 40
0
 40
0
 40
0
 40
1
 40
1
 40
1
 40
1
 10
226.851728
 20
528.532937
 30
0.0
 10
228.280171
 20
526.265554
 30
0.0
 10
228.390294
 20
523.408291
 30
0.0
 10
227.140606
 20
521.037688
 30
0.0
  0
SPLINE
  5
5c8
100
AcDbEntity
  8
Laag_1
 62
1
100
AcDbSpline
 70
8
 71
3
 72
8
 73
4
 74
0
 40
0
 40
0
 40
0
 40
0
 40
1
 40
1
 40
1
 40
1
 10
227.140606
 20
521.037688
 30
0.0
 10
225.890919
 20
518.667086
 30
0.0
 10
223.471328
 20
517.143388
 30
0.0
 10
220.793469
 20
517.040683
 30
0.0
  0
SPLINE
  5
5c9
100
AcDbEntity
  8
Laag_1
 62
1
100
AcDbSpline
 70
8
 71
3
 72
8
 73
4
 74
0
 40
0
 40
0
 40
0
 40
0
 40
1
 40
1
 40
1
 40
1
 10
220.793469
 20
517.040683
 30
0.0
 10
218.115610
 20
516.937978
 30
0.0
 10
215.586421
 20
518.271873
 30
0.0
 10
214.158830
 20
520.539793
 30
0.0
  0
SPLINE
  5
5ca
100
AcDbEntity
  8
Laag_1
 62
1
100
AcDbSpline
 70
8
 71
3
 72
8
 73
4
 74
0
 40
0
 40
0
 40
0
 40
0
 40
1
 40
1
 40
1
 40
1
 10
214.158830
 20
520.539793
 30
0.0
 10
212.730993
 20
522.807161
 30
0.0
 10
212.621243
 20
525.664037
 30
0.0
 10
213.870922
 20
528.034265
 30
0.0
  0
SPLINE
  5
5cb
100
AcDbEntity
  8
Laag_1
 62
1
100
AcDbSpline
 70
8
 71
3
 72
8
 73
4
 74
0
 40
0
 40
0
 40
0
 40
0
 40
1
 40
1
 40
1
 40
1
 10
213.870922
 20
528.034265
 30
0.0
 10
215.120601
 20
530.404493
 30
0.0
 10
217.539854
 20
531.927977
 30
0.0
 10
220.217371
 20
532.030837
 30
0.0
  0
SPLINE
  5
5cc
100
AcDbEntity
  8
Laag_1
 62
1
100
AcDbSpline
 70
8
 71
3
 72
8
 73
4
 74
0
 40
0
 40
0
 40
0
 40
0
 40
1
 40
1
 40
1
 40
1
 10
220.217371
 20
532.030837
 30
0.0
 10
222.894888
 20
532.133697
 30
0.0
 10
225.423890
 20
530.800305
 30
0.0
 10
226.851728
 20
528.532937
 30
0.0
  0
LINE
  5
5cd
100
AcDbEntity
  8
Laag_1
 62
1
100
AcDbLine
 10
226.851728
 20
528.532937
 30
0.0
 11
226.851728
 21
528.532937
 31
0.0
  0
LINE
  5
5ce
100
AcDbEntity
  8
Laag_1
 62
1
100
AcDbLine
 10
233.229635
 20
350.771835
 30
0.0
 11
225.657280
 21
348.191252
 31
0.0
  0
LINE
  5
5cf
100
AcDbEntity
  8
Laag_1
 62
1
100
AcDbLine
 10
225.657280
 20
348.191252
 30
0.0
 11
230.041748
 21
335.325653
 31
0.0
  0
LINE
  5
5d0
100
AcDbEntity
  8
Laag_1
 62
1
100
AcDbLine
 10
230.041748
 20
335.325653
 30
0.0
 11
267.794972
 21
335.292707
 31
0.0
  0
LINE
  5
5d1
100
AcDbEntity
  8
Laag_1
 62
1
100
AcDbLine
 10
267.794972
 20
335.292707
 30
0.0
 11
267.860423
 21
410.292678
 31
0.0
  0
LINE
  5
5d2
100
AcDbEntity
  8
Laag_1
 62
1
100
AcDbLine
 10
267.860423
 20
410.292678
 30
0.0
 11
285.860416
 21
410.276971
 31
0.0
  0
LINE
  5
5d3
100
AcDbEntity
  8
Laag_1
 62
1
100
AcDbLine
 10
285.860416
 20
410.276971
 30
0.0
 11
285.794965
 21
335.277000
 31
0.0
  0
LINE
  5
5d4
100
AcDbEntity
  8
Laag_1
 62
1
100
AcDbLine
 10
285.794965
 20
335.277000
 30
0.0
 11
323.548531
 21
335.244052
 31
0.0
  0
LINE
  5
5d5
100
AcDbEntity
  8
Laag_1
 62
1
100
AcDbLine
 10
323.548531
 20
335.244052
 30
0.0
 11
327.955551
 21
348.103634
 31
0.0
  0
LINE
  5
5d6
100
AcDbEntity
  8
Laag_1
 62
1
100
AcDbLine
 10
327.955551
 20
348.103634
 30
0.0
 11
320.387626
 21
350.697186
 31
0.0
  0
LINE
  5
5d7
100
AcDbEntity
  8
Laag_1
 62
1
100
AcDbLine
 10
320.387626
 20
350.697186
 30
0.0
 11
326.077230
 21
367.299321
 31
0.0
  0
LINE
  5
5d8
100
AcDbEntity
  8
Laag_1
 62
1
100
AcDbLine
 10
326.077230
 20
367.299321
 30
0.0
 11
333.645155
 21
364.705769
 31
0.0
  0
LINE
  5
5d9
100
AcDbEntity
  8
Laag_1
 62
1
100
AcDbLine
 10
333.645155
 20
364.705769
 30
0.0
 11
339.302342
 21
381.213304
 31
0.0
  0
LINE
  5
5da
100
AcDbEntity
  8
Laag_1
 62
1
100
AcDbLine
 10
339.302342
 20
381.213304
 30
0.0
 11
331.734417
 21
383.806855
 31
0.0
  0
LINE
  5
5db
100
AcDbEntity
  8
Laag_1
 62
1
100
AcDbLine
 10
331.734417
 20
383.806855
 30
0.0
 11
337.424020
 21
400.408993
 31
0.0
  0
LINE
  5
5dc
100
AcDbEntity
  8
Laag_1
 62
1
100
AcDbLine
 10
337.424020
 20
400.408993
 30
0.0
 11
344.991945
 21
397.815441
 31
0.0
  0
LINE
  5
5dd
100
AcDbEntity
  8
Laag_1
 62
1
100
AcDbLine
 10
344.991945
 20
397.815441
 30
0.0
 11
350.649131
 21
414.322976
 31
0.0
  0
LINE
  5
5de
100
AcDbEntity
  8
Laag_1
 62
1
100
AcDbLine
 10
350.649131
 20
414.322976
 30
0.0
 11
343.081207
 21
416.916527
 31
0.0
  0
LINE
  5
5df
100
AcDbEntity
  8
Laag_1
 62
1
100
AcDbLine
 10
343.081207
 20
416.916527
 30
0.0
 11
348.770809
 21
433.518664
 31
0.0
  0
LINE
  5
5e0
100
AcDbEntity
  8
Laag_1
 62
1
100
AcDbLine
 10
348.770809
 20
433.518664
 30
0.0
 11
356.338736
 21
430.925110
 31
0.0
  0
LINE
  5
5e1
100
AcDbEntity
  8
Laag_1
 62
1
100
AcDbLine
 10
356.338736
 20
430.925110
 30
0.0
 11
375.509396
 21
486.864655
 31
0.0
  0
LINE
  5
5e2
100
AcDbEntity
  8
Laag_1
 62
1
100
AcDbLine
 10
375.509396
 20
486.864655
 30
0.0
 11
367.977435
 21
487.165853
 31
0.0
  0
LINE
  5
5e3
100
AcDbEntity
  8
Laag_1
 62
1
100
AcDbLine
 10
367.977435
 20
487.165853
 30
0.0
 11
368.295097
 21
495.109505
 31
0.0
  0
LINE
  5
5e4
100
AcDbEntity
  8
Laag_1
 62
1
100
AcDbLine
 10
368.295097
 20
495.109505
 30
0.0
 11
374.507577
 21
494.861073
 31
0.0
  0
LINE
  5
5e5
100
AcDbEntity
  8
Laag_1
 62
1
100
AcDbLine
 10
374.507577
 20
494.861073
 30
0.0
 11
325.919550
 21
579.170859
 31
0.0
  0
LINE
  5
5e6
100
AcDbEntity
  8
Laag_1
 62
1
100
AcDbLine
 10
325.919550
 20
579.170859
 30
0.0
 11
323.019816
 21
573.671026
 31
0.0
  0
LINE
  5
5e7
100
AcDbEntity
  8
Laag_1
 62
1
100
AcDbLine
 10
323.019816
 20
573.671026
 30
0.0
 11
315.987394
 21
577.378805
 31
0.0
  0
LINE
  5
5e8
100
AcDbEntity
  8
Laag_1
 62
1
100
AcDbLine
 10
315.987394
 20
577.378805
 30
0.0
 11
318.986267
 21
583.066702
 31
0.0
  0
LINE
  5
5e9
100
AcDbEntity
  8
Laag_1
 62
1
100
AcDbLine
 10
318.986267
 20
583.066702
 30
0.0
 11
228.233091
 21
579.580296
 31
0.0
  0
LINE
  5
5ea
100
AcDbEntity
  8
Laag_1
 62
1
100
AcDbLine
 10
228.233091
 20
579.580296
 30
0.0
 11
231.659491
 21
574.139265
 31
0.0
  0
LINE
  5
5eb
100
AcDbEntity
  8
Laag_1
 62
1
100
AcDbLine
 10
231.659491
 20
574.139265
 30
0.0
 11
224.932255
 21
569.902899
 31
0.0
  0
LINE
  5
5ec
100
AcDbEntity
  8
Laag_1
 62
1
100
AcDbLine
 10
224.932255
 20
569.902899
 30
0.0
 11
221.505855
 21
575.343929
 31
0.0
  0
LINE
  5
5ed
100
AcDbEntity
  8
Laag_1
 62
1
100
AcDbLine
 10
221.505855
 20
575.343929
 30
0.0
 11
179.148545
 21
495.006190
 31
0.0
  0
LINE
  5
5ee
100
AcDbEntity
  8
Laag_1
 62
1
100
AcDbLine
 10
179.148545
 20
495.006190
 30
0.0
 11
185.573846
 21
495.253012
 31
0.0
  0
LINE
  5
5ef
100
AcDbEntity
  8
Laag_1
 62
1
100
AcDbLine
 10
185.573846
 20
495.253012
 30
0.0
 11
185.879033
 21
487.308867
 31
0.0
  0
LINE
  5
5f0
100
AcDbEntity
  8
Laag_1
 62
1
100
AcDbLine
 10
185.879033
 20
487.308867
 30
0.0
 11
178.345989
 21
487.019485
 31
0.0
  0
LINE
  5
5f1
100
AcDbEntity
  8
Laag_1
 62
1
100
AcDbLine
 10
178.345989
 20
487.019485
 30
0.0
 11
197.416011
 21
431.061226
 31
0.0
  0
LINE
  5
5f2
100
AcDbEntity
  8
Laag_1
 62
1
100
AcDbLine
 10
197.416011
 20
431.061226
 30
0.0
 11
204.988363
 21
433.641818
 31
0.0
  0
LINE
  5
5f3
100
AcDbEntity
  8
Laag_1
 62
1
100
AcDbLine
 10
204.988363
 20
433.641818
 30
0.0
 11
210.649520
 21
417.029961
 31
0.0
  0
LINE
  5
5f4
100
AcDbEntity
  8
Laag_1
 62
1
100
AcDbLine
 10
210.649520
 20
417.029961
 30
0.0
 11
203.077168
 21
414.449370
 31
0.0
  0
LINE
  5
5f5
100
AcDbEntity
  8
Laag_1
 62
1
100
AcDbLine
 10
203.077168
 20
414.449370
 30
0.0
 11
208.706066
 21
397.932169
 31
0.0
  0
LINE
  5
5f6
100
AcDbEntity
  8
Laag_1
 62
1
100
AcDbLine
 10
208.706066
 20
397.932169
 30
0.0
 11
216.278423
 21
400.512753
 31
0.0
  0
LINE
  5
5f7
100
AcDbEntity
  8
Laag_1
 62
1
100
AcDbLine
 10
216.278423
 20
400.512753
 30
0.0
 11
221.939580
 21
383.900896
 31
0.0
  0
LINE
  5
5f8
100
AcDbEntity
  8
Laag_1
 62
1
100
AcDbLine
 10
221.939580
 20
383.900896
 30
0.0
 11
214.367223
 21
381.320312
 31
0.0
  0
LINE
  5
5f9
100
AcDbEntity
  8
Laag_1
 62
1
100
AcDbLine
 10
214.367223
 20
381.320312
 30
0.0
 11
219.996123
 21
364.803109
 31
0.0
  0
LINE
  5
5fa
100
AcDbEntity
  8
Laag_1
 62
1
100
AcDbLine
 10
219.996123
 20
364.803109
 30
0.0
 11
227.568480
 21
367.383694
 31
0.0
  0
LINE
  5
5fb
100
AcDbEntity
  8
Laag_1
 62
1
100
AcDbLine
 10
227.568480
 20
367.383694
 30
0.0
 11
233.229635
 21
350.771835
 31
0.0
  0
LINE
  5
5fc
100
AcDbEntity
  8
Laag_1
 62
5
100
AcDbLine
 10
316.699372
 20
565.685660
 30
0.0
 11
316.205652
 21
565.359680
 31
0.0
  0
LINE
  5
5fd
100
AcDbEntity
  8
Laag_1
 62
5
100
AcDbLine
 10
316.205652
 20
565.359680
 30
0.0
 11
315.482792
 21
565.165990
 31
0.0
  0
LINE
  5
5fe
100
AcDbEntity
  8
Laag_1
 62
5
100
AcDbLine
 10
315.482792
 20
565.165990
 30
0.0
 11
314.892232
 21
565.201490
 31
0.0
  0
LINE
  5
5ff
100
AcDbEntity
  8
Laag_1
 62
5
100
AcDbLine
 10
314.892232
 20
565.201490
 30
0.0
 11
313.975692
 21
565.730650
 31
0.0
  0
LINE
  5
600
100
AcDbEntity
  8
Laag_1
 62
5
100
AcDbLine
 10
313.975692
 20
565.730650
 30
0.0
 11
313.649702
 21
566.224370
 31
0.0
  0
LINE
  5
601
100
AcDbEntity
  8
Laag_1
 62
5
100
AcDbLine
 10
313.649702
 20
566.224370
 30
0.0
 11
313.456022
 21
566.947230
 31
0.0
  0
LINE
  5
602
100
AcDbEntity
  8
Laag_1
 62
5
100
AcDbLine
 10
313.456022
 20
566.947230
 30
0.0
 11
313.491422
 21
567.537800
 31
0.0
  0
LINE
  5
603
100
AcDbEntity
  8
Laag_1
 62
5
100
AcDbLine
 10
313.491422
 20
567.537800
 30
0.0
 11
313.659162
 21
568.357490
 31
0.0
  0
LINE
  5
604
100
AcDbEntity
  8
Laag_1
 62
5
100
AcDbLine
 10
313.659162
 20
568.357490
 30
0.0
 11
314.320612
 21
569.503170
 31
0.0
  0
LINE
  5
605
100
AcDbEntity
  8
Laag_1
 62
5
100
AcDbLine
 10
314.320612
 20
569.503170
 30
0.0
 11
314.946622
 21
570.058290
 31
0.0
  0
LINE
  5
606
100
AcDbEntity
  8
Laag_1
 62
5
100
AcDbLine
 10
314.946622
 20
570.058290
 30
0.0
 11
315.440352
 21
570.384270
 31
0.0
  0
LINE
  5
607
100
AcDbEntity
  8
Laag_1
 62
5
100
AcDbLine
 10
315.440352
 20
570.384270
 30
0.0
 11
316.163202
 21
570.577960
 31
0.0
  0
LINE
  5
608
100
AcDbEntity
  8
Laag_1
 62
5
100
AcDbLine
 10
316.163202
 20
570.577960
 30
0.0
 11
316.753762
 21
570.542560
 31
0.0
  0
LINE
  5
609
100
AcDbEntity
  8
Laag_1
 62
5
100
AcDbLine
 10
316.753762
 20
570.542560
 30
0.0
 11
317.670302
 21
570.013390
 31
0.0
  0
LINE
  5
60a
100
AcDbEntity
  8
Laag_1
 62
5
100
AcDbLine
 10
317.670302
 20
570.013390
 30
0.0
 11
317.996292
 21
569.519670
 31
0.0
  0
LINE
  5
60b
100
AcDbEntity
  8
Laag_1
 62
5
100
AcDbLine
 10
317.996292
 20
569.519670
 30
0.0
 11
318.189982
 21
568.796820
 31
0.0
  0
LINE
  5
60c
100
AcDbEntity
  8
Laag_1
 62
5
100
AcDbLine
 10
318.189982
 20
568.796820
 30
0.0
 11
318.154582
 21
568.206250
 31
0.0
  0
LINE
  5
60d
100
AcDbEntity
  8
Laag_1
 62
5
100
AcDbLine
 10
232.814682
 20
561.382420
 30
0.0
 11
230.179942
 21
566.274250
 31
0.0
  0
LINE
  5
60e
100
AcDbEntity
  8
Laag_1
 62
5
100
AcDbLine
 10
232.814682
 20
561.382420
 30
0.0
 11
234.445292
 21
562.260660
 31
0.0
  0
LINE
  5
60f
100
AcDbEntity
  8
Laag_1
 62
5
100
AcDbLine
 10
234.445292
 20
562.260660
 30
0.0
 11
235.018652
 21
562.870000
 31
0.0
  0
LINE
  5
610
100
AcDbEntity
  8
Laag_1
 62
5
100
AcDbLine
 10
235.018652
 20
562.870000
 30
0.0
 11
235.233622
 21
563.586820
 31
0.0
  0
LINE
  5
611
100
AcDbEntity
  8
Laag_1
 62
5
100
AcDbLine
 10
235.233622
 20
563.586820
 30
0.0
 11
235.215322
 21
564.178160
 31
0.0
  0
LINE
  5
612
100
AcDbEntity
  8
Laag_1
 62
5
100
AcDbLine
 10
235.215322
 20
564.178160
 30
0.0
 11
235.071872
 21
565.002450
 31
0.0
  0
LINE
  5
613
100
AcDbEntity
  8
Laag_1
 62
5
100
AcDbLine
 10
235.071872
 20
565.002450
 30
0.0
 11
234.444542
 21
566.167180
 31
0.0
  0
LINE
  5
614
100
AcDbEntity
  8
Laag_1
 62
5
100
AcDbLine
 10
234.444542
 20
566.167180
 30
0.0
 11
233.835212
 21
566.740550
 31
0.0
  0
LINE
  5
615
100
AcDbEntity
  8
Laag_1
 62
5
100
AcDbLine
 10
233.835212
 20
566.740550
 30
0.0
 11
233.351352
 21
567.080970
 31
0.0
  0
LINE
  5
616
100
AcDbEntity
  8
Laag_1
 62
5
100
AcDbLine
 10
233.351352
 20
567.080970
 30
0.0
 11
232.634532
 21
567.295930
 31
0.0
  0
LINE
  5
617
100
AcDbEntity
  8
Laag_1
 62
5
100
AcDbLine
 10
232.634532
 20
567.295930
 30
0.0
 11
231.810242
 21
567.152480
 31
0.0
  0
LINE
  5
618
100
AcDbEntity
  8
Laag_1
 62
5
100
AcDbLine
 10
231.810242
 20
567.152480
 30
0.0
 11
230.179632
 21
566.274240
 31
0.0
  0
LINE
  5
619
100
AcDbEntity
  8
Laag_1
 62
5
100
AcDbLine
 10
196.450532
 20
493.518890
 30
0.0
 11
196.984222
 21
493.263570
 31
0.0
  0
LINE
  5
61a
100
AcDbEntity
  8
Laag_1
 62
5
100
AcDbLine
 10
196.984222
 20
493.263570
 30
0.0
 11
197.522532
 21
492.743700
 31
0.0
  0
LINE
  5
61b
100
AcDbEntity
  8
Laag_1
 62
5
100
AcDbLine
 10
197.522532
 20
492.743700
 30
0.0
 11
197.796282
 21
492.219220
 31
0.0
  0
LINE
  5
61c
100
AcDbEntity
  8
Laag_1
 62
5
100
AcDbLine
 10
197.796282
 20
492.219220
 30
0.0
 11
197.814682
 21
491.161040
 31
0.0
  0
LINE
  5
61d
100
AcDbEntity
  8
Laag_1
 62
5
100
AcDbLine
 10
197.814682
 20
491.161040
 30
0.0
 11
197.559362
 21
490.627360
 31
0.0
  0
LINE
  5
61e
100
AcDbEntity
  8
Laag_1
 62
5
100
AcDbLine
 10
197.559362
 20
490.627360
 30
0.0
 11
197.039482
 21
490.089050
 31
0.0
  0
LINE
  5
61f
100
AcDbEntity
  8
Laag_1
 62
5
100
AcDbLine
 10
197.039482
 20
490.089050
 30
0.0
 11
196.515012
 21
489.815300
 31
0.0
  0
LINE
  5
620
100
AcDbEntity
  8
Laag_1
 62
5
100
AcDbLine
 10
196.515012
 20
489.815300
 30
0.0
 11
195.725992
 21
489.536920
 31
0.0
  0
LINE
  5
621
100
AcDbEntity
  8
Laag_1
 62
5
100
AcDbLine
 10
195.725992
 20
489.536920
 30
0.0
 11
194.403272
 21
489.513920
 31
0.0
  0
LINE
  5
622
100
AcDbEntity
  8
Laag_1
 62
5
100
AcDbLine
 10
194.403272
 20
489.513920
 30
0.0
 11
193.605032
 21
489.764650
 31
0.0
  0
LINE
  5
623
100
AcDbEntity
  8
Laag_1
 62
5
100
AcDbLine
 10
193.605032
 20
489.764650
 30
0.0
 11
193.071342
 21
490.019970
 31
0.0
  0
LINE
  5
624
100
AcDbEntity
  8
Laag_1
 62
5
100
AcDbLine
 10
193.071342
 20
490.019970
 30
0.0
 11
192.533042
 21
490.539850
 31
0.0
  0
LINE
  5
625
100
AcDbEntity
  8
Laag_1
 62
5
100
AcDbLine
 10
192.533042
 20
490.539850
 30
0.0
 11
192.259272
 21
491.064320
 31
0.0
  0
LINE
  5
626
100
AcDbEntity
  8
Laag_1
 62
5
100
AcDbLine
 10
192.259272
 20
491.064320
 30
0.0
 11
192.240872
 21
492.122500
 31
0.0
  0
LINE
  5
627
100
AcDbEntity
  8
Laag_1
 62
5
100
AcDbLine
 10
192.240872
 20
492.122500
 30
0.0
 11
192.496212
 21
492.656190
 31
0.0
  0
LINE
  5
628
100
AcDbEntity
  8
Laag_1
 62
5
100
AcDbLine
 10
192.496212
 20
492.656190
 30
0.0
 11
193.016072
 21
493.194490
 31
0.0
  0
LINE
  5
629
100
AcDbEntity
  8
Laag_1
 62
5
100
AcDbLine
 10
193.016072
 20
493.194490
 30
0.0
 11
193.540552
 21
493.468250
 31
0.0
  0
LINE
  5
62a
100
AcDbEntity
  8
Laag_1
 62
5
100
AcDbLine
 10
375.408990
 20
424.967320
 30
0.0
 11
369.852740
 21
424.967320
 31
0.0
  0
LINE
  5
62b
100
AcDbEntity
  8
Laag_1
 62
5
100
AcDbLine
 10
375.408990
 20
424.967320
 30
0.0
 11
375.408990
 21
427.348570
 31
0.0
  0
LINE
  5
62c
100
AcDbEntity
  8
Laag_1
 62
5
100
AcDbLine
 10
375.408990
 20
427.348570
 30
0.0
 11
375.144400
 21
428.142320
 31
0.0
  0
LINE
  5
62d
100
AcDbEntity
  8
Laag_1
 62
5
100
AcDbLine
 10
375.144400
 20
428.142320
 30
0.0
 11
374.879820
 21
428.406910
 31
0.0
  0
LINE
  5
62e
100
AcDbEntity
  8
Laag_1
 62
5
100
AcDbLine
 10
374.879820
 20
428.406910
 30
0.0
 11
374.350650
 21
428.671490
 31
0.0
  0
LINE
  5
62f
100
AcDbEntity
  8
Laag_1
 62
5
100
AcDbLine
 10
374.350650
 20
428.671490
 30
0.0
 11
373.821490
 21
428.671490
 31
0.0
  0
LINE
  5
630
100
AcDbEntity
  8
Laag_1
 62
5
100
AcDbLine
 10
373.821490
 20
428.671490
 30
0.0
 11
373.292320
 21
428.406910
 31
0.0
  0
LINE
  5
631
100
AcDbEntity
  8
Laag_1
 62
5
100
AcDbLine
 10
373.292320
 20
428.406910
 30
0.0
 11
373.027740
 21
428.142320
 31
0.0
  0
LINE
  5
632
100
AcDbEntity
  8
Laag_1
 62
5
100
AcDbLine
 10
373.027740
 20
428.142320
 30
0.0
 11
372.763150
 21
427.348570
 31
0.0
  0
LINE
  5
633
100
AcDbEntity
  8
Laag_1
 62
5
100
AcDbLine
 10
372.763150
 20
424.967320
 30
0.0
 11
372.763150
 21
427.348570
 31
0.0
  0
LINE
  5
634
100
AcDbEntity
  8
Laag_1
 62
5
100
AcDbLine
 10
372.763150
 20
427.348570
 30
0.0
 11
372.498570
 21
428.142320
 31
0.0
  0
LINE
  5
635
100
AcDbEntity
  8
Laag_1
 62
5
100
AcDbLine
 10
372.498570
 20
428.142320
 30
0.0
 11
372.233990
 21
428.406910
 31
0.0
  0
LINE
  5
636
100
AcDbEntity
  8
Laag_1
 62
5
100
AcDbLine
 10
372.233990
 20
428.406910
 30
0.0
 11
371.704820
 21
428.671490
 31
0.0
  0
LINE
  5
637
100
AcDbEntity
  8
Laag_1
 62
5
100
AcDbLine
 10
371.704820
 20
428.671490
 30
0.0
 11
370.911070
 21
428.671490
 31
0.0
  0
LINE
  5
638
100
AcDbEntity
  8
Laag_1
 62
5
100
AcDbLine
 10
370.911070
 20
428.671490
 30
0.0
 11
370.381900
 21
428.406910
 31
0.0
  0
LINE
  5
639
100
AcDbEntity
  8
Laag_1
 62
5
100
AcDbLine
 10
370.381900
 20
428.406910
 30
0.0
 11
370.117320
 21
428.142320
 31
0.0
  0
LINE
  5
63a
100
AcDbEntity
  8
Laag_1
 62
5
100
AcDbLine
 10
370.117320
 20
428.142320
 30
0.0
 11
369.852740
 21
427.348570
 31
0.0
  0
LINE
  5
63b
100
AcDbEntity
  8
Laag_1
 62
5
100
AcDbLine
 10
369.852740
 20
427.348570
 30
0.0
 11
369.852740
 21
424.967320
 31
0.0
  0
LINE
  5
63c
100
AcDbEntity
  8
Laag_1
 62
1
100
AcDbLine
 10
417.191960
 20
360.164118
 30
0.0
 11
425.330403
 21
375.600061
 31
0.0
  0
LINE
  5
63d
100
AcDbEntity
  8
Laag_1
 62
1
100
AcDbLine
 10
425.330403
 20
375.600061
 30
0.0
 11
432.362827
 21
371.892283
 31
0.0
  0
LINE
  5
63e
100
AcDbEntity
  8
Laag_1
 62
1
100
AcDbLine
 10
432.362827
 20
371.892283
 30
0.0
 11
424.224382
 21
356.456339
 31
0.0
  0
LINE
  5
63f
100
AcDbEntity
  8
Laag_1
 62
1
100
AcDbLine
 10
424.224382
 20
356.456339
 30
0.0
 11
417.191960
 21
360.164118
 31
0.0
  0
LINE
  5
640
100
AcDbEntity
  8
Laag_1
 62
1
100
AcDbLine
 10
511.173452
 20
429.658313
 30
0.0
 11
528.610592
 21
430.328175
 31
0.0
  0
LINE
  5
641
100
AcDbEntity
  8
Laag_1
 62
1
100
AcDbLine
 10
528.610592
 20
430.328175
 30
0.0
 11
528.915779
 21
422.384030
 31
0.0
  0
LINE
  5
642
100
AcDbEntity
  8
Laag_1
 62
1
100
AcDbLine
 10
528.915779
 20
422.384030
 30
0.0
 11
511.478636
 21
421.714166
 31
0.0
  0
LINE
  5
643
100
AcDbEntity
  8
Laag_1
 62
1
100
AcDbLine
 10
511.478636
 20
421.714166
 30
0.0
 11
511.173452
 21
429.658313
 31
0.0
  0
LINE
  5
644
100
AcDbEntity
  8
Laag_1
 62
1
100
AcDbLine
 10
476.199254
 20
428.314732
 30
0.0
 11
493.636381
 21
428.984617
 31
0.0
  0
LINE
  5
645
100
AcDbEntity
  8
Laag_1
 62
1
100
AcDbLine
 10
493.636381
 20
428.984617
 30
0.0
 11
493.941568
 21
421.040472
 31
0.0
  0
LINE
  5
646
100
AcDbEntity
  8
Laag_1
 62
1
100
AcDbLine
 10
493.941568
 20
421.040472
 30
0.0
 11
476.504426
 21
420.370609
 31
0.0
  0
LINE
  5
647
100
AcDbEntity
  8
Laag_1
 62
1
100
AcDbLine
 10
476.504426
 20
420.370609
 30
0.0
 11
476.199254
 21
428.314732
 31
0.0
  0
SPLINE
  5
648
100
AcDbEntity
  8
Laag_1
 62
1
100
AcDbSpline
 70
8
 71
3
 72
8
 73
4
 74
0
 40
0
 40
0
 40
0
 40
0
 40
1
 40
1
 40
1
 40
1
 10
394.616334
 20
388.334224
 30
0.0
 10
393.187287
 20
390.601623
 30
0.0
 10
393.076790
 20
393.459272
 30
0.0
 10
394.326486
 20
395.830249
 30
0.0
  0
SPLINE
  5
649
100
AcDbEntity
  8
Laag_1
 62
1
100
AcDbSpline
 70
8
 71
3
 72
8
 73
4
 74
0
 40
0
 40
0
 40
0
 40
0
 40
1
 40
1
 40
1
 40
1
 10
394.326486
 20
395.830249
 30
0.0
 10
395.576181
 20
398.201227
 30
0.0
 10
397.996111
 20
399.725138
 30
0.0
 10
400.674311
 20
399.827688
 30
0.0
  0
SPLINE
  5
64a
100
AcDbEntity
  8
Laag_1
 62
1
100
AcDbSpline
 70
8
 71
3
 72
8
 73
4
 74
0
 40
0
 40
0
 40
0
 40
0
 40
1
 40
1
 40
1
 40
1
 10
400.674311
 20
399.827688
 30
0.0
 10
403.352511
 20
399.930238
 30
0.0
 10
405.881888
 20
398.595840
 30
0.0
 10
407.309231
 20
396.327368
 30
0.0
  0
SPLINE
  5
64b
100
AcDbEntity
  8
Laag_1
 62
1
100
AcDbSpline
 70
8
 71
3
 72
8
 73
4
 74
0
 40
0
 40
0
 40
0
 40
0
 40
1
 40
1
 40
1
 40
1
 10
407.309231
 20
396.327368
 30
0.0
 10
408.738278
 20
394.059969
 30
0.0
 10
408.848774
 20
391.202321
 30
0.0
 10
407.599079
 20
388.831343
 30
0.0
  0
SPLINE
  5
64c
100
AcDbEntity
  8
Laag_1
 62
1
100
AcDbSpline
 70
8
 71
3
 72
8
 73
4
 74
0
 40
0
 40
0
 40
0
 40
0
 40
1
 40
1
 40
1
 40
1
 10
407.599079
 20
388.831343
 30
0.0
 10
406.349384
 20
386.460365
 30
0.0
 10
403.929454
 20
384.936454
 30
0.0
 10
401.251254
 20
384.833904
 30
0.0
  0
SPLINE
  5
64d
100
AcDbEntity
  8
Laag_1
 62
1
100
AcDbSpline
 70
8
 71
3
 72
8
 73
4
 74
0
 40
0
 40
0
 40
0
 40
0
 40
1
 40
1
 40
1
 40
1
 10
401.251254
 20
384.833904
 30
0.0
 10
398.573053
 20
384.731354
 30
0.0
 10
396.043677
 20
386.065752
 30
0.0
 10
394.616334
 20
388.334224
 30
0.0
  0
LINE
  5
64e
100
AcDbEntity
  8
Laag_1
 62
1
100
AcDbLine
 10
394.616334
 20
388.334224
 30
0.0
 11
394.616334
 21
388.334224
 31
0.0
  0
LINE
  5
64f
100
AcDbEntity
  8
Laag_1
 62
1
100
AcDbLine
 10
433.675685
 20
420.404233
 30
0.0
 11
416.239617
 21
421.101498
 31
0.0
  0
LINE
  5
650
100
AcDbEntity
  8
Laag_1
 62
1
100
AcDbLine
 10
416.239617
 20
421.101498
 30
0.0
 11
416.557276
 21
429.045150
 31
0.0
  0
LINE
  5
651
100
AcDbEntity
  8
Laag_1
 62
1
100
AcDbLine
 10
416.557276
 20
429.045150
 30
0.0
 11
433.993345
 21
428.347886
 31
0.0
  0
LINE
  5
652
100
AcDbEntity
  8
Laag_1
 62
1
100
AcDbLine
 10
433.993345
 20
428.347886
 30
0.0
 11
433.675685
 21
420.404233
 31
0.0
  0
SPLINE
  5
653
100
AcDbEntity
  8
Laag_1
 62
1
100
AcDbSpline
 70
8
 71
3
 72
8
 73
4
 74
0
 40
0
 40
0
 40
0
 40
0
 40
1
 40
1
 40
1
 40
1
 10
448.746076
 20
419.529393
 30
0.0
 10
447.318238
 20
421.796760
 30
0.0
 10
447.208488
 20
424.653637
 30
0.0
 10
448.458167
 20
427.023865
 30
0.0
  0
SPLINE
  5
654
100
AcDbEntity
  8
Laag_1
 62
1
100
AcDbSpline
 70
8
 71
3
 72
8
 73
4
 74
0
 40
0
 40
0
 40
0
 40
0
 40
1
 40
1
 40
1
 40
1
 10
448.458167
 20
427.023865
 30
0.0
 10
449.707846
 20
429.394092
 30
0.0
 10
452.127099
 20
430.917577
 30
0.0
 10
454.804616
 20
431.020437
 30
0.0
  0
SPLINE
  5
655
100
AcDbEntity
  8
Laag_1
 62
1
100
AcDbSpline
 70
8
 71
3
 72
8
 73
4
 74
0
 40
0
 40
0
 40
0
 40
0
 40
1
 40
1
 40
1
 40
1
 10
454.804616
 20
431.020437
 30
0.0
 10
457.482133
 20
431.123296
 30
0.0
 10
460.011136
 20
429.789905
 30
0.0
 10
461.438973
 20
427.522537
 30
0.0
  0
SPLINE
  5
656
100
AcDbEntity
  8
Laag_1
 62
1
100
AcDbSpline
 70
8
 71
3
 72
8
 73
4
 74
0
 40
0
 40
0
 40
0
 40
0
 40
1
 40
1
 40
1
 40
1
 10
461.438973
 20
427.522537
 30
0.0
 10
462.866811
 20
425.255169
 30
0.0
 10
462.976561
 20
422.398292
 30
0.0
 10
461.726882
 20
420.028065
 30
0.0
  0
SPLINE
  5
657
100
AcDbEntity
  8
Laag_1
 62
1
100
AcDbSpline
 70
8
 71
3
 72
8
 73
4
 74
0
 40
0
 40
0
 40
0
 40
0
 40
1
 40
1
 40
1
 40
1
 10
461.726882
 20
420.028065
 30
0.0
 10
460.477203
 20
417.657837
 30
0.0
 10
458.057950
 20
416.134353
 30
0.0
 10
455.380433
 20
416.031493
 30
0.0
  0
SPLINE
  5
658
100
AcDbEntity
  8
Laag_1
 62
1
100
AcDbSpline
 70
8
 71
3
 72
8
 73
4
 74
0
 40
0
 40
0
 40
0
 40
0
 40
1
 40
1
 40
1
 40
1
 10
455.380433
 20
416.031493
 30
0.0
 10
452.702916
 20
415.928633
 30
0.0
 10
450.173913
 20
417.262025
 30
0.0
 10
448.746076
 20
419.529393
 30
0.0
  0
LINE
  5
659
100
AcDbEntity
  8
Laag_1
 62
1
100
AcDbLine
 10
448.746076
 20
419.529393
 30
0.0
 11
448.746076
 21
419.529393
 31
0.0
  0
SPLINE
  5
65a
100
AcDbEntity
  8
Laag_1
 62
1
100
AcDbSpline
 70
8
 71
3
 72
8
 73
4
 74
0
 40
0
 40
0
 40
0
 40
0
 40
1
 40
1
 40
1
 40
1
 10
392.461306
 20
452.084389
 30
0.0
 10
391.033469
 20
454.351757
 30
0.0
 10
390.923719
 20
457.208634
 30
0.0
 10
392.173398
 20
459.578861
 30
0.0
  0
SPLINE
  5
65b
100
AcDbEntity
  8
Laag_1
 62
1
100
AcDbSpline
 70
8
 71
3
 72
8
 73
4
 74
0
 40
0
 40
0
 40
0
 40
0
 40
1
 40
1
 40
1
 40
1
 10
392.173398
 20
459.578861
 30
0.0
 10
393.423077
 20
461.949089
 30
0.0
 10
395.842330
 20
463.472574
 30
0.0
 10
398.519847
 20
463.575434
 30
0.0
  0
SPLINE
  5
65c
100
AcDbEntity
  8
Laag_1
 62
1
100
AcDbSpline
 70
8
 71
3
 72
8
 73
4
 74
0
 40
0
 40
0
 40
0
 40
0
 40
1
 40
1
 40
1
 40
1
 10
398.519847
 20
463.575434
 30
0.0
 10
401.197364
 20
463.678293
 30
0.0
 10
403.726367
 20
462.344901
 30
0.0
 10
405.154205
 20
460.077533
 30
0.0
  0
SPLINE
  5
65d
100
AcDbEntity
  8
Laag_1
 62
1
100
AcDbSpline
 70
8
 71
3
 72
8
 73
4
 74
0
 40
0
 40
0
 40
0
 40
0
 40
1
 40
1
 40
1
 40
1
 10
405.154205
 20
460.077533
 30
0.0
 10
406.582042
 20
457.810166
 30
0.0
 10
406.691792
 20
454.953289
 30
0.0
 10
405.442113
 20
452.583061
 30
0.0
  0
SPLINE
  5
65e
100
AcDbEntity
  8
Laag_1
 62
1
100
AcDbSpline
 70
8
 71
3
 72
8
 73
4
 74
0
 40
0
 40
0
 40
0
 40
0
 40
1
 40
1
 40
1
 40
1
 10
405.442113
 20
452.583061
 30
0.0
 10
404.192434
 20
450.212834
 30
0.0
 10
401.773181
 20
448.689349
 30
0.0
 10
399.095664
 20
448.586489
 30
0.0
  0
SPLINE
  5
65f
100
AcDbEntity
  8
Laag_1
 62
1
100
AcDbSpline
 70
8
 71
3
 72
8
 73
4
 74
0
 40
0
 40
0
 40
0
 40
0
 40
1
 40
1
 40
1
 40
1
 10
399.095664
 20
448.586489
 30
0.0
 10
396.418147
 20
448.483629
 30
0.0
 10
393.889144
 20
449.817021
 30
0.0
 10
392.461306
 20
452.084389
 30
0.0
  0
LINE
  5
660
100
AcDbEntity
  8
Laag_1
 62
1
100
AcDbLine
 10
392.461306
 20
452.084389
 30
0.0
 11
392.461306
 21
452.084389
 31
0.0
  0
LINE
  5
661
100
AcDbEntity
  8
Laag_1
 62
1
100
AcDbLine
 10
463.065842
 20
403.405033
 30
0.0
 11
469.793078
 21
407.641399
 31
0.0
  0
LINE
  5
662
100
AcDbEntity
  8
Laag_1
 62
1
100
AcDbLine
 10
469.793078
 20
407.641399
 30
0.0
 11
479.091775
 21
392.875318
 31
0.0
  0
LINE
  5
663
100
AcDbEntity
  8
Laag_1
 62
1
100
AcDbLine
 10
479.091775
 20
392.875318
 30
0.0
 11
472.364540
 21
388.638952
 31
0.0
  0
LINE
  5
664
100
AcDbEntity
  8
Laag_1
 62
1
100
AcDbLine
 10
472.364540
 20
388.638952
 30
0.0
 11
463.065842
 21
403.405033
 31
0.0
  0
SPLINE
  5
665
100
AcDbEntity
  8
Laag_1
 62
1
100
AcDbSpline
 70
8
 71
3
 72
8
 73
4
 74
0
 40
0
 40
0
 40
0
 40
0
 40
1
 40
1
 40
1
 40
1
 10
500.267585
 20
454.866366
 30
0.0
 10
498.838538
 20
457.133765
 30
0.0
 10
498.728041
 20
459.991414
 30
0.0
 10
499.977736
 20
462.362391
 30
0.0
  0
SPLINE
  5
666
100
AcDbEntity
  8
Laag_1
 62
1
100
AcDbSpline
 70
8
 71
3
 72
8
 73
4
 74
0
 40
0
 40
0
 40
0
 40
0
 40
1
 40
1
 40
1
 40
1
 10
499.977736
 20
462.362391
 30
0.0
 10
501.227432
 20
464.733369
 30
0.0
 10
503.647361
 20
466.257280
 30
0.0
 10
506.325562
 20
466.359830
 30
0.0
  0
SPLINE
  5
667
100
AcDbEntity
  8
Laag_1
 62
1
100
AcDbSpline
 70
8
 71
3
 72
8
 73
4
 74
0
 40
0
 40
0
 40
0
 40
0
 40
1
 40
1
 40
1
 40
1
 10
506.325562
 20
466.359830
 30
0.0
 10
509.003762
 20
466.462380
 30
0.0
 10
511.533138
 20
465.127982
 30
0.0
 10
512.960481
 20
462.859510
 30
0.0
  0
SPLINE
  5
668
100
AcDbEntity
  8
Laag_1
 62
1
100
AcDbSpline
 70
8
 71
3
 72
8
 73
4
 74
0
 40
0
 40
0
 40
0
 40
0
 40
1
 40
1
 40
1
 40
1
 10
512.960481
 20
462.859510
 30
0.0
 10
514.389529
 20
460.592111
 30
0.0
 10
514.500025
 20
457.734463
 30
0.0
 10
513.250330
 20
455.363485
 30
0.0
  0
SPLINE
  5
669
100
AcDbEntity
  8
Laag_1
 62
1
100
AcDbSpline
 70
8
 71
3
 72
8
 73
4
 74
0
 40
0
 40
0
 40
0
 40
0
 40
1
 40
1
 40
1
 40
1
 10
513.250330
 20
455.363485
 30
0.0
 10
512.000634
 20
452.992507
 30
0.0
 10
509.580705
 20
451.468597
 30
0.0
 10
506.902504
 20
451.366046
 30
0.0
  0
SPLINE
  5
66a
100
AcDbEntity
  8
Laag_1
 62
1
100
AcDbSpline
 70
8
 71
3
 72
8
 73
4
 74
0
 40
0
 40
0
 40
0
 40
0
 40
1
 40
1
 40
1
 40
1
 10
506.902504
 20
451.366046
 30
0.0
 10
504.224304
 20
451.263496
 30
0.0
 10
501.694928
 20
452.597895
 30
0.0
 10
500.267585
 20
454.866366
 30
0.0
  0
LINE
  5
66b
100
AcDbEntity
  8
Laag_1
 62
1
100
AcDbLine
 10
500.267585
 20
454.866366
 30
0.0
 11
500.267585
 21
454.866366
 31
0.0
  0
LINE
  5
66c
100
AcDbEntity
  8
Laag_1
 62
1
100
AcDbLine
 10
381.585232
 20
430.443653
 30
0.0
 11
399.021295
 21
429.746397
 31
0.0
  0
LINE
  5
66d
100
AcDbEntity
  8
Laag_1
 62
1
100
AcDbLine
 10
399.021295
 20
429.746397
 30
0.0
 11
398.703628
 21
421.802752
 31
0.0
  0
LINE
  5
66e
100
AcDbEntity
  8
Laag_1
 62
1
100
AcDbLine
 10
398.703628
 20
421.802752
 30
0.0
 11
381.267570
 21
422.500001
 31
0.0
  0
LINE
  5
66f
100
AcDbEntity
  8
Laag_1
 62
1
100
AcDbLine
 10
381.267570
 20
422.500001
 30
0.0
 11
381.585232
 21
430.443653
 31
0.0
  0
LINE
  5
670
100
AcDbEntity
  8
Laag_1
 62
1
100
AcDbLine
 10
481.716517
 20
373.788264
 30
0.0
 11
488.443753
 21
378.024630
 31
0.0
  0
LINE
  5
671
100
AcDbEntity
  8
Laag_1
 62
1
100
AcDbLine
 10
488.443753
 20
378.024630
 30
0.0
 11
497.742450
 21
363.258549
 31
0.0
  0
LINE
  5
672
100
AcDbEntity
  8
Laag_1
 62
1
100
AcDbLine
 10
497.742450
 20
363.258549
 30
0.0
 11
491.015214
 21
359.022183
 31
0.0
  0
LINE
  5
673
100
AcDbEntity
  8
Laag_1
 62
1
100
AcDbLine
 10
491.015214
 20
359.022183
 30
0.0
 11
481.716517
 21
373.788264
 31
0.0
  0
LINE
  5
674
100
AcDbEntity
  8
Laag_1
 62
1
100
AcDbLine
 10
433.515483
 20
391.124468
 30
0.0
 11
441.653941
 21
406.560388
 31
0.0
  0
LINE
  5
675
100
AcDbEntity
  8
Laag_1
 62
1
100
AcDbLine
 10
441.653941
 20
406.560388
 30
0.0
 11
448.686349
 21
402.852632
 31
0.0
  0
LINE
  5
676
100
AcDbEntity
  8
Laag_1
 62
1
100
AcDbLine
 10
448.686349
 20
402.852632
 30
0.0
 11
440.547904
 21
387.416688
 31
0.0
  0
LINE
  5
677
100
AcDbEntity
  8
Laag_1
 62
1
100
AcDbLine
 10
440.547904
 20
387.416688
 30
0.0
 11
433.515483
 21
391.124468
 31
0.0
  0
SPLINE
  5
678
100
AcDbEntity
  8
Laag_1
 62
1
100
AcDbSpline
 70
8
 71
3
 72
8
 73
4
 74
0
 40
0
 40
0
 40
0
 40
0
 40
1
 40
1
 40
1
 40
1
 10
451.194894
 20
355.784765
 30
0.0
 10
449.766451
 20
358.052149
 30
0.0
 10
449.656328
 20
360.909411
 30
0.0
 10
450.906016
 20
363.280014
 30
0.0
  0
SPLINE
  5
679
100
AcDbEntity
  8
Laag_1
 62
1
100
AcDbSpline
 70
8
 71
3
 72
8
 73
4
 74
0
 40
0
 40
0
 40
0
 40
0
 40
1
 40
1
 40
1
 40
1
 10
450.906016
 20
363.280014
 30
0.0
 10
452.155703
 20
365.650617
 30
0.0
 10
454.575294
 20
367.174315
 30
0.0
 10
457.253153
 20
367.277020
 30
0.0
  0
SPLINE
  5
67a
100
AcDbEntity
  8
Laag_1
 62
1
100
AcDbSpline
 70
8
 71
3
 72
8
 73
4
 74
0
 40
0
 40
0
 40
0
 40
0
 40
1
 40
1
 40
1
 40
1
 10
457.253153
 20
367.277020
 30
0.0
 10
459.931012
 20
367.379725
 30
0.0
 10
462.460201
 20
366.045830
 30
0.0
 10
463.887792
 20
363.777910
 30
0.0
  0
SPLINE
  5
67b
100
AcDbEntity
  8
Laag_1
 62
1
100
AcDbSpline
 70
8
 71
3
 72
8
 73
4
 74
0
 40
0
 40
0
 40
0
 40
0
 40
1
 40
1
 40
1
 40
1
 10
463.887792
 20
363.777910
 30
0.0
 10
465.316234
 20
361.510526
 30
0.0
 10
465.426357
 20
358.653264
 30
0.0
 10
464.176670
 20
356.282661
 30
0.0
  0
SPLINE
  5
67c
100
AcDbEntity
  8
Laag_1
 62
1
100
AcDbSpline
 70
8
 71
3
 72
8
 73
4
 74
0
 40
0
 40
0
 40
0
 40
0
 40
1
 40
1
 40
1
 40
1
 10
464.176670
 20
356.282661
 30
0.0
 10
462.926983
 20
353.912058
 30
0.0
 10
460.507392
 20
352.388360
 30
0.0
 10
457.829533
 20
352.285655
 30
0.0
  0
SPLINE
  5
67d
100
AcDbEntity
  8
Laag_1
 62
1
100
AcDbSpline
 70
8
 71
3
 72
8
 73
4
 74
0
 40
0
 40
0
 40
0
 40
0
 40
1
 40
1
 40
1
 40
1
 10
457.829533
 20
352.285655
 30
0.0
 10
455.151674
 20
352.182950
 30
0.0
 10
452.622484
 20
353.516845
 30
0.0
 10
451.194894
 20
355.784765
 30
0.0
  0
LINE
  5
67e
100
AcDbEntity
  8
Laag_1
 62
1
100
AcDbLine
 10
451.194894
 20
355.784765
 30
0.0
 11
451.194894
 21
355.784765
 31
0.0
  0
SPLINE
  5
67f
100
AcDbEntity
  8
Laag_1
 62
1
100
AcDbSpline
 70
8
 71
3
 72
8
 73
4
 74
0
 40
0
 40
0
 40
0
 40
0
 40
1
 40
1
 40
1
 40
1
 10
505.174954
 20
389.777823
 30
0.0
 10
503.746511
 20
392.045206
 30
0.0
 10
503.636388
 20
394.902469
 30
0.0
 10
504.886076
 20
397.273072
 30
0.0
  0
SPLINE
  5
680
100
AcDbEntity
  8
Laag_1
 62
1
100
AcDbSpline
 70
8
 71
3
 72
8
 73
4
 74
0
 40
0
 40
0
 40
0
 40
0
 40
1
 40
1
 40
1
 40
1
 10
504.886076
 20
397.273072
 30
0.0
 10
506.135763
 20
399.643674
 30
0.0
 10
508.555354
 20
401.167372
 30
0.0
 10
511.233213
 20
401.270077
 30
0.0
  0
SPLINE
  5
681
100
AcDbEntity
  8
Laag_1
 62
1
100
AcDbSpline
 70
8
 71
3
 72
8
 73
4
 74
0
 40
0
 40
0
 40
0
 40
0
 40
1
 40
1
 40
1
 40
1
 10
511.233213
 20
401.270077
 30
0.0
 10
513.911072
 20
401.372782
 30
0.0
 10
516.440261
 20
400.038887
 30
0.0
 10
517.867852
 20
397.770967
 30
0.0
  0
SPLINE
  5
682
100
AcDbEntity
  8
Laag_1
 62
1
100
AcDbSpline
 70
8
 71
3
 72
8
 73
4
 74
0
 40
0
 40
0
 40
0
 40
0
 40
1
 40
1
 40
1
 40
1
 10
517.867852
 20
397.770967
 30
0.0
 10
519.295689
 20
395.503599
 30
0.0
 10
519.405439
 20
392.646723
 30
0.0
 10
518.155760
 20
390.276495
 30
0.0
  0
SPLINE
  5
683
100
AcDbEntity
  8
Laag_1
 62
1
100
AcDbSpline
 70
8
 71
3
 72
8
 73
4
 74
0
 40
0
 40
0
 40
0
 40
0
 40
1
 40
1
 40
1
 40
1
 10
518.155760
 20
390.276495
 30
0.0
 10
516.906081
 20
387.906267
 30
0.0
 10
514.486828
 20
386.382783
 30
0.0
 10
511.809311
 20
386.279923
 30
0.0
  0
SPLINE
  5
684
100
AcDbEntity
  8
Laag_1
 62
1
100
AcDbSpline
 70
8
 71
3
 72
8
 73
4
 74
0
 40
0
 40
0
 40
0
 40
0
 40
1
 40
1
 40
1
 40
1
 10
511.809311
 20
386.279923
 30
0.0
 10
509.131794
 20
386.177063
 30
0.0
 10
506.602792
 20
387.510455
 30
0.0
 10
505.174954
 20
389.777823
 30
0.0
  0
LINE
  5
685
100
AcDbEntity
  8
Laag_1
 62
1
100
AcDbLine
 10
505.174954
 20
389.777823
 30
0.0
 11
505.174954
 21
389.777823
 31
0.0
  0
LINE
  5
686
100
AcDbEntity
  8
Laag_1
 62
1
100
AcDbLine
 10
498.797047
 20
567.538925
 30
0.0
 11
506.369402
 21
570.119508
 31
0.0
  0
LINE
  5
687
100
AcDbEntity
  8
Laag_1
 62
1
100
AcDbLine
 10
506.369402
 20
570.119508
 30
0.0
 11
501.984934
 21
582.985107
 31
0.0
  0
LINE
  5
688
100
AcDbEntity
  8
Laag_1
 62
1
100
AcDbLine
 10
501.984934
 20
582.985107
 30
0.0
 11
464.231710
 21
583.018053
 31
0.0
  0
LINE
  5
689
100
AcDbEntity
  8
Laag_1
 62
1
100
AcDbLine
 10
464.231710
 20
583.018053
 30
0.0
 11
464.166259
 21
508.018082
 31
0.0
  0
LINE
  5
68a
100
AcDbEntity
  8
Laag_1
 62
1
100
AcDbLine
 10
464.166259
 20
508.018082
 30
0.0
 11
446.166266
 21
508.033789
 31
0.0
  0
LINE
  5
68b
100
AcDbEntity
  8
Laag_1
 62
1
100
AcDbLine
 10
446.166266
 20
508.033789
 30
0.0
 11
446.231717
 21
583.033760
 31
0.0
  0
LINE
  5
68c
100
AcDbEntity
  8
Laag_1
 62
1
100
AcDbLine
 10
446.231717
 20
583.033760
 30
0.0
 11
408.478151
 21
583.066708
 31
0.0
  0
LINE
  5
68d
100
AcDbEntity
  8
Laag_1
 62
1
100
AcDbLine
 10
408.478151
 20
583.066708
 30
0.0
 11
404.071131
 21
570.207126
 31
0.0
  0
LINE
  5
68e
100
AcDbEntity
  8
Laag_1
 62
1
100
AcDbLine
 10
404.071131
 20
570.207126
 30
0.0
 11
411.639056
 21
567.613574
 31
0.0
  0
LINE
  5
68f
100
AcDbEntity
  8
Laag_1
 62
1
100
AcDbLine
 10
411.639056
 20
567.613574
 30
0.0
 11
405.949452
 21
551.011439
 31
0.0
  0
LINE
  5
690
100
AcDbEntity
  8
Laag_1
 62
1
100
AcDbLine
 10
405.949452
 20
551.011439
 30
0.0
 11
398.381527
 21
553.604991
 31
0.0
  0
LINE
  5
691
100
AcDbEntity
  8
Laag_1
 62
1
100
AcDbLine
 10
398.381527
 20
553.604991
 30
0.0
 11
392.724340
 21
537.097456
 31
0.0
  0
LINE
  5
692
100
AcDbEntity
  8
Laag_1
 62
1
100
AcDbLine
 10
392.724340
 20
537.097456
 30
0.0
 11
400.292265
 21
534.503905
 31
0.0
  0
LINE
  5
693
100
AcDbEntity
  8
Laag_1
 62
1
100
AcDbLine
 10
400.292265
 20
534.503905
 30
0.0
 11
394.602662
 21
517.901767
 31
0.0
  0
LINE
  5
694
100
AcDbEntity
  8
Laag_1
 62
1
100
AcDbLine
 10
394.602662
 20
517.901767
 30
0.0
 11
387.034737
 21
520.495319
 31
0.0
  0
LINE
  5
695
100
AcDbEntity
  8
Laag_1
 62
1
100
AcDbLine
 10
387.034737
 20
520.495319
 30
0.0
 11
381.377551
 21
503.987784
 31
0.0
  0
LINE
  5
696
100
AcDbEntity
  8
Laag_1
 62
1
100
AcDbLine
 10
381.377551
 20
503.987784
 30
0.0
 11
388.945476
 21
501.394233
 31
0.0
  0
LINE
  5
697
100
AcDbEntity
  8
Laag_1
 62
1
100
AcDbLine
 10
388.945476
 20
501.394233
 30
0.0
 11
383.255873
 21
484.792096
 31
0.0
  0
LINE
  5
698
100
AcDbEntity
  8
Laag_1
 62
1
100
AcDbLine
 10
383.255873
 20
484.792096
 30
0.0
 11
375.687947
 21
487.385650
 31
0.0
  0
LINE
  5
699
100
AcDbEntity
  8
Laag_1
 62
1
100
AcDbLine
 10
375.687947
 20
487.385650
 30
0.0
 11
356.517286
 21
431.446105
 31
0.0
  0
LINE
  5
69a
100
AcDbEntity
  8
Laag_1
 62
1
100
AcDbLine
 10
356.517286
 20
431.446105
 30
0.0
 11
364.049247
 21
431.144907
 31
0.0
  0
LINE
  5
69b
100
AcDbEntity
  8
Laag_1
 62
1
100
AcDbLine
 10
364.049247
 20
431.144907
 30
0.0
 11
363.731585
 21
423.201255
 31
0.0
  0
LINE
  5
69c
100
AcDbEntity
  8
Laag_1
 62
1
100
AcDbLine
 10
363.731585
 20
423.201255
 30
0.0
 11
357.519105
 21
423.449687
 31
0.0
  0
LINE
  5
69d
100
AcDbEntity
  8
Laag_1
 62
1
100
AcDbLine
 10
357.519105
 20
423.449687
 30
0.0
 11
406.107132
 21
339.139901
 31
0.0
  0
LINE
  5
69e
100
AcDbEntity
  8
Laag_1
 62
1
100
AcDbLine
 10
406.107132
 20
339.139901
 30
0.0
 11
409.006866
 21
344.639734
 31
0.0
  0
LINE
  5
69f
100
AcDbEntity
  8
Laag_1
 62
1
100
AcDbLine
 10
409.006866
 20
344.639734
 30
0.0
 11
416.039288
 21
340.931955
 31
0.0
  0
LINE
  5
6a0
100
AcDbEntity
  8
Laag_1
 62
1
100
AcDbLine
 10
416.039288
 20
340.931955
 30
0.0
 11
413.040415
 21
335.244058
 31
0.0
  0
LINE
  5
6a1
100
AcDbEntity
  8
Laag_1
 62
1
100
AcDbLine
 10
413.040415
 20
335.244058
 30
0.0
 11
503.793591
 21
338.730464
 31
0.0
  0
LINE
  5
6a2
100
AcDbEntity
  8
Laag_1
 62
1
100
AcDbLine
 10
503.793591
 20
338.730464
 30
0.0
 11
500.367191
 21
344.171495
 31
0.0
  0
LINE
  5
6a3
100
AcDbEntity
  8
Laag_1
 62
1
100
AcDbLine
 10
500.367191
 20
344.171495
 30
0.0
 11
507.094427
 21
348.407861
 31
0.0
  0
LINE
  5
6a4
100
AcDbEntity
  8
Laag_1
 62
1
100
AcDbLine
 10
507.094427
 20
348.407861
 30
0.0
 11
510.520827
 21
342.966831
 31
0.0
  0
LINE
  5
6a5
100
AcDbEntity
  8
Laag_1
 62
1
100
AcDbLine
 10
510.520827
 20
342.966831
 30
0.0
 11
552.878137
 21
423.304570
 31
0.0
  0
LINE
  5
6a6
100
AcDbEntity
  8
Laag_1
 62
1
100
AcDbLine
 10
552.878137
 20
423.304570
 30
0.0
 11
546.452836
 21
423.057748
 31
0.0
  0
LINE
  5
6a7
100
AcDbEntity
  8
Laag_1
 62
1
100
AcDbLine
 10
546.452836
 20
423.057748
 30
0.0
 11
546.147649
 21
431.001893
 31
0.0
  0
LINE
  5
6a8
100
AcDbEntity
  8
Laag_1
 62
1
100
AcDbLine
 10
546.147649
 20
431.001893
 30
0.0
 11
553.680693
 21
431.291275
 31
0.0
  0
LINE
  5
6a9
100
AcDbEntity
  8
Laag_1
 62
1
100
AcDbLine
 10
553.680693
 20
431.291275
 30
0.0
 11
534.610671
 21
487.249534
 31
0.0
  0
LINE
  5
6aa
100
AcDbEntity
  8
Laag_1
 62
1
100
AcDbLine
 10
534.610671
 20
487.249534
 30
0.0
 11
527.038319
 21
484.668942
 31
0.0
  0
LINE
  5
6ab
100
AcDbEntity
  8
Laag_1
 62
1
100
AcDbLine
 10
527.038319
 20
484.668942
 30
0.0
 11
521.377162
 21
501.280799
 31
0.0
  0
LINE
  5
6ac
100
AcDbEntity
  8
Laag_1
 62
1
100
AcDbLine
 10
521.377162
 20
501.280799
 30
0.0
 11
528.949514
 21
503.861390
 31
0.0
  0
LINE
  5
6ad
100
AcDbEntity
  8
Laag_1
 62
1
100
AcDbLine
 10
528.949514
 20
503.861390
 30
0.0
 11
523.320616
 21
520.378591
 31
0.0
  0
LINE
  5
6ae
100
AcDbEntity
  8
Laag_1
 62
1
100
AcDbLine
 10
523.320616
 20
520.378591
 30
0.0
 11
515.748259
 21
517.798007
 31
0.0
  0
LINE
  5
6af
100
AcDbEntity
  8
Laag_1
 62
1
100
AcDbLine
 10
515.748259
 20
517.798007
 30
0.0
 11
510.087102
 21
534.409864
 31
0.0
  0
LINE
  5
6b0
100
AcDbEntity
  8
Laag_1
 62
1
100
AcDbLine
 10
510.087102
 20
534.409864
 30
0.0
 11
517.659459
 21
536.990448
 31
0.0
  0
LINE
  5
6b1
100
AcDbEntity
  8
Laag_1
 62
1
100
AcDbLine
 10
517.659459
 20
536.990448
 30
0.0
 11
512.030559
 21
553.507651
 31
0.0
  0
LINE
  5
6b2
100
AcDbEntity
  8
Laag_1
 62
1
100
AcDbLine
 10
512.030559
 20
553.507651
 30
0.0
 11
504.458202
 21
550.927067
 31
0.0
  0
LINE
  5
6b3
100
AcDbEntity
  8
Laag_1
 62
1
100
AcDbLine
 10
504.458202
 20
550.927067
 30
0.0
 11
498.797047
 21
567.538925
 31
0.0
  0
LINE
  5
6b4
100
AcDbEntity
  8
Laag_1
 62
5
100
AcDbLine
 10
415.327310
 20
352.625100
 30
0.0
 11
415.821030
 21
352.951080
 31
0.0
  0
LINE
  5
6b5
100
AcDbEntity
  8
Laag_1
 62
5
100
AcDbLine
 10
415.821030
 20
352.951080
 30
0.0
 11
416.543890
 21
353.144770
 31
0.0
  0
LINE
  5
6b6
100
AcDbEntity
  8
Laag_1
 62
5
100
AcDbLine
 10
416.543890
 20
353.144770
 30
0.0
 11
417.134450
 21
353.109270
 31
0.0
  0
LINE
  5
6b7
100
AcDbEntity
  8
Laag_1
 62
5
100
AcDbLine
 10
417.134450
 20
353.109270
 30
0.0
 11
418.050990
 21
352.580110
 31
0.0
  0
LINE
  5
6b8
100
AcDbEntity
  8
Laag_1
 62
5
100
AcDbLine
 10
418.050990
 20
352.580110
 30
0.0
 11
418.376980
 21
352.086390
 31
0.0
  0
LINE
  5
6b9
100
AcDbEntity
  8
Laag_1
 62
5
100
AcDbLine
 10
418.376980
 20
352.086390
 30
0.0
 11
418.570660
 21
351.363530
 31
0.0
  0
LINE
  5
6ba
100
AcDbEntity
  8
Laag_1
 62
5
100
AcDbLine
 10
418.570660
 20
351.363530
 30
0.0
 11
418.535260
 21
350.772960
 31
0.0
  0
LINE
  5
6bb
100
AcDbEntity
  8
Laag_1
 62
5
100
AcDbLine
 10
418.535260
 20
350.772960
 30
0.0
 11
418.367520
 21
349.953270
 31
0.0
  0
LINE
  5
6bc
100
AcDbEntity
  8
Laag_1
 62
5
100
AcDbLine
 10
418.367520
 20
349.953270
 30
0.0
 11
417.706070
 21
348.807590
 31
0.0
  0
LINE
  5
6bd
100
AcDbEntity
  8
Laag_1
 62
5
100
AcDbLine
 10
417.706070
 20
348.807590
 30
0.0
 11
417.080060
 21
348.252470
 31
0.0
  0
LINE
  5
6be
100
AcDbEntity
  8
Laag_1
 62
5
100
AcDbLine
 10
417.080060
 20
348.252470
 30
0.0
 11
416.586330
 21
347.926490
 31
0.0
  0
LINE
  5
6bf
100
AcDbEntity
  8
Laag_1
 62
5
100
AcDbLine
 10
416.586330
 20
347.926490
 30
0.0
 11
415.863480
 21
347.732800
 31
0.0
  0
LINE
  5
6c0
100
AcDbEntity
  8
Laag_1
 62
5
100
AcDbLine
 10
415.863480
 20
347.732800
 30
0.0
 11
415.272920
 21
347.768200
 31
0.0
  0
LINE
  5
6c1
100
AcDbEntity
  8
Laag_1
 62
5
100
AcDbLine
 10
415.272920
 20
347.768200
 30
0.0
 11
414.356380
 21
348.297370
 31
0.0
  0
LINE
  5
6c2
100
AcDbEntity
  8
Laag_1
 62
5
100
AcDbLine
 10
414.356380
 20
348.297370
 30
0.0
 11
414.030390
 21
348.791090
 31
0.0
  0
LINE
  5
6c3
100
AcDbEntity
  8
Laag_1
 62
5
100
AcDbLine
 10
414.030390
 20
348.791090
 30
0.0
 11
413.836700
 21
349.513940
 31
0.0
  0
LINE
  5
6c4
100
AcDbEntity
  8
Laag_1
 62
5
100
AcDbLine
 10
413.836700
 20
349.513940
 30
0.0
 11
413.872100
 21
350.104510
 31
0.0
  0
LINE
  5
6c5
100
AcDbEntity
  8
Laag_1
 62
5
100
AcDbLine
 10
499.212000
 20
356.928340
 30
0.0
 11
501.846740
 21
352.036510
 31
0.0
  0
LINE
  5
6c6
100
AcDbEntity
  8
Laag_1
 62
5
100
AcDbLine
 10
499.212000
 20
356.928340
 30
0.0
 11
497.581390
 21
356.050100
 31
0.0
  0
LINE
  5
6c7
100
AcDbEntity
  8
Laag_1
 62
5
100
AcDbLine
 10
497.581390
 20
356.050100
 30
0.0
 11
497.008030
 21
355.440760
 31
0.0
  0
LINE
  5
6c8
100
AcDbEntity
  8
Laag_1
 62
5
100
AcDbLine
 10
497.008030
 20
355.440760
 30
0.0
 11
496.793060
 21
354.723940
 31
0.0
  0
LINE
  5
6c9
100
AcDbEntity
  8
Laag_1
 62
5
100
AcDbLine
 10
496.793060
 20
354.723940
 30
0.0
 11
496.811360
 21
354.132600
 31
0.0
  0
LINE
  5
6ca
100
AcDbEntity
  8
Laag_1
 62
5
100
AcDbLine
 10
496.811360
 20
354.132600
 30
0.0
 11
496.954810
 21
353.308310
 31
0.0
  0
LINE
  5
6cb
100
AcDbEntity
  8
Laag_1
 62
5
100
AcDbLine
 10
496.954810
 20
353.308310
 30
0.0
 11
497.582140
 21
352.143580
 31
0.0
  0
LINE
  5
6cc
100
AcDbEntity
  8
Laag_1
 62
5
100
AcDbLine
 10
497.582140
 20
352.143580
 30
0.0
 11
498.191470
 21
351.570210
 31
0.0
  0
LINE
  5
6cd
100
AcDbEntity
  8
Laag_1
 62
5
100
AcDbLine
 10
498.191470
 20
351.570210
 30
0.0
 11
498.675330
 21
351.229790
 31
0.0
  0
LINE
  5
6ce
100
AcDbEntity
  8
Laag_1
 62
5
100
AcDbLine
 10
498.675330
 20
351.229790
 30
0.0
 11
499.392150
 21
351.014830
 31
0.0
  0
LINE
  5
6cf
100
AcDbEntity
  8
Laag_1
 62
5
100
AcDbLine
 10
499.392150
 20
351.014830
 30
0.0
 11
500.216440
 21
351.158280
 31
0.0
  0
LINE
  5
6d0
100
AcDbEntity
  8
Laag_1
 62
5
100
AcDbLine
 10
500.216440
 20
351.158280
 30
0.0
 11
501.847050
 21
352.036520
 31
0.0
  0
LINE
  5
6d1
100
AcDbEntity
  8
Laag_1
 62
5
100
AcDbLine
 10
535.576150
 20
424.791870
 30
0.0
 11
535.042460
 21
425.047190
 31
0.0
  0
LINE
  5
6d2
100
AcDbEntity
  8
Laag_1
 62
5
100
AcDbLine
 10
535.042460
 20
425.047190
 30
0.0
 11
534.504150
 21
425.567060
 31
0.0
  0
LINE
  5
6d3
100
AcDbEntity
  8
Laag_1
 62
5
100
AcDbLine
 10
534.504150
 20
425.567060
 30
0.0
 11
534.230400
 21
426.091540
 31
0.0
  0
LINE
  5
6d4
100
AcDbEntity
  8
Laag_1
 62
5
100
AcDbLine
 10
534.230400
 20
426.091540
 30
0.0
 11
534.212000
 21
427.149720
 31
0.0
  0
LINE
  5
6d5
100
AcDbEntity
  8
Laag_1
 62
5
100
AcDbLine
 10
534.212000
 20
427.149720
 30
0.0
 11
534.467320
 21
427.683400
 31
0.0
  0
LINE
  5
6d6
100
AcDbEntity
  8
Laag_1
 62
5
100
AcDbLine
 10
534.467320
 20
427.683400
 30
0.0
 11
534.987200
 21
428.221710
 31
0.0
  0
LINE
  5
6d7
100
AcDbEntity
  8
Laag_1
 62
5
100
AcDbLine
 10
534.987200
 20
428.221710
 30
0.0
 11
535.511670
 21
428.495460
 31
0.0
  0
LINE
  5
6d8
100
AcDbEntity
  8
Laag_1
 62
5
100
AcDbLine
 10
535.511670
 20
428.495460
 30
0.0
 11
536.300690
 21
428.773840
 31
0.0
  0
LINE
  5
6d9
100
AcDbEntity
  8
Laag_1
 62
5
100
AcDbLine
 10
536.300690
 20
428.773840
 30
0.0
 11
537.623410
 21
428.796840
 31
0.0
  0
LINE
  5
6da
100
AcDbEntity
  8
Laag_1
 62
5
100
AcDbLine
 10
537.623410
 20
428.796840
 30
0.0
 11
538.421650
 21
428.546110
 31
0.0
  0
LINE
  5
6db
100
AcDbEntity
  8
Laag_1
 62
5
100
AcDbLine
 10
538.421650
 20
428.546110
 30
0.0
 11
538.955340
 21
428.290790
 31
0.0
  0
LINE
  5
6dc
100
AcDbEntity
  8
Laag_1
 62
5
100
AcDbLine
 10
538.955340
 20
428.290790
 30
0.0
 11
539.493640
 21
427.770910
 31
0.0
  0
LINE
  5
6dd
100
AcDbEntity
  8
Laag_1
 62
5
100
AcDbLine
 10
539.493640
 20
427.770910
 30
0.0
 11
539.767410
 21
427.246440
 31
0.0
  0
LINE
  5
6de
100
AcDbEntity
  8
Laag_1
 62
5
100
AcDbLine
 10
539.767410
 20
427.246440
 30
0.0
 11
539.785810
 21
426.188260
 31
0.0
  0
LINE
  5
6df
100
AcDbEntity
  8
Laag_1
 62
5
100
AcDbLine
 10
539.785810
 20
426.188260
 30
0.0
 11
539.530470
 21
425.654570
 31
0.0
  0
LINE
  5
6e0
100
AcDbEntity
  8
Laag_1
 62
5
100
AcDbLine
 10
539.530470
 20
425.654570
 30
0.0
 11
539.010610
 21
425.116270
 31
0.0
  0
LINE
  5
6e1
100
AcDbEntity
  8
Laag_1
 62
5
100
AcDbLine
 10
539.010610
 20
425.116270
 30
0.0
 11
538.486130
 21
424.842510
 31
0.0
  0
LINE
  5
6e2
100
AcDbEntity
  8
Laag_1
 62
5
100
AcDbLine
 10
712.960770
 20
493.343440
 30
0.0
 11
718.517020
 21
493.343440
 31
0.0
  0
LINE
  5
6e3
100
AcDbEntity
  8
Laag_1
 62
5
100
AcDbLine
 10
712.960770
 20
493.343440
 30
0.0
 11
712.960770
 21
490.962190
 31
0.0
  0
LINE
  5
6e4
100
AcDbEntity
  8
Laag_1
 62
5
100
AcDbLine
 10
712.960770
 20
490.962190
 30
0.0
 11
713.225360
 21
490.168440
 31
0.0
  0
LINE
  5
6e5
100
AcDbEntity
  8
Laag_1
 62
5
100
AcDbLine
 10
713.225360
 20
490.168440
 30
0.0
 11
713.489940
 21
489.903850
 31
0.0
  0
LINE
  5
6e6
100
AcDbEntity
  8
Laag_1
 62
5
100
AcDbLine
 10
713.489940
 20
489.903850
 30
0.0
 11
714.019110
 21
489.639270
 31
0.0
  0
LINE
  5
6e7
100
AcDbEntity
  8
Laag_1
 62
5
100
AcDbLine
 10
714.019110
 20
489.639270
 30
0.0
 11
714.548270
 21
489.639270
 31
0.0
  0
LINE
  5
6e8
100
AcDbEntity
  8
Laag_1
 62
5
100
AcDbLine
 10
714.548270
 20
489.639270
 30
0.0
 11
715.077440
 21
489.903850
 31
0.0
  0
LINE
  5
6e9
100
AcDbEntity
  8
Laag_1
 62
5
100
AcDbLine
 10
715.077440
 20
489.903850
 30
0.0
 11
715.342020
 21
490.168440
 31
0.0
  0
LINE
  5
6ea
100
AcDbEntity
  8
Laag_1
 62
5
100
AcDbLine
 10
715.342020
 20
490.168440
 30
0.0
 11
715.606610
 21
490.962190
 31
0.0
  0
LINE
  5
6eb
100
AcDbEntity
  8
Laag_1
 62
5
100
AcDbLine
 10
715.606610
 20
493.343440
 30
0.0
 11
715.606610
 21
490.962190
 31
0.0
  0
LINE
  5
6ec
100
AcDbEntity
  8
Laag_1
 62
5
100
AcDbLine
 10
715.606610
 20
490.962190
 30
0.0
 11
715.871190
 21
490.168440
 31
0.0
  0
LINE
  5
6ed
100
AcDbEntity
  8
Laag_1
 62
5
100
AcDbLine
 10
715.871190
 20
490.168440
 30
0.0
 11
716.135770
 21
489.903850
 31
0.0
  0
LINE
  5
6ee
100
AcDbEntity
  8
Laag_1
 62
5
100
AcDbLine
 10
716.135770
 20
489.903850
 30
0.0
 11
716.664940
 21
489.639270
 31
0.0
  0
LINE
  5
6ef
100
AcDbEntity
  8
Laag_1
 62
5
100
AcDbLine
 10
716.664940
 20
489.639270
 30
0.0
 11
717.458690
 21
489.639270
 31
0.0
  0
LINE
  5
6f0
100
AcDbEntity
  8
Laag_1
 62
5
100
AcDbLine
 10
717.458690
 20
489.639270
 30
0.0
 11
717.987860
 21
489.903850
 31
0.0
  0
LINE
  5
6f1
100
AcDbEntity
  8
Laag_1
 62
5
100
AcDbLine
 10
717.987860
 20
489.903850
 30
0.0
 11
718.252440
 21
490.168440
 31
0.0
  0
LINE
  5
6f2
100
AcDbEntity
  8
Laag_1
 62
5
100
AcDbLine
 10
718.252440
 20
490.168440
 30
0.0
 11
718.517020
 21
490.962190
 31
0.0
  0
LINE
  5
6f3
100
AcDbEntity
  8
Laag_1
 62
5
100
AcDbLine
 10
718.517020
 20
490.962190
 30
0.0
 11
718.517020
 21
493.343440
 31
0.0
  0
LINE
  5
6f4
100
AcDbEntity
  8
Laag_1
 62
1
100
AcDbLine
 10
671.177800
 20
558.146642
 30
0.0
 11
663.039357
 21
542.710699
 31
0.0
  0
LINE
  5
6f5
100
AcDbEntity
  8
Laag_1
 62
1
100
AcDbLine
 10
663.039357
 20
542.710699
 30
0.0
 11
656.006933
 21
546.418477
 31
0.0
  0
LINE
  5
6f6
100
AcDbEntity
  8
Laag_1
 62
1
100
AcDbLine
 10
656.006933
 20
546.418477
 30
0.0
 11
664.145379
 21
561.854421
 31
0.0
  0
LINE
  5
6f7
100
AcDbEntity
  8
Laag_1
 62
1
100
AcDbLine
 10
664.145379
 20
561.854421
 30
0.0
 11
671.177800
 21
558.146642
 31
0.0
  0
LINE
  5
6f8
100
AcDbEntity
  8
Laag_1
 62
1
100
AcDbLine
 10
577.196308
 20
488.652447
 30
0.0
 11
559.759168
 21
487.982585
 31
0.0
  0
LINE
  5
6f9
100
AcDbEntity
  8
Laag_1
 62
1
100
AcDbLine
 10
559.759168
 20
487.982585
 30
0.0
 11
559.453981
 21
495.926730
 31
0.0
  0
LINE
  5
6fa
100
AcDbEntity
  8
Laag_1
 62
1
100
AcDbLine
 10
559.453981
 20
495.926730
 30
0.0
 11
576.891124
 21
496.596594
 31
0.0
  0
LINE
  5
6fb
100
AcDbEntity
  8
Laag_1
 62
1
100
AcDbLine
 10
576.891124
 20
496.596594
 30
0.0
 11
577.196308
 21
488.652447
 31
0.0
  0
LINE
  5
6fc
100
AcDbEntity
  8
Laag_1
 62
1
100
AcDbLine
 10
612.170506
 20
489.996028
 30
0.0
 11
594.733379
 21
489.326143
 31
0.0
  0
LINE
  5
6fd
100
AcDbEntity
  8
Laag_1
 62
1
100
AcDbLine
 10
594.733379
 20
489.326143
 30
0.0
 11
594.428192
 21
497.270288
 31
0.0
  0
LINE
  5
6fe
100
AcDbEntity
  8
Laag_1
 62
1
100
AcDbLine
 10
594.428192
 20
497.270288
 30
0.0
 11
611.865334
 21
497.940151
 31
0.0
  0
LINE
  5
6ff
100
AcDbEntity
  8
Laag_1
 62
1
100
AcDbLine
 10
611.865334
 20
497.940151
 30
0.0
 11
612.170506
 21
489.996028
 31
0.0
  0
SPLINE
  5
700
100
AcDbEntity
  8
Laag_1
 62
1
100
AcDbSpline
 70
8
 71
3
 72
8
 73
4
 74
0
 40
0
 40
0
 40
0
 40
0
 40
1
 40
1
 40
1
 40
1
 10
693.753426
 20
529.976536
 30
0.0
 10
695.182473
 20
527.709137
 30
0.0
 10
695.292970
 20
524.851489
 30
0.0
 10
694.043274
 20
522.480511
 30
0.0
  0
SPLINE
  5
701
100
AcDbEntity
  8
Laag_1
 62
1
100
AcDbSpline
 70
8
 71
3
 72
8
 73
4
 74
0
 40
0
 40
0
 40
0
 40
0
 40
1
 40
1
 40
1
 40
1
 10
694.043274
 20
522.480511
 30
0.0
 10
692.793579
 20
520.109533
 30
0.0
 10
690.373649
 20
518.585622
 30
0.0
 10
687.695449
 20
518.483072
 30
0.0
  0
SPLINE
  5
702
100
AcDbEntity
  8
Laag_1
 62
1
100
AcDbSpline
 70
8
 71
3
 72
8
 73
4
 74
0
 40
0
 40
0
 40
0
 40
0
 40
1
 40
1
 40
1
 40
1
 10
687.695449
 20
518.483072
 30
0.0
 10
685.017249
 20
518.380522
 30
0.0
 10
682.487872
 20
519.714920
 30
0.0
 10
681.060529
 20
521.983392
 30
0.0
  0
SPLINE
  5
703
100
AcDbEntity
  8
Laag_1
 62
1
100
AcDbSpline
 70
8
 71
3
 72
8
 73
4
 74
0
 40
0
 40
0
 40
0
 40
0
 40
1
 40
1
 40
1
 40
1
 10
681.060529
 20
521.983392
 30
0.0
 10
679.631482
 20
524.250791
 30
0.0
 10
679.520986
 20
527.108439
 30
0.0
 10
680.770681
 20
529.479417
 30
0.0
  0
SPLINE
  5
704
100
AcDbEntity
  8
Laag_1
 62
1
100
AcDbSpline
 70
8
 71
3
 72
8
 73
4
 74
0
 40
0
 40
0
 40
0
 40
0
 40
1
 40
1
 40
1
 40
1
 10
680.770681
 20
529.479417
 30
0.0
 10
682.020376
 20
531.850395
 30
0.0
 10
684.440306
 20
533.374306
 30
0.0
 10
687.118506
 20
533.476856
 30
0.0
  0
SPLINE
  5
705
100
AcDbEntity
  8
Laag_1
 62
1
100
AcDbSpline
 70
8
 71
3
 72
8
 73
4
 74
0
 40
0
 40
0
 40
0
 40
0
 40
1
 40
1
 40
1
 40
1
 10
687.118506
 20
533.476856
 30
0.0
 10
689.796707
 20
533.579406
 30
0.0
 10
692.326083
 20
532.245008
 30
0.0
 10
693.753426
 20
529.976536
 30
0.0
  0
LINE
  5
706
100
AcDbEntity
  8
Laag_1
 62
1
100
AcDbLine
 10
693.753426
 20
529.976536
 30
0.0
 11
693.753426
 21
529.976536
 31
0.0
  0
LINE
  5
707
100
AcDbEntity
  8
Laag_1
 62
1
100
AcDbLine
 10
654.694076
 20
497.906527
 30
0.0
 11
672.130143
 21
497.209262
 31
0.0
  0
LINE
  5
708
100
AcDbEntity
  8
Laag_1
 62
1
100
AcDbLine
 10
672.130143
 20
497.209262
 30
0.0
 11
671.812484
 21
489.265610
 31
0.0
  0
LINE
  5
709
100
AcDbEntity
  8
Laag_1
 62
1
100
AcDbLine
 10
671.812484
 20
489.265610
 30
0.0
 11
654.376415
 21
489.962874
 31
0.0
  0
LINE
  5
70a
100
AcDbEntity
  8
Laag_1
 62
1
100
AcDbLine
 10
654.376415
 20
489.962874
 30
0.0
 11
654.694076
 21
497.906527
 31
0.0
  0
SPLINE
  5
70b
100
AcDbEntity
  8
Laag_1
 62
1
100
AcDbSpline
 70
8
 71
3
 72
8
 73
4
 74
0
 40
0
 40
0
 40
0
 40
0
 40
1
 40
1
 40
1
 40
1
 10
639.623684
 20
498.781367
 30
0.0
 10
641.051522
 20
496.514000
 30
0.0
 10
641.161272
 20
493.657123
 30
0.0
 10
639.911593
 20
491.286895
 30
0.0
  0
SPLINE
  5
70c
100
AcDbEntity
  8
Laag_1
 62
1
100
AcDbSpline
 70
8
 71
3
 72
8
 73
4
 74
0
 40
0
 40
0
 40
0
 40
0
 40
1
 40
1
 40
1
 40
1
 10
639.911593
 20
491.286895
 30
0.0
 10
638.661914
 20
488.916668
 30
0.0
 10
636.242661
 20
487.393183
 30
0.0
 10
633.565144
 20
487.290323
 30
0.0
  0
SPLINE
  5
70d
100
AcDbEntity
  8
Laag_1
 62
1
100
AcDbSpline
 70
8
 71
3
 72
8
 73
4
 74
0
 40
0
 40
0
 40
0
 40
0
 40
1
 40
1
 40
1
 40
1
 10
633.565144
 20
487.290323
 30
0.0
 10
630.887627
 20
487.187464
 30
0.0
 10
628.358624
 20
488.520855
 30
0.0
 10
626.930787
 20
490.788223
 30
0.0
  0
SPLINE
  5
70e
100
AcDbEntity
  8
Laag_1
 62
1
100
AcDbSpline
 70
8
 71
3
 72
8
 73
4
 74
0
 40
0
 40
0
 40
0
 40
0
 40
1
 40
1
 40
1
 40
1
 10
626.930787
 20
490.788223
 30
0.0
 10
625.502949
 20
493.055591
 30
0.0
 10
625.393199
 20
495.912468
 30
0.0
 10
626.642878
 20
498.282695
 30
0.0
  0
SPLINE
  5
70f
100
AcDbEntity
  8
Laag_1
 62
1
100
AcDbSpline
 70
8
 71
3
 72
8
 73
4
 74
0
 40
0
 40
0
 40
0
 40
0
 40
1
 40
1
 40
1
 40
1
 10
626.642878
 20
498.282695
 30
0.0
 10
627.892557
 20
500.652923
 30
0.0
 10
630.311810
 20
502.176408
 30
0.0
 10
632.989327
 20
502.279267
 30
0.0
  0
SPLINE
  5
710
100
AcDbEntity
  8
Laag_1
 62
1
100
AcDbSpline
 70
8
 71
3
 72
8
 73
4
 74
0
 40
0
 40
0
 40
0
 40
0
 40
1
 40
1
 40
1
 40
1
 10
632.989327
 20
502.279267
 30
0.0
 10
635.666844
 20
502.382127
 30
0.0
 10
638.195847
 20
501.048735
 30
0.0
 10
639.623684
 20
498.781367
 30
0.0
  0
LINE
  5
711
100
AcDbEntity
  8
Laag_1
 62
1
100
AcDbLine
 10
639.623684
 20
498.781367
 30
0.0
 11
639.623684
 21
498.781367
 31
0.0
  0
SPLINE
  5
712
100
AcDbEntity
  8
Laag_1
 62
1
100
AcDbSpline
 70
8
 71
3
 72
8
 73
4
 74
0
 40
0
 40
0
 40
0
 40
0
 40
1
 40
1
 40
1
 40
1
 10
695.908454
 20
466.226371
 30
0.0
 10
697.336291
 20
463.959003
 30
0.0
 10
697.446041
 20
461.102126
 30
0.0
 10
696.196362
 20
458.731899
 30
0.0
  0
SPLINE
  5
713
100
AcDbEntity
  8
Laag_1
 62
1
100
AcDbSpline
 70
8
 71
3
 72
8
 73
4
 74
0
 40
0
 40
0
 40
0
 40
0
 40
1
 40
1
 40
1
 40
1
 10
696.196362
 20
458.731899
 30
0.0
 10
694.946683
 20
456.361671
 30
0.0
 10
692.527430
 20
454.838186
 30
0.0
 10
689.849913
 20
454.735327
 30
0.0
  0
SPLINE
  5
714
100
AcDbEntity
  8
Laag_1
 62
1
100
AcDbSpline
 70
8
 71
3
 72
8
 73
4
 74
0
 40
0
 40
0
 40
0
 40
0
 40
1
 40
1
 40
1
 40
1
 10
689.849913
 20
454.735327
 30
0.0
 10
687.172396
 20
454.632467
 30
0.0
 10
684.643393
 20
455.965859
 30
0.0
 10
683.215555
 20
458.233227
 30
0.0
  0
SPLINE
  5
715
100
AcDbEntity
  8
Laag_1
 62
1
100
AcDbSpline
 70
8
 71
3
 72
8
 73
4
 74
0
 40
0
 40
0
 40
0
 40
0
 40
1
 40
1
 40
1
 40
1
 10
683.215555
 20
458.233227
 30
0.0
 10
681.787718
 20
460.500594
 30
0.0
 10
681.677968
 20
463.357471
 30
0.0
 10
682.927647
 20
465.727699
 30
0.0
  0
SPLINE
  5
716
100
AcDbEntity
  8
Laag_1
 62
1
100
AcDbSpline
 70
8
 71
3
 72
8
 73
4
 74
0
 40
0
 40
0
 40
0
 40
0
 40
1
 40
1
 40
1
 40
1
 10
682.927647
 20
465.727699
 30
0.0
 10
684.177326
 20
468.097926
 30
0.0
 10
686.596579
 20
469.621411
 30
0.0
 10
689.274096
 20
469.724271
 30
0.0
  0
SPLINE
  5
717
100
AcDbEntity
  8
Laag_1
 62
1
100
AcDbSpline
 70
8
 71
3
 72
8
 73
4
 74
0
 40
0
 40
0
 40
0
 40
0
 40
1
 40
1
 40
1
 40
1
 10
689.274096
 20
469.724271
 30
0.0
 10
691.951613
 20
469.827131
 30
0.0
 10
694.480616
 20
468.493739
 30
0.0
 10
695.908454
 20
466.226371
 30
0.0
  0
LINE
  5
718
100
AcDbEntity
  8
Laag_1
 62
1
100
AcDbLine
 10
695.908454
 20
466.226371
 30
0.0
 11
695.908454
 21
466.226371
 31
0.0
  0
LINE
  5
719
100
AcDbEntity
  8
Laag_1
 62
1
100
AcDbLine
 10
625.303918
 20
514.905727
 30
0.0
 11
618.576682
 21
510.669361
 31
0.0
  0
LINE
  5
71a
100
AcDbEntity
  8
Laag_1
 62
1
100
AcDbLine
 10
618.576682
 20
510.669361
 30
0.0
 11
609.277985
 21
525.435442
 31
0.0
  0
LINE
  5
71b
100
AcDbEntity
  8
Laag_1
 62
1
100
AcDbLine
 10
609.277985
 20
525.435442
 30
0.0
 11
616.005220
 21
529.671808
 31
0.0
  0
LINE
  5
71c
100
AcDbEntity
  8
Laag_1
 62
1
100
AcDbLine
 10
616.005220
 20
529.671808
 30
0.0
 11
625.303918
 21
514.905727
 31
0.0
  0
SPLINE
  5
71d
100
AcDbEntity
  8
Laag_1
 62
1
100
AcDbSpline
 70
8
 71
3
 72
8
 73
4
 74
0
 40
0
 40
0
 40
0
 40
0
 40
1
 40
1
 40
1
 40
1
 10
588.102175
 20
463.444394
 30
0.0
 10
589.531223
 20
461.176995
 30
0.0
 10
589.641719
 20
458.319346
 30
0.0
 10
588.392024
 20
455.948369
 30
0.0
  0
SPLINE
  5
71e
100
AcDbEntity
  8
Laag_1
 62
1
100
AcDbSpline
 70
8
 71
3
 72
8
 73
4
 74
0
 40
0
 40
0
 40
0
 40
0
 40
1
 40
1
 40
1
 40
1
 10
588.392024
 20
455.948369
 30
0.0
 10
587.142328
 20
453.577391
 30
0.0
 10
584.722399
 20
452.053480
 30
0.0
 10
582.044198
 20
451.950930
 30
0.0
  0
SPLINE
  5
71f
100
AcDbEntity
  8
Laag_1
 62
1
100
AcDbSpline
 70
8
 71
3
 72
8
 73
4
 74
0
 40
0
 40
0
 40
0
 40
0
 40
1
 40
1
 40
1
 40
1
 10
582.044198
 20
451.950930
 30
0.0
 10
579.365998
 20
451.848380
 30
0.0
 10
576.836622
 20
453.182778
 30
0.0
 10
575.409279
 20
455.451250
 30
0.0
  0
SPLINE
  5
720
100
AcDbEntity
  8
Laag_1
 62
1
100
AcDbSpline
 70
8
 71
3
 72
8
 73
4
 74
0
 40
0
 40
0
 40
0
 40
0
 40
1
 40
1
 40
1
 40
1
 10
575.409279
 20
455.451250
 30
0.0
 10
573.980231
 20
457.718649
 30
0.0
 10
573.869735
 20
460.576297
 30
0.0
 10
575.119430
 20
462.947275
 30
0.0
  0
SPLINE
  5
721
100
AcDbEntity
  8
Laag_1
 62
1
100
AcDbSpline
 70
8
 71
3
 72
8
 73
4
 74
0
 40
0
 40
0
 40
0
 40
0
 40
1
 40
1
 40
1
 40
1
 10
575.119430
 20
462.947275
 30
0.0
 10
576.369126
 20
465.318253
 30
0.0
 10
578.789055
 20
466.842164
 30
0.0
 10
581.467256
 20
466.944714
 30
0.0
  0
SPLINE
  5
722
100
AcDbEntity
  8
Laag_1
 62
1
100
AcDbSpline
 70
8
 71
3
 72
8
 73
4
 74
0
 40
0
 40
0
 40
0
 40
0
 40
1
 40
1
 40
1
 40
1
 10
581.467256
 20
466.944714
 30
0.0
 10
584.145456
 20
467.047264
 30
0.0
 10
586.674832
 20
465.712865
 30
0.0
 10
588.102175
 20
463.444394
 30
0.0
  0
LINE
  5
723
100
AcDbEntity
  8
Laag_1
 62
1
100
AcDbLine
 10
588.102175
 20
463.444394
 30
0.0
 11
588.102175
 21
463.444394
 31
0.0
  0
LINE
  5
724
100
AcDbEntity
  8
Laag_1
 62
1
100
AcDbLine
 10
706.784528
 20
487.867107
 30
0.0
 11
689.348465
 21
488.564363
 31
0.0
  0
LINE
  5
725
100
AcDbEntity
  8
Laag_1
 62
1
100
AcDbLine
 10
689.348465
 20
488.564363
 30
0.0
 11
689.666132
 21
496.508008
 31
0.0
  0
LINE
  5
726
100
AcDbEntity
  8
Laag_1
 62
1
100
AcDbLine
 10
689.666132
 20
496.508008
 30
0.0
 11
707.102191
 21
495.810759
 31
0.0
  0
LINE
  5
727
100
AcDbEntity
  8
Laag_1
 62
1
100
AcDbLine
 10
707.102191
 20
495.810759
 30
0.0
 11
706.784528
 21
487.867107
 31
0.0
  0
LINE
  5
728
100
AcDbEntity
  8
Laag_1
 62
1
100
AcDbLine
 10
606.653243
 20
544.522496
 30
0.0
 11
599.926007
 21
540.286130
 31
0.0
  0
LINE
  5
729
100
AcDbEntity
  8
Laag_1
 62
1
100
AcDbLine
 10
599.926007
 20
540.286130
 30
0.0
 11
590.627310
 21
555.052211
 31
0.0
  0
LINE
  5
72a
100
AcDbEntity
  8
Laag_1
 62
1
100
AcDbLine
 10
590.627310
 20
555.052211
 30
0.0
 11
597.354546
 21
559.288577
 31
0.0
  0
LINE
  5
72b
100
AcDbEntity
  8
Laag_1
 62
1
100
AcDbLine
 10
597.354546
 20
559.288577
 30
0.0
 11
606.653243
 21
544.522496
 31
0.0
  0
LINE
  5
72c
100
AcDbEntity
  8
Laag_1
 62
1
100
AcDbLine
 10
654.854277
 20
527.186292
 30
0.0
 11
646.715819
 21
511.750372
 31
0.0
  0
LINE
  5
72d
100
AcDbEntity
  8
Laag_1
 62
1
100
AcDbLine
 10
646.715819
 20
511.750372
 30
0.0
 11
639.683411
 21
515.458128
 31
0.0
  0
LINE
  5
72e
100
AcDbEntity
  8
Laag_1
 62
1
100
AcDbLine
 10
639.683411
 20
515.458128
 30
0.0
 11
647.821856
 21
530.894072
 31
0.0
  0
LINE
  5
72f
100
AcDbEntity
  8
Laag_1
 62
1
100
AcDbLine
 10
647.821856
 20
530.894072
 30
0.0
 11
654.854277
 21
527.186292
 31
0.0
  0
SPLINE
  5
730
100
AcDbEntity
  8
Laag_1
 62
1
100
AcDbSpline
 70
8
 71
3
 72
8
 73
4
 74
0
 40
0
 40
0
 40
0
 40
0
 40
1
 40
1
 40
1
 40
1
 10
637.174866
 20
562.525995
 30
0.0
 10
638.603309
 20
560.258611
 30
0.0
 10
638.713432
 20
557.401349
 30
0.0
 10
637.463744
 20
555.030746
 30
0.0
  0
SPLINE
  5
731
100
AcDbEntity
  8
Laag_1
 62
1
100
AcDbSpline
 70
8
 71
3
 72
8
 73
4
 74
0
 40
0
 40
0
 40
0
 40
0
 40
1
 40
1
 40
1
 40
1
 10
637.463744
 20
555.030746
 30
0.0
 10
636.214057
 20
552.660143
 30
0.0
 10
633.794466
 20
551.136445
 30
0.0
 10
631.116607
 20
551.033740
 30
0.0
  0
SPLINE
  5
732
100
AcDbEntity
  8
Laag_1
 62
1
100
AcDbSpline
 70
8
 71
3
 72
8
 73
4
 74
0
 40
0
 40
0
 40
0
 40
0
 40
1
 40
1
 40
1
 40
1
 10
631.116607
 20
551.033740
 30
0.0
 10
628.438748
 20
550.931035
 30
0.0
 10
625.909559
 20
552.264930
 30
0.0
 10
624.481968
 20
554.532850
 30
0.0
  0
SPLINE
  5
733
100
AcDbEntity
  8
Laag_1
 62
1
100
AcDbSpline
 70
8
 71
3
 72
8
 73
4
 74
0
 40
0
 40
0
 40
0
 40
0
 40
1
 40
1
 40
1
 40
1
 10
624.481968
 20
554.532850
 30
0.0
 10
623.053526
 20
556.800234
 30
0.0
 10
622.943403
 20
559.657496
 30
0.0
 10
624.193090
 20
562.028099
 30
0.0
  0
SPLINE
  5
734
100
AcDbEntity
  8
Laag_1
 62
1
100
AcDbSpline
 70
8
 71
3
 72
8
 73
4
 74
0
 40
0
 40
0
 40
0
 40
0
 40
1
 40
1
 40
1
 40
1
 10
624.193090
 20
562.028099
 30
0.0
 10
625.442777
 20
564.398702
 30
0.0
 10
627.862368
 20
565.922400
 30
0.0
 10
630.540227
 20
566.025105
 30
0.0
  0
SPLINE
  5
735
100
AcDbEntity
  8
Laag_1
 62
1
100
AcDbSpline
 70
8
 71
3
 72
8
 73
4
 74
0
 40
0
 40
0
 40
0
 40
0
 40
1
 40
1
 40
1
 40
1
 10
630.540227
 20
566.025105
 30
0.0
 10
633.218086
 20
566.127810
 30
0.0
 10
635.747276
 20
564.793915
 30
0.0
 10
637.174866
 20
562.525995
 30
0.0
  0
LINE
  5
736
100
AcDbEntity
  8
Laag_1
 62
1
100
AcDbLine
 10
637.174866
 20
562.525995
 30
0.0
 11
637.174866
 21
562.525995
 31
0.0
  0
SPLINE
  5
737
100
AcDbEntity
  8
Laag_1
 62
1
100
AcDbSpline
 70
8
 71
3
 72
8
 73
4
 74
0
 40
0
 40
0
 40
0
 40
0
 40
1
 40
1
 40
1
 40
1
 10
583.194806
 20
528.532937
 30
0.0
 10
584.623249
 20
526.265554
 30
0.0
 10
584.733372
 20
523.408291
 30
0.0
 10
583.483684
 20
521.037688
 30
0.0
  0
SPLINE
  5
738
100
AcDbEntity
  8
Laag_1
 62
1
100
AcDbSpline
 70
8
 71
3
 72
8
 73
4
 74
0
 40
0
 40
0
 40
0
 40
0
 40
1
 40
1
 40
1
 40
1
 10
583.483684
 20
521.037688
 30
0.0
 10
582.233997
 20
518.667086
 30
0.0
 10
579.814406
 20
517.143388
 30
0.0
 10
577.136547
 20
517.040683
 30
0.0
  0
SPLINE
  5
739
100
AcDbEntity
  8
Laag_1
 62
1
100
AcDbSpline
 70
8
 71
3
 72
8
 73
4
 74
0
 40
0
 40
0
 40
0
 40
0
 40
1
 40
1
 40
1
 40
1
 10
577.136547
 20
517.040683
 30
0.0
 10
574.458688
 20
516.937978
 30
0.0
 10
571.929499
 20
518.271873
 30
0.0
 10
570.501908
 20
520.539793
 30
0.0
  0
SPLINE
  5
73a
100
AcDbEntity
  8
Laag_1
 62
1
100
AcDbSpline
 70
8
 71
3
 72
8
 73
4
 74
0
 40
0
 40
0
 40
0
 40
0
 40
1
 40
1
 40
1
 40
1
 10
570.501908
 20
520.539793
 30
0.0
 10
569.074071
 20
522.807161
 30
0.0
 10
568.964321
 20
525.664037
 30
0.0
 10
570.214000
 20
528.034265
 30
0.0
  0
SPLINE
  5
73b
100
AcDbEntity
  8
Laag_1
 62
1
100
AcDbSpline
 70
8
 71
3
 72
8
 73
4
 74
0
 40
0
 40
0
 40
0
 40
0
 40
1
 40
1
 40
1
 40
1
 10
570.214000
 20
528.034265
 30
0.0
 10
571.463679
 20
530.404493
 30
0.0
 10
573.882932
 20
531.927977
 30
0.0
 10
576.560449
 20
532.030837
 30
0.0
  0
SPLINE
  5
73c
100
AcDbEntity
  8
Laag_1
 62
1
100
AcDbSpline
 70
8
 71
3
 72
8
 73
4
 74
0
 40
0
 40
0
 40
0
 40
0
 40
1
 40
1
 40
1
 40
1
 10
576.560449
 20
532.030837
 30
0.0
 10
579.237966
 20
532.133697
 30
0.0
 10
581.766968
 20
530.800305
 30
0.0
 10
583.194806
 20
528.532937
 30
0.0
  0
LINE
  5
73d
100
AcDbEntity
  8
Laag_1
 62
1
100
AcDbLine
 10
583.194806
 20
528.532937
 30
0.0
 11
583.194806
 21
528.532937
 31
0.0
  0
LINE
  5
73e
100
AcDbEntity
  8
Laag_1
 62
1
100
AcDbLine
 10
589.572713
 20
350.771835
 30
0.0
 11
582.000358
 21
348.191252
 31
0.0
  0
LINE
  5
73f
100
AcDbEntity
  8
Laag_1
 62
1
100
AcDbLine
 10
582.000358
 20
348.191252
 30
0.0
 11
586.384826
 21
335.325653
 31
0.0
  0
LINE
  5
740
100
AcDbEntity
  8
Laag_1
 62
1
100
AcDbLine
 10
586.384826
 20
335.325653
 30
0.0
 11
624.138050
 21
335.292707
 31
0.0
  0
LINE
  5
741
100
AcDbEntity
  8
Laag_1
 62
1
100
AcDbLine
 10
624.138050
 20
335.292707
 30
0.0
 11
624.203501
 21
410.292678
 31
0.0
  0
LINE
  5
742
100
AcDbEntity
  8
Laag_1
 62
1
100
AcDbLine
 10
624.203501
 20
410.292678
 30
0.0
 11
642.203494
 21
410.276971
 31
0.0
  0
LINE
  5
743
100
AcDbEntity
  8
Laag_1
 62
1
100
AcDbLine
 10
642.203494
 20
410.276971
 30
0.0
 11
642.138043
 21
335.277000
 31
0.0
  0
LINE
  5
744
100
AcDbEntity
  8
Laag_1
 62
1
100
AcDbLine
 10
642.138043
 20
335.277000
 30
0.0
 11
679.891609
 21
335.244052
 31
0.0
  0
LINE
  5
745
100
AcDbEntity
  8
Laag_1
 62
1
100
AcDbLine
 10
679.891609
 20
335.244052
 30
0.0
 11
684.298629
 21
348.103634
 31
0.0
  0
LINE
  5
746
100
AcDbEntity
  8
Laag_1
 62
1
100
AcDbLine
 10
684.298629
 20
348.103634
 30
0.0
 11
676.730704
 21
350.697186
 31
0.0
  0
LINE
  5
747
100
AcDbEntity
  8
Laag_1
 62
1
100
AcDbLine
 10
676.730704
 20
350.697186
 30
0.0
 11
682.420308
 21
367.299321
 31
0.0
  0
LINE
  5
748
100
AcDbEntity
  8
Laag_1
 62
1
100
AcDbLine
 10
682.420308
 20
367.299321
 30
0.0
 11
689.988233
 21
364.705769
 31
0.0
  0
LINE
  5
749
100
AcDbEntity
  8
Laag_1
 62
1
100
AcDbLine
 10
689.988233
 20
364.705769
 30
0.0
 11
695.645420
 21
381.213304
 31
0.0
  0
LINE
  5
74a
100
AcDbEntity
  8
Laag_1
 62
1
100
AcDbLine
 10
695.645420
 20
381.213304
 30
0.0
 11
688.077495
 21
383.806855
 31
0.0
  0
LINE
  5
74b
100
AcDbEntity
  8
Laag_1
 62
1
100
AcDbLine
 10
688.077495
 20
383.806855
 30
0.0
 11
693.767098
 21
400.408993
 31
0.0
  0
LINE
  5
74c
100
AcDbEntity
  8
Laag_1
 62
1
100
AcDbLine
 10
693.767098
 20
400.408993
 30
0.0
 11
701.335023
 21
397.815441
 31
0.0
  0
LINE
  5
74d
100
AcDbEntity
  8
Laag_1
 62
1
100
AcDbLine
 10
701.335023
 20
397.815441
 30
0.0
 11
706.992209
 21
414.322976
 31
0.0
  0
LINE
  5
74e
100
AcDbEntity
  8
Laag_1
 62
1
100
AcDbLine
 10
706.992209
 20
414.322976
 30
0.0
 11
699.424285
 21
416.916527
 31
0.0
  0
LINE
  5
74f
100
AcDbEntity
  8
Laag_1
 62
1
100
AcDbLine
 10
699.424285
 20
416.916527
 30
0.0
 11
705.113887
 21
433.518664
 31
0.0
  0
LINE
  5
750
100
AcDbEntity
  8
Laag_1
 62
1
100
AcDbLine
 10
705.113887
 20
433.518664
 30
0.0
 11
712.681814
 21
430.925110
 31
0.0
  0
LINE
  5
751
100
AcDbEntity
  8
Laag_1
 62
1
100
AcDbLine
 10
712.681814
 20
430.925110
 30
0.0
 11
731.852474
 21
486.864655
 31
0.0
  0
LINE
  5
752
100
AcDbEntity
  8
Laag_1
 62
1
100
AcDbLine
 10
731.852474
 20
486.864655
 30
0.0
 11
724.320513
 21
487.165853
 31
0.0
  0
LINE
  5
753
100
AcDbEntity
  8
Laag_1
 62
1
100
AcDbLine
 10
724.320513
 20
487.165853
 30
0.0
 11
724.638175
 21
495.109505
 31
0.0
  0
LINE
  5
754
100
AcDbEntity
  8
Laag_1
 62
1
100
AcDbLine
 10
724.638175
 20
495.109505
 30
0.0
 11
730.850655
 21
494.861073
 31
0.0
  0
LINE
  5
755
100
AcDbEntity
  8
Laag_1
 62
1
100
AcDbLine
 10
730.850655
 20
494.861073
 30
0.0
 11
682.262628
 21
579.170859
 31
0.0
  0
LINE
  5
756
100
AcDbEntity
  8
Laag_1
 62
1
100
AcDbLine
 10
682.262628
 20
579.170859
 30
0.0
 11
679.362894
 21
573.671026
 31
0.0
  0
LINE
  5
757
100
AcDbEntity
  8
Laag_1
 62
1
100
AcDbLine
 10
679.362894
 20
573.671026
 30
0.0
 11
672.330472
 21
577.378805
 31
0.0
  0
LINE
  5
758
100
AcDbEntity
  8
Laag_1
 62
1
100
AcDbLine
 10
672.330472
 20
577.378805
 30
0.0
 11
675.329345
 21
583.066702
 31
0.0
  0
LINE
  5
759
100
AcDbEntity
  8
Laag_1
 62
1
100
AcDbLine
 10
675.329345
 20
583.066702
 30
0.0
 11
584.576169
 21
579.580296
 31
0.0
  0
LINE
  5
75a
100
AcDbEntity
  8
Laag_1
 62
1
100
AcDbLine
 10
584.576169
 20
579.580296
 30
0.0
 11
588.002569
 21
574.139265
 31
0.0
  0
LINE
  5
75b
100
AcDbEntity
  8
Laag_1
 62
1
100
AcDbLine
 10
588.002569
 20
574.139265
 30
0.0
 11
581.275333
 21
569.902899
 31
0.0
  0
LINE
  5
75c
100
AcDbEntity
  8
Laag_1
 62
1
100
AcDbLine
 10
581.275333
 20
569.902899
 30
0.0
 11
577.848933
 21
575.343929
 31
0.0
  0
LINE
  5
75d
100
AcDbEntity
  8
Laag_1
 62
1
100
AcDbLine
 10
577.848933
 20
575.343929
 30
0.0
 11
535.491623
 21
495.006190
 31
0.0
  0
LINE
  5
75e
100
AcDbEntity
  8
Laag_1
 62
1
100
AcDbLine
 10
535.491623
 20
495.006190
 30
0.0
 11
541.916924
 21
495.253012
 31
0.0
  0
LINE
  5
75f
100
AcDbEntity
  8
Laag_1
 62
1
100
AcDbLine
 10
541.916924
 20
495.253012
 30
0.0
 11
542.222111
 21
487.308867
 31
0.0
  0
LINE
  5
760
100
AcDbEntity
  8
Laag_1
 62
1
100
AcDbLine
 10
542.222111
 20
487.308867
 30
0.0
 11
534.689067
 21
487.019485
 31
0.0
  0
LINE
  5
761
100
AcDbEntity
  8
Laag_1
 62
1
100
AcDbLine
 10
534.689067
 20
487.019485
 30
0.0
 11
553.759089
 21
431.061226
 31
0.0
  0
LINE
  5
762
100
AcDbEntity
  8
Laag_1
 62
1
100
AcDbLine
 10
553.759089
 20
431.061226
 30
0.0
 11
561.331441
 21
433.641818
 31
0.0
  0
LINE
  5
763
100
AcDbEntity
  8
Laag_1
 62
1
100
AcDbLine
 10
561.331441
 20
433.641818
 30
0.0
 11
566.992598
 21
417.029961
 31
0.0
  0
LINE
  5
764
100
AcDbEntity
  8
Laag_1
 62
1
100
AcDbLine
 10
566.992598
 20
417.029961
 30
0.0
 11
559.420246
 21
414.449370
 31
0.0
  0
LINE
  5
765
100
AcDbEntity
  8
Laag_1
 62
1
100
AcDbLine
 10
559.420246
 20
414.449370
 30
0.0
 11
565.049144
 21
397.932169
 31
0.0
  0
LINE
  5
766
100
AcDbEntity
  8
Laag_1
 62
1
100
AcDbLine
 10
565.049144
 20
397.932169
 30
0.0
 11
572.621501
 21
400.512753
 31
0.0
  0
LINE
  5
767
100
AcDbEntity
  8
Laag_1
 62
1
100
AcDbLine
 10
572.621501
 20
400.512753
 30
0.0
 11
578.282658
 21
383.900896
 31
0.0
  0
LINE
  5
768
100
AcDbEntity
  8
Laag_1
 62
1
100
AcDbLine
 10
578.282658
 20
383.900896
 30
0.0
 11
570.710301
 21
381.320312
 31
0.0
  0
LINE
  5
769
100
AcDbEntity
  8
Laag_1
 62
1
100
AcDbLine
 10
570.710301
 20
381.320312
 30
0.0
 11
576.339201
 21
364.803109
 31
0.0
  0
LINE
  5
76a
100
AcDbEntity
  8
Laag_1
 62
1
100
AcDbLine
 10
576.339201
 20
364.803109
 30
0.0
 11
583.911558
 21
367.383694
 31
0.0
  0
LINE
  5
76b
100
AcDbEntity
  8
Laag_1
 62
1
100
AcDbLine
 10
583.911558
 20
367.383694
 30
0.0
 11
589.572713
 21
350.771835
 31
0.0
  0
LINE
  5
76c
100
AcDbEntity
  8
Laag_1
 62
5
100
AcDbLine
 10
673.042450
 20
565.685660
 30
0.0
 11
672.548730
 21
565.359680
 31
0.0
  0
LINE
  5
76d
100
AcDbEntity
  8
Laag_1
 62
5
100
AcDbLine
 10
672.548730
 20
565.359680
 30
0.0
 11
671.825870
 21
565.165990
 31
0.0
  0
LINE
  5
76e
100
AcDbEntity
  8
Laag_1
 62
5
100
AcDbLine
 10
671.825870
 20
565.165990
 30
0.0
 11
671.235310
 21
565.201490
 31
0.0
  0
LINE
  5
76f
100
AcDbEntity
  8
Laag_1
 62
5
100
AcDbLine
 10
671.235310
 20
565.201490
 30
0.0
 11
670.318770
 21
565.730650
 31
0.0
  0
LINE
  5
770
100
AcDbEntity
  8
Laag_1
 62
5
100
AcDbLine
 10
670.318770
 20
565.730650
 30
0.0
 11
669.992780
 21
566.224370
 31
0.0
  0
LINE
  5
771
100
AcDbEntity
  8
Laag_1
 62
5
100
AcDbLine
 10
669.992780
 20
566.224370
 30
0.0
 11
669.799100
 21
566.947230
 31
0.0
  0
LINE
  5
772
100
AcDbEntity
  8
Laag_1
 62
5
100
AcDbLine
 10
669.799100
 20
566.947230
 30
0.0
 11
669.834500
 21
567.537800
 31
0.0
  0
LINE
  5
773
100
AcDbEntity
  8
Laag_1
 62
5
100
AcDbLine
 10
669.834500
 20
567.537800
 30
0.0
 11
670.002240
 21
568.357490
 31
0.0
  0
LINE
  5
774
100
AcDbEntity
  8
Laag_1
 62
5
100
AcDbLine
 10
670.002240
 20
568.357490
 30
0.0
 11
670.663690
 21
569.503170
 31
0.0
  0
LINE
  5
775
100
AcDbEntity
  8
Laag_1
 62
5
100
AcDbLine
 10
670.663690
 20
569.503170
 30
0.0
 11
671.289700
 21
570.058290
 31
0.0
  0
LINE
  5
776
100
AcDbEntity
  8
Laag_1
 62
5
100
AcDbLine
 10
671.289700
 20
570.058290
 30
0.0
 11
671.783430
 21
570.384270
 31
0.0
  0
LINE
  5
777
100
AcDbEntity
  8
Laag_1
 62
5
100
AcDbLine
 10
671.783430
 20
570.384270
 30
0.0
 11
672.506280
 21
570.577960
 31
0.0
  0
LINE
  5
778
100
AcDbEntity
  8
Laag_1
 62
5
100
AcDbLine
 10
672.506280
 20
570.577960
 30
0.0
 11
673.096840
 21
570.542560
 31
0.0
  0
LINE
  5
779
100
AcDbEntity
  8
Laag_1
 62
5
100
AcDbLine
 10
673.096840
 20
570.542560
 30
0.0
 11
674.013380
 21
570.013390
 31
0.0
  0
LINE
  5
77a
100
AcDbEntity
  8
Laag_1
 62
5
100
AcDbLine
 10
674.013380
 20
570.013390
 30
0.0
 11
674.339370
 21
569.519670
 31
0.0
  0
LINE
  5
77b
100
AcDbEntity
  8
Laag_1
 62
5
100
AcDbLine
 10
674.339370
 20
569.519670
 30
0.0
 11
674.533060
 21
568.796820
 31
0.0
  0
LINE
  5
77c
100
AcDbEntity
  8
Laag_1
 62
5
100
AcDbLine
 10
674.533060
 20
568.796820
 30
0.0
 11
674.497660
 21
568.206250
 31
0.0
  0
LINE
  5
77d
100
AcDbEntity
  8
Laag_1
 62
5
100
AcDbLine
 10
589.157760
 20
561.382420
 30
0.0
 11
586.523020
 21
566.274250
 31
0.0
  0
LINE
  5
77e
100
AcDbEntity
  8
Laag_1
 62
5
100
AcDbLine
 10
589.157760
 20
561.382420
 30
0.0
 11
590.788370
 21
562.260660
 31
0.0
  0
LINE
  5
77f
100
AcDbEntity
  8
Laag_1
 62
5
100
AcDbLine
 10
590.788370
 20
562.260660
 30
0.0
 11
591.361730
 21
562.870000
 31
0.0
  0
LINE
  5
780
100
AcDbEntity
  8
Laag_1
 62
5
100
AcDbLine
 10
591.361730
 20
562.870000
 30
0.0
 11
591.576700
 21
563.586820
 31
0.0
  0
LINE
  5
781
100
AcDbEntity
  8
Laag_1
 62
5
100
AcDbLine
 10
591.576700
 20
563.586820
 30
0.0
 11
591.558400
 21
564.178160
 31
0.0
  0
LINE
  5
782
100
AcDbEntity
  8
Laag_1
 62
5
100
AcDbLine
 10
591.558400
 20
564.178160
 30
0.0
 11
591.414950
 21
565.002450
 31
0.0
  0
LINE
  5
783
100
AcDbEntity
  8
Laag_1
 62
5
100
AcDbLine
 10
591.414950
 20
565.002450
 30
0.0
 11
590.787620
 21
566.167180
 31
0.0
  0
LINE
  5
784
100
AcDbEntity
  8
Laag_1
 62
5
100
AcDbLine
 10
590.787620
 20
566.167180
 30
0.0
 11
590.178290
 21
566.740550
 31
0.0
  0
LINE
  5
785
100
AcDbEntity
  8
Laag_1
 62
5
100
AcDbLine
 10
590.178290
 20
566.740550
 30
0.0
 11
589.694430
 21
567.080970
 31
0.0
  0
LINE
  5
786
100
AcDbEntity
  8
Laag_1
 62
5
100
AcDbLine
 10
589.694430
 20
567.080970
 30
0.0
 11
588.977610
 21
567.295930
 31
0.0
  0
LINE
  5
787
100
AcDbEntity
  8
Laag_1
 62
5
100
AcDbLine
 10
588.977610
 20
567.295930
 30
0.0
 11
588.153320
 21
567.152480
 31
0.0
  0
LINE
  5
788
100
AcDbEntity
  8
Laag_1
 62
5
100
AcDbLine
 10
588.153320
 20
567.152480
 30
0.0
 11
586.522710
 21
566.274240
 31
0.0
  0
LINE
  5
789
100
AcDbEntity
  8
Laag_1
 62
5
100
AcDbLine
 10
552.793610
 20
493.518890
 30
0.0
 11
553.327300
 21
493.263570
 31
0.0
  0
LINE
  5
78a
100
AcDbEntity
  8
Laag_1
 62
5
100
AcDbLine
 10
553.327300
 20
493.263570
 30
0.0
 11
553.865610
 21
492.743700
 31
0.0
  0
LINE
  5
78b
100
AcDbEntity
  8
Laag_1
 62
5
100
AcDbLine
 10
553.865610
 20
492.743700
 30
0.0
 11
554.139360
 21
492.219220
 31
0.0
  0
LINE
  5
78c
100
AcDbEntity
  8
Laag_1
 62
5
100
AcDbLine
 10
554.139360
 20
492.219220
 30
0.0
 11
554.157760
 21
491.161040
 31
0.0
  0
LINE
  5
78d
100
AcDbEntity
  8
Laag_1
 62
5
100
AcDbLine
 10
554.157760
 20
491.161040
 30
0.0
 11
553.902440
 21
490.627360
 31
0.0
  0
LINE
  5
78e
100
AcDbEntity
  8
Laag_1
 62
5
100
AcDbLine
 10
553.902440
 20
490.627360
 30
0.0
 11
553.382560
 21
490.089050
 31
0.0
  0
LINE
  5
78f
100
AcDbEntity
  8
Laag_1
 62
5
100
AcDbLine
 10
553.382560
 20
490.089050
 30
0.0
 11
552.858090
 21
489.815300
 31
0.0
  0
LINE
  5
790
100
AcDbEntity
  8
Laag_1
 62
5
100
AcDbLine
 10
552.858090
 20
489.815300
 30
0.0
 11
552.069070
 21
489.536920
 31
0.0
  0
LINE
  5
791
100
AcDbEntity
  8
Laag_1
 62
5
100
AcDbLine
 10
552.069070
 20
489.536920
 30
0.0
 11
550.746350
 21
489.513920
 31
0.0
  0
LINE
  5
792
100
AcDbEntity
  8
Laag_1
 62
5
100
AcDbLine
 10
550.746350
 20
489.513920
 30
0.0
 11
549.948110
 21
489.764650
 31
0.0
  0
LINE
  5
793
100
AcDbEntity
  8
Laag_1
 62
5
100
AcDbLine
 10
549.948110
 20
489.764650
 30
0.0
 11
549.414420
 21
490.019970
 31
0.0
  0
LINE
  5
794
100
AcDbEntity
  8
Laag_1
 62
5
100
AcDbLine
 10
549.414420
 20
490.019970
 30
0.0
 11
548.876120
 21
490.539850
 31
0.0
  0
LINE
  5
795
100
AcDbEntity
  8
Laag_1
 62
5
100
AcDbLine
 10
548.876120
 20
490.539850
 30
0.0
 11
548.602350
 21
491.064320
 31
0.0
  0
LINE
  5
796
100
AcDbEntity
  8
Laag_1
 62
5
100
AcDbLine
 10
548.602350
 20
491.064320
 30
0.0
 11
548.583950
 21
492.122500
 31
0.0
  0
LINE
  5
797
100
AcDbEntity
  8
Laag_1
 62
5
100
AcDbLine
 10
548.583950
 20
492.122500
 30
0.0
 11
548.839290
 21
492.656190
 31
0.0
  0
LINE
  5
798
100
AcDbEntity
  8
Laag_1
 62
5
100
AcDbLine
 10
548.839290
 20
492.656190
 30
0.0
 11
549.359150
 21
493.194490
 31
0.0
  0
LINE
  5
799
100
AcDbEntity
  8
Laag_1
 62
5
100
AcDbLine
 10
549.359150
 20
493.194490
 30
0.0
 11
549.883630
 21
493.468250
 31
0.0
  0
LINE
  5
79a
100
AcDbEntity
  8
Laag_1
 62
5
100
AcDbLine
 10
731.752030
 20
424.967340
 30
0.0
 11
726.195780
 21
424.967340
 31
0.0
  0
LINE
  5
79b
100
AcDbEntity
  8
Laag_1
 62
5
100
AcDbLine
 10
731.752030
 20
424.967340
 30
0.0
 11
731.752030
 21
427.348590
 31
0.0
  0
LINE
  5
79c
100
AcDbEntity
  8
Laag_1
 62
5
100
AcDbLine
 10
731.752030
 20
427.348590
 30
0.0
 11
731.487440
 21
428.142340
 31
0.0
  0
LINE
  5
79d
100
AcDbEntity
  8
Laag_1
 62
5
100
AcDbLine
 10
731.487440
 20
428.142340
 30
0.0
 11
731.222860
 21
428.406930
 31
0.0
  0
LINE
  5
79e
100
AcDbEntity
  8
Laag_1
 62
5
100
AcDbLine
 10
731.222860
 20
428.406930
 30
0.0
 11
730.693690
 21
428.671510
 31
0.0
  0
LINE
  5
79f
100
AcDbEntity
  8
Laag_1
 62
5
100
AcDbLine
 10
730.693690
 20
428.671510
 30
0.0
 11
730.164530
 21
428.671510
 31
0.0
  0
LINE
  5
7a0
100
AcDbEntity
  8
Laag_1
 62
5
100
AcDbLine
 10
730.164530
 20
428.671510
 30
0.0
 11
729.635360
 21
428.406930
 31
0.0
  0
LINE
  5
7a1
100
AcDbEntity
  8
Laag_1
 62
5
100
AcDbLine
 10
729.635360
 20
428.406930
 30
0.0
 11
729.370780
 21
428.142340
 31
0.0
  0
LINE
  5
7a2
100
AcDbEntity
  8
Laag_1
 62
5
100
AcDbLine
 10
729.370780
 20
428.142340
 30
0.0
 11
729.106190
 21
427.348590
 31
0.0
  0
LINE
  5
7a3
100
AcDbEntity
  8
Laag_1
 62
5
100
AcDbLine
 10
729.106190
 20
424.967340
 30
0.0
 11
729.106190
 21
427.348590
 31
0.0
  0
LINE
  5
7a4
100
AcDbEntity
  8
Laag_1
 62
5
100
AcDbLine
 10
729.106190
 20
427.348590
 30
0.0
 11
728.841610
 21
428.142340
 31
0.0
  0
LINE
  5
7a5
100
AcDbEntity
  8
Laag_1
 62
5
100
AcDbLine
 10
728.841610
 20
428.142340
 30
0.0
 11
728.577030
 21
428.406930
 31
0.0
  0
LINE
  5
7a6
100
AcDbEntity
  8
Laag_1
 62
5
100
AcDbLine
 10
728.577030
 20
428.406930
 30
0.0
 11
728.047860
 21
428.671510
 31
0.0
  0
LINE
  5
7a7
100
AcDbEntity
  8
Laag_1
 62
5
100
AcDbLine
 10
728.047860
 20
428.671510
 30
0.0
 11
727.254110
 21
428.671510
 31
0.0
  0
LINE
  5
7a8
100
AcDbEntity
  8
Laag_1
 62
5
100
AcDbLine
 10
727.254110
 20
428.671510
 30
0.0
 11
726.724940
 21
428.406930
 31
0.0
  0
LINE
  5
7a9
100
AcDbEntity
  8
Laag_1
 62
5
100
AcDbLine
 10
726.724940
 20
428.406930
 30
0.0
 11
726.460360
 21
428.142340
 31
0.0
  0
LINE
  5
7aa
100
AcDbEntity
  8
Laag_1
 62
5
100
AcDbLine
 10
726.460360
 20
428.142340
 30
0.0
 11
726.195780
 21
427.348590
 31
0.0
  0
LINE
  5
7ab
100
AcDbEntity
  8
Laag_1
 62
5
100
AcDbLine
 10
726.195780
 20
427.348590
 30
0.0
 11
726.195780
 21
424.967340
 31
0.0
  0
LINE
  5
7ac
100
AcDbEntity
  8
Laag_1
 62
1
100
AcDbLine
 10
773.535000
 20
360.164138
 30
0.0
 11
781.673443
 21
375.600081
 31
0.0
  0
LINE
  5
7ad
100
AcDbEntity
  8
Laag_1
 62
1
100
AcDbLine
 10
781.673443
 20
375.600081
 30
0.0
 11
788.705867
 21
371.892303
 31
0.0
  0
LINE
  5
7ae
100
AcDbEntity
  8
Laag_1
 62
1
100
AcDbLine
 10
788.705867
 20
371.892303
 30
0.0
 11
780.567422
 21
356.456359
 31
0.0
  0
LINE
  5
7af
100
AcDbEntity
  8
Laag_1
 62
1
100
AcDbLine
 10
780.567422
 20
356.456359
 30
0.0
 11
773.535000
 21
360.164138
 31
0.0
  0
LINE
  5
7b0
100
AcDbEntity
  8
Laag_1
 62
1
100
AcDbLine
 10
867.516492
 20
429.658333
 30
0.0
 11
884.953632
 21
430.328195
 31
0.0
  0
LINE
  5
7b1
100
AcDbEntity
  8
Laag_1
 62
1
100
AcDbLine
 10
884.953632
 20
430.328195
 30
0.0
 11
885.258819
 21
422.384050
 31
0.0
  0
LINE
  5
7b2
100
AcDbEntity
  8
Laag_1
 62
1
100
AcDbLine
 10
885.258819
 20
422.384050
 30
0.0
 11
867.821676
 21
421.714186
 31
0.0
  0
LINE
  5
7b3
100
AcDbEntity
  8
Laag_1
 62
1
100
AcDbLine
 10
867.821676
 20
421.714186
 30
0.0
 11
867.516492
 21
429.658333
 31
0.0
  0
LINE
  5
7b4
100
AcDbEntity
  8
Laag_1
 62
1
100
AcDbLine
 10
832.542294
 20
428.314752
 30
0.0
 11
849.979421
 21
428.984637
 31
0.0
  0
LINE
  5
7b5
100
AcDbEntity
  8
Laag_1
 62
1
100
AcDbLine
 10
849.979421
 20
428.984637
 30
0.0
 11
850.284608
 21
421.040492
 31
0.0
  0
LINE
  5
7b6
100
AcDbEntity
  8
Laag_1
 62
1
100
AcDbLine
 10
850.284608
 20
421.040492
 30
0.0
 11
832.847466
 21
420.370629
 31
0.0
  0
LINE
  5
7b7
100
AcDbEntity
  8
Laag_1
 62
1
100
AcDbLine
 10
832.847466
 20
420.370629
 30
0.0
 11
832.542294
 21
428.314752
 31
0.0
  0
SPLINE
  5
7b8
100
AcDbEntity
  8
Laag_1
 62
1
100
AcDbSpline
 70
8
 71
3
 72
8
 73
4
 74
0
 40
0
 40
0
 40
0
 40
0
 40
1
 40
1
 40
1
 40
1
 10
750.959374
 20
388.334244
 30
0.0
 10
749.530327
 20
390.601643
 30
0.0
 10
749.419830
 20
393.459292
 30
0.0
 10
750.669526
 20
395.830269
 30
0.0
  0
SPLINE
  5
7b9
100
AcDbEntity
  8
Laag_1
 62
1
100
AcDbSpline
 70
8
 71
3
 72
8
 73
4
 74
0
 40
0
 40
0
 40
0
 40
0
 40
1
 40
1
 40
1
 40
1
 10
750.669526
 20
395.830269
 30
0.0
 10
751.919221
 20
398.201247
 30
0.0
 10
754.339151
 20
399.725158
 30
0.0
 10
757.017351
 20
399.827708
 30
0.0
  0
SPLINE
  5
7ba
100
AcDbEntity
  8
Laag_1
 62
1
100
AcDbSpline
 70
8
 71
3
 72
8
 73
4
 74
0
 40
0
 40
0
 40
0
 40
0
 40
1
 40
1
 40
1
 40
1
 10
757.017351
 20
399.827708
 30
0.0
 10
759.695551
 20
399.930258
 30
0.0
 10
762.224928
 20
398.595860
 30
0.0
 10
763.652271
 20
396.327388
 30
0.0
  0
SPLINE
  5
7bb
100
AcDbEntity
  8
Laag_1
 62
1
100
AcDbSpline
 70
8
 71
3
 72
8
 73
4
 74
0
 40
0
 40
0
 40
0
 40
0
 40
1
 40
1
 40
1
 40
1
 10
763.652271
 20
396.327388
 30
0.0
 10
765.081318
 20
394.059989
 30
0.0
 10
765.191814
 20
391.202341
 30
0.0
 10
763.942119
 20
388.831363
 30
0.0
  0
SPLINE
  5
7bc
100
AcDbEntity
  8
Laag_1
 62
1
100
AcDbSpline
 70
8
 71
3
 72
8
 73
4
 74
0
 40
0
 40
0
 40
0
 40
0
 40
1
 40
1
 40
1
 40
1
 10
763.942119
 20
388.831363
 30
0.0
 10
762.692424
 20
386.460385
 30
0.0
 10
760.272494
 20
384.936474
 30
0.0
 10
757.594294
 20
384.833924
 30
0.0
  0
SPLINE
  5
7bd
100
AcDbEntity
  8
Laag_1
 62
1
100
AcDbSpline
 70
8
 71
3
 72
8
 73
4
 74
0
 40
0
 40
0
 40
0
 40
0
 40
1
 40
1
 40
1
 40
1
 10
757.594294
 20
384.833924
 30
0.0
 10
754.916093
 20
384.731374
 30
0.0
 10
752.386717
 20
386.065772
 30
0.0
 10
750.959374
 20
388.334244
 30
0.0
  0
LINE
  5
7be
100
AcDbEntity
  8
Laag_1
 62
1
100
AcDbLine
 10
750.959374
 20
388.334244
 30
0.0
 11
750.959374
 21
388.334244
 31
0.0
  0
LINE
  5
7bf
100
AcDbEntity
  8
Laag_1
 62
1
100
AcDbLine
 10
790.018725
 20
420.404253
 30
0.0
 11
772.582657
 21
421.101518
 31
0.0
  0
LINE
  5
7c0
100
AcDbEntity
  8
Laag_1
 62
1
100
AcDbLine
 10
772.582657
 20
421.101518
 30
0.0
 11
772.900316
 21
429.045170
 31
0.0
  0
LINE
  5
7c1
100
AcDbEntity
  8
Laag_1
 62
1
100
AcDbLine
 10
772.900316
 20
429.045170
 30
0.0
 11
790.336385
 21
428.347906
 31
0.0
  0
LINE
  5
7c2
100
AcDbEntity
  8
Laag_1
 62
1
100
AcDbLine
 10
790.336385
 20
428.347906
 30
0.0
 11
790.018725
 21
420.404253
 31
0.0
  0
SPLINE
  5
7c3
100
AcDbEntity
  8
Laag_1
 62
1
100
AcDbSpline
 70
8
 71
3
 72
8
 73
4
 74
0
 40
0
 40
0
 40
0
 40
0
 40
1
 40
1
 40
1
 40
1
 10
805.089116
 20
419.529413
 30
0.0
 10
803.661278
 20
421.796780
 30
0.0
 10
803.551528
 20
424.653657
 30
0.0
 10
804.801207
 20
427.023885
 30
0.0
  0
SPLINE
  5
7c4
100
AcDbEntity
  8
Laag_1
 62
1
100
AcDbSpline
 70
8
 71
3
 72
8
 73
4
 74
0
 40
0
 40
0
 40
0
 40
0
 40
1
 40
1
 40
1
 40
1
 10
804.801207
 20
427.023885
 30
0.0
 10
806.050886
 20
429.394112
 30
0.0
 10
808.470139
 20
430.917597
 30
0.0
 10
811.147656
 20
431.020457
 30
0.0
  0
SPLINE
  5
7c5
100
AcDbEntity
  8
Laag_1
 62
1
100
AcDbSpline
 70
8
 71
3
 72
8
 73
4
 74
0
 40
0
 40
0
 40
0
 40
0
 40
1
 40
1
 40
1
 40
1
 10
811.147656
 20
431.020457
 30
0.0
 10
813.825173
 20
431.123316
 30
0.0
 10
816.354176
 20
429.789925
 30
0.0
 10
817.782013
 20
427.522557
 30
0.0
  0
SPLINE
  5
7c6
100
AcDbEntity
  8
Laag_1
 62
1
100
AcDbSpline
 70
8
 71
3
 72
8
 73
4
 74
0
 40
0
 40
0
 40
0
 40
0
 40
1
 40
1
 40
1
 40
1
 10
817.782013
 20
427.522557
 30
0.0
 10
819.209851
 20
425.255189
 30
0.0
 10
819.319601
 20
422.398312
 30
0.0
 10
818.069922
 20
420.028085
 30
0.0
  0
SPLINE
  5
7c7
100
AcDbEntity
  8
Laag_1
 62
1
100
AcDbSpline
 70
8
 71
3
 72
8
 73
4
 74
0
 40
0
 40
0
 40
0
 40
0
 40
1
 40
1
 40
1
 40
1
 10
818.069922
 20
420.028085
 30
0.0
 10
816.820243
 20
417.657857
 30
0.0
 10
814.400990
 20
416.134373
 30
0.0
 10
811.723473
 20
416.031513
 30
0.0
  0
SPLINE
  5
7c8
100
AcDbEntity
  8
Laag_1
 62
1
100
AcDbSpline
 70
8
 71
3
 72
8
 73
4
 74
0
 40
0
 40
0
 40
0
 40
0
 40
1
 40
1
 40
1
 40
1
 10
811.723473
 20
416.031513
 30
0.0
 10
809.045956
 20
415.928653
 30
0.0
 10
806.516953
 20
417.262045
 30
0.0
 10
805.089116
 20
419.529413
 30
0.0
  0
LINE
  5
7c9
100
AcDbEntity
  8
Laag_1
 62
1
100
AcDbLine
 10
805.089116
 20
419.529413
 30
0.0
 11
805.089116
 21
419.529413
 31
0.0
  0
SPLINE
  5
7ca
100
AcDbEntity
  8
Laag_1
 62
1
100
AcDbSpline
 70
8
 71
3
 72
8
 73
4
 74
0
 40
0
 40
0
 40
0
 40
0
 40
1
 40
1
 40
1
 40
1
 10
748.804346
 20
452.084409
 30
0.0
 10
747.376509
 20
454.351777
 30
0.0
 10
747.266759
 20
457.208654
 30
0.0
 10
748.516438
 20
459.578881
 30
0.0
  0
SPLINE
  5
7cb
100
AcDbEntity
  8
Laag_1
 62
1
100
AcDbSpline
 70
8
 71
3
 72
8
 73
4
 74
0
 40
0
 40
0
 40
0
 40
0
 40
1
 40
1
 40
1
 40
1
 10
748.516438
 20
459.578881
 30
0.0
 10
749.766117
 20
461.949109
 30
0.0
 10
752.185370
 20
463.472594
 30
0.0
 10
754.862887
 20
463.575454
 30
0.0
  0
SPLINE
  5
7cc
100
AcDbEntity
  8
Laag_1
 62
1
100
AcDbSpline
 70
8
 71
3
 72
8
 73
4
 74
0
 40
0
 40
0
 40
0
 40
0
 40
1
 40
1
 40
1
 40
1
 10
754.862887
 20
463.575454
 30
0.0
 10
757.540404
 20
463.678313
 30
0.0
 10
760.069407
 20
462.344921
 30
0.0
 10
761.497245
 20
460.077553
 30
0.0
  0
SPLINE
  5
7cd
100
AcDbEntity
  8
Laag_1
 62
1
100
AcDbSpline
 70
8
 71
3
 72
8
 73
4
 74
0
 40
0
 40
0
 40
0
 40
0
 40
1
 40
1
 40
1
 40
1
 10
761.497245
 20
460.077553
 30
0.0
 10
762.925082
 20
457.810186
 30
0.0
 10
763.034832
 20
454.953309
 30
0.0
 10
761.785153
 20
452.583081
 30
0.0
  0
SPLINE
  5
7ce
100
AcDbEntity
  8
Laag_1
 62
1
100
AcDbSpline
 70
8
 71
3
 72
8
 73
4
 74
0
 40
0
 40
0
 40
0
 40
0
 40
1
 40
1
 40
1
 40
1
 10
761.785153
 20
452.583081
 30
0.0
 10
760.535474
 20
450.212854
 30
0.0
 10
758.116221
 20
448.689369
 30
0.0
 10
755.438704
 20
448.586509
 30
0.0
  0
SPLINE
  5
7cf
100
AcDbEntity
  8
Laag_1
 62
1
100
AcDbSpline
 70
8
 71
3
 72
8
 73
4
 74
0
 40
0
 40
0
 40
0
 40
0
 40
1
 40
1
 40
1
 40
1
 10
755.438704
 20
448.586509
 30
0.0
 10
752.761187
 20
448.483649
 30
0.0
 10
750.232184
 20
449.817041
 30
0.0
 10
748.804346
 20
452.084409
 30
0.0
  0
LINE
  5
7d0
100
AcDbEntity
  8
Laag_1
 62
1
100
AcDbLine
 10
748.804346
 20
452.084409
 30
0.0
 11
748.804346
 21
452.084409
 31
0.0
  0
LINE
  5
7d1
100
AcDbEntity
  8
Laag_1
 62
1
100
AcDbLine
 10
819.408883
 20
403.405053
 30
0.0
 11
826.136118
 21
407.641419
 31
0.0
  0
LINE
  5
7d2
100
AcDbEntity
  8
Laag_1
 62
1
100
AcDbLine
 10
826.136118
 20
407.641419
 30
0.0
 11
835.434815
 21
392.875338
 31
0.0
  0
LINE
  5
7d3
100
AcDbEntity
  8
Laag_1
 62
1
100
AcDbLine
 10
835.434815
 20
392.875338
 30
0.0
 11
828.707580
 21
388.638972
 31
0.0
  0
LINE
  5
7d4
100
AcDbEntity
  8
Laag_1
 62
1
100
AcDbLine
 10
828.707580
 20
388.638972
 30
0.0
 11
819.408883
 21
403.405053
 31
0.0
  0
SPLINE
  5
7d5
100
AcDbEntity
  8
Laag_1
 62
1
100
AcDbSpline
 70
8
 71
3
 72
8
 73
4
 74
0
 40
0
 40
0
 40
0
 40
0
 40
1
 40
1
 40
1
 40
1
 10
856.610625
 20
454.866386
 30
0.0
 10
855.181578
 20
457.133785
 30
0.0
 10
855.071081
 20
459.991434
 30
0.0
 10
856.320776
 20
462.362411
 30
0.0
  0
SPLINE
  5
7d6
100
AcDbEntity
  8
Laag_1
 62
1
100
AcDbSpline
 70
8
 71
3
 72
8
 73
4
 74
0
 40
0
 40
0
 40
0
 40
0
 40
1
 40
1
 40
1
 40
1
 10
856.320776
 20
462.362411
 30
0.0
 10
857.570472
 20
464.733389
 30
0.0
 10
859.990401
 20
466.257300
 30
0.0
 10
862.668602
 20
466.359850
 30
0.0
  0
SPLINE
  5
7d7
100
AcDbEntity
  8
Laag_1
 62
1
100
AcDbSpline
 70
8
 71
3
 72
8
 73
4
 74
0
 40
0
 40
0
 40
0
 40
0
 40
1
 40
1
 40
1
 40
1
 10
862.668602
 20
466.359850
 30
0.0
 10
865.346802
 20
466.462400
 30
0.0
 10
867.876178
 20
465.128002
 30
0.0
 10
869.303521
 20
462.859530
 30
0.0
  0
SPLINE
  5
7d8
100
AcDbEntity
  8
Laag_1
 62
1
100
AcDbSpline
 70
8
 71
3
 72
8
 73
4
 74
0
 40
0
 40
0
 40
0
 40
0
 40
1
 40
1
 40
1
 40
1
 10
869.303521
 20
462.859530
 30
0.0
 10
870.732569
 20
460.592131
 30
0.0
 10
870.843065
 20
457.734483
 30
0.0
 10
869.593370
 20
455.363505
 30
0.0
  0
SPLINE
  5
7d9
100
AcDbEntity
  8
Laag_1
 62
1
100
AcDbSpline
 70
8
 71
3
 72
8
 73
4
 74
0
 40
0
 40
0
 40
0
 40
0
 40
1
 40
1
 40
1
 40
1
 10
869.593370
 20
455.363505
 30
0.0
 10
868.343674
 20
452.992527
 30
0.0
 10
865.923745
 20
451.468617
 30
0.0
 10
863.245544
 20
451.366066
 30
0.0
  0
SPLINE
  5
7da
100
AcDbEntity
  8
Laag_1
 62
1
100
AcDbSpline
 70
8
 71
3
 72
8
 73
4
 74
0
 40
0
 40
0
 40
0
 40
0
 40
1
 40
1
 40
1
 40
1
 10
863.245544
 20
451.366066
 30
0.0
 10
860.567344
 20
451.263516
 30
0.0
 10
858.037968
 20
452.597915
 30
0.0
 10
856.610625
 20
454.866386
 30
0.0
  0
LINE
  5
7db
100
AcDbEntity
  8
Laag_1
 62
1
100
AcDbLine
 10
856.610625
 20
454.866386
 30
0.0
 11
856.610625
 21
454.866386
 31
0.0
  0
LINE
  5
7dc
100
AcDbEntity
  8
Laag_1
 62
1
100
AcDbLine
 10
737.928272
 20
430.443673
 30
0.0
 11
755.364335
 21
429.746417
 31
0.0
  0
LINE
  5
7dd
100
AcDbEntity
  8
Laag_1
 62
1
100
AcDbLine
 10
755.364335
 20
429.746417
 30
0.0
 11
755.046668
 21
421.802772
 31
0.0
  0
LINE
  5
7de
100
AcDbEntity
  8
Laag_1
 62
1
100
AcDbLine
 10
755.046668
 20
421.802772
 30
0.0
 11
737.610610
 21
422.500021
 31
0.0
  0
LINE
  5
7df
100
AcDbEntity
  8
Laag_1
 62
1
100
AcDbLine
 10
737.610610
 20
422.500021
 30
0.0
 11
737.928272
 21
430.443673
 31
0.0
  0
LINE
  5
7e0
100
AcDbEntity
  8
Laag_1
 62
1
100
AcDbLine
 10
838.059557
 20
373.788284
 30
0.0
 11
844.786793
 21
378.024650
 31
0.0
  0
LINE
  5
7e1
100
AcDbEntity
  8
Laag_1
 62
1
100
AcDbLine
 10
844.786793
 20
378.024650
 30
0.0
 11
854.085490
 21
363.258569
 31
0.0
  0
LINE
  5
7e2
100
AcDbEntity
  8
Laag_1
 62
1
100
AcDbLine
 10
854.085490
 20
363.258569
 30
0.0
 11
847.358254
 21
359.022203
 31
0.0
  0
LINE
  5
7e3
100
AcDbEntity
  8
Laag_1
 62
1
100
AcDbLine
 10
847.358254
 20
359.022203
 30
0.0
 11
838.059557
 21
373.788284
 31
0.0
  0
LINE
  5
7e4
100
AcDbEntity
  8
Laag_1
 62
1
100
AcDbLine
 10
789.858523
 20
391.124488
 30
0.0
 11
797.996981
 21
406.560408
 31
0.0
  0
LINE
  5
7e5
100
AcDbEntity
  8
Laag_1
 62
1
100
AcDbLine
 10
797.996981
 20
406.560408
 30
0.0
 11
805.029389
 21
402.852652
 31
0.0
  0
LINE
  5
7e6
100
AcDbEntity
  8
Laag_1
 62
1
100
AcDbLine
 10
805.029389
 20
402.852652
 30
0.0
 11
796.890944
 21
387.416708
 31
0.0
  0
LINE
  5
7e7
100
AcDbEntity
  8
Laag_1
 62
1
100
AcDbLine
 10
796.890944
 20
387.416708
 30
0.0
 11
789.858523
 21
391.124488
 31
0.0
  0
SPLINE
  5
7e8
100
AcDbEntity
  8
Laag_1
 62
1
100
AcDbSpline
 70
8
 71
3
 72
8
 73
4
 74
0
 40
0
 40
0
 40
0
 40
0
 40
1
 40
1
 40
1
 40
1
 10
807.537934
 20
355.784785
 30
0.0
 10
806.109492
 20
358.052169
 30
0.0
 10
805.999368
 20
360.909431
 30
0.0
 10
807.249056
 20
363.280034
 30
0.0
  0
SPLINE
  5
7e9
100
AcDbEntity
  8
Laag_1
 62
1
100
AcDbSpline
 70
8
 71
3
 72
8
 73
4
 74
0
 40
0
 40
0
 40
0
 40
0
 40
1
 40
1
 40
1
 40
1
 10
807.249056
 20
363.280034
 30
0.0
 10
808.498743
 20
365.650637
 30
0.0
 10
810.918334
 20
367.174335
 30
0.0
 10
813.596193
 20
367.277040
 30
0.0
  0
SPLINE
  5
7ea
100
AcDbEntity
  8
Laag_1
 62
1
100
AcDbSpline
 70
8
 71
3
 72
8
 73
4
 74
0
 40
0
 40
0
 40
0
 40
0
 40
1
 40
1
 40
1
 40
1
 10
813.596193
 20
367.277040
 30
0.0
 10
816.274052
 20
367.379745
 30
0.0
 10
818.803241
 20
366.045850
 30
0.0
 10
820.230832
 20
363.777930
 30
0.0
  0
SPLINE
  5
7eb
100
AcDbEntity
  8
Laag_1
 62
1
100
AcDbSpline
 70
8
 71
3
 72
8
 73
4
 74
0
 40
0
 40
0
 40
0
 40
0
 40
1
 40
1
 40
1
 40
1
 10
820.230832
 20
363.777930
 30
0.0
 10
821.659274
 20
361.510546
 30
0.0
 10
821.769398
 20
358.653284
 30
0.0
 10
820.519710
 20
356.282681
 30
0.0
  0
SPLINE
  5
7ec
100
AcDbEntity
  8
Laag_1
 62
1
100
AcDbSpline
 70
8
 71
3
 72
8
 73
4
 74
0
 40
0
 40
0
 40
0
 40
0
 40
1
 40
1
 40
1
 40
1
 10
820.519710
 20
356.282681
 30
0.0
 10
819.270023
 20
353.912078
 30
0.0
 10
816.850432
 20
352.388380
 30
0.0
 10
814.172573
 20
352.285675
 30
0.0
  0
SPLINE
  5
7ed
100
AcDbEntity
  8
Laag_1
 62
1
100
AcDbSpline
 70
8
 71
3
 72
8
 73
4
 74
0
 40
0
 40
0
 40
0
 40
0
 40
1
 40
1
 40
1
 40
1
 10
814.172573
 20
352.285675
 30
0.0
 10
811.494714
 20
352.182970
 30
0.0
 10
808.965524
 20
353.516865
 30
0.0
 10
807.537934
 20
355.784785
 30
0.0
  0
LINE
  5
7ee
100
AcDbEntity
  8
Laag_1
 62
1
100
AcDbLine
 10
807.537934
 20
355.784785
 30
0.0
 11
807.537934
 21
355.784785
 31
0.0
  0
SPLINE
  5
7ef
100
AcDbEntity
  8
Laag_1
 62
1
100
AcDbSpline
 70
8
 71
3
 72
8
 73
4
 74
0
 40
0
 40
0
 40
0
 40
0
 40
1
 40
1
 40
1
 40
1
 10
861.517994
 20
389.777843
 30
0.0
 10
860.089551
 20
392.045226
 30
0.0
 10
859.979428
 20
394.902489
 30
0.0
 10
861.229116
 20
397.273092
 30
0.0
  0
SPLINE
  5
7f0
100
AcDbEntity
  8
Laag_1
 62
1
100
AcDbSpline
 70
8
 71
3
 72
8
 73
4
 74
0
 40
0
 40
0
 40
0
 40
0
 40
1
 40
1
 40
1
 40
1
 10
861.229116
 20
397.273092
 30
0.0
 10
862.478803
 20
399.643694
 30
0.0
 10
864.898394
 20
401.167392
 30
0.0
 10
867.576253
 20
401.270097
 30
0.0
  0
SPLINE
  5
7f1
100
AcDbEntity
  8
Laag_1
 62
1
100
AcDbSpline
 70
8
 71
3
 72
8
 73
4
 74
0
 40
0
 40
0
 40
0
 40
0
 40
1
 40
1
 40
1
 40
1
 10
867.576253
 20
401.270097
 30
0.0
 10
870.254112
 20
401.372802
 30
0.0
 10
872.783301
 20
400.038907
 30
0.0
 10
874.210892
 20
397.770987
 30
0.0
  0
SPLINE
  5
7f2
100
AcDbEntity
  8
Laag_1
 62
1
100
AcDbSpline
 70
8
 71
3
 72
8
 73
4
 74
0
 40
0
 40
0
 40
0
 40
0
 40
1
 40
1
 40
1
 40
1
 10
874.210892
 20
397.770987
 30
0.0
 10
875.638729
 20
395.503619
 30
0.0
 10
875.748479
 20
392.646743
 30
0.0
 10
874.498800
 20
390.276515
 30
0.0
  0
SPLINE
  5
7f3
100
AcDbEntity
  8
Laag_1
 62
1
100
AcDbSpline
 70
8
 71
3
 72
8
 73
4
 74
0
 40
0
 40
0
 40
0
 40
0
 40
1
 40
1
 40
1
 40
1
 10
874.498800
 20
390.276515
 30
0.0
 10
873.249121
 20
387.906287
 30
0.0
 10
870.829868
 20
386.382803
 30
0.0
 10
868.152351
 20
386.279943
 30
0.0
  0
SPLINE
  5
7f4
100
AcDbEntity
  8
Laag_1
 62
1
100
AcDbSpline
 70
8
 71
3
 72
8
 73
4
 74
0
 40
0
 40
0
 40
0
 40
0
 40
1
 40
1
 40
1
 40
1
 10
868.152351
 20
386.279943
 30
0.0
 10
865.474834
 20
386.177083
 30
0.0
 10
862.945832
 20
387.510475
 30
0.0
 10
861.517994
 20
389.777843
 30
0.0
  0
LINE
  5
7f5
100
AcDbEntity
  8
Laag_1
 62
1
100
AcDbLine
 10
861.517994
 20
389.777843
 30
0.0
 11
861.517994
 21
389.777843
 31
0.0
  0
LINE
  5
7f6
100
AcDbEntity
  8
Laag_1
 62
1
100
AcDbLine
 10
855.140087
 20
567.538945
 30
0.0
 11
862.712442
 21
570.119528
 31
0.0
  0
LINE
  5
7f7
100
AcDbEntity
  8
Laag_1
 62
1
100
AcDbLine
 10
862.712442
 20
570.119528
 30
0.0
 11
858.327974
 21
582.985127
 31
0.0
  0
LINE
  5
7f8
100
AcDbEntity
  8
Laag_1
 62
1
100
AcDbLine
 10
858.327974
 20
582.985127
 30
0.0
 11
820.574750
 21
583.018073
 31
0.0
  0
LINE
  5
7f9
100
AcDbEntity
  8
Laag_1
 62
1
100
AcDbLine
 10
820.574750
 20
583.018073
 30
0.0
 11
820.509299
 21
508.018102
 31
0.0
  0
LINE
  5
7fa
100
AcDbEntity
  8
Laag_1
 62
1
100
AcDbLine
 10
820.509299
 20
508.018102
 30
0.0
 11
802.509306
 21
508.033809
 31
0.0
  0
LINE
  5
7fb
100
AcDbEntity
  8
Laag_1
 62
1
100
AcDbLine
 10
802.509306
 20
508.033809
 30
0.0
 11
802.574757
 21
583.033780
 31
0.0
  0
LINE
  5
7fc
100
AcDbEntity
  8
Laag_1
 62
1
100
AcDbLine
 10
802.574757
 20
583.033780
 30
0.0
 11
764.821191
 21
583.066728
 31
0.0
  0
LINE
  5
7fd
100
AcDbEntity
  8
Laag_1
 62
1
100
AcDbLine
 10
764.821191
 20
583.066728
 30
0.0
 11
760.414171
 21
570.207146
 31
0.0
  0
LINE
  5
7fe
100
AcDbEntity
  8
Laag_1
 62
1
100
AcDbLine
 10
760.414171
 20
570.207146
 30
0.0
 11
767.982096
 21
567.613594
 31
0.0
  0
LINE
  5
7ff
100
AcDbEntity
  8
Laag_1
 62
1
100
AcDbLine
 10
767.982096
 20
567.613594
 30
0.0
 11
762.292492
 21
551.011459
 31
0.0
  0
LINE
  5
800
100
AcDbEntity
  8
Laag_1
 62
1
100
AcDbLine
 10
762.292492
 20
551.011459
 30
0.0
 11
754.724567
 21
553.605011
 31
0.0
  0
LINE
  5
801
100
AcDbEntity
  8
Laag_1
 62
1
100
AcDbLine
 10
754.724567
 20
553.605011
 30
0.0
 11
749.067380
 21
537.097476
 31
0.0
  0
LINE
  5
802
100
AcDbEntity
  8
Laag_1
 62
1
100
AcDbLine
 10
749.067380
 20
537.097476
 30
0.0
 11
756.635305
 21
534.503925
 31
0.0
  0
LINE
  5
803
100
AcDbEntity
  8
Laag_1
 62
1
100
AcDbLine
 10
756.635305
 20
534.503925
 30
0.0
 11
750.945702
 21
517.901787
 31
0.0
  0
LINE
  5
804
100
AcDbEntity
  8
Laag_1
 62
1
100
AcDbLine
 10
750.945702
 20
517.901787
 30
0.0
 11
743.377777
 21
520.495339
 31
0.0
  0
LINE
  5
805
100
AcDbEntity
  8
Laag_1
 62
1
100
AcDbLine
 10
743.377777
 20
520.495339
 30
0.0
 11
737.720591
 21
503.987804
 31
0.0
  0
LINE
  5
806
100
AcDbEntity
  8
Laag_1
 62
1
100
AcDbLine
 10
737.720591
 20
503.987804
 30
0.0
 11
745.288516
 21
501.394253
 31
0.0
  0
LINE
  5
807
100
AcDbEntity
  8
Laag_1
 62
1
100
AcDbLine
 10
745.288516
 20
501.394253
 30
0.0
 11
739.598913
 21
484.792116
 31
0.0
  0
LINE
  5
808
100
AcDbEntity
  8
Laag_1
 62
1
100
AcDbLine
 10
739.598913
 20
484.792116
 30
0.0
 11
732.030987
 21
487.385670
 31
0.0
  0
LINE
  5
809
100
AcDbEntity
  8
Laag_1
 62
1
100
AcDbLine
 10
732.030987
 20
487.385670
 30
0.0
 11
712.860326
 21
431.446125
 31
0.0
  0
LINE
  5
80a
100
AcDbEntity
  8
Laag_1
 62
1
100
AcDbLine
 10
712.860326
 20
431.446125
 30
0.0
 11
720.392287
 21
431.144927
 31
0.0
  0
LINE
  5
80b
100
AcDbEntity
  8
Laag_1
 62
1
100
AcDbLine
 10
720.392287
 20
431.144927
 30
0.0
 11
720.074625
 21
423.201275
 31
0.0
  0
LINE
  5
80c
100
AcDbEntity
  8
Laag_1
 62
1
100
AcDbLine
 10
720.074625
 20
423.201275
 30
0.0
 11
713.862145
 21
423.449707
 31
0.0
  0
LINE
  5
80d
100
AcDbEntity
  8
Laag_1
 62
1
100
AcDbLine
 10
713.862145
 20
423.449707
 30
0.0
 11
762.450172
 21
339.139921
 31
0.0
  0
LINE
  5
80e
100
AcDbEntity
  8
Laag_1
 62
1
100
AcDbLine
 10
762.450172
 20
339.139921
 30
0.0
 11
765.349906
 21
344.639754
 31
0.0
  0
LINE
  5
80f
100
AcDbEntity
  8
Laag_1
 62
1
100
AcDbLine
 10
765.349906
 20
344.639754
 30
0.0
 11
772.382328
 21
340.931975
 31
0.0
  0
LINE
  5
810
100
AcDbEntity
  8
Laag_1
 62
1
100
AcDbLine
 10
772.382328
 20
340.931975
 30
0.0
 11
769.383455
 21
335.244078
 31
0.0
  0
LINE
  5
811
100
AcDbEntity
  8
Laag_1
 62
1
100
AcDbLine
 10
769.383455
 20
335.244078
 30
0.0
 11
860.136631
 21
338.730484
 31
0.0
  0
LINE
  5
812
100
AcDbEntity
  8
Laag_1
 62
1
100
AcDbLine
 10
860.136631
 20
338.730484
 30
0.0
 11
856.710231
 21
344.171515
 31
0.0
  0
LINE
  5
813
100
AcDbEntity
  8
Laag_1
 62
1
100
AcDbLine
 10
856.710231
 20
344.171515
 30
0.0
 11
863.437467
 21
348.407881
 31
0.0
  0
LINE
  5
814
100
AcDbEntity
  8
Laag_1
 62
1
100
AcDbLine
 10
863.437467
 20
348.407881
 30
0.0
 11
866.863867
 21
342.966851
 31
0.0
  0
LINE
  5
815
100
AcDbEntity
  8
Laag_1
 62
1
100
AcDbLine
 10
866.863867
 20
342.966851
 30
0.0
 11
909.221177
 21
423.304590
 31
0.0
  0
LINE
  5
816
100
AcDbEntity
  8
Laag_1
 62
1
100
AcDbLine
 10
909.221177
 20
423.304590
 30
0.0
 11
902.795876
 21
423.057768
 31
0.0
  0
LINE
  5
817
100
AcDbEntity
  8
Laag_1
 62
1
100
AcDbLine
 10
902.795876
 20
423.057768
 30
0.0
 11
902.490689
 21
431.001913
 31
0.0
  0
LINE
  5
818
100
AcDbEntity
  8
Laag_1
 62
1
100
AcDbLine
 10
902.490689
 20
431.001913
 30
0.0
 11
910.023733
 21
431.291295
 31
0.0
  0
LINE
  5
819
100
AcDbEntity
  8
Laag_1
 62
1
100
AcDbLine
 10
910.023733
 20
431.291295
 30
0.0
 11
890.953711
 21
487.249554
 31
0.0
  0
LINE
  5
81a
100
AcDbEntity
  8
Laag_1
 62
1
100
AcDbLine
 10
890.953711
 20
487.249554
 30
0.0
 11
883.381359
 21
484.668962
 31
0.0
  0
LINE
  5
81b
100
AcDbEntity
  8
Laag_1
 62
1
100
AcDbLine
 10
883.381359
 20
484.668962
 30
0.0
 11
877.720202
 21
501.280819
 31
0.0
  0
LINE
  5
81c
100
AcDbEntity
  8
Laag_1
 62
1
100
AcDbLine
 10
877.720202
 20
501.280819
 30
0.0
 11
885.292554
 21
503.861410
 31
0.0
  0
LINE
  5
81d
100
AcDbEntity
  8
Laag_1
 62
1
100
AcDbLine
 10
885.292554
 20
503.861410
 30
0.0
 11
879.663656
 21
520.378611
 31
0.0
  0
LINE
  5
81e
100
AcDbEntity
  8
Laag_1
 62
1
100
AcDbLine
 10
879.663656
 20
520.378611
 30
0.0
 11
872.091299
 21
517.798027
 31
0.0
  0
LINE
  5
81f
100
AcDbEntity
  8
Laag_1
 62
1
100
AcDbLine
 10
872.091299
 20
517.798027
 30
0.0
 11
866.430142
 21
534.409884
 31
0.0
  0
LINE
  5
820
100
AcDbEntity
  8
Laag_1
 62
1
100
AcDbLine
 10
866.430142
 20
534.409884
 30
0.0
 11
874.002499
 21
536.990468
 31
0.0
  0
LINE
  5
821
100
AcDbEntity
  8
Laag_1
 62
1
100
AcDbLine
 10
874.002499
 20
536.990468
 30
0.0
 11
868.373599
 21
553.507671
 31
0.0
  0
LINE
  5
822
100
AcDbEntity
  8
Laag_1
 62
1
100
AcDbLine
 10
868.373599
 20
553.507671
 30
0.0
 11
860.801242
 21
550.927087
 31
0.0
  0
LINE
  5
823
100
AcDbEntity
  8
Laag_1
 62
1
100
AcDbLine
 10
860.801242
 20
550.927087
 30
0.0
 11
855.140087
 21
567.538945
 31
0.0
  0
LINE
  5
824
100
AcDbEntity
  8
Laag_1
 62
5
100
AcDbLine
 10
771.670350
 20
352.625120
 30
0.0
 11
772.164070
 21
352.951100
 31
0.0
  0
LINE
  5
825
100
AcDbEntity
  8
Laag_1
 62
5
100
AcDbLine
 10
772.164070
 20
352.951100
 30
0.0
 11
772.886930
 21
353.144790
 31
0.0
  0
LINE
  5
826
100
AcDbEntity
  8
Laag_1
 62
5
100
AcDbLine
 10
772.886930
 20
353.144790
 30
0.0
 11
773.477490
 21
353.109290
 31
0.0
  0
LINE
  5
827
100
AcDbEntity
  8
Laag_1
 62
5
100
AcDbLine
 10
773.477490
 20
353.109290
 30
0.0
 11
774.394030
 21
352.580130
 31
0.0
  0
LINE
  5
828
100
AcDbEntity
  8
Laag_1
 62
5
100
AcDbLine
 10
774.394030
 20
352.580130
 30
0.0
 11
774.720020
 21
352.086410
 31
0.0
  0
LINE
  5
829
100
AcDbEntity
  8
Laag_1
 62
5
100
AcDbLine
 10
774.720020
 20
352.086410
 30
0.0
 11
774.913700
 21
351.363550
 31
0.0
  0
LINE
  5
82a
100
AcDbEntity
  8
Laag_1
 62
5
100
AcDbLine
 10
774.913700
 20
351.363550
 30
0.0
 11
774.878300
 21
350.772980
 31
0.0
  0
LINE
  5
82b
100
AcDbEntity
  8
Laag_1
 62
5
100
AcDbLine
 10
774.878300
 20
350.772980
 30
0.0
 11
774.710560
 21
349.953290
 31
0.0
  0
LINE
  5
82c
100
AcDbEntity
  8
Laag_1
 62
5
100
AcDbLine
 10
774.710560
 20
349.953290
 30
0.0
 11
774.049110
 21
348.807610
 31
0.0
  0
LINE
  5
82d
100
AcDbEntity
  8
Laag_1
 62
5
100
AcDbLine
 10
774.049110
 20
348.807610
 30
0.0
 11
773.423100
 21
348.252490
 31
0.0
  0
LINE
  5
82e
100
AcDbEntity
  8
Laag_1
 62
5
100
AcDbLine
 10
773.423100
 20
348.252490
 30
0.0
 11
772.929370
 21
347.926510
 31
0.0
  0
LINE
  5
82f
100
AcDbEntity
  8
Laag_1
 62
5
100
AcDbLine
 10
772.929370
 20
347.926510
 30
0.0
 11
772.206520
 21
347.732820
 31
0.0
  0
LINE
  5
830
100
AcDbEntity
  8
Laag_1
 62
5
100
AcDbLine
 10
772.206520
 20
347.732820
 30
0.0
 11
771.615960
 21
347.768220
 31
0.0
  0
LINE
  5
831
100
AcDbEntity
  8
Laag_1
 62
5
100
AcDbLine
 10
771.615960
 20
347.768220
 30
0.0
 11
770.699420
 21
348.297390
 31
0.0
  0
LINE
  5
832
100
AcDbEntity
  8
Laag_1
 62
5
100
AcDbLine
 10
770.699420
 20
348.297390
 30
0.0
 11
770.373430
 21
348.791110
 31
0.0
  0
LINE
  5
833
100
AcDbEntity
  8
Laag_1
 62
5
100
AcDbLine
 10
770.373430
 20
348.791110
 30
0.0
 11
770.179740
 21
349.513960
 31
0.0
  0
LINE
  5
834
100
AcDbEntity
  8
Laag_1
 62
5
100
AcDbLine
 10
770.179740
 20
349.513960
 30
0.0
 11
770.215140
 21
350.104530
 31
0.0
  0
LINE
  5
835
100
AcDbEntity
  8
Laag_1
 62
5
100
AcDbLine
 10
855.555040
 20
356.928360
 30
0.0
 11
858.189780
 21
352.036530
 31
0.0
  0
LINE
  5
836
100
AcDbEntity
  8
Laag_1
 62
5
100
AcDbLine
 10
855.555040
 20
356.928360
 30
0.0
 11
853.924430
 21
356.050120
 31
0.0
  0
LINE
  5
837
100
AcDbEntity
  8
Laag_1
 62
5
100
AcDbLine
 10
853.924430
 20
356.050120
 30
0.0
 11
853.351070
 21
355.440780
 31
0.0
  0
LINE
  5
838
100
AcDbEntity
  8
Laag_1
 62
5
100
AcDbLine
 10
853.351070
 20
355.440780
 30
0.0
 11
853.136100
 21
354.723960
 31
0.0
  0
LINE
  5
839
100
AcDbEntity
  8
Laag_1
 62
5
100
AcDbLine
 10
853.136100
 20
354.723960
 30
0.0
 11
853.154400
 21
354.132620
 31
0.0
  0
LINE
  5
83a
100
AcDbEntity
  8
Laag_1
 62
5
100
AcDbLine
 10
853.154400
 20
354.132620
 30
0.0
 11
853.297850
 21
353.308330
 31
0.0
  0
LINE
  5
83b
100
AcDbEntity
  8
Laag_1
 62
5
100
AcDbLine
 10
853.297850
 20
353.308330
 30
0.0
 11
853.925180
 21
352.143600
 31
0.0
  0
LINE
  5
83c
100
AcDbEntity
  8
Laag_1
 62
5
100
AcDbLine
 10
853.925180
 20
352.143600
 30
0.0
 11
854.534510
 21
351.570230
 31
0.0
  0
LINE
  5
83d
100
AcDbEntity
  8
Laag_1
 62
5
100
AcDbLine
 10
854.534510
 20
351.570230
 30
0.0
 11
855.018370
 21
351.229810
 31
0.0
  0
LINE
  5
83e
100
AcDbEntity
  8
Laag_1
 62
5
100
AcDbLine
 10
855.018370
 20
351.229810
 30
0.0
 11
855.735190
 21
351.014850
 31
0.0
  0
LINE
  5
83f
100
AcDbEntity
  8
Laag_1
 62
5
100
AcDbLine
 10
855.735190
 20
351.014850
 30
0.0
 11
856.559480
 21
351.158300
 31
0.0
  0
LINE
  5
840
100
AcDbEntity
  8
Laag_1
 62
5
100
AcDbLine
 10
856.559480
 20
351.158300
 30
0.0
 11
858.190090
 21
352.036540
 31
0.0
  0
LINE
  5
841
100
AcDbEntity
  8
Laag_1
 62
5
100
AcDbLine
 10
891.919190
 20
424.791890
 30
0.0
 11
891.385500
 21
425.047210
 31
0.0
  0
LINE
  5
842
100
AcDbEntity
  8
Laag_1
 62
5
100
AcDbLine
 10
891.385500
 20
425.047210
 30
0.0
 11
890.847190
 21
425.567080
 31
0.0
  0
LINE
  5
843
100
AcDbEntity
  8
Laag_1
 62
5
100
AcDbLine
 10
890.847190
 20
425.567080
 30
0.0
 11
890.573440
 21
426.091560
 31
0.0
  0
LINE
  5
844
100
AcDbEntity
  8
Laag_1
 62
5
100
AcDbLine
 10
890.573440
 20
426.091560
 30
0.0
 11
890.555040
 21
427.149740
 31
0.0
  0
LINE
  5
845
100
AcDbEntity
  8
Laag_1
 62
5
100
AcDbLine
 10
890.555040
 20
427.149740
 30
0.0
 11
890.810360
 21
427.683420
 31
0.0
  0
LINE
  5
846
100
AcDbEntity
  8
Laag_1
 62
5
100
AcDbLine
 10
890.810360
 20
427.683420
 30
0.0
 11
891.330240
 21
428.221730
 31
0.0
  0
LINE
  5
847
100
AcDbEntity
  8
Laag_1
 62
5
100
AcDbLine
 10
891.330240
 20
428.221730
 30
0.0
 11
891.854710
 21
428.495480
 31
0.0
  0
LINE
  5
848
100
AcDbEntity
  8
Laag_1
 62
5
100
AcDbLine
 10
891.854710
 20
428.495480
 30
0.0
 11
892.643730
 21
428.773860
 31
0.0
  0
LINE
  5
849
100
AcDbEntity
  8
Laag_1
 62
5
100
AcDbLine
 10
892.643730
 20
428.773860
 30
0.0
 11
893.966450
 21
428.796860
 31
0.0
  0
LINE
  5
84a
100
AcDbEntity
  8
Laag_1
 62
5
100
AcDbLine
 10
893.966450
 20
428.796860
 30
0.0
 11
894.764690
 21
428.546130
 31
0.0
  0
LINE
  5
84b
100
AcDbEntity
  8
Laag_1
 62
5
100
AcDbLine
 10
894.764690
 20
428.546130
 30
0.0
 11
895.298380
 21
428.290810
 31
0.0
  0
LINE
  5
84c
100
AcDbEntity
  8
Laag_1
 62
5
100
AcDbLine
 10
895.298380
 20
428.290810
 30
0.0
 11
895.836680
 21
427.770930
 31
0.0
  0
LINE
  5
84d
100
AcDbEntity
  8
Laag_1
 62
5
100
AcDbLine
 10
895.836680
 20
427.770930
 30
0.0
 11
896.110450
 21
427.246460
 31
0.0
  0
LINE
  5
84e
100
AcDbEntity
  8
Laag_1
 62
5
100
AcDbLine
 10
896.110450
 20
427.246460
 30
0.0
 11
896.128850
 21
426.188280
 31
0.0
  0
LINE
  5
84f
100
AcDbEntity
  8
Laag_1
 62
5
100
AcDbLine
 10
896.128850
 20
426.188280
 30
0.0
 11
895.873510
 21
425.654590
 31
0.0
  0
LINE
  5
850
100
AcDbEntity
  8
Laag_1
 62
5
100
AcDbLine
 10
895.873510
 20
425.654590
 30
0.0
 11
895.353650
 21
425.116290
 31
0.0
  0
LINE
  5
851
100
AcDbEntity
  8
Laag_1
 62
5
100
AcDbLine
 10
895.353650
 20
425.116290
 30
0.0
 11
894.829170
 21
424.842530
 31
0.0
  0
ENDSEC
  0
SECTION
  2
OBJECTS
  0
DICTIONARY
  5
C
330
0
100
AcDbDictionary
  3
ACAD_GROUP
350
D
  3
ACAD_MLINESTYLE
350
17
  0
DICTIONARY
  5
D
330
C
100
AcDbDictionary
  0
DICTIONARY
  5
1A
330
C
100
AcDbDictionary
  0
DICTIONARY
  5
17
330
C
100
AcDbDictionary
  3
STANDARD
350
18
  0
DICTIONARY
  5
19
330
C
100
AcDbDictionary
  0
ENDSEC
  0
EOF
