  0
SECTION
  2
HEADER
  9
$ACADVER
  1
AC1014
  9
$HANDSEED
  5
FFFF
  9
$MEASUREMENT
 70
     1
  0
ENDSEC
  0
SECTION
  2
TABLES
  0
TABLE
  2
VPORT
  5
8
330
0
100
AcDbSymbolTable
 70
     4
  0
VPORT
  5
2E
330
8
100
AcDbSymbolTableRecord
100
AcDbViewportTableRecord
  2
*ACTIVE
 70
     0
 10
0.0
 20
0.0
 11
1.0
 21
1.0
 12
210.0
 22
148.5
 13
0.0
 23
0.0
 14
10.0
 24
10.0
 15
10.0
 25
10.0
 16
0.0
 26
0.0
 36
1.0
 17
0.0
 27
0.0
 37
0.0
 40
341.0
 41
1.24
 42
50.0
 43
0.0
 44
0.0
 50
0.0
 51
0.0
 71
     0
 72
   100
 73
     1
 74
     3
 75
     0
 76
     0
 77
     0
 78
     0
  0
ENDTAB
  0
TABLE
  2
LTYPE
  5
5
330
0
100
AcDbSymbolTable
 70
     1
  0
LTYPE
  5
14
330
5
100
AcDbSymbolTableRecord
100
AcDbLinetypeTableRecord
  2
BYBLOCK
 70
     0
  3

 72
    65
 73
     0
 40
0.0
  0
LTYPE
  5
15
330
5
100
AcDbSymbolTableRecord
100
AcDbLinetypeTableRecord
  2
BYLAYER
 70
     0
  3

 72
    65
 73
     0
 40
0.0
  0
LTYPE
  5
16
330
5
100
AcDbSymbolTableRecord
100
AcDbLinetypeTableRecord
  2
CONTINUOUS
 70
     0
  3
Solid line
 72
    65
 73
     0
 40
0.0
  0
ENDTAB
  0
TABLE
  2
LAYER
  5
2
100
AcDbSymbolTable
 70
1
  0
LAYER
  5
50
100
AcDbSymbolTableRecord
100
AcDbLayerTableRecord
  2
0
 70
0
  6
CONTINUOUS
  0
ENDTAB
  0
TABLE
  2
STYLE
  5
3
330
0
100
AcDbSymbolTable
 70
     1
  0
STYLE
  5
11
330
3
100
AcDbSymbolTableRecord
100
AcDbTextStyleTableRecord
  2
STANDARD
 70
     0
 40
0.0
 41
1.0
 50
0.0
 71
     0
 42
2.5
  3
txt
  4

  0
ENDTAB
  0
TABLE
  2
VIEW
  5
6
330
0
100
AcDbSymbolTable
 70
     0
  0
ENDTAB
  0
TABLE
  2
UCS
  5
7
330
0
100
AcDbSymbolTable
 70
     0
  0
ENDTAB
  0
TABLE
  2
APPID
  5
9
330
0
100
AcDbSymbolTable
 70
     2
  0
APPID
  5
12
330
9
100
AcDbSymbolTableRecord
100
AcDbRegAppTableRecord
  2
ACAD
 70
     0
  0
ENDTAB
  0
TABLE
  2
DIMSTYLE
  5
A
330
0
100
AcDbSymbolTable
 70
     1
  0
DIMSTYLE
105
27
330
A
100
AcDbSymbolTableRecord
100
AcDbDimStyleTableRecord
  2
ISO-25
 70
     0
  3

  4

  5

  6

  7

 40
1.0
 41
2.5
 42
0.625
 43
3.75
 44
1.25
 45
0.0
 46
0.0
 47
0.0
 48
0.0
140
2.5
141
2.5
142
0.0
143
0.03937007874016
144
1.0
145
0.0
146
1.0
147
0.625
 71
     0
 72
     0
 73
     0
 74
     0
 75
     0
 76
     0
 77
     1
 78
     8
170
     0
171
     3
172
     1
173
     0
174
     0
175
     0
176
     0
177
     0
178
     0
270
     2
271
     2
272
     2
273
     2
274
     3
340
11
275
     0
280
     0
281
     0
282
     0
283
     0
284
     8
285
     0
286
     0
287
     3
288
     0
  0
ENDTAB
  0
TABLE
  2
BLOCK_RECORD
  5
1
330
0
100
AcDbSymbolTable
 70
     1
  0
BLOCK_RECORD
  5
1F
330
1
100
AcDbSymbolTableRecord
100
AcDbBlockTableRecord
  2
*MODEL_SPACE
  0
BLOCK_RECORD
  5
1B
330
1
100
AcDbSymbolTableRecord
100
AcDbBlockTableRecord
  2
*PAPER_SPACE
  0
ENDTAB
  0
ENDSEC
  0
SECTION
  2
BLOCKS
  0
BLOCK
  5
20
330
1F
100
AcDbEntity
  8
0
100
AcDbBlockBegin
  2
*MODEL_SPACE
 70
     0
 10
0.0
 20
0.0
 30
0.0
  3
*MODEL_SPACE
  1

  0
ENDBLK
  5
21
330
1F
100
AcDbEntity
  8
0
100
AcDbBlockEnd
  0
BLOCK
  5
1C
330
1B
100
AcDbEntity
 67
     1
  8
0
100
AcDbBlockBegin
  2
*PAPER_SPACE
  1

  0
ENDBLK
  5
1D
330
1B
100
AcDbEntity
 67
     1
  8
0
100
AcDbBlockEnd
  0
ENDSEC
  0
SECTION
  2
ENTITIES
  0
SPLINE
  5
100
100
AcDbEntity
  8
0
 62
7
100
AcDbSpline
 70
8
 71
3
 72
8
 73
4
 74
0
 40
0
 40
0
 40
0
 40
0
 40
1
 40
1
 40
1
 40
1
 10
292.920208
 20
39.872708
 30
0.0
 10
332.290208
 20
39.872708
 30
0.0
 10
364.569375
 20
70.352708
 30
0.0
 10
367.797292
 20
109.140625
 30
0.0
  0
SPLINE
  5
101
100
AcDbEntity
  8
0
 62
7
100
AcDbSpline
 70
8
 71
3
 72
8
 73
4
 74
0
 40
0
 40
0
 40
0
 40
0
 40
1
 40
1
 40
1
 40
1
 10
367.797292
 20
109.140625
 30
0.0
 10
368.114792
 20
112.844792
 30
0.0
 10
367.850208
 20
116.575417
 30
0.0
 10
367.056458
 20
120.200208
 30
0.0
  0
LINE
  5
102
100
AcDbEntity
  8
0
 62
7
100
AcDbLine
 10
367.056458
 20
120.200208
 30
0.0
 11
363.563958
 21
136.419167
 31
0.0
  0
LINE
  5
103
100
AcDbEntity
  8
0
 62
7
100
AcDbLine
 10
363.563958
 20
136.419167
 30
0.0
 11
362.399792
 21
150.309792
 31
0.0
  0
SPLINE
  5
104
100
AcDbEntity
  8
0
 62
7
100
AcDbSpline
 70
8
 71
3
 72
8
 73
4
 74
0
 40
0
 40
0
 40
0
 40
0
 40
1
 40
1
 40
1
 40
1
 10
362.399792
 20
150.309792
 30
0.0
 10
362.399792
 20
150.944792
 30
0.0
 10
362.717292
 20
151.130000
 30
0.0
 10
363.325833
 20
151.130000
 30
0.0
  0
LINE
  5
105
100
AcDbEntity
  8
0
 62
7
100
AcDbLine
 10
363.325833
 20
151.130000
 30
0.0
 11
363.405208
 21
151.130000
 31
0.0
  0
SPLINE
  5
106
100
AcDbEntity
  8
0
 62
7
100
AcDbSpline
 70
8
 71
3
 72
8
 73
4
 74
0
 40
0
 40
0
 40
0
 40
0
 40
1
 40
1
 40
1
 40
1
 10
363.405208
 20
151.130000
 30
0.0
 10
364.304792
 20
151.130000
 30
0.0
 10
364.198958
 20
150.521458
 30
0.0
 10
364.172500
 20
149.939375
 30
0.0
  0
SPLINE
  5
107
100
AcDbEntity
  8
0
 62
7
100
AcDbSpline
 70
8
 71
3
 72
8
 73
4
 74
0
 40
0
 40
0
 40
0
 40
0
 40
1
 40
1
 40
1
 40
1
 10
364.172500
 20
149.939375
 30
0.0
 10
364.146042
 20
149.225000
 30
0.0
 10
364.146042
 20
149.621875
 30
0.0
 10
364.146042
 20
149.172083
 30
0.0
  0
SPLINE
  5
108
100
AcDbEntity
  8
0
 62
7
100
AcDbSpline
 70
8
 71
3
 72
8
 73
4
 74
0
 40
0
 40
0
 40
0
 40
0
 40
1
 40
1
 40
1
 40
1
 10
364.146042
 20
149.172083
 30
0.0
 10
364.119583
 20
147.320000
 30
0.0
 10
363.907917
 20
147.108333
 30
0.0
 10
363.934375
 20
145.388542
 30
0.0
  0
SPLINE
  5
109
100
AcDbEntity
  8
0
 62
7
100
AcDbSpline
 70
8
 71
3
 72
8
 73
4
 74
0
 40
0
 40
0
 40
0
 40
0
 40
1
 40
1
 40
1
 40
1
 10
363.934375
 20
145.388542
 30
0.0
 10
363.934375
 20
145.123958
 30
0.0
 10
363.934375
 20
144.859375
 30
0.0
 10
364.013750
 20
144.594792
 30
0.0
  0
SPLINE
  5
10a
100
AcDbEntity
  8
0
 62
7
100
AcDbSpline
 70
8
 71
3
 72
8
 73
4
 74
0
 40
0
 40
0
 40
0
 40
0
 40
1
 40
1
 40
1
 40
1
 10
364.013750
 20
144.594792
 30
0.0
 10
364.146042
 20
144.092083
 30
0.0
 10
364.542917
 20
143.906875
 30
0.0
 10
365.045625
 20
144.039167
 30
0.0
  0
SPLINE
  5
10b
100
AcDbEntity
  8
0
 62
7
100
AcDbSpline
 70
8
 71
3
 72
8
 73
4
 74
0
 40
0
 40
0
 40
0
 40
0
 40
1
 40
1
 40
1
 40
1
 10
365.045625
 20
144.039167
 30
0.0
 10
365.310208
 20
144.092083
 30
0.0
 10
365.468958
 20
144.383125
 30
0.0
 10
365.521875
 20
144.647708
 30
0.0
  0
SPLINE
  5
10c
100
AcDbEntity
  8
0
 62
7
100
AcDbSpline
 70
8
 71
3
 72
8
 73
4
 74
0
 40
0
 40
0
 40
0
 40
0
 40
1
 40
1
 40
1
 40
1
 10
365.521875
 20
144.647708
 30
0.0
 10
366.262708
 20
147.346458
 30
0.0
 10
367.506250
 20
151.473958
 30
0.0
 10
367.506250
 20
154.172708
 30
0.0
  0
SPLINE
  5
10d
100
AcDbEntity
  8
0
 62
7
100
AcDbSpline
 70
8
 71
3
 72
8
 73
4
 74
0
 40
0
 40
0
 40
0
 40
0
 40
1
 40
1
 40
1
 40
1
 10
367.506250
 20
154.172708
 30
0.0
 10
367.506250
 20
155.416250
 30
0.0
 10
365.151458
 20
156.130625
 30
0.0
 10
363.934375
 20
156.130625
 30
0.0
  0
LINE
  5
10e
100
AcDbEntity
  8
0
 62
7
100
AcDbLine
 10
363.934375
 20
156.130625
 30
0.0
 11
360.547708
 21
156.130625
 31
0.0
  0
SPLINE
  5
10f
100
AcDbEntity
  8
0
 62
7
100
AcDbSpline
 70
8
 71
3
 72
8
 73
4
 74
0
 40
0
 40
0
 40
0
 40
0
 40
1
 40
1
 40
1
 40
1
 10
360.547708
 20
156.130625
 30
0.0
 10
359.515833
 20
156.130625
 30
0.0
 10
358.669167
 20
155.283958
 30
0.0
 10
358.669167
 20
154.252083
 30
0.0
  0
LINE
  5
110
100
AcDbEntity
  8
0
 62
7
100
AcDbLine
 10
358.669167
 20
154.252083
 30
0.0
 11
357.557917
 21
136.445625
 31
0.0
  0
LINE
  5
111
100
AcDbEntity
  8
0
 62
7
100
AcDbLine
 10
357.557917
 20
136.445625
 30
0.0
 11
357.557917
 21
136.445625
 31
0.0
  0
SPLINE
  5
112
100
AcDbEntity
  8
0
 62
7
100
AcDbSpline
 70
8
 71
3
 72
8
 73
4
 74
0
 40
0
 40
0
 40
0
 40
0
 40
1
 40
1
 40
1
 40
1
 10
357.557917
 20
136.445625
 30
0.0
 10
357.557917
 20
100.912083
 30
0.0
 10
328.215625
 20
72.125417
 30
0.0
 10
292.946667
 20
72.125417
 30
0.0
  0
SPLINE
  5
113
100
AcDbEntity
  8
0
 62
7
100
AcDbSpline
 70
8
 71
3
 72
8
 73
4
 74
0
 40
0
 40
0
 40
0
 40
0
 40
1
 40
1
 40
1
 40
1
 10
292.920208
 20
39.872708
 30
0.0
 10
253.550208
 20
39.872708
 30
0.0
 10
221.271042
 20
70.352708
 30
0.0
 10
218.043125
 20
109.140625
 30
0.0
  0
SPLINE
  5
114
100
AcDbEntity
  8
0
 62
7
100
AcDbSpline
 70
8
 71
3
 72
8
 73
4
 74
0
 40
0
 40
0
 40
0
 40
0
 40
1
 40
1
 40
1
 40
1
 10
218.043125
 20
109.140625
 30
0.0
 10
217.725625
 20
112.844792
 30
0.0
 10
217.990208
 20
116.575417
 30
0.0
 10
218.783958
 20
120.200208
 30
0.0
  0
LINE
  5
115
100
AcDbEntity
  8
0
 62
7
100
AcDbLine
 10
218.783958
 20
120.200208
 30
0.0
 11
222.276458
 21
136.419167
 31
0.0
  0
LINE
  5
116
100
AcDbEntity
  8
0
 62
7
100
AcDbLine
 10
222.276458
 20
136.419167
 30
0.0
 11
223.440625
 21
150.309792
 31
0.0
  0
SPLINE
  5
117
100
AcDbEntity
  8
0
 62
7
100
AcDbSpline
 70
8
 71
3
 72
8
 73
4
 74
0
 40
0
 40
0
 40
0
 40
0
 40
1
 40
1
 40
1
 40
1
 10
223.440625
 20
150.309792
 30
0.0
 10
223.440625
 20
150.944792
 30
0.0
 10
223.123125
 20
151.130000
 30
0.0
 10
222.514583
 20
151.130000
 30
0.0
  0
LINE
  5
118
100
AcDbEntity
  8
0
 62
7
100
AcDbLine
 10
222.514583
 20
151.130000
 30
0.0
 11
222.435208
 21
151.130000
 31
0.0
  0
SPLINE
  5
119
100
AcDbEntity
  8
0
 62
7
100
AcDbSpline
 70
8
 71
3
 72
8
 73
4
 74
0
 40
0
 40
0
 40
0
 40
0
 40
1
 40
1
 40
1
 40
1
 10
222.435208
 20
151.130000
 30
0.0
 10
221.535625
 20
151.130000
 30
0.0
 10
221.641458
 20
150.521458
 30
0.0
 10
221.667917
 20
149.939375
 30
0.0
  0
SPLINE
  5
11a
100
AcDbEntity
  8
0
 62
7
100
AcDbSpline
 70
8
 71
3
 72
8
 73
4
 74
0
 40
0
 40
0
 40
0
 40
0
 40
1
 40
1
 40
1
 40
1
 10
221.667917
 20
149.939375
 30
0.0
 10
221.694375
 20
149.225000
 30
0.0
 10
221.694375
 20
149.621875
 30
0.0
 10
221.694375
 20
149.172083
 30
0.0
  0
SPLINE
  5
11b
100
AcDbEntity
  8
0
 62
7
100
AcDbSpline
 70
8
 71
3
 72
8
 73
4
 74
0
 40
0
 40
0
 40
0
 40
0
 40
1
 40
1
 40
1
 40
1
 10
221.694375
 20
149.172083
 30
0.0
 10
221.720833
 20
147.320000
 30
0.0
 10
221.932500
 20
147.108333
 30
0.0
 10
221.906042
 20
145.388542
 30
0.0
  0
SPLINE
  5
11c
100
AcDbEntity
  8
0
 62
7
100
AcDbSpline
 70
8
 71
3
 72
8
 73
4
 74
0
 40
0
 40
0
 40
0
 40
0
 40
1
 40
1
 40
1
 40
1
 10
221.906042
 20
145.388542
 30
0.0
 10
221.906042
 20
145.123958
 30
0.0
 10
221.906042
 20
144.859375
 30
0.0
 10
221.826667
 20
144.594792
 30
0.0
  0
SPLINE
  5
11d
100
AcDbEntity
  8
0
 62
7
100
AcDbSpline
 70
8
 71
3
 72
8
 73
4
 74
0
 40
0
 40
0
 40
0
 40
0
 40
1
 40
1
 40
1
 40
1
 10
221.826667
 20
144.594792
 30
0.0
 10
221.694375
 20
144.092083
 30
0.0
 10
221.297500
 20
143.906875
 30
0.0
 10
220.794792
 20
144.039167
 30
0.0
  0
SPLINE
  5
11e
100
AcDbEntity
  8
0
 62
7
100
AcDbSpline
 70
8
 71
3
 72
8
 73
4
 74
0
 40
0
 40
0
 40
0
 40
0
 40
1
 40
1
 40
1
 40
1
 10
220.794792
 20
144.039167
 30
0.0
 10
220.530208
 20
144.092083
 30
0.0
 10
220.371458
 20
144.383125
 30
0.0
 10
220.318542
 20
144.647708
 30
0.0
  0
SPLINE
  5
11f
100
AcDbEntity
  8
0
 62
7
100
AcDbSpline
 70
8
 71
3
 72
8
 73
4
 74
0
 40
0
 40
0
 40
0
 40
0
 40
1
 40
1
 40
1
 40
1
 10
220.318542
 20
144.647708
 30
0.0
 10
219.577708
 20
147.346458
 30
0.0
 10
218.334167
 20
151.473958
 30
0.0
 10
218.334167
 20
154.172708
 30
0.0
  0
SPLINE
  5
120
100
AcDbEntity
  8
0
 62
7
100
AcDbSpline
 70
8
 71
3
 72
8
 73
4
 74
0
 40
0
 40
0
 40
0
 40
0
 40
1
 40
1
 40
1
 40
1
 10
218.334167
 20
154.172708
 30
0.0
 10
218.334167
 20
155.416250
 30
0.0
 10
220.688958
 20
156.130625
 30
0.0
 10
221.906042
 20
156.130625
 30
0.0
  0
LINE
  5
121
100
AcDbEntity
  8
0
 62
7
100
AcDbLine
 10
221.906042
 20
156.130625
 30
0.0
 11
225.292708
 21
156.130625
 31
0.0
  0
SPLINE
  5
122
100
AcDbEntity
  8
0
 62
7
100
AcDbSpline
 70
8
 71
3
 72
8
 73
4
 74
0
 40
0
 40
0
 40
0
 40
0
 40
1
 40
1
 40
1
 40
1
 10
225.292708
 20
156.130625
 30
0.0
 10
226.324583
 20
156.130625
 30
0.0
 10
227.171250
 20
155.283958
 30
0.0
 10
227.171250
 20
154.252083
 30
0.0
  0
LINE
  5
123
100
AcDbEntity
  8
0
 62
7
100
AcDbLine
 10
227.171250
 20
154.252083
 30
0.0
 11
228.282500
 21
136.445625
 31
0.0
  0
LINE
  5
124
100
AcDbEntity
  8
0
 62
7
100
AcDbLine
 10
228.282500
 20
136.445625
 30
0.0
 11
228.282500
 21
136.445625
 31
0.0
  0
SPLINE
  5
125
100
AcDbEntity
  8
0
 62
7
100
AcDbSpline
 70
8
 71
3
 72
8
 73
4
 74
0
 40
0
 40
0
 40
0
 40
0
 40
1
 40
1
 40
1
 40
1
 10
228.282500
 20
136.445625
 30
0.0
 10
228.282500
 20
100.912083
 30
0.0
 10
257.624792
 20
72.125417
 30
0.0
 10
292.893750
 20
72.125417
 30
0.0
  0
SPLINE
  5
126
100
AcDbEntity
  8
0
 62
7
100
AcDbSpline
 70
8
 71
3
 72
8
 73
4
 74
0
 40
0
 40
0
 40
0
 40
0
 40
1
 40
1
 40
1
 40
1
 10
292.920208
 20
44.053125
 30
0.0
 10
311.890833
 20
44.053125
 30
0.0
 10
329.723750
 20
51.487917
 30
0.0
 10
343.138125
 20
65.008125
 30
0.0
  0
SPLINE
  5
127
100
AcDbEntity
  8
0
 62
7
100
AcDbSpline
 70
8
 71
3
 72
8
 73
4
 74
0
 40
0
 40
0
 40
0
 40
0
 40
1
 40
1
 40
1
 40
1
 10
343.138125
 20
65.008125
 30
0.0
 10
356.552500
 20
78.501875
 30
0.0
 10
363.934375
 20
96.467083
 30
0.0
 10
363.934375
 20
115.570000
 30
0.0
  0
LINE
  5
128
100
AcDbEntity
  8
0
 62
7
100
AcDbLine
 10
363.934375
 20
115.570000
 30
0.0
 11
363.934375
 21
117.845417
 31
0.0
  0
LINE
  5
129
100
AcDbEntity
  8
0
 62
7
100
AcDbLine
 10
363.934375
 20
117.845417
 30
0.0
 11
364.304792
 21
117.845417
 31
0.0
  0
LINE
  5
12a
100
AcDbEntity
  8
0
 62
7
100
AcDbLine
 10
364.304792
 20
117.845417
 30
0.0
 11
364.304792
 21
115.570000
 31
0.0
  0
SPLINE
  5
12b
100
AcDbEntity
  8
0
 62
7
100
AcDbSpline
 70
8
 71
3
 72
8
 73
4
 74
0
 40
0
 40
0
 40
0
 40
0
 40
1
 40
1
 40
1
 40
1
 10
364.304792
 20
115.570000
 30
0.0
 10
364.304792
 20
96.361250
 30
0.0
 10
356.870000
 20
78.316667
 30
0.0
 10
343.402708
 20
64.743542
 30
0.0
  0
SPLINE
  5
12c
100
AcDbEntity
  8
0
 62
7
100
AcDbSpline
 70
8
 71
3
 72
8
 73
4
 74
0
 40
0
 40
0
 40
0
 40
0
 40
1
 40
1
 40
1
 40
1
 10
343.402708
 20
64.743542
 30
0.0
 10
329.908958
 20
51.170417
 30
0.0
 10
311.996667
 20
43.682708
 30
0.0
 10
292.920208
 20
43.682708
 30
0.0
  0
SPLINE
  5
12d
100
AcDbEntity
  8
0
 62
7
100
AcDbSpline
 70
8
 71
3
 72
8
 73
4
 74
0
 40
0
 40
0
 40
0
 40
0
 40
1
 40
1
 40
1
 40
1
 10
292.920208
 20
44.053125
 30
0.0
 10
273.949583
 20
44.053125
 30
0.0
 10
256.116667
 20
51.487917
 30
0.0
 10
242.702292
 20
65.008125
 30
0.0
  0
SPLINE
  5
12e
100
AcDbEntity
  8
0
 62
7
100
AcDbSpline
 70
8
 71
3
 72
8
 73
4
 74
0
 40
0
 40
0
 40
0
 40
0
 40
1
 40
1
 40
1
 40
1
 10
242.702292
 20
65.008125
 30
0.0
 10
229.287917
 20
78.501875
 30
0.0
 10
221.906042
 20
96.467083
 30
0.0
 10
221.906042
 20
115.570000
 30
0.0
  0
LINE
  5
12f
100
AcDbEntity
  8
0
 62
7
100
AcDbLine
 10
221.906042
 20
115.570000
 30
0.0
 11
221.906042
 21
117.845417
 31
0.0
  0
LINE
  5
130
100
AcDbEntity
  8
0
 62
7
100
AcDbLine
 10
221.906042
 20
117.845417
 30
0.0
 11
221.535625
 21
117.845417
 31
0.0
  0
LINE
  5
131
100
AcDbEntity
  8
0
 62
7
100
AcDbLine
 10
221.535625
 20
117.845417
 30
0.0
 11
221.535625
 21
115.570000
 31
0.0
  0
SPLINE
  5
132
100
AcDbEntity
  8
0
 62
7
100
AcDbSpline
 70
8
 71
3
 72
8
 73
4
 74
0
 40
0
 40
0
 40
0
 40
0
 40
1
 40
1
 40
1
 40
1
 10
221.535625
 20
115.570000
 30
0.0
 10
221.535625
 20
96.361250
 30
0.0
 10
228.970417
 20
78.316667
 30
0.0
 10
242.437708
 20
64.743542
 30
0.0
  0
SPLINE
  5
133
100
AcDbEntity
  8
0
 62
7
100
AcDbSpline
 70
8
 71
3
 72
8
 73
4
 74
0
 40
0
 40
0
 40
0
 40
0
 40
1
 40
1
 40
1
 40
1
 10
242.437708
 20
64.743542
 30
0.0
 10
255.931458
 20
51.170417
 30
0.0
 10
273.843750
 20
43.682708
 30
0.0
 10
292.920208
 20
43.682708
 30
0.0
  0
ENDSEC
  0
SECTION
  2
OBJECTS
  0
DICTIONARY
  5
C
330
0
100
AcDbDictionary
  3
ACAD_GROUP
350
D
  3
ACAD_MLINESTYLE
350
17
  0
DICTIONARY
  5
D
330
C
100
AcDbDictionary
  0
DICTIONARY
  5
1A
330
C
100
AcDbDictionary
  0
DICTIONARY
  5
17
330
C
100
AcDbDictionary
  3
STANDARD
350
18
  0
DICTIONARY
  5
19
330
C
100
AcDbDictionary
  0
ENDSEC
  0
EOF
