  0
SECTION
  2
HEADER
  9
$ACADVER
  1
AC1018
  9
$ACADMAINTVER
 70
     0
  9
$DWGCODEPAGE
  3
ANSI_1252
  9
$INSBASE
 10
0.0
 20
0.0
 30
0.0
  9
$EXTMIN
 10
-15.89478271107845
 20
-15.89478271107844
 30
-1.2
  9
$EXTMAX
 10
15.89478271107845
 20
15.89478271107844
 30
0.0000000000000004
  9
$LIMMIN
 10
0.0
 20
0.0
  9
$LIMMAX
 10
12.0
 20
9.0
  9
$ORTHOMODE
 70
     0
  9
$REGENMODE
 70
     1
  9
$FILLMODE
 70
     1
  9
$QTEXTMODE
 70
     0
  9
$MIRRTEXT
 70
     1
  9
$LTSCALE
 40
1.0
  9
$ATTMODE
 70
     1
  9
$TEXTSIZE
 40
0.2
  9
$TRACEWID
 40
0.05
  9
$TEXTSTYLE
  7
Standard
  9
$CLAYER
  8
DEFAULT
  9
$CELTYPE
  6
ByLayer
  9
$CECOLOR
 62
   256
  9
$CELTSCALE
 40
1.0
  9
$DISPSILH
 70
     0
  9
$DIMSCALE
 40
1.0
  9
$DIMASZ
 40
0.18
  9
$DIMEXO
 40
0.0625
  9
$DIMDLI
 40
0.38
  9
$DIMRND
 40
0.0
  9
$DIMDLE
 40
0.0
  9
$DIMEXE
 40
0.18
  9
$DIMTP
 40
0.0
  9
$DIMTM
 40
0.0
  9
$DIMTXT
 40
0.18
  9
$DIMCEN
 40
0.09
  9
$DIMTSZ
 40
0.0
  9
$DIMTOL
 70
     0
  9
$DIMLIM
 70
     0
  9
$DIMTIH
 70
     1
  9
$DIMTOH
 70
     1
  9
$DIMSE1
 70
     0
  9
$DIMSE2
 70
     0
  9
$DIMTAD
 70
     0
  9
$DIMZIN
 70
     0
  9
$DIMBLK
  1

  9
$DIMASO
 70
     1
  9
$DIMSHO
 70
     1
  9
$DIMPOST
  1

  9
$DIMAPOST
  1

  9
$DIMALT
 70
     0
  9
$DIMALTD
 70
     2
  9
$DIMALTF
 40
25.4
  9
$DIMLFAC
 40
1.0
  9
$DIMTOFL
 70
     0
  9
$DIMTVP
 40
0.0
  9
$DIMTIX
 70
     0
  9
$DIMSOXD
 70
     0
  9
$DIMSAH
 70
     0
  9
$DIMBLK1
  1

  9
$DIMBLK2
  1

  9
$DIMSTYLE
  2
Standard
  9
$DIMCLRD
 70
     0
  9
$DIMCLRE
 70
     0
  9
$DIMCLRT
 70
     0
  9
$DIMTFAC
 40
1.0
  9
$DIMGAP
 40
0.09
  9
$DIMJUST
 70
     0
  9
$DIMSD1
 70
     0
  9
$DIMSD2
 70
     0
  9
$DIMTOLJ
 70
     1
  9
$DIMTZIN
 70
     0
  9
$DIMALTZ
 70
     0
  9
$DIMALTTZ
 70
     0
  9
$DIMUPT
 70
     0
  9
$DIMDEC
 70
     4
  9
$DIMTDEC
 70
     4
  9
$DIMALTU
 70
     2
  9
$DIMALTTD
 70
     2
  9
$DIMTXSTY
  7
Standard
  9
$DIMAUNIT
 70
     0
  9
$DIMADEC
 70
     0
  9
$DIMALTRND
 40
0.0
  9
$DIMAZIN
 70
     0
  9
$DIMDSEP
 70
    46
  9
$DIMATFIT
 70
     3
  9
$DIMFRAC
 70
     0
  9
$DIMLDRBLK
  1

  9
$DIMLUNIT
 70
     2
  9
$DIMLWD
 70
    -2
  9
$DIMLWE
 70
    -2
  9
$DIMTMOVE
 70
     2
  9
$LUNITS
 70
     2
  9
$LUPREC
 70
     3
  9
$SKETCHINC
 40
0.1
  9
$FILLETRAD
 40
0.5
  9
$AUNITS
 70
     0
  9
$AUPREC
 70
     0
  9
$MENU
  1
.
  9
$ELEVATION
 40
0.0
  9
$PELEVATION
 40
0.0
  9
$THICKNESS
 40
0.0
  9
$LIMCHECK
 70
     0
  9
$CHAMFERA
 40
0.5
  9
$CHAMFERB
 40
0.5
  9
$CHAMFERC
 40
1.0
  9
$CHAMFERD
 40
0.0
  9
$SKPOLY
 70
     0
  9
$TDCREATE
 40
2456900.861234618
  9
$TDUCREATE
 40
2456900.777901285
  9
$TDUPDATE
 40
2456900.86123463
  9
$TDUUPDATE
 40
2456900.777901297
  9
$TDINDWG
 40
0.0000000116
  9
$TDUSRTIMER
 40
0.0000000116
  9
$USRTIMER
 70
     1
  9
$ANGBASE
 50
0.0
  9
$ANGDIR
 70
     0
  9
$PDMODE
 70
     0
  9
$PDSIZE
 40
0.0
  9
$PLINEWID
 40
0.0
  9
$SPLFRAME
 70
     0
  9
$SPLINETYPE
 70
     6
  9
$SPLINESEGS
 70
     8
  9
$HANDSEED
  5
C5
  9
$SURFTAB1
 70
     6
  9
$SURFTAB2
 70
     6
  9
$SURFTYPE
 70
     6
  9
$SURFU
 70
     6
  9
$SURFV
 70
     6
  9
$UCSBASE
  2

  9
$UCSNAME
  2

  9
$UCSORG
 10
0.0
 20
0.0
 30
0.0
  9
$UCSXDIR
 10
1.0
 20
0.0
 30
0.0
  9
$UCSYDIR
 10
0.0
 20
1.0
 30
0.0
  9
$UCSORTHOREF
  2

  9
$UCSORTHOVIEW
 70
     0
  9
$UCSORGTOP
 10
0.0
 20
0.0
 30
0.0
  9
$UCSORGBOTTOM
 10
0.0
 20
0.0
 30
0.0
  9
$UCSORGLEFT
 10
0.0
 20
0.0
 30
0.0
  9
$UCSORGRIGHT
 10
0.0
 20
0.0
 30
0.0
  9
$UCSORGFRONT
 10
0.0
 20
0.0
 30
0.0
  9
$UCSORGBACK
 10
0.0
 20
0.0
 30
0.0
  9
$PUCSBASE
  2

  9
$PUCSNAME
  2

  9
$PUCSORG
 10
0.0
 20
0.0
 30
0.0
  9
$PUCSXDIR
 10
1.0
 20
0.0
 30
0.0
  9
$PUCSYDIR
 10
0.0
 20
1.0
 30
0.0
  9
$PUCSORTHOREF
  2

  9
$PUCSORTHOVIEW
 70
     0
  9
$PUCSORGTOP
 10
0.0
 20
0.0
 30
0.0
  9
$PUCSORGBOTTOM
 10
0.0
 20
0.0
 30
0.0
  9
$PUCSORGLEFT
 10
0.0
 20
0.0
 30
0.0
  9
$PUCSORGRIGHT
 10
0.0
 20
0.0
 30
0.0
  9
$PUCSORGFRONT
 10
0.0
 20
0.0
 30
0.0
  9
$PUCSORGBACK
 10
0.0
 20
0.0
 30
0.0
  9
$USERI1
 70
     0
  9
$USERI2
 70
     0
  9
$USERI3
 70
     0
  9
$USERI4
 70
     0
  9
$USERI5
 70
     0
  9
$USERR1
 40
0.0
  9
$USERR2
 40
0.0
  9
$USERR3
 40
0.0
  9
$USERR4
 40
0.0
  9
$USERR5
 40
0.0
  9
$WORLDVIEW
 70
     1
  9
$SHADEDGE
 70
     3
  9
$SHADEDIF
 70
    70
  9
$TILEMODE
 70
     1
  9
$MAXACTVP
 70
    64
  9
$PINSBASE
 10
0.0
 20
0.0
 30
0.0
  9
$PLIMCHECK
 70
     0
  9
$PEXTMIN
 10
1.000000000000000E+20
 20
1.000000000000000E+20
 30
1.000000000000000E+20
  9
$PEXTMAX
 10
-1.000000000000000E+20
 20
-1.000000000000000E+20
 30
-1.000000000000000E+20
  9
$PLIMMIN
 10
0.0
 20
0.0
  9
$PLIMMAX
 10
12.0
 20
9.0
  9
$UNITMODE
 70
     0
  9
$VISRETAIN
 70
     1
  9
$PLINEGEN
 70
     0
  9
$PSLTSCALE
 70
     1
  9
$TREEDEPTH
 70
  3020
  9
$CMLSTYLE
  2
Standard
  9
$CMLJUST
 70
     0
  9
$CMLSCALE
 40
1.0
  9
$PROXYGRAPHICS
 70
     1
  9
$MEASUREMENT
 70
     0
  9
$CELWEIGHT
370
    -1
  9
$ENDCAPS
280
     0
  9
$JOINSTYLE
280
     0
  9
$LWDISPLAY
290
     0
  9
$INSUNITS
 70
     4
  9
$HYPERLINKBASE
  1

  9
$STYLESHEET
  1

  9
$XEDIT
290
     1
  9
$CEPSNTYPE
380
     0
  9
$PSTYLEMODE
290
     1
  9
$FINGERPRINTGUID
  2
{48517462-D4A7-4D8D-A1B4-F94B6F6CECEC}
  9
$VERSIONGUID
  2
{FAEB1C32-E019-11D5-929B-00C0DF256EC4}
  9
$EXTNAMES
290
     1
  9
$PSVPSCALE
 40
0.0
  9
$OLESTARTUP
290
     0
  9
$SORTENTS
280
   127
  9
$INDEXCTL
280
     0
  9
$HIDETEXT
280
     1
  9
$XCLIPFRAME
290
     0
  9
$HALOGAP
280
     0
  9
$OBSCOLOR
 70
   257
  9
$OBSLTYPE
280
     0
  9
$INTERSECTIONDISPLAY
280
     0
  9
$INTERSECTIONCOLOR
 70
   257
  9
$DIMASSOC
280
     2
  9
$PROJECTNAME
  1

  0
ENDSEC
  0
SECTION
  2
CLASSES
  0
CLASS
  1
ACDBDICTIONARYWDFLT
  2
AcDbDictionaryWithDefault
  3
ObjectDBX Classes
 90
        0
 91
        4
280
     0
281
     0
  0
CLASS
  1
VISUALSTYLE
  2
AcDbVisualStyle
  3
ObjectDBX Classes
 90
     4095
 91
        4
280
     0
281
     0
  0
ENDSEC
  0
SECTION
  2
TABLES
  0
TABLE
  2
VPORT
  5
8
330
0
100
AcDbSymbolTable
 70
     1
  0
VPORT
  5
29
330
8
100
AcDbSymbolTableRecord
100
AcDbViewportTableRecord
  2
*Active
 70
     0
 10
0.0
 20
0.0
 11
1.0
 21
1.0
 12
0.0
 22
0.0
 13
0.0
 23
0.0
 14
0.5
 24
0.5
 15
0.5
 25
0.5
 16
0.0
 26
0.0
 36
1.0
 17
0.0
 27
0.0
 37
0.0
 40
32.42535673060002
 41
1.0
 42
50.0
 43
0.0
 44
0.0
 50
0.0
 51
0.0
 71
     0
 72
   100
 73
     1
 74
     3
 75
     0
 76
     0
 77
     0
 78
     0
281
     0
 65
     1
110
0.0
120
0.0
130
0.0
111
1.0
121
0.0
131
0.0
112
0.0
122
1.0
132
0.0
 79
     0
146
0.0
  0
ENDTAB
  0
TABLE
  2
LTYPE
  5
5
330
0
100
AcDbSymbolTable
 70
     1
  0
LTYPE
  5
14
330
5
100
AcDbSymbolTableRecord
100
AcDbLinetypeTableRecord
  2
ByBlock
 70
     0
  3

 72
    65
 73
     0
 40
0.0
  0
LTYPE
  5
15
330
5
100
AcDbSymbolTableRecord
100
AcDbLinetypeTableRecord
  2
ByLayer
 70
     0
  3

 72
    65
 73
     0
 40
0.0
  0
LTYPE
  5
16
330
5
100
AcDbSymbolTableRecord
100
AcDbLinetypeTableRecord
  2
Continuous
 70
     0
  3
Solid line
 72
    65
 73
     0
 40
0.0
  0
ENDTAB
  0
TABLE
  2
LAYER
  5
2
330
0
100
AcDbSymbolTable
 70
     2
  0
LAYER
  5
10
330
2
100
AcDbSymbolTableRecord
100
AcDbLayerTableRecord
  2
0
 70
     0
 62
     7
  6
Continuous
370
    -3
390
F
  0
LAYER
  5
3B
330
2
100
AcDbSymbolTableRecord
100
AcDbLayerTableRecord
  2
DEFAULT
 70
     0
 62
     7
  6
Continuous
370
    -3
390
F
  0
ENDTAB
  0
TABLE
  2
STYLE
  5
3
330
0
100
AcDbSymbolTable
 70
     1
  0
STYLE
  5
11
330
3
100
AcDbSymbolTableRecord
100
AcDbTextStyleTableRecord
  2
Standard
 70
     0
 40
0.0
 41
1.0
 50
0.0
 71
     0
 42
0.2
  3
txt
  4

  0
ENDTAB
  0
TABLE
  2
VIEW
  5
6
330
0
100
AcDbSymbolTable
 70
     0
  0
ENDTAB
  0
TABLE
  2
UCS
  5
7
330
0
100
AcDbSymbolTable
 70
     0
  0
ENDTAB
  0
TABLE
  2
APPID
  5
9
330
0
100
AcDbSymbolTable
 70
     1
  0
APPID
  5
12
330
9
100
AcDbSymbolTableRecord
100
AcDbRegAppTableRecord
  2
ACAD
 70
     0
  0
ENDTAB
  0
TABLE
  2
DIMSTYLE
  5
A
330
0
100
AcDbSymbolTable
 70
     1
100
AcDbDimStyleTable
  0
DIMSTYLE
105
27
330
A
100
AcDbSymbolTableRecord
100
AcDbDimStyleTableRecord
  2
Standard
 70
     0
340
11
  0
ENDTAB
  0
TABLE
  2
BLOCK_RECORD
  5
1
330
0
100
AcDbSymbolTable
 70
     1
  0
BLOCK_RECORD
  5
1F
330
1
100
AcDbSymbolTableRecord
100
AcDbBlockTableRecord
  2
*Model_Space
340
22
  0
BLOCK_RECORD
  5
1B
330
1
100
AcDbSymbolTableRecord
100
AcDbBlockTableRecord
  2
*Paper_Space
340
1E
  0
BLOCK_RECORD
  5
23
330
1
100
AcDbSymbolTableRecord
100
AcDbBlockTableRecord
  2
*Paper_Space0
340
26
  0
ENDTAB
  0
ENDSEC
  0
SECTION
  2
BLOCKS
  0
BLOCK
  5
20
330
1F
100
AcDbEntity
  8
0
100
AcDbBlockBegin
  2
*Model_Space
 70
     0
 10
0.0
 20
0.0
 30
0.0
  3
*Model_Space
  1

  0
ENDBLK
  5
21
330
1F
100
AcDbEntity
  8
0
100
AcDbBlockEnd
  0
BLOCK
  5
1C
330
1B
100
AcDbEntity
 67
     1
  8
0
100
AcDbBlockBegin
  2
*Paper_Space
 70
     0
 10
0.0
 20
0.0
 30
0.0
  3
*Paper_Space
  1

  0
ENDBLK
  5
1D
330
1B
100
AcDbEntity
 67
     1
  8
0
100
AcDbBlockEnd
  0
BLOCK
  5
24
330
23
100
AcDbEntity
  8
0
100
AcDbBlockBegin
  2
*Paper_Space0
 70
     0
 10
0.0
 20
0.0
 30
0.0
  3
*Paper_Space0
  1

  0
ENDBLK
  5
25
330
23
100
AcDbEntity
  8
0
100
AcDbBlockEnd
  0
ENDSEC
  0
SECTION
  2
ENTITIES
  0
LINE
  5
3C
330
1F
100
AcDbEntity
  8
DEFAULT
100
AcDbLine
 10
-15.89478271107845
 20
-15.89478271107844
 30
0.0
 11
15.89478271107845
 21
-15.89478271107844
 31
0.0
  0
LINE
  5
3D
330
1F
100
AcDbEntity
  8
DEFAULT
100
AcDbLine
 10
15.89478271107845
 20
-15.89478271107844
 30
0.0
 11
15.89478271107845
 21
15.89478271107844
 31
0.0
  0
LINE
  5
3E
330
1F
100
AcDbEntity
  8
DEFAULT
100
AcDbLine
 10
15.89478271107845
 20
15.89478271107844
 30
0.0
 11
-15.89478271107845
 21
15.89478271107844
 31
0.0
  0
LINE
  5
3F
330
1F
100
AcDbEntity
  8
DEFAULT
100
AcDbLine
 10
-15.89478271107845
 20
15.89478271107844
 30
0.0
 11
-15.89478271107845
 21
-15.89478271107844
 31
0.0
  0
LINE
  5
40
330
1F
100
AcDbEntity
  8
DEFAULT
100
AcDbLine
 10
-15.89478271107845
 20
-15.89478271107844
 30
-1.2
 11
15.89478271107845
 21
-15.89478271107844
 31
-1.2
  0
LINE
  5
41
330
1F
100
AcDbEntity
  8
DEFAULT
100
AcDbLine
 10
15.89478271107845
 20
-15.89478271107844
 30
-1.2
 11
15.89478271107845
 21
15.89478271107844
 31
-1.2
  0
LINE
  5
42
330
1F
100
AcDbEntity
  8
DEFAULT
100
AcDbLine
 10
15.89478271107845
 20
15.89478271107844
 30
-1.2
 11
-15.89478271107845
 21
15.89478271107844
 31
-1.2
  0
LINE
  5
43
330
1F
100
AcDbEntity
  8
DEFAULT
100
AcDbLine
 10
-15.89478271107845
 20
15.89478271107844
 30
-1.2
 11
-15.89478271107845
 21
-15.89478271107844
 31
-1.2
  0
LINE
  5
44
330
1F
100
AcDbEntity
  8
DEFAULT
100
AcDbLine
 10
-15.89478271107845
 20
-15.89478271107844
 30
0.0
 11
-15.89478271107845
 21
-15.89478271107844
 31
-1.2
  0
LINE
  5
45
330
1F
100
AcDbEntity
  8
DEFAULT
100
AcDbLine
 10
15.89478271107845
 20
-15.89478271107844
 30
0.0
 11
15.89478271107845
 21
-15.89478271107844
 31
-1.2
  0
LINE
  5
46
330
1F
100
AcDbEntity
  8
DEFAULT
100
AcDbLine
 10
15.89478271107845
 20
15.89478271107844
 30
0.0
 11
15.89478271107845
 21
15.89478271107844
 31
-1.2
  0
LINE
  5
47
330
1F
100
AcDbEntity
  8
DEFAULT
100
AcDbLine
 10
-15.89478271107845
 20
15.89478271107844
 30
0.0
 11
-15.89478271107845
 21
15.89478271107844
 31
-1.2
  0
SPLINE
  5
48
330
1F
100
AcDbEntity
  8
DEFAULT
100
AcDbSpline
210
0.0
220
0.0
230
1.0
 70
    15
 71
     2
 72
    12
 73
     9
 74
     0
 42
0.0000000001
 43
0.0000000001
 40
-6.94277186221624
 40
-6.94277186221624
 40
-6.94277186221624
 40
-5.207078896662179
 40
-5.207078896662179
 40
-3.47138593110812
 40
-3.47138593110812
 40
-1.73569296555406
 40
-1.73569296555406
 40
0.0
 40
0.0
 40
0.0
 10
-11.92521680765095
 20
-12.96978319234904
 30
0.0
 41
1.0
 10
-11.92521680765095
 20
-14.07478319234904
 30
0.0
 41
0.7071067811865476
 10
-13.03021680765096
 20
-14.07478319234905
 30
0.0
 41
1.0
 10
-14.13521680765095
 20
-14.07478319234904
 30
0.0
 41
0.7071067811865476
 10
-14.13521680765096
 20
-12.96978319234904
 30
0.0
 41
1.0
 10
-14.13521680765095
 20
-11.86478319234904
 30
0.0
 41
0.7071067811865476
 10
-13.03021680765096
 20
-11.86478319234904
 30
0.0
 41
1.0
 10
-11.92521680765095
 20
-11.86478319234904
 30
0.0
 41
0.7071067811865476
 10
-11.92521680765095
 20
-12.96978319234904
 30
0.0
 41
1.0
  0
SPLINE
  5
49
330
1F
100
AcDbEntity
  8
DEFAULT
100
AcDbSpline
210
0.0
220
0.0
230
1.0
 70
    15
 71
     2
 72
    12
 73
     9
 74
     0
 42
0.0000000001
 43
0.0000000001
 40
0.0
 40
0.0
 40
0.0
 40
1.73569296555406
 40
1.73569296555406
 40
3.471385931108119
 40
3.471385931108119
 40
5.207078896662178
 40
5.207078896662178
 40
6.942771862216238
 40
6.942771862216238
 40
6.942771862216238
 10
-11.92521680765095
 20
-12.96978319234904
 30
-1.2
 41
1.0
 10
-11.92521680765095
 20
-11.86478319234904
 30
-1.2
 41
0.7071067811865476
 10
-13.03021680765096
 20
-11.86478319234904
 30
-1.2
 41
1.0
 10
-14.13521680765095
 20
-11.86478319234904
 30
-1.2
 41
0.7071067811865476
 10
-14.13521680765096
 20
-12.96978319234904
 30
-1.2
 41
1.0
 10
-14.13521680765095
 20
-14.07478319234904
 30
-1.2
 41
0.7071067811865476
 10
-13.03021680765096
 20
-14.07478319234905
 30
-1.2
 41
1.0
 10
-11.92521680765095
 20
-14.07478319234904
 30
-1.2
 41
0.7071067811865476
 10
-11.92521680765095
 20
-12.96978319234904
 30
-1.2
 41
1.0
  0
LINE
  5
4A
330
1F
100
AcDbEntity
  8
DEFAULT
100
AcDbLine
 10
-11.92521680765095
 20
-12.96978319234904
 30
0.0
 11
-11.92521680765095
 21
-12.96978319234904
 31
-1.2
  0
SPLINE
  5
4B
330
1F
100
AcDbEntity
  8
DEFAULT
100
AcDbSpline
210
0.0
220
0.0
230
1.0
 70
    15
 71
     2
 72
    12
 73
     9
 74
     0
 42
0.0000000001
 43
0.0000000001
 40
-5.591851350082772
 40
-5.591851350082772
 40
-5.591851350082772
 40
-4.193888512562078
 40
-4.193888512562078
 40
-2.795925675041386
 40
-2.795925675041386
 40
-1.397962837520693
 40
-1.397962837520693
 40
0.0
 40
0.0
 40
0.0
 10
-12.89021656701555
 20
0.0302175295571523
 30
0.0
 41
1.0
 10
-12.89021656701555
 20
-0.8597824704428493
 30
0.0
 41
0.7071067811865476
 10
-13.78021656701555
 20
-0.8597824704428483
 30
0.0
 41
1.0
 10
-14.67021656701555
 20
-0.8597824704428493
 30
0.0
 41
0.7071067811865476
 10
-14.67021656701555
 20
0.0302175295571523
 30
0.0
 41
1.0
 10
-14.67021656701555
 20
0.9202175295571501
 30
0.0
 41
0.7071067811865476
 10
-13.78021656701555
 20
0.9202175295571493
 30
0.0
 41
1.0
 10
-12.89021656701555
 20
0.9202175295571501
 30
0.0
 41
0.7071067811865476
 10
-12.89021656701555
 20
0.0302175295571523
 30
0.0
 41
1.0
  0
SPLINE
  5
4C
330
1F
100
AcDbEntity
  8
DEFAULT
100
AcDbSpline
210
0.0
220
0.0
230
1.0
 70
    15
 71
     2
 72
    12
 73
     9
 74
     0
 42
0.0000000001
 43
0.0000000001
 40
0.0
 40
0.0
 40
0.0
 40
1.397962837520694
 40
1.397962837520694
 40
2.795925675041387
 40
2.795925675041387
 40
4.193888512562081
 40
4.193888512562081
 40
5.591851350082774
 40
5.591851350082774
 40
5.591851350082774
 10
-12.89021656701555
 20
0.0302175295571523
 30
-1.199999999999999
 41
1.0
 10
-12.89021656701555
 20
0.9202175295571501
 30
-1.2
 41
0.7071067811865476
 10
-13.78021656701555
 20
0.9202175295571493
 30
-1.2
 41
1.0
 10
-14.67021656701555
 20
0.9202175295571501
 30
-1.2
 41
0.7071067811865476
 10
-14.67021656701555
 20
0.0302175295571523
 30
-1.2
 41
1.0
 10
-14.67021656701555
 20
-0.8597824704428493
 30
-1.2
 41
0.7071067811865476
 10
-13.78021656701555
 20
-0.8597824704428483
 30
-1.2
 41
1.0
 10
-12.89021656701555
 20
-0.8597824704428493
 30
-1.2
 41
0.7071067811865476
 10
-12.89021656701555
 20
0.0302175295571523
 30
-1.199999999999999
 41
1.0
  0
LINE
  5
4D
330
1F
100
AcDbEntity
  8
DEFAULT
100
AcDbLine
 10
-12.89021656701555
 20
0.0302175295571523
 30
0.0
 11
-12.89021656701555
 21
0.0302175295571523
 31
-1.199999999999999
  0
SPLINE
  5
4E
330
1F
100
AcDbEntity
  8
DEFAULT
100
AcDbSpline
210
0.0
220
0.0
230
1.0
 70
    15
 71
     2
 72
    12
 73
     9
 74
     0
 42
0.0000000001
 43
0.0000000001
 40
0.0
 40
0.0
 40
0.0
 40
0.7067672799429258
 40
0.7067672799429258
 40
1.413534559885852
 40
1.413534559885852
 40
2.120301839828777
 40
2.120301839828777
 40
2.827069119771703
 40
2.827069119771703
 40
2.827069119771703
 10
-9.58021728892156
 20
-1.219782711078441
 30
0.0
 41
1.0
 10
-9.58021728892156
 20
-1.669782711078442
 30
0.0
 41
0.7071067811865476
 10
-10.03021728892156
 20
-1.66978271107844
 30
0.0
 41
1.0
 10
-10.48021728892156
 20
-1.669782711078442
 30
0.0
 41
0.7071067811865476
 10
-10.48021728892156
 20
-1.219782711078441
 30
0.0
 41
1.0
 10
-10.48021728892156
 20
-0.7697827110784435
 30
0.0
 41
0.7071067811865476
 10
-10.03021728892156
 20
-0.7697827110784417
 30
0.0
 41
1.0
 10
-9.58021728892156
 20
-0.7697827110784435
 30
0.0
 41
0.7071067811865476
 10
-9.58021728892156
 20
-1.219782711078441
 30
0.0
 41
1.0
  0
SPLINE
  5
4F
330
1F
100
AcDbEntity
  8
DEFAULT
100
AcDbSpline
210
0.0
220
0.0
230
1.0
 70
    15
 71
     2
 72
    12
 73
     9
 74
     0
 42
0.0000000001
 43
0.0000000001
 40
-2.827069119771706
 40
-2.827069119771706
 40
-2.827069119771706
 40
-2.12030183982878
 40
-2.12030183982878
 40
-1.413534559885853
 40
-1.413534559885853
 40
-0.7067672799429265
 40
-0.7067672799429265
 40
0.0
 40
0.0
 40
0.0
 10
-9.58021728892156
 20
-1.219782711078441
 30
-1.2
 41
1.0
 10
-9.58021728892156
 20
-0.7697827110784435
 30
-1.2
 41
0.7071067811865476
 10
-10.03021728892156
 20
-0.7697827110784417
 30
-1.2
 41
1.0
 10
-10.48021728892156
 20
-0.7697827110784435
 30
-1.2
 41
0.7071067811865476
 10
-10.48021728892156
 20
-1.219782711078441
 30
-1.2
 41
1.0
 10
-10.48021728892156
 20
-1.669782711078442
 30
-1.2
 41
0.7071067811865476
 10
-10.03021728892156
 20
-1.66978271107844
 30
-1.2
 41
1.0
 10
-9.58021728892156
 20
-1.669782711078442
 30
-1.2
 41
0.7071067811865476
 10
-9.58021728892156
 20
-1.219782711078441
 30
-1.2
 41
1.0
  0
LINE
  5
50
330
1F
100
AcDbEntity
  8
DEFAULT
100
AcDbLine
 10
-9.58021728892156
 20
-1.219782711078441
 30
-1.2
 11
-9.58021728892156
 21
-1.219782711078441
 31
0.0
  0
SPLINE
  5
51
330
1F
100
AcDbEntity
  8
DEFAULT
100
AcDbSpline
210
0.0
220
0.0
230
1.0
 70
    15
 71
     2
 72
    12
 73
     9
 74
     0
 42
0.0000000001
 43
0.0000000001
 40
0.0
 40
0.0
 40
0.0
 40
0.706767279942922
 40
0.706767279942922
 40
1.413534559885844
 40
1.413534559885844
 40
2.120301839828766
 40
2.120301839828766
 40
2.827069119771688
 40
2.827069119771688
 40
2.827069119771688
 10
-11.08021728892156
 20
6.280217288921556
 30
0.0
 41
1.0
 10
-11.08021728892156
 20
5.830217288921558
 30
0.0
 41
0.7071067811865476
 10
-11.53021728892156
 20
5.83021728892156
 30
0.0
 41
1.0
 10
-11.98021728892155
 20
5.830217288921558
 30
0.0
 41
0.7071067811865476
 10
-11.98021728892156
 20
6.280217288921556
 30
0.0
 41
1.0
 10
-11.98021728892155
 20
6.730217288921557
 30
0.0
 41
0.7071067811865476
 10
-11.53021728892156
 20
6.730217288921558
 30
0.0
 41
1.0
 10
-11.08021728892156
 20
6.730217288921557
 30
0.0
 41
0.7071067811865476
 10
-11.08021728892156
 20
6.280217288921556
 30
0.0
 41
1.0
  0
SPLINE
  5
52
330
1F
100
AcDbEntity
  8
DEFAULT
100
AcDbSpline
210
0.0
220
0.0
230
1.0
 70
    15
 71
     2
 72
    12
 73
     9
 74
     0
 42
0.0000000001
 43
0.0000000001
 40
-2.827069119771696
 40
-2.827069119771696
 40
-2.827069119771696
 40
-2.120301839828772
 40
-2.120301839828772
 40
-1.413534559885848
 40
-1.413534559885848
 40
-0.706767279942924
 40
-0.706767279942924
 40
0.0
 40
0.0
 40
0.0
 10
-11.08021728892156
 20
6.280217288921556
 30
-1.2
 41
1.0
 10
-11.08021728892156
 20
6.730217288921557
 30
-1.2
 41
0.7071067811865476
 10
-11.53021728892156
 20
6.730217288921558
 30
-1.2
 41
1.0
 10
-11.98021728892155
 20
6.730217288921557
 30
-1.2
 41
0.7071067811865476
 10
-11.98021728892156
 20
6.280217288921556
 30
-1.2
 41
1.0
 10
-11.98021728892155
 20
5.830217288921558
 30
-1.2
 41
0.7071067811865476
 10
-11.53021728892156
 20
5.83021728892156
 30
-1.2
 41
1.0
 10
-11.08021728892156
 20
5.830217288921558
 30
-1.2
 41
0.7071067811865476
 10
-11.08021728892156
 20
6.280217288921556
 30
-1.2
 41
1.0
  0
LINE
  5
53
330
1F
100
AcDbEntity
  8
DEFAULT
100
AcDbLine
 10
-11.08021728892156
 20
6.280217288921556
 30
-1.2
 11
-11.08021728892156
 21
6.280217288921556
 31
0.0
  0
SPLINE
  5
54
330
1F
100
AcDbEntity
  8
DEFAULT
100
AcDbSpline
210
0.0
220
0.0
230
1.0
 70
    15
 71
     2
 72
    12
 73
     9
 74
     0
 42
0.0000000001
 43
0.0000000001
 40
-6.942771862216238
 40
-6.942771862216238
 40
-6.942771862216238
 40
-5.207078896662178
 40
-5.207078896662178
 40
-3.471385931108119
 40
-3.471385931108119
 40
-1.73569296555406
 40
-1.73569296555406
 40
0.0
 40
0.0
 40
0.0
 10
-11.92521680765095
 20
13.03021777019216
 30
0.0
 41
1.0
 10
-11.92521680765095
 20
11.92521777019217
 30
0.0
 41
0.7071067811865476
 10
-13.03021680765096
 20
11.92521777019216
 30
0.0
 41
1.0
 10
-14.13521680765095
 20
11.92521777019217
 30
0.0
 41
0.7071067811865476
 10
-14.13521680765096
 20
13.03021777019216
 30
0.0
 41
1.0
 10
-14.13521680765095
 20
14.13521777019216
 30
0.0
 41
0.7071067811865476
 10
-13.03021680765096
 20
14.13521777019216
 30
0.0
 41
1.0
 10
-11.92521680765095
 20
14.13521777019216
 30
0.0
 41
0.7071067811865476
 10
-11.92521680765095
 20
13.03021777019216
 30
0.0
 41
1.0
  0
SPLINE
  5
55
330
1F
100
AcDbEntity
  8
DEFAULT
100
AcDbSpline
210
0.0
220
0.0
230
1.0
 70
    15
 71
     2
 72
    12
 73
     9
 74
     0
 42
0.0000000001
 43
0.0000000001
 40
0.0
 40
0.0
 40
0.0
 40
1.735692965554058
 40
1.735692965554058
 40
3.471385931108117
 40
3.471385931108117
 40
5.207078896662175
 40
5.207078896662175
 40
6.942771862216234
 40
6.942771862216234
 40
6.942771862216234
 10
-11.92521680765095
 20
13.03021777019216
 30
-1.2
 41
1.0
 10
-11.92521680765095
 20
14.13521777019216
 30
-1.2
 41
0.7071067811865476
 10
-13.03021680765096
 20
14.13521777019216
 30
-1.2
 41
1.0
 10
-14.13521680765095
 20
14.13521777019216
 30
-1.2
 41
0.7071067811865476
 10
-14.13521680765096
 20
13.03021777019216
 30
-1.2
 41
1.0
 10
-14.13521680765095
 20
11.92521777019217
 30
-1.2
 41
0.7071067811865476
 10
-13.03021680765096
 20
11.92521777019216
 30
-1.2
 41
1.0
 10
-11.92521680765095
 20
11.92521777019217
 30
-1.2
 41
0.7071067811865476
 10
-11.92521680765095
 20
13.03021777019216
 30
-1.2
 41
1.0
  0
LINE
  5
56
330
1F
100
AcDbEntity
  8
DEFAULT
100
AcDbLine
 10
-11.92521680765095
 20
13.03021777019216
 30
0.0
 11
-11.92521680765095
 21
13.03021777019216
 31
-1.2
  0
SPLINE
  5
57
330
1F
100
AcDbEntity
  8
DEFAULT
100
AcDbSpline
210
0.0
220
0.0
230
1.0
 70
    15
 71
     2
 72
    12
 73
     9
 74
     0
 42
0.0000000001
 43
0.0000000001
 40
0.0
 40
0.0
 40
0.0
 40
0.7067672799429257
 40
0.7067672799429257
 40
1.413534559885851
 40
1.413534559885851
 40
2.120301839828777
 40
2.120301839828777
 40
2.827069119771703
 40
2.827069119771703
 40
2.827069119771703
 10
-9.58021728892156
 20
-7.469782711078441
 30
0.0
 41
1.0
 10
-9.58021728892156
 20
-7.919782711078441
 30
0.0
 41
0.7071067811865476
 10
-10.03021728892156
 20
-7.91978271107844
 30
0.0
 41
1.0
 10
-10.48021728892156
 20
-7.919782711078441
 30
0.0
 41
0.7071067811865476
 10
-10.48021728892156
 20
-7.469782711078441
 30
0.0
 41
1.0
 10
-10.48021728892156
 20
-7.019782711078443
 30
0.0
 41
0.7071067811865476
 10
-10.03021728892156
 20
-7.019782711078442
 30
0.0
 41
1.0
 10
-9.58021728892156
 20
-7.019782711078443
 30
0.0
 41
0.7071067811865476
 10
-9.58021728892156
 20
-7.469782711078441
 30
0.0
 41
1.0
  0
SPLINE
  5
58
330
1F
100
AcDbEntity
  8
DEFAULT
100
AcDbSpline
210
0.0
220
0.0
230
1.0
 70
    15
 71
     2
 72
    12
 73
     9
 74
     0
 42
0.0000000001
 43
0.0000000001
 40
-2.827069119771705
 40
-2.827069119771705
 40
-2.827069119771705
 40
-2.120301839828779
 40
-2.120301839828779
 40
-1.413534559885852
 40
-1.413534559885852
 40
-0.7067672799429262
 40
-0.7067672799429262
 40
0.0
 40
0.0
 40
0.0
 10
-9.58021728892156
 20
-7.469782711078441
 30
-1.2
 41
1.0
 10
-9.58021728892156
 20
-7.019782711078443
 30
-1.2
 41
0.7071067811865476
 10
-10.03021728892156
 20
-7.019782711078442
 30
-1.2
 41
1.0
 10
-10.48021728892156
 20
-7.019782711078443
 30
-1.2
 41
0.7071067811865476
 10
-10.48021728892156
 20
-7.469782711078441
 30
-1.2
 41
1.0
 10
-10.48021728892156
 20
-7.919782711078441
 30
-1.2
 41
0.7071067811865476
 10
-10.03021728892156
 20
-7.91978271107844
 30
-1.2
 41
1.0
 10
-9.58021728892156
 20
-7.919782711078441
 30
-1.2
 41
0.7071067811865476
 10
-9.58021728892156
 20
-7.469782711078441
 30
-1.2
 41
1.0
  0
LINE
  5
59
330
1F
100
AcDbEntity
  8
DEFAULT
100
AcDbLine
 10
-9.58021728892156
 20
-7.469782711078441
 30
-1.2
 11
-9.58021728892156
 21
-7.469782711078441
 31
0.0
  0
SPLINE
  5
5A
330
1F
100
AcDbEntity
  8
DEFAULT
100
AcDbSpline
210
0.0
220
0.0
230
1.0
 70
    15
 71
     2
 72
    12
 73
     9
 74
     0
 42
0.0000000001
 43
0.0000000001
 40
0.0
 40
0.0
 40
0.0
 40
0.7067672799429247
 40
0.7067672799429247
 40
1.413534559885849
 40
1.413534559885849
 40
2.120301839828774
 40
2.120301839828774
 40
2.827069119771699
 40
2.827069119771699
 40
2.827069119771699
 10
-9.58021728892156
 20
-9.969782711078441
 30
0.0
 41
1.0
 10
-9.58021728892156
 20
-10.41978271107844
 30
0.0
 41
0.7071067811865476
 10
-10.03021728892156
 20
-10.41978271107844
 30
0.0
 41
1.0
 10
-10.48021728892156
 20
-10.41978271107844
 30
0.0
 41
0.7071067811865476
 10
-10.48021728892156
 20
-9.969782711078441
 30
0.0
 41
1.0
 10
-10.48021728892156
 20
-9.51978271107844
 30
0.0
 41
0.7071067811865476
 10
-10.03021728892156
 20
-9.519782711078442
 30
0.0
 41
1.0
 10
-9.58021728892156
 20
-9.51978271107844
 30
0.0
 41
0.7071067811865476
 10
-9.58021728892156
 20
-9.969782711078441
 30
0.0
 41
1.0
  0
SPLINE
  5
5B
330
1F
100
AcDbEntity
  8
DEFAULT
100
AcDbSpline
210
0.0
220
0.0
230
1.0
 70
    15
 71
     2
 72
    12
 73
     9
 74
     0
 42
0.0000000001
 43
0.0000000001
 40
-2.827069119771703
 40
-2.827069119771703
 40
-2.827069119771703
 40
-2.120301839828778
 40
-2.120301839828778
 40
-1.413534559885852
 40
-1.413534559885852
 40
-0.7067672799429259
 40
-0.7067672799429259
 40
0.0
 40
0.0
 40
0.0
 10
-9.58021728892156
 20
-9.969782711078441
 30
-1.2
 41
1.0
 10
-9.58021728892156
 20
-9.51978271107844
 30
-1.2
 41
0.7071067811865476
 10
-10.03021728892156
 20
-9.519782711078442
 30
-1.2
 41
1.0
 10
-10.48021728892156
 20
-9.51978271107844
 30
-1.2
 41
0.7071067811865476
 10
-10.48021728892156
 20
-9.969782711078441
 30
-1.2
 41
1.0
 10
-10.48021728892156
 20
-10.41978271107844
 30
-1.2
 41
0.7071067811865476
 10
-10.03021728892156
 20
-10.41978271107844
 30
-1.2
 41
1.0
 10
-9.58021728892156
 20
-10.41978271107844
 30
-1.2
 41
0.7071067811865476
 10
-9.58021728892156
 20
-9.969782711078441
 30
-1.2
 41
1.0
  0
LINE
  5
5C
330
1F
100
AcDbEntity
  8
DEFAULT
100
AcDbLine
 10
-9.58021728892156
 20
-9.969782711078441
 30
-1.2
 11
-9.58021728892156
 21
-9.969782711078441
 31
0.0
  0
SPLINE
  5
5D
330
1F
100
AcDbEntity
  8
DEFAULT
100
AcDbSpline
210
0.0
220
0.0
230
1.0
 70
    15
 71
     2
 72
    12
 73
     9
 74
     0
 42
0.0000000001
 43
0.0000000001
 40
0.0
 40
0.0
 40
0.0
 40
0.706767279942925
 40
0.706767279942925
 40
1.41353455988585
 40
1.41353455988585
 40
2.120301839828775
 40
2.120301839828775
 40
2.8270691197717
 40
2.8270691197717
 40
2.8270691197717
 10
-6.58021728892156
 20
-11.46978271107844
 30
0.0
 41
1.0
 10
-6.580217288921555
 20
-11.91978271107844
 30
0.0
 41
0.7071067811865476
 10
-7.030217288921559
 20
-11.91978271107844
 30
0.0
 41
1.0
 10
-7.480217288921558
 20
-11.91978271107844
 30
0.0
 41
0.7071067811865476
 10
-7.480217288921558
 20
-11.46978271107844
 30
0.0
 41
1.0
 10
-7.480217288921558
 20
-11.01978271107844
 30
0.0
 41
0.7071067811865476
 10
-7.030217288921559
 20
-11.01978271107844
 30
0.0
 41
1.0
 10
-6.580217288921555
 20
-11.01978271107844
 30
0.0
 41
0.7071067811865476
 10
-6.58021728892156
 20
-11.46978271107844
 30
0.0
 41
1.0
  0
SPLINE
  5
5E
330
1F
100
AcDbEntity
  8
DEFAULT
100
AcDbSpline
210
0.0
220
0.0
230
1.0
 70
    15
 71
     2
 72
    12
 73
     9
 74
     0
 42
0.0000000001
 43
0.0000000001
 40
-2.827069119771696
 40
-2.827069119771696
 40
-2.827069119771696
 40
-2.120301839828772
 40
-2.120301839828772
 40
-1.413534559885848
 40
-1.413534559885848
 40
-0.7067672799429241
 40
-0.7067672799429241
 40
0.0
 40
0.0
 40
0.0
 10
-6.58021728892156
 20
-11.46978271107844
 30
-1.2
 41
1.0
 10
-6.580217288921555
 20
-11.01978271107844
 30
-1.2
 41
0.7071067811865476
 10
-7.030217288921559
 20
-11.01978271107844
 30
-1.2
 41
1.0
 10
-7.480217288921558
 20
-11.01978271107844
 30
-1.2
 41
0.7071067811865476
 10
-7.480217288921558
 20
-11.46978271107844
 30
-1.2
 41
1.0
 10
-7.480217288921558
 20
-11.91978271107844
 30
-1.2
 41
0.7071067811865476
 10
-7.030217288921559
 20
-11.91978271107844
 30
-1.2
 41
1.0
 10
-6.580217288921555
 20
-11.91978271107844
 30
-1.2
 41
0.7071067811865476
 10
-6.58021728892156
 20
-11.46978271107844
 30
-1.2
 41
1.0
  0
LINE
  5
5F
330
1F
100
AcDbEntity
  8
DEFAULT
100
AcDbLine
 10
-6.58021728892156
 20
-11.46978271107844
 30
-1.2
 11
-6.58021728892156
 21
-11.46978271107844
 31
0.0
  0
SPLINE
  5
60
330
1F
100
AcDbEntity
  8
DEFAULT
100
AcDbSpline
210
0.0
220
0.0
230
1.0
 70
    15
 71
     2
 72
    12
 73
     9
 74
     0
 42
0.0000000001
 43
0.0000000001
 40
0.0
 40
0.0
 40
0.0
 40
0.7067672799429252
 40
0.7067672799429252
 40
1.41353455988585
 40
1.41353455988585
 40
2.120301839828776
 40
2.120301839828776
 40
2.827069119771701
 40
2.827069119771701
 40
2.827069119771701
 10
-3.580217288921556
 20
-1.469782711078441
 30
0.0
 41
1.0
 10
-3.580217288921557
 20
-1.919782711078438
 30
0.0
 41
0.7071067811865476
 10
-4.030217288921559
 20
-1.91978271107844
 30
0.0
 41
1.0
 10
-4.480217288921555
 20
-1.919782711078438
 30
0.0
 41
0.7071067811865476
 10
-4.480217288921558
 20
-1.469782711078441
 30
0.0
 41
1.0
 10
-4.480217288921555
 20
-1.019782711078441
 30
0.0
 41
0.7071067811865476
 10
-4.030217288921559
 20
-1.019782711078442
 30
0.0
 41
1.0
 10
-3.580217288921557
 20
-1.019782711078441
 30
0.0
 41
0.7071067811865476
 10
-3.580217288921556
 20
-1.469782711078441
 30
0.0
 41
1.0
  0
SPLINE
  5
61
330
1F
100
AcDbEntity
  8
DEFAULT
100
AcDbSpline
210
0.0
220
0.0
230
1.0
 70
    15
 71
     2
 72
    12
 73
     9
 74
     0
 42
0.0000000001
 43
0.0000000001
 40
-2.827069119771707
 40
-2.827069119771707
 40
-2.827069119771707
 40
-2.12030183982878
 40
-2.12030183982878
 40
-1.413534559885853
 40
-1.413534559885853
 40
-0.7067672799429267
 40
-0.7067672799429267
 40
0.0
 40
0.0
 40
0.0
 10
-3.580217288921556
 20
-1.469782711078441
 30
-1.2
 41
1.0
 10
-3.580217288921557
 20
-1.019782711078441
 30
-1.2
 41
0.7071067811865476
 10
-4.030217288921559
 20
-1.019782711078442
 30
-1.2
 41
1.0
 10
-4.480217288921555
 20
-1.019782711078441
 30
-1.2
 41
0.7071067811865476
 10
-4.480217288921558
 20
-1.469782711078441
 30
-1.2
 41
1.0
 10
-4.480217288921555
 20
-1.919782711078438
 30
-1.2
 41
0.7071067811865476
 10
-4.030217288921559
 20
-1.91978271107844
 30
-1.2
 41
1.0
 10
-3.580217288921557
 20
-1.919782711078438
 30
-1.2
 41
0.7071067811865476
 10
-3.580217288921556
 20
-1.469782711078441
 30
-1.2
 41
1.0
  0
LINE
  5
62
330
1F
100
AcDbEntity
  8
DEFAULT
100
AcDbLine
 10
-3.580217288921556
 20
-1.469782711078441
 30
-1.2
 11
-3.580217288921556
 21
-1.469782711078441
 31
0.0
  0
SPLINE
  5
63
330
1F
100
AcDbEntity
  8
DEFAULT
100
AcDbSpline
210
0.0
220
0.0
230
1.0
 70
    15
 71
     2
 72
    12
 73
     9
 74
     0
 42
0.0000000001
 43
0.0000000001
 40
0.0
 40
0.0
 40
0.0
 40
0.7067672799429227
 40
0.7067672799429227
 40
1.413534559885845
 40
1.413534559885845
 40
2.120301839828768
 40
2.120301839828768
 40
2.827069119771691
 40
2.827069119771691
 40
2.827069119771691
 10
-0.0802172889215633
 20
-7.969782711078441
 30
0.0
 41
1.0
 10
-0.0802172889215592
 20
-8.41978271107844
 30
0.0
 41
0.7071067811865476
 10
-0.5302172889215591
 20
-8.41978271107844
 30
0.0
 41
1.0
 10
-0.9802172889215572
 20
-8.41978271107844
 30
0.0
 41
0.7071067811865476
 10
-0.9802172889215548
 20
-7.969782711078441
 30
0.0
 41
1.0
 10
-0.9802172889215572
 20
-7.519782711078442
 30
0.0
 41
0.7071067811865476
 10
-0.5302172889215591
 20
-7.519782711078442
 30
0.0
 41
1.0
 10
-0.0802172889215592
 20
-7.519782711078442
 30
0.0
 41
0.7071067811865476
 10
-0.0802172889215633
 20
-7.969782711078441
 30
0.0
 41
1.0
  0
SPLINE
  5
64
330
1F
100
AcDbEntity
  8
DEFAULT
100
AcDbSpline
210
0.0
220
0.0
230
1.0
 70
    15
 71
     2
 72
    12
 73
     9
 74
     0
 42
0.0000000001
 43
0.0000000001
 40
-2.8270691197717
 40
-2.8270691197717
 40
-2.8270691197717
 40
-2.120301839828775
 40
-2.120301839828775
 40
-1.41353455988585
 40
-1.41353455988585
 40
-0.7067672799429249
 40
-0.7067672799429249
 40
0.0
 40
0.0
 40
0.0
 10
-0.0802172889215633
 20
-7.969782711078441
 30
-1.2
 41
1.0
 10
-0.0802172889215592
 20
-7.519782711078442
 30
-1.2
 41
0.7071067811865476
 10
-0.5302172889215591
 20
-7.519782711078442
 30
-1.2
 41
1.0
 10
-0.9802172889215572
 20
-7.519782711078442
 30
-1.2
 41
0.7071067811865476
 10
-0.9802172889215548
 20
-7.969782711078441
 30
-1.2
 41
1.0
 10
-0.9802172889215572
 20
-8.41978271107844
 30
-1.2
 41
0.7071067811865476
 10
-0.5302172889215591
 20
-8.41978271107844
 30
-1.2
 41
1.0
 10
-0.0802172889215592
 20
-8.41978271107844
 30
-1.2
 41
0.7071067811865476
 10
-0.0802172889215633
 20
-7.969782711078441
 30
-1.2
 41
1.0
  0
LINE
  5
65
330
1F
100
AcDbEntity
  8
DEFAULT
100
AcDbLine
 10
-0.0802172889215633
 20
-7.969782711078441
 30
-1.2
 11
-0.0802172889215633
 21
-7.969782711078441
 31
0.0
  0
SPLINE
  5
66
330
1F
100
AcDbEntity
  8
DEFAULT
100
AcDbSpline
210
0.0
220
0.0
230
1.0
 70
    15
 71
     2
 72
    12
 73
     9
 74
     0
 42
0.0000000001
 43
0.0000000001
 40
0.0
 40
0.0
 40
0.0
 40
0.7067672799429239
 40
0.7067672799429239
 40
1.413534559885848
 40
1.413534559885848
 40
2.120301839828772
 40
2.120301839828772
 40
2.827069119771696
 40
2.827069119771696
 40
2.827069119771696
 10
0.4197836736187348
 20
-9.969787523784323
 30
0.0
 41
1.0
 10
0.4197836736187378
 20
-10.41978752378432
 30
0.0
 41
0.7071067811865476
 10
-0.0302163263812609
 20
-10.41978752378432
 30
0.0
 41
1.0
 10
-0.4802163263812601
 20
-10.41978752378432
 30
0.0
 41
0.7071067811865476
 10
-0.4802163263812567
 20
-9.969787523784323
 30
0.0
 41
1.0
 10
-0.4802163263812601
 20
-9.519787523784323
 30
0.0
 41
0.7071067811865476
 10
-0.0302163263812609
 20
-9.519787523784323
 30
0.0
 41
1.0
 10
0.4197836736187378
 20
-9.519787523784323
 30
0.0
 41
0.7071067811865476
 10
0.4197836736187348
 20
-9.969787523784323
 30
0.0
 41
1.0
  0
SPLINE
  5
67
330
1F
100
AcDbEntity
  8
DEFAULT
100
AcDbSpline
210
0.0
220
0.0
230
1.0
 70
    15
 71
     2
 72
    12
 73
     9
 74
     0
 42
0.0000000001
 43
0.0000000001
 40
-2.827069119771707
 40
-2.827069119771707
 40
-2.827069119771707
 40
-2.120301839828781
 40
-2.120301839828781
 40
-1.413534559885854
 40
-1.413534559885854
 40
-0.7067672799429269
 40
-0.7067672799429269
 40
0.0
 40
0.0
 40
0.0
 10
0.4197836736187348
 20
-9.969787523784323
 30
-1.2
 41
1.0
 10
0.4197836736187378
 20
-9.519787523784323
 30
-1.2
 41
0.7071067811865476
 10
-0.0302163263812609
 20
-9.519787523784323
 30
-1.2
 41
1.0
 10
-0.4802163263812601
 20
-9.519787523784323
 30
-1.2
 41
0.7071067811865476
 10
-0.4802163263812567
 20
-9.969787523784323
 30
-1.2
 41
1.0
 10
-0.4802163263812601
 20
-10.41978752378432
 30
-1.2
 41
0.7071067811865476
 10
-0.0302163263812609
 20
-10.41978752378432
 30
-1.2
 41
1.0
 10
0.4197836736187378
 20
-10.41978752378432
 30
-1.2
 41
0.7071067811865476
 10
0.4197836736187348
 20
-9.969787523784323
 30
-1.2
 41
1.0
  0
LINE
  5
68
330
1F
100
AcDbEntity
  8
DEFAULT
100
AcDbLine
 10
0.4197836736187348
 20
-9.969787523784323
 30
-1.2
 11
0.4197836736187348
 21
-9.969787523784323
 31
0.0
  0
SPLINE
  5
69
330
1F
100
AcDbEntity
  8
DEFAULT
100
AcDbSpline
210
0.0
220
0.0
230
1.0
 70
    15
 71
     2
 72
    12
 73
     9
 74
     0
 42
0.0000000001
 43
0.0000000001
 40
-6.942771862216251
 40
-6.942771862216251
 40
-6.942771862216251
 40
-5.207078896662187
 40
-5.207078896662187
 40
-3.471385931108125
 40
-3.471385931108125
 40
-1.735692965554063
 40
-1.735692965554063
 40
0.0
 40
0.0
 40
0.0
 10
14.07478222980783
 20
-12.96978319234904
 30
0.0
 41
1.0
 10
14.07478222980784
 20
-14.07478319234904
 30
0.0
 41
0.7071067811865476
 10
12.96978222980783
 20
-14.07478319234905
 30
0.0
 41
1.0
 10
11.86478222980784
 20
-14.07478319234904
 30
0.0
 41
0.7071067811865476
 10
11.86478222980784
 20
-12.96978319234904
 30
0.0
 41
1.0
 10
11.86478222980784
 20
-11.86478319234904
 30
0.0
 41
0.7071067811865476
 10
12.96978222980783
 20
-11.86478319234904
 30
0.0
 41
1.0
 10
14.07478222980784
 20
-11.86478319234904
 30
0.0
 41
0.7071067811865476
 10
14.07478222980783
 20
-12.96978319234904
 30
0.0
 41
1.0
  0
SPLINE
  5
6A
330
1F
100
AcDbEntity
  8
DEFAULT
100
AcDbSpline
210
0.0
220
0.0
230
1.0
 70
    15
 71
     2
 72
    12
 73
     9
 74
     0
 42
0.0000000001
 43
0.0000000001
 40
0.0
 40
0.0
 40
0.0
 40
1.735692965554061
 40
1.735692965554061
 40
3.471385931108121
 40
3.471385931108121
 40
5.207078896662182
 40
5.207078896662182
 40
6.942771862216243
 40
6.942771862216243
 40
6.942771862216243
 10
14.07478222980783
 20
-12.96978319234904
 30
-1.2
 41
1.0
 10
14.07478222980784
 20
-11.86478319234904
 30
-1.2
 41
0.7071067811865476
 10
12.96978222980783
 20
-11.86478319234904
 30
-1.2
 41
1.0
 10
11.86478222980784
 20
-11.86478319234904
 30
-1.2
 41
0.7071067811865476
 10
11.86478222980784
 20
-12.96978319234904
 30
-1.2
 41
1.0
 10
11.86478222980784
 20
-14.07478319234904
 30
-1.2
 41
0.7071067811865476
 10
12.96978222980783
 20
-14.07478319234905
 30
-1.2
 41
1.0
 10
14.07478222980784
 20
-14.07478319234904
 30
-1.2
 41
0.7071067811865476
 10
14.07478222980783
 20
-12.96978319234904
 30
-1.2
 41
1.0
  0
LINE
  5
6B
330
1F
100
AcDbEntity
  8
DEFAULT
100
AcDbLine
 10
14.07478222980783
 20
-12.96978319234904
 30
0.0
 11
14.07478222980783
 21
-12.96978319234904
 31
-1.2
  0
SPLINE
  5
6C
330
1F
100
AcDbEntity
  8
DEFAULT
100
AcDbSpline
210
0.0
220
0.0
230
1.0
 70
    15
 71
     2
 72
    12
 73
     9
 74
     0
 42
0.0000000001
 43
0.0000000001
 40
-5.591851350082794
 40
-5.591851350082794
 40
-5.591851350082794
 40
-4.193888512562095
 40
-4.193888512562095
 40
-2.795925675041397
 40
-2.795925675041397
 40
-1.397962837520698
 40
-1.397962837520698
 40
0.0
 40
0.0
 40
0.0
 10
14.60978174853723
 20
0.0302182514627667
 30
0.0
 41
1.0
 10
14.60978174853723
 20
-0.8597817485372324
 30
0.0
 41
0.7071067811865476
 10
13.71978174853723
 20
-0.8597817485372339
 30
0.0
 41
1.0
 10
12.82978174853723
 20
-0.8597817485372324
 30
0.0
 41
0.7071067811865476
 10
12.82978174853723
 20
0.0302182514627667
 30
0.0
 41
1.0
 10
12.82978174853723
 20
0.9202182514627669
 30
0.0
 41
0.7071067811865476
 10
13.71978174853723
 20
0.9202182514627637
 30
0.0
 41
1.0
 10
14.60978174853723
 20
0.9202182514627669
 30
0.0
 41
0.7071067811865476
 10
14.60978174853723
 20
0.0302182514627667
 30
0.0
 41
1.0
  0
SPLINE
  5
6D
330
1F
100
AcDbEntity
  8
DEFAULT
100
AcDbSpline
210
0.0
220
0.0
230
1.0
 70
    15
 71
     2
 72
    12
 73
     9
 74
     0
 42
0.0000000001
 43
0.0000000001
 40
0.0
 40
0.0
 40
0.0
 40
1.397962837520697
 40
1.397962837520697
 40
2.795925675041395
 40
2.795925675041395
 40
4.193888512562092
 40
4.193888512562092
 40
5.59185135008279
 40
5.59185135008279
 40
5.59185135008279
 10
14.60978174853723
 20
0.0302182514627667
 30
-1.2
 41
1.0
 10
14.60978174853723
 20
0.9202182514627669
 30
-1.2
 41
0.7071067811865476
 10
13.71978174853723
 20
0.9202182514627637
 30
-1.2
 41
1.0
 10
12.82978174853723
 20
0.9202182514627669
 30
-1.2
 41
0.7071067811865476
 10
12.82978174853723
 20
0.0302182514627667
 30
-1.2
 41
1.0
 10
12.82978174853723
 20
-0.8597817485372324
 30
-1.2
 41
0.7071067811865476
 10
13.71978174853723
 20
-0.8597817485372339
 30
-1.2
 41
1.0
 10
14.60978174853723
 20
-0.8597817485372324
 30
-1.2
 41
0.7071067811865476
 10
14.60978174853723
 20
0.0302182514627667
 30
-1.2
 41
1.0
  0
LINE
  5
6E
330
1F
100
AcDbEntity
  8
DEFAULT
100
AcDbLine
 10
14.60978174853723
 20
0.0302182514627667
 30
0.0
 11
14.60978174853723
 21
0.0302182514627667
 31
-1.2
  0
SPLINE
  5
6F
330
1F
100
AcDbEntity
  8
DEFAULT
100
AcDbSpline
210
0.0
220
0.0
230
1.0
 70
    15
 71
     2
 72
    12
 73
     9
 74
     0
 42
0.0000000001
 43
0.0000000001
 40
-6.942771862216227
 40
-6.942771862216227
 40
-6.942771862216227
 40
-5.207078896662169
 40
-5.207078896662169
 40
-3.471385931108113
 40
-3.471385931108113
 40
-1.735692965554057
 40
-1.735692965554057
 40
0.0
 40
0.0
 40
0.0
 10
14.07478222980783
 20
13.03021777019216
 30
0.0
 41
1.0
 10
14.07478222980784
 20
11.92521777019217
 30
0.0
 41
0.7071067811865476
 10
12.96978222980783
 20
11.92521777019216
 30
0.0
 41
1.0
 10
11.86478222980784
 20
11.92521777019217
 30
0.0
 41
0.7071067811865476
 10
11.86478222980784
 20
13.03021777019216
 30
0.0
 41
1.0
 10
11.86478222980784
 20
14.13521777019216
 30
0.0
 41
0.7071067811865476
 10
12.96978222980783
 20
14.13521777019216
 30
0.0
 41
1.0
 10
14.07478222980784
 20
14.13521777019216
 30
0.0
 41
0.7071067811865476
 10
14.07478222980783
 20
13.03021777019216
 30
0.0
 41
1.0
  0
SPLINE
  5
70
330
1F
100
AcDbEntity
  8
DEFAULT
100
AcDbSpline
210
0.0
220
0.0
230
1.0
 70
    15
 71
     2
 72
    12
 73
     9
 74
     0
 42
0.0000000001
 43
0.0000000001
 40
0.0
 40
0.0
 40
0.0
 40
1.735692965554057
 40
1.735692965554057
 40
3.471385931108115
 40
3.471385931108115
 40
5.207078896662172
 40
5.207078896662172
 40
6.94277186221623
 40
6.94277186221623
 40
6.94277186221623
 10
14.07478222980783
 20
13.03021777019216
 30
-1.2
 41
1.0
 10
14.07478222980784
 20
14.13521777019216
 30
-1.2
 41
0.7071067811865476
 10
12.96978222980783
 20
14.13521777019216
 30
-1.2
 41
1.0
 10
11.86478222980784
 20
14.13521777019216
 30
-1.2
 41
0.7071067811865476
 10
11.86478222980784
 20
13.03021777019216
 30
-1.2
 41
1.0
 10
11.86478222980784
 20
11.92521777019217
 30
-1.2
 41
0.7071067811865476
 10
12.96978222980783
 20
11.92521777019216
 30
-1.2
 41
1.0
 10
14.07478222980784
 20
11.92521777019217
 30
-1.2
 41
0.7071067811865476
 10
14.07478222980783
 20
13.03021777019216
 30
-1.2
 41
1.0
  0
LINE
  5
71
330
1F
100
AcDbEntity
  8
DEFAULT
100
AcDbLine
 10
14.07478222980783
 20
13.03021777019216
 30
0.0
 11
14.07478222980783
 21
13.03021777019216
 31
-1.2
  0
SPLINE
  5
72
330
1F
100
AcDbEntity
  8
DEFAULT
100
AcDbSpline
210
0.0
220
0.0
230
1.0
 70
    15
 71
     2
 72
    12
 73
     9
 74
     0
 42
0.0000000001
 43
0.0000000001
 40
0.0
 40
0.0
 40
0.0
 40
0.706767279942925
 40
0.706767279942925
 40
1.41353455988585
 40
1.41353455988585
 40
2.120301839828775
 40
2.120301839828775
 40
2.8270691197717
 40
2.8270691197717
 40
2.8270691197717
 10
1.632279823454635
 20
6.235566092856331
 30
0.0
 41
1.0
 10
1.632279823454637
 20
5.785566092856334
 30
0.0
 41
0.7071067811865476
 10
1.182279823454632
 20
5.785566092856335
 30
0.0
 41
1.0
 10
0.7322798234546385
 20
5.785566092856334
 30
0.0
 41
0.7071067811865476
 10
0.732279823454629
 20
6.235566092856331
 30
0.0
 41
1.0
 10
0.7322798234546385
 20
6.685566092856333
 30
0.0
 41
0.7071067811865476
 10
1.182279823454632
 20
6.685566092856334
 30
0.0
 41
1.0
 10
1.632279823454637
 20
6.685566092856333
 30
0.0
 41
0.7071067811865476
 10
1.632279823454635
 20
6.235566092856331
 30
0.0
 41
1.0
  0
SPLINE
  5
73
330
1F
100
AcDbEntity
  8
DEFAULT
100
AcDbSpline
210
0.0
220
0.0
230
1.0
 70
    15
 71
     2
 72
    12
 73
     9
 74
     0
 42
0.0000000001
 43
0.0000000001
 40
-2.827069119771703
 40
-2.827069119771703
 40
-2.827069119771703
 40
-2.120301839828778
 40
-2.120301839828778
 40
-1.413534559885852
 40
-1.413534559885852
 40
-0.7067672799429259
 40
-0.7067672799429259
 40
0.0
 40
0.0
 40
0.0
 10
1.632279823454635
 20
6.235566092856331
 30
-1.199999999999999
 41
1.0
 10
1.632279823454637
 20
6.685566092856333
 30
-1.2
 41
0.7071067811865476
 10
1.182279823454632
 20
6.685566092856334
 30
-1.2
 41
1.0
 10
0.7322798234546385
 20
6.685566092856333
 30
-1.2
 41
0.7071067811865476
 10
0.732279823454629
 20
6.235566092856331
 30
-1.2
 41
1.0
 10
0.7322798234546385
 20
5.785566092856334
 30
-1.2
 41
0.7071067811865476
 10
1.182279823454632
 20
5.785566092856335
 30
-1.2
 41
1.0
 10
1.632279823454637
 20
5.785566092856334
 30
-1.2
 41
0.7071067811865476
 10
1.632279823454635
 20
6.235566092856331
 30
-1.199999999999999
 41
1.0
  0
LINE
  5
74
330
1F
100
AcDbEntity
  8
DEFAULT
100
AcDbLine
 10
1.632279823454635
 20
6.235566092856331
 30
-1.199999999999999
 11
1.632279823454635
 21
6.235566092856331
 31
0.0
  0
SPLINE
  5
75
330
1F
100
AcDbEntity
  8
DEFAULT
100
AcDbSpline
210
0.0
220
0.0
230
1.0
 70
    24
 71
     2
 72
     6
 73
     3
 74
     0
 42
0.0000000001
 43
0.0000000001
 40
0.0
 40
0.0
 40
0.0
 40
1.2
 40
1.2
 40
1.2
 10
0.0
 20
-15.89478271107844
 30
0.0
 10
0.0
 20
-15.89478271107844
 30
-0.6000000000000001
 10
0.0
 20
-15.89478271107844
 30
-1.2
  0
SPLINE
  5
76
330
1F
100
AcDbEntity
  8
DEFAULT
100
AcDbSpline
210
0.0
220
0.0
230
1.0
 70
    24
 71
     2
 72
     6
 73
     3
 74
     0
 42
0.0000000001
 43
0.0000000001
 40
0.0
 40
0.0
 40
0.0
 40
31.78956542215689
 40
31.78956542215689
 40
31.78956542215689
 10
-15.89478271107845
 20
-15.89478271107844
 30
-0.6000000000000001
 10
0.0
 20
-15.89478271107844
 30
-0.6000000000000001
 10
15.89478271107845
 20
-15.89478271107844
 30
-0.6000000000000001
  0
SPLINE
  5
77
330
1F
100
AcDbEntity
  8
DEFAULT
100
AcDbSpline
210
0.0
220
0.0
230
1.0
 70
    24
 71
     2
 72
     6
 73
     3
 74
     0
 42
0.0000000001
 43
0.0000000001
 40
0.0
 40
0.0
 40
0.0
 40
1.2
 40
1.2
 40
1.2
 10
15.89478271107845
 20
0.0
 30
0.0
 10
15.89478271107845
 20
0.0
 30
-0.6000000000000001
 10
15.89478271107845
 20
0.0
 30
-1.2
  0
SPLINE
  5
78
330
1F
100
AcDbEntity
  8
DEFAULT
100
AcDbSpline
210
0.0
220
0.0
230
1.0
 70
    24
 71
     2
 72
     6
 73
     3
 74
     0
 42
0.0000000001
 43
0.0000000001
 40
0.0
 40
0.0
 40
0.0
 40
31.78956542215689
 40
31.78956542215689
 40
31.78956542215689
 10
15.89478271107845
 20
-15.89478271107844
 30
-0.6000000000000001
 10
15.89478271107845
 20
0.0
 30
-0.6000000000000001
 10
15.89478271107845
 20
15.89478271107844
 30
-0.6000000000000001
  0
SPLINE
  5
79
330
1F
100
AcDbEntity
  8
DEFAULT
100
AcDbSpline
210
0.0
220
0.0
230
1.0
 70
    24
 71
     2
 72
     6
 73
     3
 74
     0
 42
0.0000000001
 43
0.0000000001
 40
0.0
 40
0.0
 40
0.0
 40
1.2
 40
1.2
 40
1.2
 10
0.0
 20
15.89478271107844
 30
0.0
 10
0.0
 20
15.89478271107844
 30
-0.6000000000000001
 10
0.0
 20
15.89478271107844
 30
-1.2
  0
SPLINE
  5
7A
330
1F
100
AcDbEntity
  8
DEFAULT
100
AcDbSpline
210
0.0
220
0.0
230
1.0
 70
    24
 71
     2
 72
     6
 73
     3
 74
     0
 42
0.0000000001
 43
0.0000000001
 40
0.0
 40
0.0
 40
0.0
 40
31.78956542215689
 40
31.78956542215689
 40
31.78956542215689
 10
15.89478271107845
 20
15.89478271107844
 30
-0.6000000000000001
 10
0.0
 20
15.89478271107844
 30
-0.6000000000000001
 10
-15.89478271107845
 20
15.89478271107844
 30
-0.6000000000000001
  0
SPLINE
  5
7B
330
1F
100
AcDbEntity
  8
DEFAULT
100
AcDbSpline
210
0.0
220
0.0
230
1.0
 70
    24
 71
     2
 72
     6
 73
     3
 74
     0
 42
0.0000000001
 43
0.0000000001
 40
0.0
 40
0.0
 40
0.0
 40
1.2
 40
1.2
 40
1.2
 10
-15.89478271107845
 20
0.0
 30
0.0
 10
-15.89478271107845
 20
0.0
 30
-0.6000000000000001
 10
-15.89478271107845
 20
0.0
 30
-1.2
  0
SPLINE
  5
7C
330
1F
100
AcDbEntity
  8
DEFAULT
100
AcDbSpline
210
0.0
220
0.0
230
1.0
 70
    24
 71
     2
 72
     6
 73
     3
 74
     0
 42
0.0000000001
 43
0.0000000001
 40
0.0
 40
0.0
 40
0.0
 40
31.78956542215689
 40
31.78956542215689
 40
31.78956542215689
 10
-15.89478271107845
 20
15.89478271107844
 30
-0.6000000000000001
 10
-15.89478271107845
 20
0.0
 30
-0.6000000000000001
 10
-15.89478271107845
 20
-15.89478271107844
 30
-0.6000000000000001
  0
SPLINE
  5
7D
330
1F
100
AcDbEntity
  8
DEFAULT
100
AcDbSpline
210
0.0
220
0.0
230
1.0
 70
    24
 71
     2
 72
     6
 73
     3
 74
     0
 42
0.0000000001
 43
0.0000000001
 40
0.0
 40
0.0
 40
0.0
 40
1.225079269092513
 40
1.225079269092513
 40
1.225079269092513
 10
-15.89478271107845
 20
0.0
 30
0.0
 10
-15.28224307653219
 20
0.0
 30
0.0
 10
-14.66970344198593
 20
0.0
 30
0.0
  0
SPLINE
  5
7E
330
1F
100
AcDbEntity
  8
DEFAULT
100
AcDbSpline
210
0.0
220
0.0
230
1.0
 70
    24
 71
     2
 72
     6
 73
     3
 74
     0
 42
0.0000000001
 43
0.0000000001
 40
3.004053014918449
 40
3.004053014918449
 40
3.004053014918449
 40
28.72507760917021
 40
28.72507760917021
 40
28.72507760917021
 10
-12.89072969616
 20
0.0
 30
0.0
 10
-0.0302173990341119
 20
0.0
 30
0.0
 10
12.83029489809177
 20
0.0
 30
0.0
  0
SPLINE
  5
7F
330
1F
100
AcDbEntity
  8
DEFAULT
100
AcDbSpline
210
0.0
220
0.0
230
1.0
 70
    24
 71
     2
 72
     6
 73
     3
 74
     0
 42
0.0000000001
 43
0.0000000001
 40
30.50405130594656
 40
30.50405130594656
 40
30.50405130594656
 40
31.78956542215689
 40
31.78956542215689
 40
31.78956542215689
 10
14.60926859486812
 20
0.0
 30
0.0
 10
15.25202565297328
 20
0.0
 30
0.0
 10
15.89478271107845
 20
0.0
 30
0.0
  0
SPLINE
  5
80
330
1F
100
AcDbEntity
  8
DEFAULT
100
AcDbSpline
210
0.0
220
0.0
230
1.0
 70
    24
 71
     2
 72
     6
 73
     3
 74
     0
 42
0.0000000001
 43
0.0000000001
 40
0.0
 40
0.0
 40
0.0
 40
5.476010808281892
 40
5.476010808281892
 40
5.476010808281892
 10
0.0
 20
-15.89478271107844
 30
0.0
 10
0.0
 20
-13.1567773069375
 30
0.0
 10
0.0
 20
-10.41877190279655
 30
0.0
  0
SPLINE
  5
81
330
1F
100
AcDbEntity
  8
DEFAULT
100
AcDbSpline
210
0.0
220
0.0
230
1.0
 70
    24
 71
     2
 72
     6
 73
     3
 74
     0
 42
0.0000000001
 43
0.0000000001
 40
6.373979567439119
 40
6.373979567439119
 40
6.373979567439119
 40
31.78956542215689
 40
31.78956542215689
 40
31.78956542215689
 10
0.0
 20
-9.520803143639323
 30
0.0
 10
0.0
 20
3.186989783719559
 30
0.0
 10
0.0
 20
15.89478271107844
 30
0.0
  0
SPLINE
  5
82
330
1F
100
AcDbEntity
  8
DEFAULT
100
AcDbSpline
210
0.0
220
0.0
230
1.0
 70
    24
 71
     2
 72
     6
 73
     3
 74
     0
 42
0.0000000001
 43
0.0000000001
 40
0.0
 40
0.0
 40
0.0
 40
5.476010808281891
 40
5.476010808281891
 40
5.476010808281891
 10
0.0
 20
-15.89478271107844
 30
-1.2
 10
0.0
 20
-13.1567773069375
 30
-1.2
 10
0.0
 20
-10.41877190279655
 30
-1.2
  0
SPLINE
  5
83
330
1F
100
AcDbEntity
  8
DEFAULT
100
AcDbSpline
210
0.0
220
0.0
230
1.0
 70
    24
 71
     2
 72
     6
 73
     3
 74
     0
 42
0.0000000001
 43
0.0000000001
 40
6.373979567439116
 40
6.373979567439116
 40
6.373979567439116
 40
31.78956542215689
 40
31.78956542215689
 40
31.78956542215689
 10
0.0
 20
-9.520803143639327
 30
-1.2
 10
0.0
 20
3.186989783719557
 30
-1.2
 10
0.0
 20
15.89478271107844
 30
-1.2
  0
SPLINE
  5
84
330
1F
100
AcDbEntity
  8
DEFAULT
100
AcDbSpline
210
0.0
220
0.0
230
1.0
 70
    24
 71
     2
 72
     6
 73
     3
 74
     0
 42
0.0000000001
 43
0.0000000001
 40
0.0
 40
0.0
 40
0.0
 40
1.225079269092511
 40
1.225079269092511
 40
1.225079269092511
 10
-15.89478271107845
 20
0.0
 30
-1.2
 10
-15.28224307653219
 20
0.0
 30
-1.2
 10
-14.66970344198593
 20
0.0
 30
-1.2
  0
SPLINE
  5
85
330
1F
100
AcDbEntity
  8
DEFAULT
100
AcDbSpline
210
0.0
220
0.0
230
1.0
 70
    24
 71
     2
 72
     6
 73
     3
 74
     0
 42
0.0000000001
 43
0.0000000001
 40
3.004053014918451
 40
3.004053014918451
 40
3.004053014918451
 40
28.72507760917021
 40
28.72507760917021
 40
28.72507760917021
 10
-12.89072969615999
 20
0.0
 30
-1.2
 10
-0.0302173990341128
 20
0.0
 30
-1.2
 10
12.83029489809177
 20
0.0
 30
-1.2
  0
SPLINE
  5
86
330
1F
100
AcDbEntity
  8
DEFAULT
100
AcDbSpline
210
0.0
220
0.0
230
1.0
 70
    24
 71
     2
 72
     6
 73
     3
 74
     0
 42
0.0000000001
 43
0.0000000001
 40
30.50405130594656
 40
30.50405130594656
 40
30.50405130594656
 40
31.78956542215689
 40
31.78956542215689
 40
31.78956542215689
 10
14.60926859486812
 20
0.0
 30
-1.2
 10
15.25202565297328
 20
0.0
 30
-1.2
 10
15.89478271107845
 20
0.0
 30
-1.2
  0
LINE
  5
87
330
1F
100
AcDbEntity
  8
DEFAULT
100
AcDbLine
 10
-13.03021680765095
 20
-14.07478319234905
 30
0.0000000000000002
 11
-13.03021680765095
 21
-14.07478319234905
 31
-1.2
  0
LINE
  5
88
330
1F
100
AcDbEntity
  8
DEFAULT
100
AcDbLine
 10
-14.13521680765095
 20
-12.96978319234904
 30
0.0000000000000002
 11
-14.13521680765095
 21
-12.96978319234904
 31
-1.2
  0
LINE
  5
89
330
1F
100
AcDbEntity
  8
DEFAULT
100
AcDbLine
 10
-13.03021680765095
 20
-11.86478319234904
 30
0.0000000000000002
 11
-13.03021680765095
 21
-11.86478319234904
 31
-1.2
  0
SPLINE
  5
8A
330
1F
100
AcDbEntity
  8
DEFAULT
100
AcDbSpline
210
0.0
220
0.0
230
1.0
 70
    15
 71
     2
 72
    12
 73
     9
 74
     0
 42
0.0000000001
 43
0.0000000001
 40
-6.942919764433443
 40
-6.942919764433443
 40
-6.942919764433443
 40
-5.207189823325082
 40
-5.207189823325082
 40
-3.471459882216721
 40
-3.471459882216721
 40
-1.735729941108361
 40
-1.735729941108361
 40
0.0
 40
0.0
 40
0.0
 10
-11.92521680765095
 20
-12.96978319234904
 30
-0.7999999999999998
 41
1.0
 10
-11.92521680765095
 20
-14.07478319234904
 30
-0.7999999999999999
 41
0.7071067811865476
 10
-13.03021680765095
 20
-14.07478319234905
 30
-0.7999999999999998
 41
1.0
 10
-14.13521680765095
 20
-14.07478319234904
 30
-0.7999999999999999
 41
0.7071067811865476
 10
-14.13521680765095
 20
-12.96978319234904
 30
-0.7999999999999998
 41
1.0
 10
-14.13521680765095
 20
-11.86478319234904
 30
-0.7999999999999999
 41
0.7071067811865476
 10
-13.03021680765095
 20
-11.86478319234904
 30
-0.7999999999999998
 41
1.0
 10
-11.92521680765095
 20
-11.86478319234904
 30
-0.7999999999999999
 41
0.7071067811865476
 10
-11.92521680765095
 20
-12.96978319234904
 30
-0.7999999999999998
 41
1.0
  0
LINE
  5
8B
330
1F
100
AcDbEntity
  8
DEFAULT
100
AcDbLine
 10
-13.78021656701555
 20
-0.8597824704428483
 30
0.0000000000000002
 11
-13.78021656701555
 21
-0.8597824704428483
 31
-1.2
  0
LINE
  5
8C
330
1F
100
AcDbEntity
  8
DEFAULT
100
AcDbLine
 10
-14.67021656701555
 20
0.0302175295571523
 30
0.0
 11
-14.67021656701555
 21
0.0302175295571523
 31
-1.2
  0
LINE
  5
8D
330
1F
100
AcDbEntity
  8
DEFAULT
100
AcDbLine
 10
-13.78021656701555
 20
0.9202175295571493
 30
0.0000000000000004
 11
-13.78021656701555
 21
0.9202175295571493
 31
-1.2
  0
SPLINE
  5
8E
330
1F
100
AcDbEntity
  8
DEFAULT
100
AcDbSpline
210
0.0
220
0.0
230
1.0
 70
    15
 71
     2
 72
    12
 73
     9
 74
     0
 42
0.0000000001
 43
0.0000000001
 40
-5.592034923389832
 40
-5.592034923389832
 40
-5.592034923389832
 40
-4.194026192542374
 40
-4.194026192542374
 40
-2.796017461694916
 40
-2.796017461694916
 40
-1.398008730847458
 40
-1.398008730847458
 40
0.0
 40
0.0
 40
0.0
 10
-12.89021656701555
 20
0.0302175295571523
 30
-0.7999999999999998
 41
1.0
 10
-12.89021656701555
 20
-0.8597824704428493
 30
-0.7999999999999999
 41
0.7071067811865476
 10
-13.78021656701555
 20
-0.8597824704428483
 30
-0.7999999999999998
 41
1.0
 10
-14.67021656701555
 20
-0.8597824704428493
 30
-0.7999999999999999
 41
0.7071067811865476
 10
-14.67021656701555
 20
0.0302175295571523
 30
-0.7999999999999998
 41
1.0
 10
-14.67021656701555
 20
0.9202175295571501
 30
-0.7999999999999999
 41
0.7071067811865476
 10
-13.78021656701555
 20
0.9202175295571493
 30
-0.7999999999999998
 41
1.0
 10
-12.89021656701555
 20
0.9202175295571501
 30
-0.7999999999999999
 41
0.7071067811865476
 10
-12.89021656701555
 20
0.0302175295571523
 30
-0.7999999999999998
 41
1.0
  0
LINE
  5
8F
330
1F
100
AcDbEntity
  8
DEFAULT
100
AcDbLine
 10
-10.03021728892156
 20
-0.7697827110784417
 30
-1.2
 11
-10.03021728892156
 21
-0.7697827110784417
 31
0.0000000000000001
  0
LINE
  5
90
330
1F
100
AcDbEntity
  8
DEFAULT
100
AcDbLine
 10
-10.48021728892156
 20
-1.219782711078441
 30
-1.2
 11
-10.48021728892156
 21
-1.219782711078441
 31
0.0000000000000001
  0
LINE
  5
91
330
1F
100
AcDbEntity
  8
DEFAULT
100
AcDbLine
 10
-10.03021728892156
 20
-1.66978271107844
 30
-1.2
 11
-10.03021728892156
 21
-1.66978271107844
 31
0.0000000000000001
  0
CIRCLE
  5
92
330
1F
100
AcDbEntity
  8
DEFAULT
100
AcDbCircle
 10
-10.03021728892156
 20
-1.219782711078441
 30
-0.2999999999999998
 40
0.4499999999999993
  0
LINE
  5
93
330
1F
100
AcDbEntity
  8
DEFAULT
100
AcDbLine
 10
-11.53021728892156
 20
6.730217288921555
 30
-1.2
 11
-11.53021728892156
 21
6.730217288921555
 31
0.0000000000000001
  0
LINE
  5
94
330
1F
100
AcDbEntity
  8
DEFAULT
100
AcDbLine
 10
-11.98021728892156
 20
6.280217288921556
 30
-1.2
 11
-11.98021728892156
 21
6.280217288921556
 31
0.0000000000000001
  0
LINE
  5
95
330
1F
100
AcDbEntity
  8
DEFAULT
100
AcDbLine
 10
-11.53021728892156
 20
5.830217288921556
 30
-1.2
 11
-11.53021728892156
 21
5.830217288921556
 31
0.0000000000000001
  0
CIRCLE
  5
96
330
1F
100
AcDbEntity
  8
DEFAULT
100
AcDbCircle
 10
-11.53021728892156
 20
6.280217288921556
 30
-0.2999999999999998
 40
0.4499999999999993
  0
LINE
  5
97
330
1F
100
AcDbEntity
  8
DEFAULT
100
AcDbLine
 10
-13.03021680765095
 20
11.92521777019216
 30
0.0000000000000002
 11
-13.03021680765095
 21
11.92521777019216
 31
-1.199999999999999
  0
LINE
  5
98
330
1F
100
AcDbEntity
  8
DEFAULT
100
AcDbLine
 10
-14.13521680765095
 20
13.03021777019216
 30
0.0000000000000004
 11
-14.13521680765095
 21
13.03021777019216
 31
-1.2
  0
LINE
  5
99
330
1F
100
AcDbEntity
  8
DEFAULT
100
AcDbLine
 10
-13.03021680765095
 20
14.13521777019216
 30
0.0000000000000002
 11
-13.03021680765095
 21
14.13521777019216
 31
-1.2
  0
SPLINE
  5
9A
330
1F
100
AcDbEntity
  8
DEFAULT
100
AcDbSpline
210
0.0
220
0.0
230
1.0
 70
    15
 71
     2
 72
    12
 73
     9
 74
     0
 42
0.0000000001
 43
0.0000000001
 40
-6.942919764433443
 40
-6.942919764433443
 40
-6.942919764433443
 40
-5.207189823325082
 40
-5.207189823325082
 40
-3.471459882216721
 40
-3.471459882216721
 40
-1.735729941108361
 40
-1.735729941108361
 40
0.0
 40
0.0
 40
0.0
 10
-11.92521680765095
 20
13.03021777019216
 30
-0.7999999999999998
 41
1.0
 10
-11.92521680765095
 20
11.92521777019216
 30
-0.7999999999999999
 41
0.7071067811865476
 10
-13.03021680765095
 20
11.92521777019216
 30
-0.7999999999999998
 41
1.0
 10
-14.13521680765095
 20
11.92521777019216
 30
-0.7999999999999999
 41
0.7071067811865476
 10
-14.13521680765095
 20
13.03021777019216
 30
-0.7999999999999998
 41
1.0
 10
-14.13521680765095
 20
14.13521777019216
 30
-0.7999999999999999
 41
0.7071067811865476
 10
-13.03021680765095
 20
14.13521777019216
 30
-0.7999999999999998
 41
1.0
 10
-11.92521680765095
 20
14.13521777019216
 30
-0.7999999999999999
 41
0.7071067811865476
 10
-11.92521680765095
 20
13.03021777019216
 30
-0.7999999999999998
 41
1.0
  0
LINE
  5
9B
330
1F
100
AcDbEntity
  8
DEFAULT
100
AcDbLine
 10
-10.03021728892156
 20
-7.019782711078442
 30
-1.2
 11
-10.03021728892156
 21
-7.019782711078442
 31
0.0000000000000001
  0
LINE
  5
9C
330
1F
100
AcDbEntity
  8
DEFAULT
100
AcDbLine
 10
-10.48021728892156
 20
-7.469782711078441
 30
-1.2
 11
-10.48021728892156
 21
-7.469782711078441
 31
0.0000000000000001
  0
LINE
  5
9D
330
1F
100
AcDbEntity
  8
DEFAULT
100
AcDbLine
 10
-10.03021728892156
 20
-7.91978271107844
 30
-1.2
 11
-10.03021728892156
 21
-7.91978271107844
 31
0.0000000000000001
  0
CIRCLE
  5
9E
330
1F
100
AcDbEntity
  8
DEFAULT
100
AcDbCircle
 10
-10.03021728892156
 20
-7.469782711078441
 30
-0.2999999999999998
 40
0.4499999999999993
  0
LINE
  5
9F
330
1F
100
AcDbEntity
  8
DEFAULT
100
AcDbLine
 10
-10.03021728892156
 20
-9.519782711078442
 30
-1.2
 11
-10.03021728892156
 21
-9.519782711078442
 31
0.0000000000000001
  0
LINE
  5
A0
330
1F
100
AcDbEntity
  8
DEFAULT
100
AcDbLine
 10
-10.48021728892156
 20
-9.969782711078441
 30
-1.2
 11
-10.48021728892156
 21
-9.969782711078441
 31
0.0000000000000001
  0
LINE
  5
A1
330
1F
100
AcDbEntity
  8
DEFAULT
100
AcDbLine
 10
-10.03021728892156
 20
-10.41978271107844
 30
-1.2
 11
-10.03021728892156
 21
-10.41978271107844
 31
0.0000000000000001
  0
CIRCLE
  5
A2
330
1F
100
AcDbEntity
  8
DEFAULT
100
AcDbCircle
 10
-10.03021728892156
 20
-9.969782711078441
 30
-0.2999999999999998
 40
0.4499999999999993
  0
LINE
  5
A3
330
1F
100
AcDbEntity
  8
DEFAULT
100
AcDbLine
 10
-7.030217288921559
 20
-11.01978271107844
 30
-1.2
 11
-7.030217288921559
 21
-11.01978271107844
 31
0.0000000000000001
  0
LINE
  5
A4
330
1F
100
AcDbEntity
  8
DEFAULT
100
AcDbLine
 10
-7.480217288921558
 20
-11.46978271107844
 30
-1.2
 11
-7.480217288921558
 21
-11.46978271107844
 31
0.0000000000000001
  0
LINE
  5
A5
330
1F
100
AcDbEntity
  8
DEFAULT
100
AcDbLine
 10
-7.030217288921559
 20
-11.91978271107844
 30
-1.2
 11
-7.030217288921559
 21
-11.91978271107844
 31
0.0000000000000001
  0
CIRCLE
  5
A6
330
1F
100
AcDbEntity
  8
DEFAULT
100
AcDbCircle
 10
-7.030217288921559
 20
-11.46978271107844
 30
-0.2999999999999998
 40
0.4499999999999993
  0
LINE
  5
A7
330
1F
100
AcDbEntity
  8
DEFAULT
100
AcDbLine
 10
-4.030217288921559
 20
-1.019782711078438
 30
-1.2
 11
-4.030217288921559
 21
-1.019782711078438
 31
0.0000000000000001
  0
LINE
  5
A8
330
1F
100
AcDbEntity
  8
DEFAULT
100
AcDbLine
 10
-4.480217288921562
 20
-1.469782711078441
 30
-1.2
 11
-4.480217288921562
 21
-1.469782711078441
 31
0.0000000000000001
  0
LINE
  5
A9
330
1F
100
AcDbEntity
  8
DEFAULT
100
AcDbLine
 10
-4.030217288921559
 20
-1.919782711078444
 30
-1.2
 11
-4.030217288921559
 21
-1.919782711078444
 31
0.0000000000000001
  0
CIRCLE
  5
AA
330
1F
100
AcDbEntity
  8
DEFAULT
100
AcDbCircle
 10
-4.030217288921559
 20
-1.469782711078441
 30
-0.2999999999999998
 40
0.4500000000000028
  0
LINE
  5
AB
330
1F
100
AcDbEntity
  8
DEFAULT
100
AcDbLine
 10
-0.5302172889215591
 20
-7.519782711078445
 30
-1.2
 11
-0.5302172889215591
 21
-7.519782711078445
 31
0.0000000000000001
  0
LINE
  5
AC
330
1F
100
AcDbEntity
  8
DEFAULT
100
AcDbLine
 10
-0.9802172889215548
 20
-7.969782711078441
 30
-1.2
 11
-0.9802172889215548
 21
-7.969782711078441
 31
0.0000000000000001
  0
LINE
  5
AD
330
1F
100
AcDbEntity
  8
DEFAULT
100
AcDbLine
 10
-0.5302172889215591
 20
-8.419782711078437
 30
-1.2
 11
-0.5302172889215591
 21
-8.419782711078437
 31
0.0000000000000001
  0
CIRCLE
  5
AE
330
1F
100
AcDbEntity
  8
DEFAULT
100
AcDbCircle
 10
-0.5302172889215591
 20
-7.969782711078441
 30
-0.2999999999999998
 40
0.4499999999999957
  0
LINE
  5
AF
330
1F
100
AcDbEntity
  8
DEFAULT
100
AcDbLine
 10
-0.0302163263812609
 20
-9.519787523784327
 30
-1.2
 11
-0.0302163263812609
 21
-9.519787523784327
 31
0.0000000000000001
  0
LINE
  5
B0
330
1F
100
AcDbEntity
  8
DEFAULT
100
AcDbLine
 10
-0.4802163263812567
 20
-9.969787523784323
 30
-1.2
 11
-0.4802163263812567
 21
-9.969787523784323
 31
0.0000000000000001
  0
LINE
  5
B1
330
1F
100
AcDbEntity
  8
DEFAULT
100
AcDbLine
 10
-0.0302163263812609
 20
-10.41978752378432
 30
-1.2
 11
-0.0302163263812609
 21
-10.41978752378432
 31
0.0000000000000001
  0
CIRCLE
  5
B2
330
1F
100
AcDbEntity
  8
DEFAULT
100
AcDbCircle
 10
-0.0302163263812609
 20
-9.969787523784323
 30
-0.2999999999999998
 40
0.4499999999999957
  0
LINE
  5
B3
330
1F
100
AcDbEntity
  8
DEFAULT
100
AcDbLine
 10
12.96978222980784
 20
-14.07478319234905
 30
0.0000000000000002
 11
12.96978222980784
 21
-14.07478319234905
 31
-1.2
  0
LINE
  5
B4
330
1F
100
AcDbEntity
  8
DEFAULT
100
AcDbLine
 10
11.86478222980785
 20
-12.96978319234904
 30
0.0000000000000002
 11
11.86478222980785
 21
-12.96978319234904
 31
-1.2
  0
LINE
  5
B5
330
1F
100
AcDbEntity
  8
DEFAULT
100
AcDbLine
 10
12.96978222980784
 20
-11.86478319234904
 30
0.0000000000000002
 11
12.96978222980784
 21
-11.86478319234904
 31
-1.199999999999999
  0
SPLINE
  5
B6
330
1F
100
AcDbEntity
  8
DEFAULT
100
AcDbSpline
210
0.0
220
0.0
230
1.0
 70
    15
 71
     2
 72
    12
 73
     9
 74
     0
 42
0.0000000001
 43
0.0000000001
 40
-6.942919764433443
 40
-6.942919764433443
 40
-6.942919764433443
 40
-5.207189823325082
 40
-5.207189823325082
 40
-3.471459882216721
 40
-3.471459882216721
 40
-1.735729941108361
 40
-1.735729941108361
 40
0.0
 40
0.0
 40
0.0
 10
14.07478222980784
 20
-12.96978319234904
 30
-0.7999999999999998
 41
1.0
 10
14.07478222980785
 20
-14.07478319234904
 30
-0.7999999999999999
 41
0.7071067811865476
 10
12.96978222980784
 20
-14.07478319234905
 30
-0.7999999999999998
 41
1.0
 10
11.86478222980785
 20
-14.07478319234904
 30
-0.7999999999999999
 41
0.7071067811865476
 10
11.86478222980785
 20
-12.96978319234904
 30
-0.7999999999999998
 41
1.0
 10
11.86478222980785
 20
-11.86478319234904
 30
-0.7999999999999999
 41
0.7071067811865476
 10
12.96978222980784
 20
-11.86478319234904
 30
-0.7999999999999998
 41
1.0
 10
14.07478222980785
 20
-11.86478319234904
 30
-0.7999999999999999
 41
0.7071067811865476
 10
14.07478222980784
 20
-12.96978319234904
 30
-0.7999999999999998
 41
1.0
  0
LINE
  5
B7
330
1F
100
AcDbEntity
  8
DEFAULT
100
AcDbLine
 10
13.71978174853723
 20
-0.8597817485372339
 30
0.0000000000000004
 11
13.71978174853723
 21
-0.8597817485372339
 31
-1.199999999999999
  0
LINE
  5
B8
330
1F
100
AcDbEntity
  8
DEFAULT
100
AcDbLine
 10
12.82978174853723
 20
0.0302182514627667
 30
0.0000000000000002
 11
12.82978174853723
 21
0.0302182514627667
 31
-1.2
  0
LINE
  5
B9
330
1F
100
AcDbEntity
  8
DEFAULT
100
AcDbLine
 10
13.71978174853723
 20
0.9202182514627637
 30
0.0000000000000002
 11
13.71978174853723
 21
0.9202182514627637
 31
-1.2
  0
SPLINE
  5
BA
330
1F
100
AcDbEntity
  8
DEFAULT
100
AcDbSpline
210
0.0
220
0.0
230
1.0
 70
    15
 71
     2
 72
    12
 73
     9
 74
     0
 42
0.0000000001
 43
0.0000000001
 40
-5.592034923389832
 40
-5.592034923389832
 40
-5.592034923389832
 40
-4.194026192542374
 40
-4.194026192542374
 40
-2.796017461694916
 40
-2.796017461694916
 40
-1.398008730847458
 40
-1.398008730847458
 40
0.0
 40
0.0
 40
0.0
 10
14.60978174853723
 20
0.0302182514627667
 30
-0.7999999999999998
 41
1.0
 10
14.60978174853724
 20
-0.8597817485372324
 30
-0.7999999999999999
 41
0.7071067811865476
 10
13.71978174853723
 20
-0.8597817485372339
 30
-0.7999999999999998
 41
1.0
 10
12.82978174853724
 20
-0.8597817485372324
 30
-0.7999999999999999
 41
0.7071067811865476
 10
12.82978174853723
 20
0.0302182514627667
 30
-0.7999999999999998
 41
1.0
 10
12.82978174853724
 20
0.9202182514627669
 30
-0.7999999999999999
 41
0.7071067811865476
 10
13.71978174853723
 20
0.9202182514627637
 30
-0.7999999999999998
 41
1.0
 10
14.60978174853724
 20
0.9202182514627669
 30
-0.7999999999999999
 41
0.7071067811865476
 10
14.60978174853723
 20
0.0302182514627667
 30
-0.7999999999999998
 41
1.0
  0
LINE
  5
BB
330
1F
100
AcDbEntity
  8
DEFAULT
100
AcDbLine
 10
12.96978222980784
 20
11.92521777019216
 30
0.0000000000000002
 11
12.96978222980784
 21
11.92521777019216
 31
-1.2
  0
LINE
  5
BC
330
1F
100
AcDbEntity
  8
DEFAULT
100
AcDbLine
 10
11.86478222980785
 20
13.03021777019216
 30
0.0000000000000002
 11
11.86478222980785
 21
13.03021777019216
 31
-1.2
  0
LINE
  5
BD
330
1F
100
AcDbEntity
  8
DEFAULT
100
AcDbLine
 10
12.96978222980784
 20
14.13521777019216
 30
0.0000000000000002
 11
12.96978222980784
 21
14.13521777019216
 31
-1.2
  0
SPLINE
  5
BE
330
1F
100
AcDbEntity
  8
DEFAULT
100
AcDbSpline
210
0.0
220
0.0
230
1.0
 70
    15
 71
     2
 72
    12
 73
     9
 74
     0
 42
0.0000000001
 43
0.0000000001
 40
-6.942919764433443
 40
-6.942919764433443
 40
-6.942919764433443
 40
-5.207189823325082
 40
-5.207189823325082
 40
-3.471459882216721
 40
-3.471459882216721
 40
-1.735729941108361
 40
-1.735729941108361
 40
0.0
 40
0.0
 40
0.0
 10
14.07478222980784
 20
13.03021777019216
 30
-0.7999999999999998
 41
1.0
 10
14.07478222980785
 20
11.92521777019216
 30
-0.7999999999999999
 41
0.7071067811865476
 10
12.96978222980784
 20
11.92521777019216
 30
-0.7999999999999998
 41
1.0
 10
11.86478222980785
 20
11.92521777019216
 30
-0.7999999999999999
 41
0.7071067811865476
 10
11.86478222980785
 20
13.03021777019216
 30
-0.7999999999999998
 41
1.0
 10
11.86478222980785
 20
14.13521777019216
 30
-0.7999999999999999
 41
0.7071067811865476
 10
12.96978222980784
 20
14.13521777019216
 30
-0.7999999999999998
 41
1.0
 10
14.07478222980785
 20
14.13521777019216
 30
-0.7999999999999999
 41
0.7071067811865476
 10
14.07478222980784
 20
13.03021777019216
 30
-0.7999999999999998
 41
1.0
  0
LINE
  5
BF
330
1F
100
AcDbEntity
  8
DEFAULT
100
AcDbLine
 10
1.182279823454632
 20
6.685566092856334
 30
-1.2
 11
1.182279823454632
 21
6.685566092856334
 31
-0.0000000000000002
  0
LINE
  5
C0
330
1F
100
AcDbEntity
  8
DEFAULT
100
AcDbLine
 10
0.732279823454629
 20
6.235566092856331
 30
-1.2
 11
0.732279823454629
 21
6.235566092856331
 31
-0.0000000000000002
  0
LINE
  5
C1
330
1F
100
AcDbEntity
  8
DEFAULT
100
AcDbLine
 10
1.182279823454632
 20
5.785566092856328
 30
-1.2
 11
1.182279823454632
 21
5.785566092856328
 31
-0.0000000000000002
  0
CIRCLE
  5
C2
330
1F
100
AcDbEntity
  8
DEFAULT
100
AcDbCircle
 10
1.182279823454632
 20
6.235566092856331
 30
-0.2999999999999998
 40
0.4500000000000028
  0
ENDSEC
  0
SECTION
  2
OBJECTS
  0
DICTIONARY
  5
C
330
0
100
AcDbDictionary
281
     1
  3
ACAD_GROUP
350
D
  3
ACAD_LAYOUT
350
1A
  3
ACAD_MLEADERSTYLE
350
C4
  3
ACAD_MLINESTYLE
350
17
  3
ACAD_PLOTSETTINGS
350
19
  3
ACAD_PLOTSTYLENAME
350
E
  3
ACAD_TABLESTYLE
350
C3
  3
ACAD_VISUALSTYLE
350
2A
  0
DICTIONARY
  5
D
102
{ACAD_REACTORS
330
C
102
}
330
C
100
AcDbDictionary
281
     1
  0
DICTIONARY
  5
1A
102
{ACAD_REACTORS
330
C
102
}
330
C
100
AcDbDictionary
281
     1
  3
Layout1
350
1E
  3
Layout2
350
26
  3
Model
350
22
  0
DICTIONARY
  5
C4
102
{ACAD_REACTORS
330
C
102
}
330
C
100
AcDbDictionary
281
     1
  0
DICTIONARY
  5
17
102
{ACAD_REACTORS
330
C
102
}
330
C
100
AcDbDictionary
281
     1
  3
Standard
350
18
  0
DICTIONARY
  5
19
102
{ACAD_REACTORS
330
C
102
}
330
C
100
AcDbDictionary
281
     1
  0
ACDBDICTIONARYWDFLT
  5
E
102
{ACAD_REACTORS
330
C
102
}
330
C
100
AcDbDictionary
281
     1
  3
Normal
350
F
100
AcDbDictionaryWithDefault
340
F
  0
DICTIONARY
  5
C3
102
{ACAD_REACTORS
330
C
102
}
330
C
100
AcDbDictionary
281
     1
  0
DICTIONARY
  5
2A
102
{ACAD_REACTORS
330
C
102
}
330
C
100
AcDbDictionary
281
     1
  3
2dWireframe
350
2F
  3
3D Hidden
350
31
  3
3dWireframe
350
30
  3
Basic
350
32
  3
Brighten
350
36
  3
ColorChange
350
3A
  3
Conceptual
350
34
  3
Dim
350
35
  3
Facepattern
350
39
  3
Flat
350
2B
  3
FlatWithEdges
350
2C
  3
Gouraud
350
2D
  3
GouraudWithEdges
350
2E
  3
Linepattern
350
38
  3
Realistic
350
33
  3
Thicken
350
37
  0
LAYOUT
  5
1E
102
{ACAD_REACTORS
330
1A
102
}
330
1A
100
AcDbPlotSettings
  1

  2
none_device
  4

  6

 40
0.0
 41
0.0
 42
0.0
 43
0.0
 44
0.0
 45
0.0
 46
0.0
 47
0.0
 48
0.0
 49
0.0
140
0.0
141
0.0
142
1.0
143
1.0
 70
   688
 72
     0
 73
     0
 74
     5
  7

 75
    16
 76
     0
 77
     2
 78
   300
147
1.0
148
0.0
149
0.0
100
AcDbLayout
  1
Layout1
 70
     1
 71
     1
 10
0.0
 20
0.0
 11
12.0
 21
9.0
 12
0.0
 22
0.0
 32
0.0
 14
1.000000000000000E+20
 24
1.000000000000000E+20
 34
1.000000000000000E+20
 15
-1.000000000000000E+20
 25
-1.000000000000000E+20
 35
-1.000000000000000E+20
146
0.0
 13
0.0
 23
0.0
 33
0.0
 16
1.0
 26
0.0
 36
0.0
 17
0.0
 27
1.0
 37
0.0
 76
     0
330
1B
  0
LAYOUT
  5
26
102
{ACAD_REACTORS
330
1A
102
}
330
1A
100
AcDbPlotSettings
  1

  2
none_device
  4

  6

 40
0.0
 41
0.0
 42
0.0
 43
0.0
 44
0.0
 45
0.0
 46
0.0
 47
0.0
 48
0.0
 49
0.0
140
0.0
141
0.0
142
1.0
143
1.0
 70
   688
 72
     0
 73
     0
 74
     5
  7

 75
    16
 76
     0
 77
     2
 78
   300
147
1.0
148
0.0
149
0.0
100
AcDbLayout
  1
Layout2
 70
     1
 71
     2
 10
0.0
 20
0.0
 11
0.0
 21
0.0
 12
0.0
 22
0.0
 32
0.0
 14
0.0
 24
0.0
 34
0.0
 15
0.0
 25
0.0
 35
0.0
146
0.0
 13
0.0
 23
0.0
 33
0.0
 16
1.0
 26
0.0
 36
0.0
 17
0.0
 27
1.0
 37
0.0
 76
     0
330
23
  0
LAYOUT
  5
22
102
{ACAD_REACTORS
330
1A
102
}
330
1A
100
AcDbPlotSettings
  1

  2
none_device
  4

  6

 40
0.0
 41
0.0
 42
0.0
 43
0.0
 44
0.0
 45
0.0
 46
0.0
 47
0.0
 48
0.0
 49
0.0
140
0.0
141
0.0
142
1.0
143
1.0
 70
  1712
 72
     0
 73
     0
 74
     0
  7

 75
     0
 76
     0
 77
     2
 78
   300
147
1.0
148
0.0
149
0.0
100
AcDbLayout
  1
Model
 70
     1
 71
     0
 10
0.0
 20
0.0
 11
12.0
 21
9.0
 12
0.0
 22
0.0
 32
0.0
 14
-15.89478271107845
 24
-15.89478271107844
 34
-1.2
 15
15.89478271107845
 25
15.89478271107844
 35
0.0000000000000004
146
0.0
 13
0.0
 23
0.0
 33
0.0
 16
1.0
 26
0.0
 36
0.0
 17
0.0
 27
1.0
 37
0.0
 76
     0
330
1F
331
29
  0
MLINESTYLE
  5
18
102
{ACAD_REACTORS
330
17
102
}
330
17
100
AcDbMlineStyle
  2
Standard
 70
     0
  3

 62
   256
 51
90.0
 52
90.0
 71
     2
 49
0.5
 62
   256
  6
BYLAYER
 49
-0.5
 62
   256
  6
BYLAYER
  0
ACDBPLACEHOLDER
  5
F
102
{ACAD_REACTORS
330
E
102
}
330
E
  0
VISUALSTYLE
  5
2F
102
{ACAD_REACTORS
330
2A
102
}
330
2A
100
AcDbVisualStyle
  2
2dWireframe
 70
     4
 71
     0
 72
     2
 73
     0
 90
        0
 40
-0.6
 41
-30.0
 62
     5
 63
     7
421
 16777215
 74
     1
 91
        4
 64
     7
 65
   257
 75
     1
175
     1
 42
1.0
 92
        0
 66
   257
 43
1.0
 76
     1
 77
     6
 78
     2
 67
     7
 79
     5
170
     0
171
     0
290
     0
174
     0
 93
        1
 44
0.0
173
     0
291
     0
 45
0.0
1001
ACAD
1000
AcDbSavedByObjectVersion
1070
     0
  0
VISUALSTYLE
  5
31
102
{ACAD_REACTORS
330
2A
102
}
330
2A
100
AcDbVisualStyle
  2
3D Hidden
 70
     6
 71
     1
 72
     2
 73
     2
 90
        0
 40
-0.6
 41
-30.0
 62
     5
 63
     7
421
 16777215
 74
     2
 91
        2
 64
     7
 65
   257
 75
     2
175
     1
 42
40.0
 92
        0
 66
   257
 43
1.0
 76
     1
 77
     6
 78
     2
 67
     7
 79
     3
170
     0
171
     0
290
     0
174
     0
 93
        1
 44
0.0
173
     0
291
     0
 45
0.0
1001
ACAD
1000
AcDbSavedByObjectVersion
1070
     0
  0
VISUALSTYLE
  5
30
102
{ACAD_REACTORS
330
2A
102
}
330
2A
100
AcDbVisualStyle
  2
3dWireframe
 70
     5
 71
     0
 72
     2
 73
     0
 90
        0
 40
-0.6
 41
-30.0
 62
     5
 63
     7
421
 16777215
 74
     1
 91
        4
 64
     7
 65
   257
 75
     1
175
     1
 42
1.0
 92
        0
 66
   257
 43
1.0
 76
     1
 77
     6
 78
     2
 67
     7
 79
     5
170
     0
171
     0
290
     0
174
     0
 93
        1
 44
0.0
173
     0
291
     0
 45
0.0
1001
ACAD
1000
AcDbSavedByObjectVersion
1070
     0
  0
VISUALSTYLE
  5
32
102
{ACAD_REACTORS
330
2A
102
}
330
2A
100
AcDbVisualStyle
  2
Basic
 70
     7
 71
     1
 72
     0
 73
     1
 90
        0
 40
-0.6
 41
-30.0
 62
     5
 63
     7
421
 16777215
 74
     0
 91
        4
 64
     7
 65
   257
 75
     1
175
     1
 42
1.0
 92
        8
 66
     7
 43
1.0
 76
     1
 77
     6
 78
     2
 67
     7
 79
     5
170
     0
171
     0
290
     0
174
     0
 93
        1
 44
0.0
173
     0
291
     1
 45
0.0
1001
ACAD
1000
AcDbSavedByObjectVersion
1070
     0
  0
VISUALSTYLE
  5
36
102
{ACAD_REACTORS
330
2A
102
}
330
2A
100
AcDbVisualStyle
  2
Brighten
 70
    12
 71
     2
 72
     2
 73
     0
 90
        0
 40
-0.6
 41
-30.0
 62
     5
 63
     7
421
 16777215
 74
     1
 91
        4
 64
     7
 65
   257
 75
     1
175
     1
 42
1.0
 92
        8
 66
     7
 43
1.0
 76
     1
 77
     6
 78
     2
 67
     7
 79
     5
170
     0
171
     0
290
     0
174
     0
 93
        1
 44
50.0
173
     0
291
     1
 45
0.0
1001
ACAD
1000
AcDbSavedByObjectVersion
1070
     0
  0
VISUALSTYLE
  5
3A
102
{ACAD_REACTORS
330
2A
102
}
330
2A
100
AcDbVisualStyle
  2
ColorChange
 70
    16
 71
     2
 72
     2
 73
     3
 90
        0
 40
-0.6
 41
-30.0
 62
     5
 63
     8
421
  8421504
 74
     1
 91
        4
 64
     7
 65
   257
 75
     1
175
     1
 42
1.0
 92
        8
 66
     8
424
  8421504
 43
1.0
 76
     1
 77
     6
 78
     2
 67
     7
 79
     5
170
     0
171
     0
290
     0
174
     0
 93
        1
 44
0.0
173
     0
291
     1
 45
0.0
1001
ACAD
1000
AcDbSavedByObjectVersion
1070
     0
  0
VISUALSTYLE
  5
34
102
{ACAD_REACTORS
330
2A
102
}
330
2A
100
AcDbVisualStyle
  2
Conceptual
 70
     9
 71
     3
 72
     2
 73
     0
 90
        0
 40
-0.6
 41
-30.0
 62
     5
 63
     7
421
 16777215
 74
     2
 91
        2
 64
     7
 65
   257
 75
     1
175
     1
 42
40.0
 92
        8
 66
     7
 43
1.0
 76
     1
 77
     6
 78
     2
 67
     7
 79
     3
170
     0
171
     0
290
     0
174
     0
 93
        1
 44
0.0
173
     0
291
     0
 45
0.0
1001
ACAD
1000
AcDbSavedByObjectVersion
1070
     0
  0
VISUALSTYLE
  5
35
102
{ACAD_REACTORS
330
2A
102
}
330
2A
100
AcDbVisualStyle
  2
Dim
 70
    11
 71
     2
 72
     2
 73
     0
 90
        0
 40
-0.6
 41
-30.0
 62
     5
 63
     7
421
 16777215
 74
     1
 91
        4
 64
     7
 65
   257
 75
     1
175
     1
 42
1.0
 92
        8
 66
     7
 43
1.0
 76
     1
 77
     6
 78
     2
 67
     7
 79
     5
170
     0
171
     0
290
     0
174
     0
 93
        1
 44
-50.0
173
     0
291
     1
 45
0.0
1001
ACAD
1000
AcDbSavedByObjectVersion
1070
     0
  0
VISUALSTYLE
  5
39
102
{ACAD_REACTORS
330
2A
102
}
330
2A
100
AcDbVisualStyle
  2
Facepattern
 70
    15
 71
     2
 72
     2
 73
     0
 90
        0
 40
-0.6
 41
-30.0
 62
     5
 63
     7
421
 16777215
 74
     1
 91
        4
 64
     7
 65
   257
 75
     1
175
     1
 42
1.0
 92
        8
 66
     7
 43
1.0
 76
     1
 77
     6
 78
     2
 67
     7
 79
     5
170
     0
171
     0
290
     0
174
     0
 93
        1
 44
0.0
173
     0
291
     1
 45
0.0
1001
ACAD
1000
AcDbSavedByObjectVersion
1070
     0
  0
VISUALSTYLE
  5
2B
102
{ACAD_REACTORS
330
2A
102
}
330
2A
100
AcDbVisualStyle
  2
Flat
 70
     0
 71
     2
 72
     1
 73
     1
 90
        2
 40
-0.6
 41
30.0
 62
     5
 63
     7
421
 16777215
 74
     0
 91
        4
 64
     7
 65
   257
 75
     1
175
     1
 42
1.0
 92
        8
 66
     7
 43
1.0
 76
     1
 77
     6
 78
     2
 67
     7
 79
     5
170
     0
171
     0
290
     0
174
     0
 93
       13
 44
0.0
173
     0
291
     1
 45
0.0
1001
ACAD
1000
AcDbSavedByObjectVersion
1070
     0
  0
VISUALSTYLE
  5
2C
102
{ACAD_REACTORS
330
2A
102
}
330
2A
100
AcDbVisualStyle
  2
FlatWithEdges
 70
     1
 71
     2
 72
     1
 73
     1
 90
        2
 40
-0.6
 41
30.0
 62
     5
 63
     7
421
 16777215
 74
     1
 91
        4
 64
     7
 65
   257
 75
     1
175
     1
 42
1.0
 92
        0
 66
   257
 43
1.0
 76
     1
 77
     6
 78
     2
 67
     7
 79
     5
170
     0
171
     0
290
     0
174
     0
 93
       13
 44
0.0
173
     0
291
     1
 45
0.0
1001
ACAD
1000
AcDbSavedByObjectVersion
1070
     0
  0
VISUALSTYLE
  5
2D
102
{ACAD_REACTORS
330
2A
102
}
330
2A
100
AcDbVisualStyle
  2
Gouraud
 70
     2
 71
     2
 72
     2
 73
     1
 90
        2
 40
-0.6
 41
30.0
 62
     5
 63
     7
421
 16777215
 74
     0
 91
        4
 64
     7
 65
   257
 75
     1
175
     1
 42
1.0
 92
        0
 66
     7
 43
1.0
 76
     1
 77
     6
 78
     2
 67
     7
 79
     5
170
     0
171
     0
290
     0
174
     0
 93
       13
 44
0.0
173
     0
291
     1
 45
0.0
1001
ACAD
1000
AcDbSavedByObjectVersion
1070
     0
  0
VISUALSTYLE
  5
2E
102
{ACAD_REACTORS
330
2A
102
}
330
2A
100
AcDbVisualStyle
  2
GouraudWithEdges
 70
     3
 71
     2
 72
     2
 73
     1
 90
        2
 40
-0.6
 41
30.0
 62
     5
 63
     7
421
 16777215
 74
     1
 91
        4
 64
     7
 65
   257
 75
     1
175
     1
 42
1.0
 92
        0
 66
   257
 43
1.0
 76
     1
 77
     6
 78
     2
 67
     7
 79
     5
170
     0
171
     0
290
     0
174
     0
 93
       13
 44
0.0
173
     0
291
     1
 45
0.0
1001
ACAD
1000
AcDbSavedByObjectVersion
1070
     0
  0
VISUALSTYLE
  5
38
102
{ACAD_REACTORS
330
2A
102
}
330
2A
100
AcDbVisualStyle
  2
Linepattern
 70
    14
 71
     2
 72
     2
 73
     0
 90
        0
 40
-0.6
 41
-30.0
 62
     5
 63
     7
421
 16777215
 74
     1
 91
        4
 64
     7
 65
   257
 75
     7
175
     7
 42
1.0
 92
        8
 66
     7
 43
1.0
 76
     1
 77
     6
 78
     2
 67
     7
 79
     5
170
     0
171
     0
290
     0
174
     0
 93
        1
 44
0.0
173
     0
291
     1
 45
0.0
1001
ACAD
1000
AcDbSavedByObjectVersion
1070
     0
  0
VISUALSTYLE
  5
33
102
{ACAD_REACTORS
330
2A
102
}
330
2A
100
AcDbVisualStyle
  2
Realistic
 70
     8
 71
     2
 72
     2
 73
     0
 90
        0
 40
-0.6
 41
-30.0
 62
     5
 63
     7
421
 16777215
 74
     1
 91
        0
 64
     7
 65
   257
 75
     1
175
     1
 42
1.0
 92
        8
 66
     8
424
  7895160
 43
1.0
 76
     1
 77
     6
 78
     2
 67
     7
 79
     5
170
     0
171
     0
290
     0
174
     0
 93
       13
 44
0.0
173
     0
291
     0
 45
0.0
1001
ACAD
1000
AcDbSavedByObjectVersion
1070
     0
  0
VISUALSTYLE
  5
37
102
{ACAD_REACTORS
330
2A
102
}
330
2A
100
AcDbVisualStyle
  2
Thicken
 70
    13
 71
     2
 72
     2
 73
     0
 90
        0
 40
-0.6
 41
-30.0
 62
     5
 63
     7
421
 16777215
 74
     1
 91
        4
 64
     7
 65
   257
 75
     1
175
     1
 42
1.0
 92
       12
 66
     7
 43
1.0
 76
     1
 77
     6
 78
     2
 67
     7
 79
     5
170
     0
171
     0
290
     0
174
     0
 93
        1
 44
0.0
173
     0
291
     1
 45
0.0
1001
ACAD
1000
AcDbSavedByObjectVersion
1070
     0
  0
ENDSEC
  0
EOF
