  0
SECTION
  2
HEADER
  9
$ACADVER
  1
AC1009
  0
ENDSEC
  0
SECTION
  2
BLOCKS
  0
ENDSEC
  0
SECTION
  2
ENTITIES
  0
LINE
  8
CutLine
  6
CONTINUOUS
 62
8
 10
55.077527
 20
281.596987
 11
74.943480
 21
324.375841
  0
LINE
  8
MountainLine
  6
CONTINUOUS
 62
5
 10
45.402548
 20
295.645087
 11
55.077527
 21
281.596987
  0
LINE
  8
MountainLine
  6
CONTINUOUS
 62
5
 10
55.077527
 20
281.596987
 11
33.310252
 21
269.427575
  0
LINE
  8
CutLine
  6
CONTINUOUS
 62
8
 10
33.310252
 20
269.427575
 11
38.728557
 21
253.780324
  0
LINE
  8
CutLine
  6
CONTINUOUS
 62
8
 10
38.728557
 20
253.780324
 11
55.077527
 21
281.596987
  0
LINE
  8
CutLine
  6
CONTINUOUS
 62
8
 10
45.402548
 20
295.645087
 11
33.310252
 21
269.427575
  0
LINE
  8
CutLine
  6
CONTINUOUS
 62
8
 10
61.362097
 20
324.382755
 11
45.402548
 21
295.645087
  0
LINE
  8
MountainLine
  6
CONTINUOUS
 62
5
 10
74.943480
 20
324.375841
 11
61.362097
 21
324.382755
  0
LINE
  8
ValleyLine
  6
CONTINUOUS
 62
1
 10
74.943480
 20
324.375841
 11
66.156658
 21
358.888136
  0
LINE
  8
CutLine
  6
CONTINUOUS
 62
8
 10
88.150187
 20
378.961767
 11
66.156658
 21
358.888136
  0
LINE
  8
MountainLine
  6
CONTINUOUS
 62
5
 10
74.943480
 20
324.375841
 11
88.150187
 21
378.961767
  0
LINE
  8
CutLine
  6
CONTINUOUS
 62
8
 10
66.156658
 20
358.888136
 11
61.362097
 21
324.382755
  0
LINE
  8
MountainLine
  6
CONTINUOUS
 62
5
 10
205.950943
 20
326.697796
 11
137.149501
 21
303.055000
  0
LINE
  8
CutLine
  6
CONTINUOUS
 62
8
 10
137.149501
 20
303.055000
 11
198.757142
 21
290.506138
  0
LINE
  8
MountainLine
  6
CONTINUOUS
 62
5
 10
198.757142
 20
290.506138
 11
205.950943
 21
326.697796
  0
LINE
  8
CutLine
  6
CONTINUOUS
 62
8
 10
205.950943
 20
326.697796
 11
156.343056
 21
348.931056
  0
LINE
  8
MountainLine
  6
CONTINUOUS
 62
5
 10
156.343056
 20
348.931056
 11
137.149501
 21
303.055000
  0
LINE
  8
ValleyLine
  6
CONTINUOUS
 62
1
 10
156.343056
 20
348.931056
 11
96.769885
 21
316.296387
  0
LINE
  8
CutLine
  6
CONTINUOUS
 62
8
 10
96.769885
 20
316.296387
 11
137.149501
 21
303.055000
  0
LINE
  8
MountainLine
  6
CONTINUOUS
 62
5
 10
113.391630
 20
370.811874
 11
96.769885
 21
316.296387
  0
LINE
  8
CutLine
  6
CONTINUOUS
 62
8
 10
113.391630
 20
370.811874
 11
88.150187
 21
378.961767
  0
LINE
  8
CutLine
  6
CONTINUOUS
 62
8
 10
156.343056
 20
348.931056
 11
113.391630
 21
370.811874
  0
LINE
  8
CutLine
  6
CONTINUOUS
 62
8
 10
74.943480
 20
324.375841
 11
96.769885
 21
316.296387
  0
LINE
  8
MountainLine
  6
CONTINUOUS
 62
5
 10
268.148615
 20
290.953164
 11
280.682610
 21
322.618525
  0
LINE
  8
ValleyLine
  6
CONTINUOUS
 62
1
 10
280.682610
 20
322.618525
 11
198.757142
 21
290.506138
  0
LINE
  8
CutLine
  6
CONTINUOUS
 62
8
 10
198.757142
 20
290.506138
 11
268.148615
 21
290.953164
  0
LINE
  8
MountainLine
  6
CONTINUOUS
 62
5
 10
319.037382
 20
284.440146
 11
336.200795
 21
315.409402
  0
LINE
  8
CutLine
  6
CONTINUOUS
 62
8
 10
268.148615
 20
290.953164
 11
319.037382
 21
284.440146
  0
LINE
  8
MountainLine
  6
CONTINUOUS
 62
5
 10
319.037382
 20
284.440146
 11
391.326255
 21
297.962500
  0
LINE
  8
MountainLine
  6
CONTINUOUS
 62
5
 10
366.446570
 20
265.749563
 11
391.326255
 21
297.962500
  0
LINE
  8
MountainLine
  6
CONTINUOUS
 62
5
 10
417.815037
 20
247.615306
 11
450.259946
 21
277.534746
  0
LINE
  8
ValleyLine
  6
CONTINUOUS
 62
1
 10
450.259946
 20
277.534746
 11
366.446570
 21
265.749563
  0
LINE
  8
CutLine
  6
CONTINUOUS
 62
8
 10
366.446570
 20
265.749563
 11
417.815037
 21
247.615306
  0
LINE
  8
CutLine
  6
CONTINUOUS
 62
8
 10
450.259946
 20
277.534746
 11
391.326255
 21
297.962500
  0
LINE
  8
CutLine
  6
CONTINUOUS
 62
8
 10
280.682610
 20
322.618525
 11
205.950943
 21
326.697796
  0
LINE
  8
CutLine
  6
CONTINUOUS
 62
8
 10
336.200795
 20
315.409402
 11
280.682610
 21
322.618525
  0
LINE
  8
CutLine
  6
CONTINUOUS
 62
8
 10
391.326255
 20
297.962500
 11
336.200795
 21
315.409402
  0
LINE
  8
CutLine
  6
CONTINUOUS
 62
8
 10
319.037382
 20
284.440146
 11
366.446570
 21
265.749563
  0
LINE
  8
CutLine
  6
CONTINUOUS
 62
8
 10
417.815037
 20
247.615306
 11
461.863922
 21
233.800713
  0
LINE
  8
CutLine
  6
CONTINUOUS
 62
8
 10
478.488526
 20
270.062649
 11
450.259946
 21
277.534746
  0
LINE
  8
MountainLine
  6
CONTINUOUS
 62
5
 10
461.863922
 20
233.800713
 11
478.488526
 21
270.062649
  0
LINE
  8
CutLine
  6
CONTINUOUS
 62
8
 10
461.863922
 20
233.800713
 11
498.404869
 21
262.734760
  0
LINE
  8
CutLine
  6
CONTINUOUS
 62
8
 10
498.404869
 20
262.734760
 11
478.488526
 21
270.062649
  0
LINE
  8
MountainLine
  6
CONTINUOUS
 62
5
 10
406.169481
 20
234.471576
 11
383.398559
 21
195.587852
  0
LINE
  8
ValleyLine
  6
CONTINUOUS
 62
1
 10
383.398559
 20
195.587852
 11
459.605168
 21
226.758345
  0
LINE
  8
CutLine
  6
CONTINUOUS
 62
8
 10
459.605168
 20
226.758345
 11
406.169481
 21
234.471576
  0
LINE
  8
MountainLine
  6
CONTINUOUS
 62
5
 10
434.780328
 20
184.826729
 11
459.605168
 21
226.758345
  0
LINE
  8
CutLine
  6
CONTINUOUS
 62
8
 10
383.398559
 20
195.587852
 11
434.780328
 21
184.826729
  0
LINE
  8
CutLine
  6
CONTINUOUS
 62
8
 10
506.188751
 20
222.491396
 11
459.605168
 21
226.758345
  0
LINE
  8
MountainLine
  6
CONTINUOUS
 62
5
 10
459.605168
 20
226.758345
 11
472.550100
 21
180.835479
  0
LINE
  8
CutLine
  6
CONTINUOUS
 62
8
 10
472.550100
 20
180.835479
 11
506.188751
 21
222.491396
  0
LINE
  8
CutLine
  6
CONTINUOUS
 62
8
 10
434.780328
 20
184.826729
 11
472.550100
 21
180.835479
  0
LINE
  8
MountainLine
  6
CONTINUOUS
 62
5
 10
351.170787
 20
243.330094
 11
336.959879
 21
211.219088
  0
LINE
  8
MountainLine
  6
CONTINUOUS
 62
5
 10
336.959879
 20
211.219088
 11
406.169481
 21
234.471576
  0
LINE
  8
CutLine
  6
CONTINUOUS
 62
8
 10
336.959879
 20
211.219088
 11
383.398559
 21
195.587852
  0
LINE
  8
ValleyLine
  6
CONTINUOUS
 62
1
 10
351.170787
 20
243.330094
 11
285.820187
 21
220.873089
  0
LINE
  8
CutLine
  6
CONTINUOUS
 62
8
 10
285.820187
 20
220.873089
 11
336.959879
 21
211.219088
  0
LINE
  8
MountainLine
  6
CONTINUOUS
 62
5
 10
297.862467
 20
250.042076
 11
285.820187
 21
220.873089
  0
LINE
  8
CutLine
  6
CONTINUOUS
 62
8
 10
154.041215
 20
249.171975
 11
223.337358
 21
230.975699
  0
LINE
  8
MountainLine
  6
CONTINUOUS
 62
5
 10
223.337358
 20
230.975699
 11
226.662202
 21
256.406068
  0
LINE
  8
ValleyLine
  6
CONTINUOUS
 62
1
 10
226.662202
 20
256.406068
 11
154.041215
 21
249.171975
  0
LINE
  8
MountainLine
  6
CONTINUOUS
 62
5
 10
166.031372
 20
279.335030
 11
154.041215
 21
249.171975
  0
LINE
  8
MountainLine
  6
CONTINUOUS
 62
5
 10
124.257485
 20
300.114630
 11
110.231067
 21
271.027766
  0
LINE
  8
CutLine
  6
CONTINUOUS
 62
8
 10
166.031372
 20
279.335030
 11
124.257485
 21
300.114630
  0
LINE
  8
CutLine
  6
CONTINUOUS
 62
8
 10
110.231067
 20
271.027766
 11
154.041215
 21
249.171975
  0
LINE
  8
CutLine
  6
CONTINUOUS
 62
8
 10
104.767729
 20
309.001487
 11
80.204796
 21
272.814366
  0
LINE
  8
MountainLine
  6
CONTINUOUS
 62
5
 10
80.204796
 20
272.814366
 11
124.257485
 21
300.114630
  0
LINE
  8
CutLine
  6
CONTINUOUS
 62
8
 10
124.257485
 20
300.114630
 11
104.767729
 21
309.001487
  0
LINE
  8
CutLine
  6
CONTINUOUS
 62
8
 10
84.857035
 20
225.458873
 11
110.231067
 21
271.027766
  0
LINE
  8
ValleyLine
  6
CONTINUOUS
 62
1
 10
80.204796
 20
272.814366
 11
84.857035
 21
225.458873
  0
LINE
  8
CutLine
  6
CONTINUOUS
 62
8
 10
80.204796
 20
272.814366
 11
59.109416
 21
236.758144
  0
LINE
  8
MountainLine
  6
CONTINUOUS
 62
5
 10
59.109416
 20
236.758144
 11
84.857035
 21
225.458873
  0
LINE
  8
CutLine
  6
CONTINUOUS
 62
8
 10
63.829029
 20
221.821921
 11
70.737131
 21
197.121157
  0
LINE
  8
CutLine
  6
CONTINUOUS
 62
8
 10
70.737131
 20
197.121157
 11
84.857035
 21
225.458873
  0
LINE
  8
ValleyLine
  6
CONTINUOUS
 62
1
 10
84.857035
 20
225.458873
 11
63.829029
 21
221.821921
  0
LINE
  8
CutLine
  6
CONTINUOUS
 62
8
 10
59.109416
 20
236.758144
 11
63.829029
 21
221.821921
  0
LINE
  8
ValleyLine
  6
CONTINUOUS
 62
1
 10
297.862467
 20
250.042076
 11
223.337358
 21
230.975699
  0
LINE
  8
CutLine
  6
CONTINUOUS
 62
8
 10
223.337358
 20
230.975699
 11
285.820187
 21
220.873089
  0
LINE
  8
CutLine
  6
CONTINUOUS
 62
8
 10
297.862467
 20
250.042076
 11
226.662202
 21
256.406068
  0
LINE
  8
CutLine
  6
CONTINUOUS
 62
8
 10
351.170787
 20
243.330094
 11
297.862467
 21
250.042076
  0
LINE
  8
CutLine
  6
CONTINUOUS
 62
8
 10
406.169481
 20
234.471576
 11
351.170787
 21
243.330094
  0
LINE
  8
CutLine
  6
CONTINUOUS
 62
8
 10
226.662202
 20
256.406068
 11
166.031372
 21
279.335030
  0
LINE
  8
MountainLine
  6
CONTINUOUS
 62
5
 10
579.728842
 20
279.695181
 11
550.971278
 21
285.057708
  0
LINE
  8
MountainLine
  6
CONTINUOUS
 62
5
 10
550.971278
 20
285.057708
 11
590.183205
 21
234.542832
  0
LINE
  8
MountainLine
  6
CONTINUOUS
 62
5
 10
552.707809
 20
244.675088
 11
563.490261
 21
245.178689
  0
LINE
  8
ValleyLine
  6
CONTINUOUS
 62
1
 10
563.490261
 20
245.178689
 11
550.971278
 21
285.057708
  0
LINE
  8
CutLine
  6
CONTINUOUS
 62
8
 10
563.490261
 20
245.178689
 11
590.183205
 21
234.542832
  0
LINE
  8
ValleyLine
  6
CONTINUOUS
 62
1
 10
554.669929
 20
354.615671
 11
579.728842
 21
279.695181
  0
LINE
  8
CutLine
  6
CONTINUOUS
 62
8
 10
579.728842
 20
279.695181
 11
588.910172
 21
318.149184
  0
LINE
  8
CutLine
  6
CONTINUOUS
 62
8
 10
588.910172
 20
318.149184
 11
554.669929
 21
354.615671
  0
LINE
  8
CutLine
  6
CONTINUOUS
 62
8
 10
590.183205
 20
234.542832
 11
579.728842
 21
279.695181
  0
LINE
  8
ValleyLine
  6
CONTINUOUS
 62
1
 10
569.901434
 20
205.933697
 11
563.490261
 21
245.178689
  0
LINE
  8
ValleyLine
  6
CONTINUOUS
 62
1
 10
563.490261
 20
245.178689
 11
555.812381
 21
203.282895
  0
LINE
  8
MountainLine
  6
CONTINUOUS
 62
5
 10
555.812381
 20
203.282895
 11
569.901434
 21
205.933697
  0
LINE
  8
ValleyLine
  6
CONTINUOUS
 62
1
 10
567.475323
 20
157.307443
 11
569.901434
 21
205.933697
  0
LINE
  8
ValleyLine
  6
CONTINUOUS
 62
1
 10
569.901434
 20
205.933697
 11
556.566552
 21
158.228820
  0
LINE
  8
MountainLine
  6
CONTINUOUS
 62
5
 10
556.566552
 20
158.228820
 11
567.475323
 21
157.307443
  0
LINE
  8
CutLine
  6
CONTINUOUS
 62
8
 10
555.812381
 20
203.282895
 11
556.566552
 21
158.228820
  0
LINE
  8
CutLine
  6
CONTINUOUS
 62
8
 10
550.971278
 20
285.057708
 11
552.707809
 21
244.675088
  0
LINE
  8
MountainLine
  6
CONTINUOUS
 62
5
 10
563.490261
 20
245.178689
 11
585.891755
 21
204.288939
  0
LINE
  8
CutLine
  6
CONTINUOUS
 62
8
 10
585.891755
 20
204.288939
 11
590.694055
 21
235.927295
  0
LINE
  8
CutLine
  6
CONTINUOUS
 62
8
 10
590.694055
 20
235.927295
 11
563.490261
 21
245.178689
  0
LINE
  8
CutLine
  6
CONTINUOUS
 62
8
 10
569.901434
 20
205.933697
 11
585.891755
 21
204.288939
  0
LINE
  8
MountainLine
  6
CONTINUOUS
 62
5
 10
585.938956
 20
204.841229
 11
567.475323
 21
157.307443
  0
LINE
  8
CutLine
  6
CONTINUOUS
 62
8
 10
567.475323
 20
157.307443
 11
580.531579
 21
160.034045
  0
LINE
  8
CutLine
  6
CONTINUOUS
 62
8
 10
585.938956
 20
204.841229
 11
569.901434
 21
205.933697
  0
LINE
  8
CutLine
  6
CONTINUOUS
 62
8
 10
580.531579
 20
160.034045
 11
585.938956
 21
204.841229
  0
LINE
  8
CutLine
  6
CONTINUOUS
 62
8
 10
575.826601
 20
87.237450
 11
574.527393
 21
120.151835
  0
LINE
  8
ValleyLine
  6
CONTINUOUS
 62
1
 10
574.527393
 20
120.151835
 11
569.386708
 21
87.949287
  0
LINE
  8
MountainLine
  6
CONTINUOUS
 62
5
 10
566.876046
 20
118.006062
 11
567.475323
 21
157.307443
  0
LINE
  8
ValleyLine
  6
CONTINUOUS
 62
1
 10
566.876046
 20
118.006062
 11
580.723543
 21
158.851735
  0
LINE
  8
ValleyLine
  6
CONTINUOUS
 62
1
 10
577.053909
 20
36.784141
 11
571.372513
 21
62.611230
  0
LINE
  8
CutLine
  6
CONTINUOUS
 62
8
 10
571.372513
 20
62.611230
 11
573.050209
 21
37.631358
  0
LINE
  8
CutLine
  6
CONTINUOUS
 62
8
 10
573.050209
 20
37.631358
 11
577.053909
 21
36.784141
  0
LINE
  8
MountainLine
  6
CONTINUOUS
 62
5
 10
575.772343
 20
62.556437
 11
571.372513
 21
62.611230
  0
LINE
  8
MountainLine
  6
CONTINUOUS
 62
5
 10
575.772343
 20
62.556437
 11
564.624543
 21
87.260665
  0
LINE
  8
CutLine
  6
CONTINUOUS
 62
8
 10
564.624543
 20
87.260665
 11
571.372513
 21
62.611230
  0
LINE
  8
ValleyLine
  6
CONTINUOUS
 62
1
 10
581.626111
 20
35.254847
 11
575.772343
 21
62.556437
  0
LINE
  8
CutLine
  6
CONTINUOUS
 62
8
 10
577.053909
 20
36.784141
 11
581.626111
 21
35.254847
  0
LINE
  8
MountainLine
  6
CONTINUOUS
 62
5
 10
569.386708
 20
87.949287
 11
566.876046
 21
118.006062
  0
LINE
  8
CutLine
  6
CONTINUOUS
 62
8
 10
566.876046
 20
118.006062
 11
564.624543
 21
87.260665
  0
LINE
  8
MountainLine
  6
CONTINUOUS
 62
5
 10
564.624543
 20
87.260665
 11
569.386708
 21
87.949287
  0
LINE
  8
ValleyLine
  6
CONTINUOUS
 62
1
 10
575.772343
 20
62.556437
 11
569.386708
 21
87.949287
  0
LINE
  8
MountainLine
  6
CONTINUOUS
 62
5
 10
574.527393
 20
120.151835
 11
566.876046
 21
118.006062
  0
LINE
  8
CutLine
  6
CONTINUOUS
 62
8
 10
574.527393
 20
120.151835
 11
580.723543
 21
158.851735
  0
LINE
  8
CutLine
  6
CONTINUOUS
 62
8
 10
580.723543
 20
158.851735
 11
567.475323
 21
157.307443
  0
LINE
  8
CutLine
  6
CONTINUOUS
 62
8
 10
556.566552
 20
158.228820
 11
566.876046
 21
118.006062
  0
LINE
  8
CutLine
  6
CONTINUOUS
 62
8
 10
569.386708
 20
87.949287
 11
575.826601
 21
87.237450
  0
LINE
  8
ValleyLine
  6
CONTINUOUS
 62
1
 10
575.856132
 20
88.303529
 11
575.772343
 21
62.556437
  0
LINE
  8
CutLine
  6
CONTINUOUS
 62
8
 10
575.772343
 20
62.556437
 11
582.786176
 21
64.931546
  0
LINE
  8
CutLine
  6
CONTINUOUS
 62
8
 10
575.856132
 20
88.303529
 11
569.386708
 21
87.949287
  0
LINE
  8
CutLine
  6
CONTINUOUS
 62
8
 10
582.786176
 20
64.931546
 11
575.856132
 21
88.303529
  0
LINE
  8
MountainLine
  6
CONTINUOUS
 62
5
 10
582.528977
 20
65.586765
 11
581.626111
 21
35.254847
  0
LINE
  8
MountainLine
  6
CONTINUOUS
 62
5
 10
581.626111
 20
35.254847
 11
589.969994
 21
37.135633
  0
LINE
  8
CutLine
  6
CONTINUOUS
 62
8
 10
589.969994
 20
37.135633
 11
582.528977
 21
65.586765
  0
LINE
  8
CutLine
  6
CONTINUOUS
 62
8
 10
582.528977
 20
65.586765
 11
575.772343
 21
62.556437
  0
LINE
  8
ValleyLine
  6
CONTINUOUS
 62
1
 10
589.969994
 20
37.135633
 11
585.865315
 21
11.178877
  0
LINE
  8
CutLine
  6
CONTINUOUS
 62
8
 10
585.865315
 20
11.178877
 11
595.235860
 21
10.589502
  0
LINE
  8
CutLine
  6
CONTINUOUS
 62
8
 10
572.518576
 20
8.045343
 11
580.234579
 21
10.093459
  0
LINE
  8
MountainLine
  6
CONTINUOUS
 62
5
 10
580.234579
 20
10.093459
 11
573.251281
 21
38.305373
  0
LINE
  8
CutLine
  6
CONTINUOUS
 62
8
 10
573.251281
 20
38.305373
 11
572.518576
 21
8.045343
  0
LINE
  8
CutLine
  6
CONTINUOUS
 62
8
 10
577.081364
 20
36.863897
 11
573.251281
 21
38.305373
  0
LINE
  8
ValleyLine
  6
CONTINUOUS
 62
1
 10
580.234579
 20
10.093459
 11
577.081364
 21
36.863897
  0
LINE
  8
CutLine
  6
CONTINUOUS
 62
8
 10
580.234579
 20
10.093459
 11
585.865315
 21
11.178877
  0
LINE
  8
ValleyLine
  6
CONTINUOUS
 62
1
 10
585.865315
 20
11.178877
 11
577.081364
 21
36.863897
  0
LINE
  8
CutLine
  6
CONTINUOUS
 62
8
 10
581.626111
 20
35.254847
 11
577.081364
 21
36.863897
  0
LINE
  8
CutLine
  6
CONTINUOUS
 62
8
 10
595.235860
 20
10.589502
 11
589.969994
 21
37.135633
  0
LINE
  8
MountainLine
  6
CONTINUOUS
 62
5
 10
554.669929
 20
354.615671
 11
550.971278
 21
285.057708
  0
LINE
  8
CutLine
  6
CONTINUOUS
 62
8
 10
552.707809
 20
244.675088
 11
555.812381
 21
203.282895
  0
LINE
  8
CutLine
  6
CONTINUOUS
 62
8
 10
547.726651
 20
244.768207
 11
550.971278
 21
285.057708
  0
LINE
  8
ValleyLine
  6
CONTINUOUS
 62
1
 10
550.971278
 20
285.057708
 11
534.527637
 21
245.470002
  0
LINE
  8
CutLine
  6
CONTINUOUS
 62
8
 10
526.134296
 20
245.759892
 11
534.527637
 21
245.470002
  0
LINE
  8
CutLine
  6
CONTINUOUS
 62
8
 10
515.819618
 20
281.118371
 11
526.134296
 21
245.759892
  0
LINE
  8
MountainLine
  6
CONTINUOUS
 62
5
 10
550.971278
 20
285.057708
 11
533.384165
 21
283.246361
  0
LINE
  8
CutLine
  6
CONTINUOUS
 62
8
 10
533.384165
 20
283.246361
 11
515.819618
 21
281.118371
  0
LINE
  8
MountainLine
  6
CONTINUOUS
 62
5
 10
534.527637
 20
245.470002
 11
547.726651
 21
244.768207
  0
LINE
  8
CutLine
  6
CONTINUOUS
 62
8
 10
515.864630
 20
280.775016
 11
533.384165
 21
283.246361
  0
LINE
  8
CutLine
  6
CONTINUOUS
 62
8
 10
554.669929
 20
354.615671
 11
512.708264
 21
313.104607
  0
LINE
  8
CutLine
  6
CONTINUOUS
 62
8
 10
512.708264
 20
313.104607
 11
515.864630
 21
280.775016
  0
LINE
  8
MountainLine
  6
CONTINUOUS
 62
5
 10
531.293161
 20
159.853221
 11
529.267948
 21
197.961102
  0
LINE
  8
ValleyLine
  6
CONTINUOUS
 62
1
 10
529.267948
 20
197.961102
 11
520.311522
 21
162.583505
  0
LINE
  8
MountainLine
  6
CONTINUOUS
 62
5
 10
541.653147
 20
203.706490
 11
529.267948
 21
197.961102
  0
LINE
  8
CutLine
  6
CONTINUOUS
 62
8
 10
531.293161
 20
159.853221
 11
541.653147
 21
203.706490
  0
LINE
  8
MountainLine
  6
CONTINUOUS
 62
5
 10
541.653147
 20
203.706490
 11
534.527637
 21
245.470002
  0
LINE
  8
ValleyLine
  6
CONTINUOUS
 62
1
 10
534.527637
 20
245.470002
 11
529.267948
 21
197.961102
  0
LINE
  8
MountainLine
  6
CONTINUOUS
 62
5
 10
520.311522
 20
162.583505
 11
531.293161
 21
159.853221
  0
LINE
  8
CutLine
  6
CONTINUOUS
 62
8
 10
541.653147
 20
203.706490
 11
547.726651
 21
244.768207
  0
LINE
  8
MountainLine
  6
CONTINUOUS
 62
5
 10
534.527637
 20
245.470002
 11
517.007492
 21
197.903646
  0
LINE
  8
CutLine
  6
CONTINUOUS
 62
8
 10
526.265488
 20
246.976359
 11
517.007492
 21
197.903646
  0
LINE
  8
CutLine
  6
CONTINUOUS
 62
8
 10
517.007492
 20
197.903646
 11
529.267948
 21
197.961102
  0
LINE
  8
CutLine
  6
CONTINUOUS
 62
8
 10
534.527637
 20
245.470002
 11
526.265488
 21
246.976359
  0
LINE
  8
MountainLine
  6
CONTINUOUS
 62
5
 10
529.267948
 20
197.961102
 11
508.625868
 21
166.982261
  0
LINE
  8
CutLine
  6
CONTINUOUS
 62
8
 10
508.625868
 20
166.982261
 11
520.311522
 21
162.583505
  0
LINE
  8
CutLine
  6
CONTINUOUS
 62
8
 10
529.267948
 20
197.961102
 11
517.153394
 21
199.847810
  0
LINE
  8
CutLine
  6
CONTINUOUS
 62
8
 10
517.153394
 20
199.847810
 11
508.625868
 21
166.982261
  0
LINE
  8
MountainLine
  6
CONTINUOUS
 62
5
 10
519.741157
 20
119.858707
 11
531.293161
 21
159.853221
  0
LINE
  8
CutLine
  6
CONTINUOUS
 62
8
 10
519.741157
 20
119.858707
 11
526.824784
 21
118.571392
  0
LINE
  8
CutLine
  6
CONTINUOUS
 62
8
 10
526.824784
 20
118.571392
 11
531.293161
 21
159.853221
  0
LINE
  8
ValleyLine
  6
CONTINUOUS
 62
1
 10
520.311522
 20
162.583505
 11
519.741157
 21
119.858707
  0
LINE
  8
ValleyLine
  6
CONTINUOUS
 62
1
 10
505.026459
 20
144.902424
 11
520.311495
 21
162.581521
  0
LINE
  8
CutLine
  6
CONTINUOUS
 62
8
 10
510.082097
 20
169.741336
 11
505.026459
 21
144.902424
  0
LINE
  8
MountainLine
  6
CONTINUOUS
 62
5
 10
515.215185
 20
89.372979
 11
514.230998
 21
122.480470
  0
LINE
  8
MountainLine
  6
CONTINUOUS
 62
5
 10
514.230998
 20
122.480470
 11
507.593101
 21
103.810520
  0
LINE
  8
MountainLine
  6
CONTINUOUS
 62
5
 10
507.593101
 20
103.810520
 11
515.215185
 21
89.372979
  0
LINE
  8
CutLine
  6
CONTINUOUS
 62
8
 10
507.593101
 20
103.810520
 11
511.926335
 21
84.661898
  0
LINE
  8
CutLine
  6
CONTINUOUS
 62
8
 10
511.926335
 20
84.661898
 11
515.215185
 21
89.372979
  0
LINE
  8
CutLine
  6
CONTINUOUS
 62
8
 10
505.026459
 20
144.902424
 11
501.556899
 21
121.479501
  0
LINE
  8
MountainLine
  6
CONTINUOUS
 62
5
 10
501.556899
 20
121.479501
 11
514.230998
 21
122.480470
  0
LINE
  8
MountainLine
  6
CONTINUOUS
 62
5
 10
514.230998
 20
122.480470
 11
505.026459
 21
144.902424
  0
LINE
  8
ValleyLine
  6
CONTINUOUS
 62
1
 10
515.215185
 20
89.372979
 11
519.741157
 21
119.858707
  0
LINE
  8
MountainLine
  6
CONTINUOUS
 62
5
 10
519.741157
 20
119.858707
 11
514.230998
 21
122.480470
  0
LINE
  8
ValleyLine
  6
CONTINUOUS
 62
1
 10
520.311495
 20
162.581521
 11
514.230998
 21
122.480470
  0
LINE
  8
CutLine
  6
CONTINUOUS
 62
8
 10
520.311495
 20
162.581521
 11
510.082097
 21
169.741336
  0
LINE
  8
CutLine
  6
CONTINUOUS
 62
8
 10
501.556899
 20
121.479501
 11
507.593101
 21
103.810520
  0
LINE
  8
MountainLine
  6
CONTINUOUS
 62
5
 10
520.383159
 20
63.572211
 11
515.214879
 21
89.370914
  0
LINE
  8
MountainLine
  6
CONTINUOUS
 62
5
 10
515.214879
 20
89.370914
 11
515.610267
 21
64.580911
  0
LINE
  8
CutLine
  6
CONTINUOUS
 62
8
 10
520.383159
 20
63.572211
 11
517.685171
 21
88.985802
  0
LINE
  8
MountainLine
  6
CONTINUOUS
 62
5
 10
517.685171
 20
88.985802
 11
519.741157
 21
119.858707
  0
LINE
  8
CutLine
  6
CONTINUOUS
 62
8
 10
517.685171
 20
88.985802
 11
526.798759
 21
118.435611
  0
LINE
  8
CutLine
  6
CONTINUOUS
 62
8
 10
526.798759
 20
118.435611
 11
519.741157
 21
119.858707
  0
LINE
  8
MountainLine
  6
CONTINUOUS
 62
5
 10
518.121892
 20
38.308086
 11
495.192892
 21
7.062179
  0
LINE
  8
CutLine
  6
CONTINUOUS
 62
8
 10
495.192892
 20
7.062179
 11
514.104739
 21
8.306939
  0
LINE
  8
CutLine
  6
CONTINUOUS
 62
8
 10
510.213020
 20
41.528956
 11
495.192892
 21
7.062179
  0
LINE
  8
MountainLine
  6
CONTINUOUS
 62
5
 10
518.121892
 20
38.308086
 11
515.610267
 21
64.580911
  0
LINE
  8
CutLine
  6
CONTINUOUS
 62
8
 10
511.137811
 20
66.327979
 11
510.213020
 21
41.528956
  0
LINE
  8
MountainLine
  6
CONTINUOUS
 62
5
 10
515.610267
 20
64.580911
 11
511.137811
 21
66.327979
  0
LINE
  8
ValleyLine
  6
CONTINUOUS
 62
1
 10
515.214879
 20
89.370914
 11
511.137811
 21
66.327979
  0
LINE
  8
CutLine
  6
CONTINUOUS
 62
8
 10
514.104739
 20
8.306939
 11
518.121892
 21
38.308086
  0
LINE
  8
CutLine
  6
CONTINUOUS
 62
8
 10
511.668393
 20
84.850598
 11
511.137811
 21
66.327979
  0
LINE
  8
CutLine
  6
CONTINUOUS
 62
8
 10
515.214879
 20
89.370914
 11
511.668393
 21
84.850598
  0
LINE
  8
CutLine
  6
CONTINUOUS
 62
8
 10
515.610267
 20
64.580911
 11
520.383159
 21
63.572211
  0
LINE
  8
CutLine
  6
CONTINUOUS
 62
8
 10
518.121892
 20
38.308086
 11
520.303245
 21
63.249024
  0
LINE
  8
CutLine
  6
CONTINUOUS
 62
8
 10
520.303245
 20
63.249024
 11
515.610267
 21
64.580911
  0
LINE
  8
CutLine
  6
CONTINUOUS
 62
8
 10
99.802693
 20
211.661707
 11
77.047665
 21
176.154683
  0
LINE
  8
MountainLine
  6
CONTINUOUS
 62
5
 10
77.047665
 20
176.154683
 11
124.913155
 21
182.661574
  0
LINE
  8
MountainLine
  6
CONTINUOUS
 62
5
 10
124.913155
 20
182.661574
 11
125.612888
 21
216.148494
  0
LINE
  8
CutLine
  6
CONTINUOUS
 62
8
 10
81.242821
 20
162.154989
 11
124.913155
 21
182.661574
  0
LINE
  8
CutLine
  6
CONTINUOUS
 62
8
 10
77.047665
 20
176.154683
 11
81.242821
 21
162.154989
  0
LINE
  8
CutLine
  6
CONTINUOUS
 62
8
 10
125.612888
 20
216.148494
 11
127.388021
 21
247.199623
  0
LINE
  8
CutLine
  6
CONTINUOUS
 62
8
 10
127.388021
 20
247.199623
 11
99.802693
 21
211.661707
  0
LINE
  8
MountainLine
  6
CONTINUOUS
 62
5
 10
158.776572
 20
188.760290
 11
168.103886
 21
223.574424
  0
LINE
  8
ValleyLine
  6
CONTINUOUS
 62
1
 10
168.103886
 20
223.574424
 11
124.913155
 21
182.661574
  0
LINE
  8
CutLine
  6
CONTINUOUS
 62
8
 10
124.913155
 20
182.661574
 11
158.776572
 21
188.760290
  0
LINE
  8
CutLine
  6
CONTINUOUS
 62
8
 10
168.103886
 20
223.574424
 11
127.607220
 21
247.186315
  0
LINE
  8
CutLine
  6
CONTINUOUS
 62
8
 10
127.607220
 20
247.186315
 11
125.612888
 21
216.148494
  0
LINE
  8
CutLine
  6
CONTINUOUS
 62
8
 10
158.776572
 20
188.760290
 11
193.119270
 21
192.231563
  0
LINE
  8
MountainLine
  6
CONTINUOUS
 62
5
 10
193.119270
 20
192.231563
 11
168.103886
 21
223.574424
  0
LINE
  8
CutLine
  6
CONTINUOUS
 62
8
 10
193.119270
 20
192.231563
 11
237.090659
 21
192.990630
  0
LINE
  8
ValleyLine
  6
CONTINUOUS
 62
1
 10
237.090659
 20
192.990630
 11
168.103886
 21
223.574424
  0
LINE
  8
CutLine
  6
CONTINUOUS
 62
8
 10
237.617427
 20
207.430354
 11
168.103886
 21
223.574424
  0
LINE
  8
MountainLine
  6
CONTINUOUS
 62
5
 10
237.090659
 20
192.990630
 11
237.617427
 21
207.430354
  0
LINE
  8
MountainLine
  6
CONTINUOUS
 62
5
 10
283.578119
 20
185.014955
 11
301.579124
 21
198.120596
  0
LINE
  8
CutLine
  6
CONTINUOUS
 62
8
 10
301.579124
 20
198.120596
 11
237.617427
 21
207.430354
  0
LINE
  8
MountainLine
  6
CONTINUOUS
 62
5
 10
316.869468
 20
173.693580
 11
301.579124
 21
198.120596
  0
LINE
  8
MountainLine
  6
CONTINUOUS
 62
5
 10
355.393466
 20
190.344757
 11
316.869468
 21
173.693580
  0
LINE
  8
CutLine
  6
CONTINUOUS
 62
8
 10
316.869468
 20
173.693580
 11
348.182098
 21
158.723480
  0
LINE
  8
CutLine
  6
CONTINUOUS
 62
8
 10
355.393466
 20
190.344757
 11
301.579124
 21
198.120596
  0
LINE
  8
MountainLine
  6
CONTINUOUS
 62
5
 10
348.182098
 20
158.723480
 11
355.393466
 21
190.344757
  0
LINE
  8
CutLine
  6
CONTINUOUS
 62
8
 10
405.142473
 20
175.209231
 11
355.393466
 21
190.344757
  0
LINE
  8
CutLine
  6
CONTINUOUS
 62
8
 10
348.182098
 20
158.723480
 11
387.685306
 21
133.273008
  0
LINE
  8
MountainLine
  6
CONTINUOUS
 62
5
 10
387.685306
 20
133.273008
 11
405.142473
 21
175.209231
  0
LINE
  8
MountainLine
  6
CONTINUOUS
 62
5
 10
438.861295
 20
126.737441
 11
459.013924
 21
167.137330
  0
LINE
  8
ValleyLine
  6
CONTINUOUS
 62
1
 10
459.013924
 20
167.137330
 11
387.685306
 21
133.273008
  0
LINE
  8
CutLine
  6
CONTINUOUS
 62
8
 10
387.685306
 20
133.273008
 11
438.861295
 21
126.737441
  0
LINE
  8
CutLine
  6
CONTINUOUS
 62
8
 10
459.013924
 20
167.137330
 11
405.142473
 21
175.209231
  0
LINE
  8
CutLine
  6
CONTINUOUS
 62
8
 10
497.289094
 20
170.807194
 11
459.013924
 21
167.137330
  0
LINE
  8
CutLine
  6
CONTINUOUS
 62
8
 10
476.199324
 20
128.338395
 11
497.289094
 21
170.807194
  0
LINE
  8
CutLine
  6
CONTINUOUS
 62
8
 10
438.861295
 20
126.737441
 11
476.199324
 21
128.338395
  0
LINE
  8
CutLine
  6
CONTINUOUS
 62
8
 10
237.090659
 20
192.990630
 11
283.578119
 21
185.014955
  0
LINE
  8
CutLine
  6
CONTINUOUS
 62
8
 10
283.578119
 20
185.014955
 11
316.869468
 21
173.693580
  0
LINE
  8
CutLine
  6
CONTINUOUS
 62
8
 10
152.185776
 20
414.489352
 11
166.521261
 21
437.576180
  0
LINE
  8
ValleyLine
  6
CONTINUOUS
 62
1
 10
166.521261
 20
437.576180
 11
132.321012
 21
415.691881
  0
LINE
  8
MountainLine
  6
CONTINUOUS
 62
5
 10
132.321012
 20
415.691881
 11
152.185776
 21
414.489352
  0
LINE
  8
MountainLine
  6
CONTINUOUS
 62
5
 10
145.338362
 20
444.539903
 11
132.321012
 21
415.691881
  0
LINE
  8
CutLine
  6
CONTINUOUS
 62
8
 10
166.521261
 20
437.576180
 11
145.338362
 21
444.539903
  0
LINE
  8
CutLine
  6
CONTINUOUS
 62
8
 10
145.752661
 20
387.050262
 11
152.185776
 21
414.489352
  0
LINE
  8
CutLine
  6
CONTINUOUS
 62
8
 10
128.978579
 20
384.270783
 11
145.752661
 21
387.050262
  0
LINE
  8
CutLine
  6
CONTINUOUS
 62
8
 10
132.321012
 20
415.691881
 11
128.978579
 21
384.270783
  0
LINE
  8
CutLine
  6
CONTINUOUS
 62
8
 10
128.492049
 20
384.326354
 11
132.321012
 21
415.691881
  0
LINE
  8
ValleyLine
  6
CONTINUOUS
 62
1
 10
132.321012
 20
415.691881
 11
113.527768
 21
382.836844
  0
LINE
  8
CutLine
  6
CONTINUOUS
 62
8
 10
113.527768
 20
382.836844
 11
128.492049
 21
384.326354
  0
LINE
  8
CutLine
  6
CONTINUOUS
 62
8
 10
115.535328
 20
418.794984
 11
113.527768
 21
382.836844
  0
LINE
  8
MountainLine
  6
CONTINUOUS
 62
5
 10
132.321012
 20
415.691881
 11
115.535328
 21
418.794984
  0
LINE
  8
CutLine
  6
CONTINUOUS
 62
8
 10
145.338362
 20
444.539903
 11
142.064926
 21
447.000000
  0
LINE
  8
CutLine
  6
CONTINUOUS
 62
8
 10
129.558590
 20
447.000000
 11
115.535328
 21
418.794984
  0
LINE
  8
MountainLine
  6
CONTINUOUS
 62
5
 10
110.865752
 20
56.368985
 11
96.586625
 21
37.864687
  0
LINE
  8
MountainLine
  6
CONTINUOUS
 62
5
 10
119.726866
 20
28.435197
 11
110.865752
 21
56.368985
  0
LINE
  8
CutLine
  6
CONTINUOUS
 62
8
 10
110.865752
 20
56.368985
 11
60.365624
 21
39.486983
  0
LINE
  8
CutLine
  6
CONTINUOUS
 62
8
 10
60.365624
 20
39.486983
 11
96.586625
 21
37.864687
  0
LINE
  8
MountainLine
  6
CONTINUOUS
 62
5
 10
191.483069
 20
43.631797
 11
175.113989
 21
59.587809
  0
LINE
  8
MountainLine
  6
CONTINUOUS
 62
5
 10
175.113989
 20
59.587809
 11
170.134921
 21
31.481359
  0
LINE
  8
CutLine
  6
CONTINUOUS
 62
8
 10
170.134921
 20
31.481359
 11
191.483069
 21
43.631797
  0
LINE
  8
CutLine
  6
CONTINUOUS
 62
8
 10
226.943296
 20
49.011601
 11
175.113989
 21
59.587809
  0
LINE
  8
CutLine
  6
CONTINUOUS
 62
8
 10
191.483069
 20
43.631797
 11
226.943296
 21
49.011601
  0
LINE
  8
CutLine
  6
CONTINUOUS
 62
8
 10
175.113989
 20
59.587809
 11
141.382462
 21
76.128179
  0
LINE
  8
MountainLine
  6
CONTINUOUS
 62
5
 10
145.453444
 20
23.692028
 11
141.382462
 21
76.128179
  0
LINE
  8
MountainLine
  6
CONTINUOUS
 62
5
 10
141.382462
 20
76.128179
 11
119.726866
 21
28.435197
  0
LINE
  8
CutLine
  6
CONTINUOUS
 62
8
 10
141.382462
 20
76.128179
 11
110.865752
 21
56.368985
  0
LINE
  8
CutLine
  6
CONTINUOUS
 62
8
 10
96.586625
 20
37.864687
 11
119.726866
 21
28.435197
  0
LINE
  8
CutLine
  6
CONTINUOUS
 62
8
 10
119.726866
 20
28.435197
 11
145.453444
 21
23.692028
  0
LINE
  8
CutLine
  6
CONTINUOUS
 62
8
 10
145.453444
 20
23.692028
 11
170.134921
 21
31.481359
  0
LINE
  8
MountainLine
  6
CONTINUOUS
 62
5
 10
176.682368
 20
116.036048
 11
141.706024
 21
152.643742
  0
LINE
  8
MountainLine
  6
CONTINUOUS
 62
5
 10
141.706024
 20
152.643742
 11
134.609722
 21
112.010756
  0
LINE
  8
CutLine
  6
CONTINUOUS
 62
8
 10
100.448313
 20
108.548894
 11
134.609722
 21
112.010756
  0
LINE
  8
CutLine
  6
CONTINUOUS
 62
8
 10
179.843266
 20
153.545188
 11
141.706024
 21
152.643742
  0
LINE
  8
MountainLine
  6
CONTINUOUS
 62
5
 10
176.682368
 20
116.036048
 11
179.843266
 21
153.545188
  0
LINE
  8
MountainLine
  6
CONTINUOUS
 62
5
 10
104.921247
 20
153.769624
 11
100.448313
 21
108.548894
  0
LINE
  8
CutLine
  6
CONTINUOUS
 62
8
 10
141.706024
 20
152.643742
 11
104.921247
 21
153.769624
  0
LINE
  8
CutLine
  6
CONTINUOUS
 62
8
 10
176.682368
 20
116.036048
 11
221.925146
 21
114.933422
  0
LINE
  8
CutLine
  6
CONTINUOUS
 62
8
 10
225.483217
 20
148.205305
 11
179.843266
 21
153.545188
  0
LINE
  8
CutLine
  6
CONTINUOUS
 62
8
 10
104.921247
 20
153.769624
 11
58.850809
 21
145.652543
  0
LINE
  8
ValleyLine
  6
CONTINUOUS
 62
1
 10
58.850809
 20
145.652543
 11
100.448313
 21
108.548894
  0
LINE
  8
CutLine
  6
CONTINUOUS
 62
8
 10
45.829896
 20
88.476907
 11
100.448313
 21
108.548894
  0
LINE
  8
CutLine
  6
CONTINUOUS
 62
8
 10
58.850809
 20
145.652543
 11
45.829896
 21
88.476907
  0
LINE
  8
MountainLine
  6
CONTINUOUS
 62
5
 10
221.925146
 20
114.933422
 11
225.483217
 21
148.205305
  0
LINE
  8
CutLine
  6
CONTINUOUS
 62
8
 10
134.609722
 20
112.010756
 11
176.682368
 21
116.036048
  0
LINE
  8
CutLine
  6
CONTINUOUS
 62
8
 10
269.179501
 20
107.747723
 11
304.819079
 21
99.116732
  0
LINE
  8
MountainLine
  6
CONTINUOUS
 62
5
 10
304.819079
 20
99.116732
 11
274.761758
 21
139.381914
  0
LINE
  8
MountainLine
  6
CONTINUOUS
 62
5
 10
274.761758
 20
139.381914
 11
269.179501
 21
107.747723
  0
LINE
  8
CutLine
  6
CONTINUOUS
 62
8
 10
310.645056
 20
130.266195
 11
274.761758
 21
139.381914
  0
LINE
  8
MountainLine
  6
CONTINUOUS
 62
5
 10
304.819079
 20
99.116732
 11
310.645056
 21
130.266195
  0
LINE
  8
CutLine
  6
CONTINUOUS
 62
8
 10
274.761758
 20
139.381914
 11
225.483217
 21
148.205305
  0
LINE
  8
MountainLine
  6
CONTINUOUS
 62
5
 10
343.500259
 20
87.295195
 11
345.354924
 21
122.332275
  0
LINE
  8
CutLine
  6
CONTINUOUS
 62
8
 10
304.819079
 20
99.116732
 11
343.500259
 21
87.295195
  0
LINE
  8
CutLine
  6
CONTINUOUS
 62
8
 10
345.354924
 20
122.332275
 11
310.645056
 21
130.266195
  0
LINE
  8
CutLine
  6
CONTINUOUS
 62
8
 10
221.925146
 20
114.933422
 11
269.179501
 21
107.747723
  0
LINE
  8
CutLine
  6
CONTINUOUS
 62
8
 10
490.179829
 20
15.038999
 11
481.664273
 21
88.967897
  0
LINE
  8
MountainLine
  6
CONTINUOUS
 62
5
 10
454.860499
 20
92.886927
 11
462.731331
 21
28.781718
  0
LINE
  8
CutLine
  6
CONTINUOUS
 62
8
 10
481.664273
 20
88.967897
 11
454.860499
 21
92.886927
  0
LINE
  8
CutLine
  6
CONTINUOUS
 62
8
 10
462.731331
 20
28.781718
 11
490.179829
 21
15.038999
  0
LINE
  8
MountainLine
  6
CONTINUOUS
 62
5
 10
425.619512
 20
60.130396
 11
430.502083
 21
104.333585
  0
LINE
  8
ValleyLine
  6
CONTINUOUS
 62
1
 10
430.502083
 20
104.333585
 11
383.999268
 21
72.292592
  0
LINE
  8
CutLine
  6
CONTINUOUS
 62
8
 10
383.999268
 20
72.292592
 11
425.619512
 21
60.130396
  0
LINE
  8
MountainLine
  6
CONTINUOUS
 62
5
 10
394.624343
 20
111.123783
 11
383.999268
 21
72.292592
  0
LINE
  8
CutLine
  6
CONTINUOUS
 62
8
 10
430.502083
 20
104.333585
 11
394.624343
 21
111.123783
  0
LINE
  8
ValleyLine
  6
CONTINUOUS
 62
1
 10
394.624343
 20
111.123783
 11
343.500259
 21
87.295195
  0
LINE
  8
CutLine
  6
CONTINUOUS
 62
8
 10
343.500259
 20
87.295195
 11
383.999268
 21
72.292592
  0
LINE
  8
CutLine
  6
CONTINUOUS
 62
8
 10
394.624343
 20
111.123783
 11
345.354924
 21
122.332275
  0
LINE
  8
ValleyLine
  6
CONTINUOUS
 62
1
 10
454.860499
 20
92.886927
 11
425.619512
 21
60.130396
  0
LINE
  8
CutLine
  6
CONTINUOUS
 62
8
 10
425.619512
 20
60.130396
 11
462.731331
 21
28.781718
  0
LINE
  8
CutLine
  6
CONTINUOUS
 62
8
 10
454.860499
 20
92.886927
 11
430.502083
 21
104.333585
  0
LINE
  8
CutLine
  6
CONTINUOUS
 62
8
 10
229.697313
 20
406.863779
 11
192.280840
 21
418.177140
  0
LINE
  8
MountainLine
  6
CONTINUOUS
 62
5
 10
192.280840
 20
418.177140
 11
231.213168
 21
384.372973
  0
LINE
  8
CutLine
  6
CONTINUOUS
 62
8
 10
231.213168
 20
384.372973
 11
229.697313
 21
406.863779
  0
LINE
  8
MountainLine
  6
CONTINUOUS
 62
5
 10
180.893254
 20
367.225009
 11
192.280840
 21
418.177140
  0
LINE
  8
CutLine
  6
CONTINUOUS
 62
8
 10
151.156519
 20
380.790460
 11
180.893254
 21
367.225009
  0
LINE
  8
MountainLine
  6
CONTINUOUS
 62
5
 10
180.893254
 20
367.225009
 11
231.213168
 21
384.372973
  0
LINE
  8
MountainLine
  6
CONTINUOUS
 62
5
 10
232.874281
 20
358.174923
 11
231.213168
 21
384.372973
  0
LINE
  8
CutLine
  6
CONTINUOUS
 62
8
 10
192.280840
 20
418.177140
 11
151.156519
 21
380.790460
  0
LINE
  8
MountainLine
  6
CONTINUOUS
 62
5
 10
232.874281
 20
358.174923
 11
301.752045
 21
395.933555
  0
LINE
  8
MountainLine
  6
CONTINUOUS
 62
5
 10
301.752045
 20
395.933555
 11
231.213168
 21
384.372973
  0
LINE
  8
MountainLine
  6
CONTINUOUS
 62
5
 10
300.790462
 20
363.081372
 11
301.752045
 21
395.933555
  0
LINE
  8
CutLine
  6
CONTINUOUS
 62
8
 10
301.752045
 20
395.933555
 11
231.743565
 21
406.908564
  0
LINE
  8
CutLine
  6
CONTINUOUS
 62
8
 10
231.743565
 20
406.908564
 11
231.213168
 21
384.372973
  0
LINE
  8
MountainLine
  6
CONTINUOUS
 62
5
 10
354.309768
 20
370.234677
 11
361.796660
 21
407.845352
  0
LINE
  8
MountainLine
  6
CONTINUOUS
 62
5
 10
361.796660
 20
407.845352
 11
300.790462
 21
363.081372
  0
LINE
  8
CutLine
  6
CONTINUOUS
 62
8
 10
232.874281
 20
358.174923
 11
300.790462
 21
363.081372
  0
LINE
  8
CutLine
  6
CONTINUOUS
 62
8
 10
180.893254
 20
367.225009
 11
232.874281
 21
358.174923
  0
LINE
  8
CutLine
  6
CONTINUOUS
 62
8
 10
300.790462
 20
363.081372
 11
354.309768
 21
370.234677
  0
LINE
  8
CutLine
  6
CONTINUOUS
 62
8
 10
361.796660
 20
407.845352
 11
301.752045
 21
395.933555
  0
LINE
  8
MountainLine
  6
CONTINUOUS
 62
5
 10
411.073898
 20
367.094216
 11
424.768947
 21
414.025673
  0
LINE
  8
ValleyLine
  6
CONTINUOUS
 62
1
 10
424.768947
 20
414.025673
 11
354.309768
 21
370.234677
  0
LINE
  8
CutLine
  6
CONTINUOUS
 62
8
 10
354.309768
 20
370.234677
 11
411.073898
 21
367.094216
  0
LINE
  8
CutLine
  6
CONTINUOUS
 62
8
 10
424.768947
 20
414.025673
 11
361.796660
 21
407.845352
  0
LINE
  8
MountainLine
  6
CONTINUOUS
 62
5
 10
453.694469
 20
422.878064
 11
470.936256
 21
367.830859
  0
LINE
  8
ValleyLine
  6
CONTINUOUS
 62
1
 10
470.936256
 20
367.830859
 11
482.830255
 21
444.764349
  0
LINE
  8
CutLine
  6
CONTINUOUS
 62
8
 10
482.830255
 20
444.764349
 11
453.694469
 21
422.878064
  0
LINE
  8
CutLine
  6
CONTINUOUS
 62
8
 10
498.890221
 20
372.089028
 11
482.830255
 21
444.764349
  0
LINE
  8
CutLine
  6
CONTINUOUS
 62
8
 10
470.936256
 20
367.830859
 11
498.890221
 21
372.089028
  0
LINE
  8
ValleyLine
  6
CONTINUOUS
 62
1
 10
411.073898
 20
367.094216
 11
453.694469
 21
422.878064
  0
LINE
  8
CutLine
  6
CONTINUOUS
 62
8
 10
453.694469
 20
422.878064
 11
424.768947
 21
414.025673
  0
LINE
  8
CutLine
  6
CONTINUOUS
 62
8
 10
411.073898
 20
367.094216
 11
470.936256
 21
367.830859
  0
ENDSEC
  0
EOF
