  0
SECTION
  2
HEADER
  9
$ACADVER
  1
AC1009
  9
$DWGCODEPAGE
  3
ansi_1252
  9
$INSBASE
 10
0.0
 20
0.0
 30
0.0
  9
$EXTMIN
 10
0.8749999999997347
 20
1.0
 30
0.0
  9
$EXTMAX
 10
23.0568310643366
 20
18.200800094288
 30
0.0
  9
$LIMMIN
 10
0.0
 20
0.0
  9
$LIMMAX
 10
12.0
 20
9.0
  9
$ORTHOMODE
 70
     0
  9
$REGENMODE
 70
     1
  9
$FILLMODE
 70
     1
  9
$QTEXTMODE
 70
     0
  9
$MIRRTEXT
 70
     1
  9
$DRAGMODE
 70
     2
  9
$LTSCALE
 40
1.0
  9
$OSMODE
 70
    37
  9
$ATTMODE
 70
     1
  9
$TEXTSIZE
 40
0.2
  9
$TRACEWID
 40
0.05
  9
$TEXTSTYLE
  7
STANDARD
  9
$CLAYER
  8
0
  9
$CELTYPE
  6
BYLAYER
  9
$CECOLOR
 62
   256
  9
$DIMSCALE
 40
1.0
  9
$DIMASZ
 40
0.18
  9
$DIMEXO
 40
0.0625
  9
$DIMDLI
 40
0.38
  9
$DIMRND
 40
0.0
  9
$DIMDLE
 40
0.0
  9
$DIMEXE
 40
0.18
  9
$DIMTP
 40
0.0
  9
$DIMTM
 40
0.0
  9
$DIMTXT
 40
0.18
  9
$DIMCEN
 40
0.09
  9
$DIMTSZ
 40
0.0
  9
$DIMTOL
 70
     0
  9
$DIMLIM
 70
     0
  9
$DIMTIH
 70
     1
  9
$DIMTOH
 70
     1
  9
$DIMSE1
 70
     0
  9
$DIMSE2
 70
     0
  9
$DIMTAD
 70
     0
  9
$DIMZIN
 70
     0
  9
$DIMBLK
  1

  9
$DIMASO
 70
     1
  9
$DIMSHO
 70
     1
  9
$DIMPOST
  1

  9
$DIMAPOST
  1

  9
$DIMALT
 70
     0
  9
$DIMALTD
 70
     2
  9
$DIMALTF
 40
25.4
  9
$DIMLFAC
 40
1.0
  9
$DIMTOFL
 70
     0
  9
$DIMTVP
 40
0.0
  9
$DIMTIX
 70
     0
  9
$DIMSOXD
 70
     0
  9
$DIMSAH
 70
     0
  9
$DIMBLK1
  1

  9
$DIMBLK2
  1

  9
$DIMSTYLE
  2
STANDARD
  9
$DIMCLRD
 70
     0
  9
$DIMCLRE
 70
     0
  9
$DIMCLRT
 70
     0
  9
$DIMTFAC
 40
1.0
  9
$DIMGAP
 40
0.09
  9
$LUNITS
 70
     2
  9
$LUPREC
 70
     4
  9
$SKETCHINC
 40
0.1
  9
$FILLETRAD
 40
0.5
  9
$AUNITS
 70
     0
  9
$AUPREC
 70
     0
  9
$MENU
  1
.
  9
$ELEVATION
 40
0.0
  9
$PELEVATION
 40
0.0
  9
$THICKNESS
 40
0.0
  9
$LIMCHECK
 70
     0
  9
$CHAMFERA
 40
0.0
  9
$CHAMFERB
 40
0.0
  9
$SKPOLY
 70
     0
  9
$TDCREATE
 40
2454910.5
  9
$TDUPDATE
 40
2457111.767948588
  9
$TDINDWG
 40
0.0000000116
  9
$TDUSRTIMER
 40
0.0000000116
  9
$USRTIMER
 70
     1
  9
$ANGBASE
 50
0.0
  9
$ANGDIR
 70
     0
  9
$PDMODE
 70
     0
  9
$PDSIZE
 40
0.0
  9
$PLINEWID
 40
0.0
  9
$COORDS
 70
     1
  9
$SPLFRAME
 70
     0
  9
$SPLINETYPE
 70
     6
  9
$SPLINESEGS
 70
     8
  9
$ATTDIA
 70
     0
  9
$ATTREQ
 70
     1
  9
$HANDLING
 70
     1
  9
$HANDSEED
  5
BD0
  9
$SURFTAB1
 70
     6
  9
$SURFTAB2
 70
     6
  9
$SURFTYPE
 70
     6
  9
$SURFU
 70
     6
  9
$SURFV
 70
     6
  9
$UCSNAME
  2

  9
$UCSORG
 10
0.0
 20
0.0
 30
0.0
  9
$UCSXDIR
 10
1.0
 20
0.0
 30
0.0
  9
$UCSYDIR
 10
0.0
 20
1.0
 30
0.0
  9
$PUCSNAME
  2

  9
$PUCSORG
 10
0.0
 20
0.0
 30
0.0
  9
$PUCSXDIR
 10
1.0
 20
0.0
 30
0.0
  9
$PUCSYDIR
 10
0.0
 20
1.0
 30
0.0
  9
$USERI1
 70
     0
  9
$USERI2
 70
     0
  9
$USERI3
 70
     0
  9
$USERI4
 70
     0
  9
$USERI5
 70
     0
  9
$USERR1
 40
0.0
  9
$USERR2
 40
0.0
  9
$USERR3
 40
0.0
  9
$USERR4
 40
0.0
  9
$USERR5
 40
0.0
  9
$WORLDVIEW
 70
     1
  9
$SHADEDGE
 70
     3
  9
$SHADEDIF
 70
    70
  9
$TILEMODE
 70
     1
  9
$MAXACTVP
 70
    64
  9
$PLIMCHECK
 70
     0
  9
$PEXTMIN
 10
1.000000000000000E+20
 20
1.000000000000000E+20
 30
1.000000000000000E+20
  9
$PEXTMAX
 10
-1.000000000000000E+20
 20
-1.000000000000000E+20
 30
-1.000000000000000E+20
  9
$PLIMMIN
 10
0.0
 20
0.0
  9
$PLIMMAX
 10
12.0
 20
9.0
  9
$UNITMODE
 70
     0
  9
$VISRETAIN
 70
     1
  9
$PLINEGEN
 70
     0
  9
$PSLTSCALE
 70
     1
  0
ENDSEC
  0
SECTION
  2
TABLES
  0
TABLE
  2
VPORT
 70
     1
  0
VPORT
  2
*ACTIVE
 70
     0
 10
0.0
 20
0.0
 11
1.0
 21
1.0
 12
10.42990654205607
 22
4.5
 13
0.0
 23
0.0
 14
0.5
 24
0.5
 15
0.5
 25
0.5
 16
0.0
 26
0.0
 36
1.0
 17
0.0
 27
0.0
 37
0.0
 40
9.0
 41
1.972972972850329
 42
50.0
 43
0.0
 44
0.0
 50
0.0
 51
0.0
 71
     0
 72
   100
 73
     1
 74
     3
 75
     0
 76
     0
 77
     0
 78
     0
  0
ENDTAB
  0
TABLE
  2
LTYPE
 70
     2
  0
LTYPE
  2
CONTINUOUS
 70
     0
  3
Solid line
 72
    65
 73
     0
 40
0.0
  0
LTYPE
  2
CONTINUOUS2
 70
     0
  3
Solid Line
 72
    65
 73
     0
 40
0.0
  0
ENDTAB
  0
TABLE
  2
LAYER
 70
     7
  0
LAYER
  2
0
 70
     0
 62
     7
  6
CONTINUOUS
  0
LAYER
  2
OUTSIDE_CUT
 70
     0
 62
    18
  6
CONTINUOUS
  0
LAYER
  2
TEXT
 70
     0
 62
    13
  6
CONTINUOUS
  0
LAYER
  2
INSIDE_CUT
 70
     0
 62
     5
  6
CONTINUOUS
  0
LAYER
  2
125_POCKET
 70
     0
 62
     4
  6
CONTINUOUS
  0
LAYER
  2
250_POCKET
 70
     0
 62
    40
  6
CONTINUOUS
  0
LAYER
  2
500_POCKET
 70
     0
 62
     3
  6
CONTINUOUS
  0
ENDTAB
  0
TABLE
  2
STYLE
 70
     1
  0
STYLE
  2
STANDARD
 70
     0
 40
0.0
 41
1.0
 50
0.0
 71
     0
 42
0.2
  3
txt
  4

  0
ENDTAB
  0
TABLE
  2
VIEW
 70
     0
  0
ENDTAB
  0
TABLE
  2
UCS
 70
     0
  0
ENDTAB
  0
TABLE
  2
APPID
 70
     1
  0
APPID
  2
ACAD
 70
     0
  0
ENDTAB
  0
TABLE
  2
DIMSTYLE
 70
     1
  0
DIMSTYLE
  2
STANDARD
 70
     0
  3

  4

  5

  6

  7

 40
1.0
 41
0.18
 42
0.0625
 43
0.38
 44
0.18
 45
0.0
 46
0.0
 47
0.0
 48
0.0
140
0.18
141
0.09
142
0.0
143
25.4
144
1.0
145
0.0
146
1.0
147
0.09
 71
     0
 72
     0
 73
     1
 74
     1
 75
     0
 76
     0
 77
     0
 78
     0
170
     0
171
     2
172
     0
173
     0
174
     0
175
     0
176
     0
177
     0
178
     0
  0
ENDTAB
  0
ENDSEC
  0
SECTION
  2
BLOCKS
  0
BLOCK
  8
0
  2
$MODEL_SPACE
 70
     0
 10
0.0
 20
0.0
 30
0.0
  3
$MODEL_SPACE
  1

  0
ENDBLK
  5
21
  8
0
  0
BLOCK
 67
     1
  8
0
  2
$PAPER_SPACE
 70
     0
 10
0.0
 20
0.0
 30
0.0
  3
$PAPER_SPACE
  1

  0
ENDBLK
  5
1D
 67
     1
  8
0
  0
ENDSEC
  0
SECTION
  2
ENTITIES
  0
POLYLINE
  5
70
  8
OUTSIDE_CUT
 66
     1
 10
0.0
 20
0.0
 30
0.0
 70
     1
  0
VERTEX
  5
D8
  8
OUTSIDE_CUT
 10
8.557559337073897
 20
7.814697028181868
 30
0.0
  0
VERTEX
  5
D9
  8
OUTSIDE_CUT
 10
8.557559337073897
 20
3.814697028181868
 30
0.0
  0
VERTEX
  5
DA
  8
OUTSIDE_CUT
 10
12.0575593370739
 20
3.814697028181868
 30
0.0
  0
VERTEX
  5
DB
  8
OUTSIDE_CUT
 10
12.0575593370739
 20
7.814697028181868
 30
0.0
  0
SEQEND
  5
B74
  8
OUTSIDE_CUT
  0
POLYLINE
  5
71
  8
OUTSIDE_CUT
 66
     1
 10
0.0
 20
0.0
 30
0.0
 70
     1
  0
VERTEX
  5
DC
  8
OUTSIDE_CUT
 10
13.32301148902516
 20
17.15671788053814
 30
0.0
  0
VERTEX
  5
DD
  8
OUTSIDE_CUT
 10
13.3230201310568
 20
9.06661788055349
 30
0.0
  0
VERTEX
  5
DE
  8
OUTSIDE_CUT
 10
8.323020451985474
 20
9.066612539448954
 30
0.0
  0
VERTEX
  5
DF
  8
OUTSIDE_CUT
 10
8.323011809965251
 20
17.15671253942599
 30
0.0
  0
SEQEND
  5
B75
  8
OUTSIDE_CUT
  0
POLYLINE
  5
72
  8
OUTSIDE_CUT
 66
     1
 10
0.0
 20
0.0
 30
0.0
 70
     1
  0
VERTEX
  5
E0
  8
OUTSIDE_CUT
 10
23.05314763605691
 20
7.365717640711807
 30
0.0
  0
VERTEX
  5
E1
  8
OUTSIDE_CUT
 10
23.0531633470229
 20
1.000009872895784
 30
0.0
  0
VERTEX
  5
E2
  8
OUTSIDE_CUT
 10
19.05284939224788
 20
1.0
 30
0.0
  0
VERTEX
  5
E3
  8
OUTSIDE_CUT
 10
19.0528336813489
 20
7.365707767717737
 30
0.0
  0
SEQEND
  5
B76
  8
OUTSIDE_CUT
  0
POLYLINE
  5
73
  8
OUTSIDE_CUT
 66
     1
 10
0.0
 20
0.0
 30
0.0
 70
     1
  0
VERTEX
  5
E4
  8
OUTSIDE_CUT
 10
14.05283306435661
 20
1.003499720158544
 30
0.0
  0
VERTEX
  5
E5
  8
OUTSIDE_CUT
 10
14.05283306435661
 20
7.503513533314745
 30
0.0
  0
VERTEX
  5
E6
  8
OUTSIDE_CUT
 10
18.05283306435661
 20
7.503513533314745
 30
0.0
  0
VERTEX
  5
E7
  8
OUTSIDE_CUT
 10
18.05283306435661
 20
1.003499720158544
 30
0.0
  0
SEQEND
  5
B77
  8
OUTSIDE_CUT
  0
POLYLINE
  5
74
  8
OUTSIDE_CUT
 66
     1
 10
0.0
 20
0.0
 30
0.0
 70
     1
  0
VERTEX
  5
E8
  8
OUTSIDE_CUT
 10
23.0568310643366
 20
14.70823794273474
 30
0.0
  0
VERTEX
  5
E9
  8
OUTSIDE_CUT
 10
23.0568310643366
 20
8.382529066070433
 30
0.0
  0
VERTEX
  5
EA
  8
OUTSIDE_CUT
 10
19.05283306433661
 20
8.382529066070433
 30
0.0
  0
VERTEX
  5
EB
  8
OUTSIDE_CUT
 10
19.05283306433661
 20
14.70823794273474
 30
0.0
  0
SEQEND
  5
B78
  8
OUTSIDE_CUT
  0
POLYLINE
  5
75
  8
OUTSIDE_CUT
 66
     1
 10
0.0
 20
0.0
 30
0.0
 70
     1
  0
VERTEX
  5
EC
  8
OUTSIDE_CUT
 10
18.05283306435484
 20
15.00351353328475
 30
0.0
  0
VERTEX
  5
ED
  8
OUTSIDE_CUT
 10
18.05283306435484
 20
8.503514408146309
 30
0.0
  0
VERTEX
  5
EE
  8
OUTSIDE_CUT
 10
14.05283306435661
 20
8.503514408146309
 30
0.0
  0
VERTEX
  5
EF
  8
OUTSIDE_CUT
 10
14.05283306435661
 20
15.00351353328475
 30
0.0
  0
SEQEND
  5
B79
  8
OUTSIDE_CUT
  0
POLYLINE
  5
76
  8
OUTSIDE_CUT
 66
     1
 10
0.0
 20
0.0
 30
0.0
 70
     1
  0
VERTEX
  5
F0
  8
OUTSIDE_CUT
 10
1.000000000000162
 20
18.20078740200741
 30
0.0
  0
VERTEX
  5
F1
  8
OUTSIDE_CUT
 10
1.000000000000264
 20
10.11068740202995
 30
0.0
  0
VERTEX
  5
F2
  8
OUTSIDE_CUT
 10
7.497197866519517
 20
10.11068739811972
 30
0.0
  0
VERTEX
  5
F3
  8
OUTSIDE_CUT
 10
7.497197866519412
 20
18.20078739809718
 30
0.0
  0
SEQEND
  5
B7A
  8
OUTSIDE_CUT
  0
POLYLINE
  5
77
  8
OUTSIDE_CUT
 66
     1
 10
0.0
 20
0.0
 30
0.0
 70
     1
  0
VERTEX
  5
F4
  8
OUTSIDE_CUT
 10
1.0
 20
1.016199209729636
 30
0.0
  0
VERTEX
  5
F5
  8
OUTSIDE_CUT
 10
1.0000000000001
 20
9.106299209730935
 30
0.0
  0
VERTEX
  5
F6
  8
OUTSIDE_CUT
 10
7.500050270611889
 20
9.106299213011042
 30
0.0
  0
VERTEX
  5
F7
  8
OUTSIDE_CUT
 10
7.500050270611788
 20
1.016199213009743
 30
0.0
  0
SEQEND
  5
B7B
  8
OUTSIDE_CUT
  0
POLYLINE
  5
78
  8
OUTSIDE_CUT
 66
     1
 10
0.0
 20
0.0
 30
0.0
 70
     1
  0
VERTEX
  5
F8
  8
OUTSIDE_CUT
 10
12.42210633441094
 20
1.000009543592775
 30
0.0
  0
VERTEX
  5
F9
  8
OUTSIDE_CUT
 10
8.422106169253077
 20
1.0
 30
0.0
  0
VERTEX
  5
FA
  8
OUTSIDE_CUT
 10
8.422103248827751
 20
2.224000000017622
 30
0.0
  0
VERTEX
  5
FB
  8
OUTSIDE_CUT
 10
12.42210341392301
 20
2.224009543702238
 30
0.0
  0
SEQEND
  5
B7C
  8
OUTSIDE_CUT
  0
POLYLINE
  5
7A
  8
TEXT
 66
     1
 10
0.0
 20
0.0
 30
0.0
 70
     1
  0
VERTEX
  5
FC
  8
TEXT
 10
14.3796815492051
 20
6.6751892669811
 30
0.0
  0
VERTEX
  5
FD
  8
TEXT
 10
14.3796815492051
 20
7.1751892669811
 30
0.0
  0
VERTEX
  5
FE
  8
TEXT
 10
14.5096815492051
 20
7.1751892669811
 30
0.0
 42
-1.0
  0
VERTEX
  5
FF
  8
TEXT
 10
14.5096815492051
 20
6.9351892669811
 30
0.0
  0
VERTEX
  5
100
  8
TEXT
 10
14.3796815492051
 20
6.9351892669811
 30
0.0
  0
VERTEX
  5
101
  8
TEXT
 10
14.5096815492051
 20
6.9351892669811
 30
0.0
  0
VERTEX
  5
102
  8
TEXT
 10
14.51736622273136
 20
6.935020111787785
 30
0.0
  0
VERTEX
  5
103
  8
TEXT
 10
14.5249500150538
 20
6.93451809163601
 30
0.0
  0
VERTEX
  5
104
  8
TEXT
 10
14.53242354328081
 20
6.933691374668028
 30
0.0
  0
VERTEX
  5
105
  8
TEXT
 10
14.53977742452076
 20
6.932548129026095
 30
0.0
  0
VERTEX
  5
106
  8
TEXT
 10
14.54700227588205
 20
6.931096522852466
 30
0.0
  0
VERTEX
  5
107
  8
TEXT
 10
14.55408871447306
 20
6.929344724289395
 30
0.0
  0
VERTEX
  5
108
  8
TEXT
 10
14.56102735740217
 20
6.927300901479136
 30
0.0
  0
VERTEX
  5
109
  8
TEXT
 10
14.56780882177777
 20
6.924973222563944
 30
0.0
  0
VERTEX
  5
10A
  8
TEXT
 10
14.57442372470825
 20
6.922369855686073
 30
0.0
  0
VERTEX
  5
10B
  8
TEXT
 10
14.58086268330198
 20
6.919498968987778
 30
0.0
  0
VERTEX
  5
10C
  8
TEXT
 10
14.58711631466735
 20
6.916368730611312
 30
0.0
  0
VERTEX
  5
10D
  8
TEXT
 10
14.59317523591275
 20
6.912987308698932
 30
0.0
  0
VERTEX
  5
10E
  8
TEXT
 10
14.59903006414655
 20
6.909362871392892
 30
0.0
  0
VERTEX
  5
10F
  8
TEXT
 10
14.60467141647716
 20
6.905503586835445
 30
0.0
  0
VERTEX
  5
110
  8
TEXT
 10
14.61008991001294
 20
6.901417623168847
 30
0.0
  0
VERTEX
  5
111
  8
TEXT
 10
14.61527616186229
 20
6.897113148535351
 30
0.0
  0
VERTEX
  5
112
  8
TEXT
 10
14.62022078913359
 20
6.892598331077213
 30
0.0
  0
VERTEX
  5
113
  8
TEXT
 10
14.62491440893522
 20
6.887881338936687
 30
0.0
  0
VERTEX
  5
114
  8
TEXT
 10
14.62934763837557
 20
6.882970340256027
 30
0.0
  0
VERTEX
  5
115
  8
TEXT
 10
14.63351109456302
 20
6.877873503177488
 30
0.0
  0
VERTEX
  5
116
  8
TEXT
 10
14.63739539460596
 20
6.872598995843324
 30
0.0
  0
VERTEX
  5
117
  8
TEXT
 10
14.64099115561277
 20
6.867154986395791
 30
0.0
  0
VERTEX
  5
118
  8
TEXT
 10
14.64428899469184
 20
6.861549642977142
 30
0.0
  0
VERTEX
  5
119
  8
TEXT
 10
14.64727952895155
 20
6.855791133729633
 30
0.0
  0
VERTEX
  5
11A
  8
TEXT
 10
14.64995337550028
 20
6.849887626795516
 30
0.0
  0
VERTEX
  5
11B
  8
TEXT
 10
14.65230115144642
 20
6.843847290317048
 30
0.0
  0
VERTEX
  5
11C
  8
TEXT
 10
14.65431347389836
 20
6.837678292436483
 30
0.0
  0
VERTEX
  5
11D
  8
TEXT
 10
14.65598095996448
 20
6.831388801296074
 30
0.0
  0
VERTEX
  5
11E
  8
TEXT
 10
14.65729422675316
 20
6.824986985038077
 30
0.0
  0
VERTEX
  5
11F
  8
TEXT
 10
14.65824389137279
 20
6.818481011804745
 30
0.0
  0
VERTEX
  5
120
  8
TEXT
 10
14.65882057093175
 20
6.811879049738335
 30
0.0
  0
VERTEX
  5
121
  8
TEXT
 10
14.65901488253843
 20
6.8051892669811
 30
0.0
  0
VERTEX
  5
122
  8
TEXT
 10
14.65882057093175
 20
6.798499484223864
 30
0.0
  0
VERTEX
  5
123
  8
TEXT
 10
14.65824389137279
 20
6.791897522157455
 30
0.0
  0
VERTEX
  5
124
  8
TEXT
 10
14.65729422675316
 20
6.785391548924123
 30
0.0
  0
VERTEX
  5
125
  8
TEXT
 10
14.65598095996448
 20
6.778989732666126
 30
0.0
  0
VERTEX
  5
126
  8
TEXT
 10
14.65431347389836
 20
6.772700241525717
 30
0.0
  0
VERTEX
  5
127
  8
TEXT
 10
14.65230115144642
 20
6.766531243645152
 30
0.0
  0
VERTEX
  5
128
  8
TEXT
 10
14.64995337550028
 20
6.760490907166684
 30
0.0
  0
VERTEX
  5
129
  8
TEXT
 10
14.64727952895155
 20
6.754587400232567
 30
0.0
  0
VERTEX
  5
12A
  8
TEXT
 10
14.64428899469184
 20
6.748828890985058
 30
0.0
  0
VERTEX
  5
12B
  8
TEXT
 10
14.64099115561277
 20
6.743223547566409
 30
0.0
  0
VERTEX
  5
12C
  8
TEXT
 10
14.63739539460596
 20
6.737779538118875
 30
0.0
  0
VERTEX
  5
12D
  8
TEXT
 10
14.63351109456302
 20
6.732505030784711
 30
0.0
  0
VERTEX
  5
12E
  8
TEXT
 10
14.62934763837557
 20
6.727408193706172
 30
0.0
  0
VERTEX
  5
12F
  8
TEXT
 10
14.62491440893522
 20
6.722497195025513
 30
0.0
  0
VERTEX
  5
130
  8
TEXT
 10
14.62022078913359
 20
6.717780202884986
 30
0.0
  0
VERTEX
  5
131
  8
TEXT
 10
14.61527616186229
 20
6.713265385426848
 30
0.0
  0
VERTEX
  5
132
  8
TEXT
 10
14.61008991001294
 20
6.708960910793353
 30
0.0
  0
VERTEX
  5
133
  8
TEXT
 10
14.60467141647716
 20
6.704874947126755
 30
0.0
  0
VERTEX
  5
134
  8
TEXT
 10
14.59903006414655
 20
6.701015662569308
 30
0.0
  0
VERTEX
  5
135
  8
TEXT
 10
14.59317523591275
 20
6.697391225263267
 30
0.0
  0
VERTEX
  5
136
  8
TEXT
 10
14.58711631466735
 20
6.694009803350887
 30
0.0
  0
VERTEX
  5
137
  8
TEXT
 10
14.58086268330198
 20
6.690879564974422
 30
0.0
  0
VERTEX
  5
138
  8
TEXT
 10
14.57442372470825
 20
6.688008678276127
 30
0.0
  0
VERTEX
  5
139
  8
TEXT
 10
14.56780882177777
 20
6.685405311398256
 30
0.0
  0
VERTEX
  5
13A
  8
TEXT
 10
14.56102735740217
 20
6.683077632483064
 30
0.0
  0
VERTEX
  5
13B
  8
TEXT
 10
14.55408871447306
 20
6.681033809672805
 30
0.0
  0
VERTEX
  5
13C
  8
TEXT
 10
14.54700227588205
 20
6.679282011109733
 30
0.0
  0
VERTEX
  5
13D
  8
TEXT
 10
14.53977742452076
 20
6.677830404936104
 30
0.0
  0
VERTEX
  5
13E
  8
TEXT
 10
14.53242354328081
 20
6.676687159294172
 30
0.0
  0
VERTEX
  5
13F
  8
TEXT
 10
14.5249500150538
 20
6.67586044232619
 30
0.0
  0
VERTEX
  5
140
  8
TEXT
 10
14.51736622273136
 20
6.675358422174415
 30
0.0
  0
VERTEX
  5
141
  8
TEXT
 10
14.5096815492051
 20
6.6751892669811
 30
0.0
  0
SEQEND
  5
B7D
  8
TEXT
  0
POLYLINE
  5
7B
  8
TEXT
 66
     1
 10
0.0
 20
0.0
 30
0.0
 70
     1
  0
VERTEX
  5
142
  8
TEXT
 10
14.94901488253843
 20
6.6701892669811
 30
0.0
  0
VERTEX
  5
143
  8
TEXT
 10
14.95879225733747
 20
6.670436493802098
 30
0.0
  0
VERTEX
  5
144
  8
TEXT
 10
14.96844127881915
 20
6.671170215562386
 30
0.0
  0
VERTEX
  5
145
  8
TEXT
 10
14.9779500089294
 20
6.672378494207896
 30
0.0
  0
VERTEX
  5
146
  8
TEXT
 10
14.98730650961416
 20
6.674049391684568
 30
0.0
  0
VERTEX
  5
147
  8
TEXT
 10
14.99649884281938
 20
6.676170969938332
 30
0.0
  0
VERTEX
  5
148
  8
TEXT
 10
15.00551507049097
 20
6.678731290915129
 30
0.0
  0
VERTEX
  5
149
  8
TEXT
 10
15.01434325457489
 20
6.681718416560892
 30
0.0
  0
VERTEX
  5
14A
  8
TEXT
 10
15.02297145701706
 20
6.685120408821558
 30
0.0
  0
VERTEX
  5
14B
  8
TEXT
 10
15.03138773976342
 20
6.688925329643062
 30
0.0
  0
VERTEX
  5
14C
  8
TEXT
 10
15.0395801647599
 20
6.693121240971339
 30
0.0
  0
VERTEX
  5
14D
  8
TEXT
 10
15.04753679395245
 20
6.697696204752328
 30
0.0
  0
VERTEX
  5
14E
  8
TEXT
 10
15.055245689287
 20
6.702638282931959
 30
0.0
  0
VERTEX
  5
14F
  8
TEXT
 10
15.06269491270948
 20
6.707935537456173
 30
0.0
  0
VERTEX
  5
150
  8
TEXT
 10
15.06987252616583
 20
6.713576030270903
 30
0.0
  0
VERTEX
  5
151
  8
TEXT
 10
15.07676659160198
 20
6.719547823322085
 30
0.0
  0
VERTEX
  5
152
  8
TEXT
 10
15.08336517096387
 20
6.725838978555656
 30
0.0
  0
VERTEX
  5
153
  8
TEXT
 10
15.08965632619744
 20
6.732437557917549
 30
0.0
  0
VERTEX
  5
154
  8
TEXT
 10
15.09562811924863
 20
6.739331623353703
 30
0.0
  0
VERTEX
  5
155
  8
TEXT
 10
15.10126861206336
 20
6.746509236810052
 30
0.0
  0
VERTEX
  5
156
  8
TEXT
 10
15.10656586658757
 20
6.753958460232532
 30
0.0
  0
VERTEX
  5
157
  8
TEXT
 10
15.1115079447672
 20
6.761667355567077
 30
0.0
  0
VERTEX
  5
158
  8
TEXT
 10
15.11608290854819
 20
6.769623984759626
 30
0.0
  0
VERTEX
  5
159
  8
TEXT
 10
15.12027881987647
 20
6.777816409756113
 30
0.0
  0
VERTEX
  5
15A
  8
TEXT
 10
15.12408374069797
 20
6.786232692502474
 30
0.0
  0
VERTEX
  5
15B
  8
TEXT
 10
15.12748573295864
 20
6.794860894944645
 30
0.0
  0
VERTEX
  5
15C
  8
TEXT
 10
15.1304728586044
 20
6.80368907902856
 30
0.0
  0
VERTEX
  5
15D
  8
TEXT
 10
15.1330331795812
 20
6.812705306700156
 30
0.0
  0
VERTEX
  5
15E
  8
TEXT
 10
15.13515475783496
 20
6.821897639905369
 30
0.0
  0
VERTEX
  5
15F
  8
TEXT
 10
15.13682565531164
 20
6.831254140590134
 30
0.0
  0
VERTEX
  5
160
  8
TEXT
 10
15.13803393395715
 20
6.840762870700386
 30
0.0
  0
VERTEX
  5
161
  8
TEXT
 10
15.13876765571743
 20
6.850411892182064
 30
0.0
  0
VERTEX
  5
162
  8
TEXT
 10
15.13901488253843
 20
6.8601892669811
 30
0.0
  0
VERTEX
  5
163
  8
TEXT
 10
15.13876765571743
 20
6.869966641780135
 30
0.0
  0
VERTEX
  5
164
  8
TEXT
 10
15.13803393395715
 20
6.879615663261813
 30
0.0
  0
VERTEX
  5
165
  8
TEXT
 10
15.13682565531164
 20
6.889124393372065
 30
0.0
  0
VERTEX
  5
166
  8
TEXT
 10
15.13515475783496
 20
6.898480894056831
 30
0.0
  0
VERTEX
  5
167
  8
TEXT
 10
15.1330331795812
 20
6.907673227262043
 30
0.0
  0
VERTEX
  5
168
  8
TEXT
 10
15.1304728586044
 20
6.916689454933639
 30
0.0
  0
VERTEX
  5
169
  8
TEXT
 10
15.12748573295864
 20
6.925517639017555
 30
0.0
  0
VERTEX
  5
16A
  8
TEXT
 10
15.12408374069797
 20
6.934145841459725
 30
0.0
  0
VERTEX
  5
16B
  8
TEXT
 10
15.12027881987647
 20
6.942562124206086
 30
0.0
  0
VERTEX
  5
16C
  8
TEXT
 10
15.11608290854819
 20
6.950754549202573
 30
0.0
  0
VERTEX
  5
16D
  8
TEXT
 10
15.1115079447672
 20
6.958711178395122
 30
0.0
  0
VERTEX
  5
16E
  8
TEXT
 10
15.10656586658757
 20
6.966420073729668
 30
0.0
  0
VERTEX
  5
16F
  8
TEXT
 10
15.10126861206336
 20
6.973869297152148
 30
0.0
  0
VERTEX
  5
170
  8
TEXT
 10
15.09562811924863
 20
6.981046910608497
 30
0.0
  0
VERTEX
  5
171
  8
TEXT
 10
15.08965632619744
 20
6.987940976044651
 30
0.0
  0
VERTEX
  5
172
  8
TEXT
 10
15.08336517096387
 20
6.994539555406544
 30
0.0
  0
VERTEX
  5
173
  8
TEXT
 10
15.07676659160198
 20
7.000830710640114
 30
0.0
  0
VERTEX
  5
174
  8
TEXT
 10
15.06987252616583
 20
7.006802503691297
 30
0.0
  0
VERTEX
  5
175
  8
TEXT
 10
15.06269491270948
 20
7.012442996506028
 30
0.0
  0
VERTEX
  5
176
  8
TEXT
 10
15.055245689287
 20
7.01774025103024
 30
0.0
  0
VERTEX
  5
177
  8
TEXT
 10
15.04753679395245
 20
7.022682329209873
 30
0.0
  0
VERTEX
  5
178
  8
TEXT
 10
15.0395801647599
 20
7.027257292990861
 30
0.0
  0
VERTEX
  5
179
  8
TEXT
 10
15.03138773976342
 20
7.031453204319137
 30
0.0
  0
VERTEX
  5
17A
  8
TEXT
 10
15.02297145701706
 20
7.035258125140642
 30
0.0
  0
VERTEX
  5
17B
  8
TEXT
 10
15.01434325457489
 20
7.038660117401307
 30
0.0
  0
VERTEX
  5
17C
  8
TEXT
 10
15.00551507049097
 20
7.041647243047071
 30
0.0
  0
VERTEX
  5
17D
  8
TEXT
 10
14.99649884281938
 20
7.044207564023868
 30
0.0
  0
VERTEX
  5
17E
  8
TEXT
 10
14.98730650961416
 20
7.046329142277633
 30
0.0
  0
VERTEX
  5
17F
  8
TEXT
 10
14.9779500089294
 20
7.048000039754303
 30
0.0
  0
VERTEX
  5
180
  8
TEXT
 10
14.96844127881915
 20
7.049208318399814
 30
0.0
  0
VERTEX
  5
181
  8
TEXT
 10
14.95879225733747
 20
7.049942040160101
 30
0.0
  0
VERTEX
  5
182
  8
TEXT
 10
14.94901488253843
 20
7.0501892669811
 30
0.0
  0
VERTEX
  5
183
  8
TEXT
 10
14.9392375077394
 20
7.049942040160101
 30
0.0
  0
VERTEX
  5
184
  8
TEXT
 10
14.92958848625772
 20
7.049208318399814
 30
0.0
  0
VERTEX
  5
185
  8
TEXT
 10
14.92007975614746
 20
7.048000039754303
 30
0.0
  0
VERTEX
  5
186
  8
TEXT
 10
14.9107232554627
 20
7.046329142277633
 30
0.0
  0
VERTEX
  5
187
  8
TEXT
 10
14.90153092225749
 20
7.044207564023868
 30
0.0
  0
VERTEX
  5
188
  8
TEXT
 10
14.89251469458589
 20
7.041647243047071
 30
0.0
  0
VERTEX
  5
189
  8
TEXT
 10
14.88368651050197
 20
7.038660117401307
 30
0.0
  0
VERTEX
  5
18A
  8
TEXT
 10
14.87505830805981
 20
7.035258125140642
 30
0.0
  0
VERTEX
  5
18B
  8
TEXT
 10
14.86664202531345
 20
7.031453204319137
 30
0.0
  0
VERTEX
  5
18C
  8
TEXT
 10
14.85844960031696
 20
7.027257292990861
 30
0.0
  0
VERTEX
  5
18D
  8
TEXT
 10
14.85049297112441
 20
7.022682329209873
 30
0.0
  0
VERTEX
  5
18E
  8
TEXT
 10
14.84278407578986
 20
7.01774025103024
 30
0.0
  0
VERTEX
  5
18F
  8
TEXT
 10
14.83533485236739
 20
7.012442996506028
 30
0.0
  0
VERTEX
  5
190
  8
TEXT
 10
14.82815723891104
 20
7.006802503691297
 30
0.0
  0
VERTEX
  5
191
  8
TEXT
 10
14.82126317347488
 20
7.000830710640114
 30
0.0
  0
VERTEX
  5
192
  8
TEXT
 10
14.81466459411299
 20
6.994539555406544
 30
0.0
  0
VERTEX
  5
193
  8
TEXT
 10
14.80837343887942
 20
6.987940976044651
 30
0.0
  0
VERTEX
  5
194
  8
TEXT
 10
14.80240164582824
 20
6.981046910608497
 30
0.0
  0
VERTEX
  5
195
  8
TEXT
 10
14.79676115301351
 20
6.973869297152148
 30
0.0
  0
VERTEX
  5
196
  8
TEXT
 10
14.79146389848929
 20
6.966420073729668
 30
0.0
  0
VERTEX
  5
197
  8
TEXT
 10
14.78652182030966
 20
6.958711178395122
 30
0.0
  0
VERTEX
  5
198
  8
TEXT
 10
14.78194685652867
 20
6.950754549202573
 30
0.0
  0
VERTEX
  5
199
  8
TEXT
 10
14.77775094520039
 20
6.942562124206086
 30
0.0
  0
VERTEX
  5
19A
  8
TEXT
 10
14.77394602437889
 20
6.934145841459725
 30
0.0
  0
VERTEX
  5
19B
  8
TEXT
 10
14.77054403211822
 20
6.925517639017555
 30
0.0
  0
VERTEX
  5
19C
  8
TEXT
 10
14.76755690647246
 20
6.916689454933639
 30
0.0
  0
VERTEX
  5
19D
  8
TEXT
 10
14.76499658549566
 20
6.907673227262043
 30
0.0
  0
VERTEX
  5
19E
  8
TEXT
 10
14.7628750072419
 20
6.898480894056831
 30
0.0
  0
VERTEX
  5
19F
  8
TEXT
 10
14.76120410976523
 20
6.889124393372065
 30
0.0
  0
VERTEX
  5
1A0
  8
TEXT
 10
14.75999583111972
 20
6.879615663261813
 30
0.0
  0
VERTEX
  5
1A1
  8
TEXT
 10
14.75926210935943
 20
6.869966641780135
 30
0.0
  0
VERTEX
  5
1A2
  8
TEXT
 10
14.75901488253843
 20
6.8601892669811
 30
0.0
  0
VERTEX
  5
1A3
  8
TEXT
 10
14.75926210935943
 20
6.850411892182064
 30
0.0
  0
VERTEX
  5
1A4
  8
TEXT
 10
14.75999583111972
 20
6.840762870700386
 30
0.0
  0
VERTEX
  5
1A5
  8
TEXT
 10
14.76120410976523
 20
6.831254140590134
 30
0.0
  0
VERTEX
  5
1A6
  8
TEXT
 10
14.7628750072419
 20
6.821897639905369
 30
0.0
  0
VERTEX
  5
1A7
  8
TEXT
 10
14.76499658549566
 20
6.812705306700156
 30
0.0
  0
VERTEX
  5
1A8
  8
TEXT
 10
14.76755690647246
 20
6.80368907902856
 30
0.0
  0
VERTEX
  5
1A9
  8
TEXT
 10
14.77054403211822
 20
6.794860894944645
 30
0.0
  0
VERTEX
  5
1AA
  8
TEXT
 10
14.77394602437889
 20
6.786232692502474
 30
0.0
  0
VERTEX
  5
1AB
  8
TEXT
 10
14.77775094520039
 20
6.777816409756113
 30
0.0
  0
VERTEX
  5
1AC
  8
TEXT
 10
14.78194685652867
 20
6.769623984759626
 30
0.0
  0
VERTEX
  5
1AD
  8
TEXT
 10
14.78652182030966
 20
6.761667355567077
 30
0.0
  0
VERTEX
  5
1AE
  8
TEXT
 10
14.79146389848929
 20
6.753958460232532
 30
0.0
  0
VERTEX
  5
1AF
  8
TEXT
 10
14.79676115301351
 20
6.746509236810052
 30
0.0
  0
VERTEX
  5
1B0
  8
TEXT
 10
14.80240164582824
 20
6.739331623353703
 30
0.0
  0
VERTEX
  5
1B1
  8
TEXT
 10
14.80837343887942
 20
6.732437557917549
 30
0.0
  0
VERTEX
  5
1B2
  8
TEXT
 10
14.81466459411299
 20
6.725838978555656
 30
0.0
  0
VERTEX
  5
1B3
  8
TEXT
 10
14.82126317347488
 20
6.719547823322085
 30
0.0
  0
VERTEX
  5
1B4
  8
TEXT
 10
14.82815723891104
 20
6.713576030270903
 30
0.0
  0
VERTEX
  5
1B5
  8
TEXT
 10
14.83533485236739
 20
6.707935537456173
 30
0.0
  0
VERTEX
  5
1B6
  8
TEXT
 10
14.84278407578986
 20
6.702638282931959
 30
0.0
  0
VERTEX
  5
1B7
  8
TEXT
 10
14.85049297112441
 20
6.697696204752328
 30
0.0
  0
VERTEX
  5
1B8
  8
TEXT
 10
14.85844960031696
 20
6.693121240971339
 30
0.0
  0
VERTEX
  5
1B9
  8
TEXT
 10
14.86664202531345
 20
6.688925329643062
 30
0.0
  0
VERTEX
  5
1BA
  8
TEXT
 10
14.87505830805981
 20
6.685120408821558
 30
0.0
  0
VERTEX
  5
1BB
  8
TEXT
 10
14.88368651050197
 20
6.681718416560892
 30
0.0
  0
VERTEX
  5
1BC
  8
TEXT
 10
14.89251469458589
 20
6.678731290915129
 30
0.0
  0
VERTEX
  5
1BD
  8
TEXT
 10
14.90153092225749
 20
6.676170969938332
 30
0.0
  0
VERTEX
  5
1BE
  8
TEXT
 10
14.9107232554627
 20
6.674049391684568
 30
0.0
  0
VERTEX
  5
1BF
  8
TEXT
 10
14.92007975614746
 20
6.672378494207896
 30
0.0
  0
VERTEX
  5
1C0
  8
TEXT
 10
14.92958848625772
 20
6.671170215562386
 30
0.0
  0
VERTEX
  5
1C1
  8
TEXT
 10
14.9392375077394
 20
6.670436493802098
 30
0.0
  0
SEQEND
  5
B7E
  8
TEXT
  0
POLYLINE
  5
7C
  8
TEXT
 66
     1
 10
0.0
 20
0.0
 30
0.0
  0
VERTEX
  5
1C2
  8
TEXT
 10
15.33901488253843
 20
6.6751892669811
 30
0.0
  0
VERTEX
  5
1C3
  8
TEXT
 10
15.33901488253843
 20
7.0251892669811
 30
0.0
  0
VERTEX
  5
1C4
  8
TEXT
 10
15.23901488253843
 20
7.0251892669811
 30
0.0
  0
VERTEX
  5
1C5
  8
TEXT
 10
15.43901488253843
 20
7.0251892669811
 30
0.0
  0
VERTEX
  5
1C6
  8
TEXT
 10
15.33901488253843
 20
7.0251892669811
 30
0.0
  0
VERTEX
  5
1C7
  8
TEXT
 10
15.33901488253843
 20
7.1751892669811
 30
0.0
  0
SEQEND
  5
B7F
  8
TEXT
  0
POLYLINE
  5
7D
  8
TEXT
 66
     1
 10
0.0
 20
0.0
 30
0.0
  0
VERTEX
  5
1C8
  8
TEXT
 10
15.63901488253843
 20
6.6751892669811
 30
0.0
  0
VERTEX
  5
1C9
  8
TEXT
 10
15.63901488253843
 20
7.0251892669811
 30
0.0
  0
VERTEX
  5
1CA
  8
TEXT
 10
15.53901488253843
 20
7.0251892669811
 30
0.0
  0
VERTEX
  5
1CB
  8
TEXT
 10
15.73901488253843
 20
7.0251892669811
 30
0.0
  0
VERTEX
  5
1CC
  8
TEXT
 10
15.63901488253843
 20
7.0251892669811
 30
0.0
  0
VERTEX
  5
1CD
  8
TEXT
 10
15.63901488253843
 20
7.1751892669811
 30
0.0
  0
SEQEND
  5
B80
  8
TEXT
  0
POLYLINE
  5
7E
  8
TEXT
 66
     1
 10
0.0
 20
0.0
 30
0.0
 70
     1
  0
VERTEX
  5
1CE
  8
TEXT
 10
16.02901488253843
 20
6.6701892669811
 30
0.0
  0
VERTEX
  5
1CF
  8
TEXT
 10
16.03879225733747
 20
6.670436493802098
 30
0.0
  0
VERTEX
  5
1D0
  8
TEXT
 10
16.04844127881914
 20
6.671170215562386
 30
0.0
  0
VERTEX
  5
1D1
  8
TEXT
 10
16.0579500089294
 20
6.672378494207896
 30
0.0
  0
VERTEX
  5
1D2
  8
TEXT
 10
16.06730650961416
 20
6.674049391684568
 30
0.0
  0
VERTEX
  5
1D3
  8
TEXT
 10
16.07649884281938
 20
6.676170969938332
 30
0.0
  0
VERTEX
  5
1D4
  8
TEXT
 10
16.08551507049097
 20
6.678731290915129
 30
0.0
  0
VERTEX
  5
1D5
  8
TEXT
 10
16.09434325457488
 20
6.681718416560892
 30
0.0
  0
VERTEX
  5
1D6
  8
TEXT
 10
16.10297145701706
 20
6.685120408821558
 30
0.0
  0
VERTEX
  5
1D7
  8
TEXT
 10
16.11138773976342
 20
6.688925329643062
 30
0.0
  0
VERTEX
  5
1D8
  8
TEXT
 10
16.11958016475991
 20
6.693121240971339
 30
0.0
  0
VERTEX
  5
1D9
  8
TEXT
 10
16.12753679395246
 20
6.697696204752328
 30
0.0
  0
VERTEX
  5
1DA
  8
TEXT
 10
16.135245689287
 20
6.702638282931959
 30
0.0
  0
VERTEX
  5
1DB
  8
TEXT
 10
16.14269491270949
 20
6.707935537456173
 30
0.0
  0
VERTEX
  5
1DC
  8
TEXT
 10
16.14987252616583
 20
6.713576030270903
 30
0.0
  0
VERTEX
  5
1DD
  8
TEXT
 10
16.15676659160199
 20
6.719547823322085
 30
0.0
  0
VERTEX
  5
1DE
  8
TEXT
 10
16.16336517096388
 20
6.725838978555656
 30
0.0
  0
VERTEX
  5
1DF
  8
TEXT
 10
16.16965632619745
 20
6.732437557917549
 30
0.0
  0
VERTEX
  5
1E0
  8
TEXT
 10
16.17562811924864
 20
6.739331623353703
 30
0.0
  0
VERTEX
  5
1E1
  8
TEXT
 10
16.18126861206336
 20
6.746509236810052
 30
0.0
  0
VERTEX
  5
1E2
  8
TEXT
 10
16.18656586658758
 20
6.753958460232532
 30
0.0
  0
VERTEX
  5
1E3
  8
TEXT
 10
16.19150794476721
 20
6.761667355567077
 30
0.0
  0
VERTEX
  5
1E4
  8
TEXT
 10
16.1960829085482
 20
6.769623984759626
 30
0.0
  0
VERTEX
  5
1E5
  8
TEXT
 10
16.20027881987647
 20
6.777816409756113
 30
0.0
  0
VERTEX
  5
1E6
  8
TEXT
 10
16.20408374069797
 20
6.786232692502474
 30
0.0
  0
VERTEX
  5
1E7
  8
TEXT
 10
16.20748573295864
 20
6.794860894944645
 30
0.0
  0
VERTEX
  5
1E8
  8
TEXT
 10
16.2104728586044
 20
6.80368907902856
 30
0.0
  0
VERTEX
  5
1E9
  8
TEXT
 10
16.2130331795812
 20
6.812705306700156
 30
0.0
  0
VERTEX
  5
1EA
  8
TEXT
 10
16.21515475783497
 20
6.821897639905369
 30
0.0
  0
VERTEX
  5
1EB
  8
TEXT
 10
16.21682565531164
 20
6.831254140590134
 30
0.0
  0
VERTEX
  5
1EC
  8
TEXT
 10
16.21803393395715
 20
6.840762870700386
 30
0.0
  0
VERTEX
  5
1ED
  8
TEXT
 10
16.21876765571744
 20
6.850411892182064
 30
0.0
  0
VERTEX
  5
1EE
  8
TEXT
 10
16.21901488253843
 20
6.8601892669811
 30
0.0
  0
VERTEX
  5
1EF
  8
TEXT
 10
16.21876765571744
 20
6.869966641780135
 30
0.0
  0
VERTEX
  5
1F0
  8
TEXT
 10
16.21803393395715
 20
6.879615663261813
 30
0.0
  0
VERTEX
  5
1F1
  8
TEXT
 10
16.21682565531164
 20
6.889124393372065
 30
0.0
  0
VERTEX
  5
1F2
  8
TEXT
 10
16.21515475783497
 20
6.898480894056831
 30
0.0
  0
VERTEX
  5
1F3
  8
TEXT
 10
16.2130331795812
 20
6.907673227262043
 30
0.0
  0
VERTEX
  5
1F4
  8
TEXT
 10
16.2104728586044
 20
6.916689454933639
 30
0.0
  0
VERTEX
  5
1F5
  8
TEXT
 10
16.20748573295864
 20
6.925517639017555
 30
0.0
  0
VERTEX
  5
1F6
  8
TEXT
 10
16.20408374069797
 20
6.934145841459725
 30
0.0
  0
VERTEX
  5
1F7
  8
TEXT
 10
16.20027881987647
 20
6.942562124206086
 30
0.0
  0
VERTEX
  5
1F8
  8
TEXT
 10
16.1960829085482
 20
6.950754549202573
 30
0.0
  0
VERTEX
  5
1F9
  8
TEXT
 10
16.19150794476721
 20
6.958711178395122
 30
0.0
  0
VERTEX
  5
1FA
  8
TEXT
 10
16.18656586658758
 20
6.966420073729668
 30
0.0
  0
VERTEX
  5
1FB
  8
TEXT
 10
16.18126861206336
 20
6.973869297152148
 30
0.0
  0
VERTEX
  5
1FC
  8
TEXT
 10
16.17562811924864
 20
6.981046910608497
 30
0.0
  0
VERTEX
  5
1FD
  8
TEXT
 10
16.16965632619745
 20
6.987940976044651
 30
0.0
  0
VERTEX
  5
1FE
  8
TEXT
 10
16.16336517096388
 20
6.994539555406544
 30
0.0
  0
VERTEX
  5
1FF
  8
TEXT
 10
16.15676659160199
 20
7.000830710640114
 30
0.0
  0
VERTEX
  5
200
  8
TEXT
 10
16.14987252616583
 20
7.006802503691297
 30
0.0
  0
VERTEX
  5
201
  8
TEXT
 10
16.14269491270949
 20
7.012442996506028
 30
0.0
  0
VERTEX
  5
202
  8
TEXT
 10
16.135245689287
 20
7.01774025103024
 30
0.0
  0
VERTEX
  5
203
  8
TEXT
 10
16.12753679395246
 20
7.022682329209873
 30
0.0
  0
VERTEX
  5
204
  8
TEXT
 10
16.11958016475991
 20
7.027257292990861
 30
0.0
  0
VERTEX
  5
205
  8
TEXT
 10
16.11138773976342
 20
7.031453204319137
 30
0.0
  0
VERTEX
  5
206
  8
TEXT
 10
16.10297145701706
 20
7.035258125140642
 30
0.0
  0
VERTEX
  5
207
  8
TEXT
 10
16.09434325457488
 20
7.038660117401307
 30
0.0
  0
VERTEX
  5
208
  8
TEXT
 10
16.08551507049097
 20
7.041647243047071
 30
0.0
  0
VERTEX
  5
209
  8
TEXT
 10
16.07649884281938
 20
7.044207564023868
 30
0.0
  0
VERTEX
  5
20A
  8
TEXT
 10
16.06730650961416
 20
7.046329142277633
 30
0.0
  0
VERTEX
  5
20B
  8
TEXT
 10
16.0579500089294
 20
7.048000039754303
 30
0.0
  0
VERTEX
  5
20C
  8
TEXT
 10
16.04844127881914
 20
7.049208318399814
 30
0.0
  0
VERTEX
  5
20D
  8
TEXT
 10
16.03879225733747
 20
7.049942040160101
 30
0.0
  0
VERTEX
  5
20E
  8
TEXT
 10
16.02901488253843
 20
7.0501892669811
 30
0.0
  0
VERTEX
  5
20F
  8
TEXT
 10
16.0192375077394
 20
7.049942040160101
 30
0.0
  0
VERTEX
  5
210
  8
TEXT
 10
16.00958848625772
 20
7.049208318399814
 30
0.0
  0
VERTEX
  5
211
  8
TEXT
 10
16.00007975614746
 20
7.048000039754303
 30
0.0
  0
VERTEX
  5
212
  8
TEXT
 10
15.9907232554627
 20
7.046329142277633
 30
0.0
  0
VERTEX
  5
213
  8
TEXT
 10
15.98153092225749
 20
7.044207564023868
 30
0.0
  0
VERTEX
  5
214
  8
TEXT
 10
15.97251469458589
 20
7.041647243047071
 30
0.0
  0
VERTEX
  5
215
  8
TEXT
 10
15.96368651050198
 20
7.038660117401307
 30
0.0
  0
VERTEX
  5
216
  8
TEXT
 10
15.95505830805981
 20
7.035258125140642
 30
0.0
  0
VERTEX
  5
217
  8
TEXT
 10
15.94664202531345
 20
7.031453204319137
 30
0.0
  0
VERTEX
  5
218
  8
TEXT
 10
15.93844960031696
 20
7.027257292990861
 30
0.0
  0
VERTEX
  5
219
  8
TEXT
 10
15.93049297112441
 20
7.022682329209873
 30
0.0
  0
VERTEX
  5
21A
  8
TEXT
 10
15.92278407578987
 20
7.01774025103024
 30
0.0
  0
VERTEX
  5
21B
  8
TEXT
 10
15.91533485236739
 20
7.012442996506028
 30
0.0
  0
VERTEX
  5
21C
  8
TEXT
 10
15.90815723891104
 20
7.006802503691297
 30
0.0
  0
VERTEX
  5
21D
  8
TEXT
 10
15.90126317347488
 20
7.000830710640114
 30
0.0
  0
VERTEX
  5
21E
  8
TEXT
 10
15.89466459411299
 20
6.994539555406544
 30
0.0
  0
VERTEX
  5
21F
  8
TEXT
 10
15.88837343887942
 20
6.987940976044651
 30
0.0
  0
VERTEX
  5
220
  8
TEXT
 10
15.88240164582824
 20
6.981046910608497
 30
0.0
  0
VERTEX
  5
221
  8
TEXT
 10
15.87676115301351
 20
6.973869297152148
 30
0.0
  0
VERTEX
  5
222
  8
TEXT
 10
15.87146389848929
 20
6.966420073729668
 30
0.0
  0
VERTEX
  5
223
  8
TEXT
 10
15.86652182030966
 20
6.958711178395122
 30
0.0
  0
VERTEX
  5
224
  8
TEXT
 10
15.86194685652867
 20
6.950754549202573
 30
0.0
  0
VERTEX
  5
225
  8
TEXT
 10
15.8577509452004
 20
6.942562124206086
 30
0.0
  0
VERTEX
  5
226
  8
TEXT
 10
15.85394602437889
 20
6.934145841459725
 30
0.0
  0
VERTEX
  5
227
  8
TEXT
 10
15.85054403211823
 20
6.925517639017555
 30
0.0
  0
VERTEX
  5
228
  8
TEXT
 10
15.84755690647246
 20
6.916689454933639
 30
0.0
  0
VERTEX
  5
229
  8
TEXT
 10
15.84499658549567
 20
6.907673227262043
 30
0.0
  0
VERTEX
  5
22A
  8
TEXT
 10
15.8428750072419
 20
6.898480894056831
 30
0.0
  0
VERTEX
  5
22B
  8
TEXT
 10
15.84120410976523
 20
6.889124393372065
 30
0.0
  0
VERTEX
  5
22C
  8
TEXT
 10
15.83999583111972
 20
6.879615663261813
 30
0.0
  0
VERTEX
  5
22D
  8
TEXT
 10
15.83926210935943
 20
6.869966641780135
 30
0.0
  0
VERTEX
  5
22E
  8
TEXT
 10
15.83901488253843
 20
6.8601892669811
 30
0.0
  0
VERTEX
  5
22F
  8
TEXT
 10
15.83926210935943
 20
6.850411892182064
 30
0.0
  0
VERTEX
  5
230
  8
TEXT
 10
15.83999583111972
 20
6.840762870700386
 30
0.0
  0
VERTEX
  5
231
  8
TEXT
 10
15.84120410976523
 20
6.831254140590134
 30
0.0
  0
VERTEX
  5
232
  8
TEXT
 10
15.8428750072419
 20
6.821897639905369
 30
0.0
  0
VERTEX
  5
233
  8
TEXT
 10
15.84499658549567
 20
6.812705306700156
 30
0.0
  0
VERTEX
  5
234
  8
TEXT
 10
15.84755690647246
 20
6.80368907902856
 30
0.0
  0
VERTEX
  5
235
  8
TEXT
 10
15.85054403211823
 20
6.794860894944645
 30
0.0
  0
VERTEX
  5
236
  8
TEXT
 10
15.85394602437889
 20
6.786232692502474
 30
0.0
  0
VERTEX
  5
237
  8
TEXT
 10
15.8577509452004
 20
6.777816409756113
 30
0.0
  0
VERTEX
  5
238
  8
TEXT
 10
15.86194685652867
 20
6.769623984759626
 30
0.0
  0
VERTEX
  5
239
  8
TEXT
 10
15.86652182030966
 20
6.761667355567077
 30
0.0
  0
VERTEX
  5
23A
  8
TEXT
 10
15.87146389848929
 20
6.753958460232532
 30
0.0
  0
VERTEX
  5
23B
  8
TEXT
 10
15.87676115301351
 20
6.746509236810052
 30
0.0
  0
VERTEX
  5
23C
  8
TEXT
 10
15.88240164582824
 20
6.739331623353703
 30
0.0
  0
VERTEX
  5
23D
  8
TEXT
 10
15.88837343887942
 20
6.732437557917549
 30
0.0
  0
VERTEX
  5
23E
  8
TEXT
 10
15.89466459411299
 20
6.725838978555656
 30
0.0
  0
VERTEX
  5
23F
  8
TEXT
 10
15.90126317347488
 20
6.719547823322085
 30
0.0
  0
VERTEX
  5
240
  8
TEXT
 10
15.90815723891104
 20
6.713576030270903
 30
0.0
  0
VERTEX
  5
241
  8
TEXT
 10
15.91533485236739
 20
6.707935537456173
 30
0.0
  0
VERTEX
  5
242
  8
TEXT
 10
15.92278407578987
 20
6.702638282931959
 30
0.0
  0
VERTEX
  5
243
  8
TEXT
 10
15.93049297112441
 20
6.697696204752328
 30
0.0
  0
VERTEX
  5
244
  8
TEXT
 10
15.93844960031696
 20
6.693121240971339
 30
0.0
  0
VERTEX
  5
245
  8
TEXT
 10
15.94664202531345
 20
6.688925329643062
 30
0.0
  0
VERTEX
  5
246
  8
TEXT
 10
15.95505830805981
 20
6.685120408821558
 30
0.0
  0
VERTEX
  5
247
  8
TEXT
 10
15.96368651050198
 20
6.681718416560892
 30
0.0
  0
VERTEX
  5
248
  8
TEXT
 10
15.97251469458589
 20
6.678731290915129
 30
0.0
  0
VERTEX
  5
249
  8
TEXT
 10
15.98153092225749
 20
6.676170969938332
 30
0.0
  0
VERTEX
  5
24A
  8
TEXT
 10
15.9907232554627
 20
6.674049391684568
 30
0.0
  0
VERTEX
  5
24B
  8
TEXT
 10
16.00007975614746
 20
6.672378494207896
 30
0.0
  0
VERTEX
  5
24C
  8
TEXT
 10
16.00958848625772
 20
6.671170215562386
 30
0.0
  0
VERTEX
  5
24D
  8
TEXT
 10
16.0192375077394
 20
6.670436493802098
 30
0.0
  0
SEQEND
  5
B81
  8
TEXT
  0
POLYLINE
  5
7F
  8
TEXT
 66
     1
 10
0.0
 20
0.0
 30
0.0
  0
VERTEX
  5
24E
  8
TEXT
 10
16.31901488253843
 20
6.6751892669811
 30
0.0
  0
VERTEX
  5
24F
  8
TEXT
 10
16.31901488253843
 20
7.0451892669811
 30
0.0
  0
VERTEX
  5
250
  8
TEXT
 10
16.31901488253843
 20
6.9051892669811
 30
0.0
 42
-1.0
  0
VERTEX
  5
251
  8
TEXT
 10
16.60901488253843
 20
6.9051892669811
 30
0.0
  0
VERTEX
  5
252
  8
TEXT
 10
16.60901488253843
 20
6.6751892669811
 30
0.0
  0
VERTEX
  5
253
  8
TEXT
 10
16.60901488253843
 20
6.9051892669811
 30
0.0
 42
-1.0
  0
VERTEX
  5
254
  8
TEXT
 10
16.89901488253843
 20
6.9051892669811
 30
0.0
  0
VERTEX
  5
255
  8
TEXT
 10
16.89901488253843
 20
6.6751892669811
 30
0.0
  0
SEQEND
  5
B82
  8
TEXT
  0
POLYLINE
  5
80
  8
TEXT
 66
     1
 10
0.0
 20
0.0
 30
0.0
  0
VERTEX
  5
256
  8
TEXT
 10
8.502784270182703
 20
16.36303346605452
 30
0.0
  0
VERTEX
  5
257
  8
TEXT
 10
8.502784270182703
 20
16.86303346605452
 30
0.0
  0
VERTEX
  5
258
  8
TEXT
 10
8.742784270182701
 20
16.86303346605452
 30
0.0
  0
VERTEX
  5
259
  8
TEXT
 10
8.502784270182703
 20
16.86303346605452
 30
0.0
  0
VERTEX
  5
25A
  8
TEXT
 10
8.502784270182703
 20
16.61803346605452
 30
0.0
  0
VERTEX
  5
25B
  8
TEXT
 10
8.742784270182701
 20
16.61803346605452
 30
0.0
  0
SEQEND
  5
B83
  8
TEXT
  0
POLYLINE
  5
81
  8
TEXT
 66
     1
 10
0.0
 20
0.0
 30
0.0
  0
VERTEX
  5
25C
  8
TEXT
 10
8.842784270182703
 20
16.36303346605452
 30
0.0
  0
VERTEX
  5
25D
  8
TEXT
 10
8.842784270182703
 20
16.73303346605452
 30
0.0
  0
VERTEX
  5
25E
  8
TEXT
 10
8.842784270182703
 20
16.59303346605452
 30
0.0
 42
-0.4160919540229884
  0
VERTEX
  5
25F
  8
TEXT
 10
8.987784270182702
 20
16.73803346605452
 30
0.0
  0
SEQEND
  5
B84
  8
TEXT
  0
POLYLINE
  5
82
  8
TEXT
 66
     1
 10
0.0
 20
0.0
 30
0.0
 70
     1
  0
VERTEX
  5
260
  8
TEXT
 10
9.277784270182702
 20
16.35803346605452
 30
0.0
  0
VERTEX
  5
261
  8
TEXT
 10
9.28756164498174
 20
16.35828069287552
 30
0.0
  0
VERTEX
  5
262
  8
TEXT
 10
9.297210666463414
 20
16.35901441463581
 30
0.0
  0
VERTEX
  5
263
  8
TEXT
 10
9.30671939657367
 20
16.36022269328132
 30
0.0
  0
VERTEX
  5
264
  8
TEXT
 10
9.316075897258433
 20
16.36189359075799
 30
0.0
  0
VERTEX
  5
265
  8
TEXT
 10
9.325268230463646
 20
16.36401516901175
 30
0.0
  0
VERTEX
  5
266
  8
TEXT
 10
9.33428445813524
 20
16.36657548998855
 30
0.0
  0
VERTEX
  5
267
  8
TEXT
 10
9.343112642219157
 20
16.36956261563432
 30
0.0
  0
VERTEX
  5
268
  8
TEXT
 10
9.351740844661327
 20
16.37296460789498
 30
0.0
  0
VERTEX
  5
269
  8
TEXT
 10
9.360157127407689
 20
16.37676952871648
 30
0.0
  0
VERTEX
  5
26A
  8
TEXT
 10
9.368349552404176
 20
16.38096544004476
 30
0.0
  0
VERTEX
  5
26B
  8
TEXT
 10
9.376306181596725
 20
16.38554040382575
 30
0.0
  0
VERTEX
  5
26C
  8
TEXT
 10
9.384015076931272
 20
16.39048248200538
 30
0.0
  0
VERTEX
  5
26D
  8
TEXT
 10
9.39146430035375
 20
16.3957797365296
 30
0.0
  0
VERTEX
  5
26E
  8
TEXT
 10
9.3986419138101
 20
16.40142022934432
 30
0.0
  0
VERTEX
  5
26F
  8
TEXT
 10
9.405535979246253
 20
16.40739202239551
 30
0.0
  0
VERTEX
  5
270
  8
TEXT
 10
9.412134558608146
 20
16.41368317762907
 30
0.0
  0
VERTEX
  5
271
  8
TEXT
 10
9.418425713841716
 20
16.42028175699097
 30
0.0
  0
VERTEX
  5
272
  8
TEXT
 10
9.424397506892898
 20
16.42717582242712
 30
0.0
  0
VERTEX
  5
273
  8
TEXT
 10
9.43003799970763
 20
16.43435343588347
 30
0.0
  0
VERTEX
  5
274
  8
TEXT
 10
9.435335254231843
 20
16.44180265930595
 30
0.0
  0
VERTEX
  5
275
  8
TEXT
 10
9.440277332411476
 20
16.44951155464049
 30
0.0
  0
VERTEX
  5
276
  8
TEXT
 10
9.444852296192462
 20
16.45746818383305
 30
0.0
  0
VERTEX
  5
277
  8
TEXT
 10
9.44904820752074
 20
16.46566060882954
 30
0.0
  0
VERTEX
  5
278
  8
TEXT
 10
9.452853128342243
 20
16.4740768915759
 30
0.0
  0
VERTEX
  5
279
  8
TEXT
 10
9.45625512060291
 20
16.48270509401807
 30
0.0
  0
VERTEX
  5
27A
  8
TEXT
 10
9.459242246248671
 20
16.49153327810198
 30
0.0
  0
VERTEX
  5
27B
  8
TEXT
 10
9.461802567225469
 20
16.50054950577358
 30
0.0
  0
VERTEX
  5
27C
  8
TEXT
 10
9.463924145479234
 20
16.50974183897879
 30
0.0
  0
VERTEX
  5
27D
  8
TEXT
 10
9.465595042955904
 20
16.51909833966356
 30
0.0
  0
VERTEX
  5
27E
  8
TEXT
 10
9.466803321601414
 20
16.52860706977381
 30
0.0
  0
VERTEX
  5
27F
  8
TEXT
 10
9.467537043361702
 20
16.53825609125548
 30
0.0
  0
VERTEX
  5
280
  8
TEXT
 10
9.467784270182701
 20
16.54803346605452
 30
0.0
  0
VERTEX
  5
281
  8
TEXT
 10
9.467537043361702
 20
16.55781084085356
 30
0.0
  0
VERTEX
  5
282
  8
TEXT
 10
9.466803321601414
 20
16.56745986233523
 30
0.0
  0
VERTEX
  5
283
  8
TEXT
 10
9.465595042955904
 20
16.57696859244548
 30
0.0
  0
VERTEX
  5
284
  8
TEXT
 10
9.463924145479234
 20
16.58632509313025
 30
0.0
  0
VERTEX
  5
285
  8
TEXT
 10
9.461802567225469
 20
16.59551742633546
 30
0.0
  0
VERTEX
  5
286
  8
TEXT
 10
9.459242246248671
 20
16.60453365400706
 30
0.0
  0
VERTEX
  5
287
  8
TEXT
 10
9.45625512060291
 20
16.61336183809097
 30
0.0
  0
VERTEX
  5
288
  8
TEXT
 10
9.452853128342243
 20
16.62199004053314
 30
0.0
  0
VERTEX
  5
289
  8
TEXT
 10
9.44904820752074
 20
16.6304063232795
 30
0.0
  0
VERTEX
  5
28A
  8
TEXT
 10
9.444852296192462
 20
16.63859874827599
 30
0.0
  0
VERTEX
  5
28B
  8
TEXT
 10
9.440277332411476
 20
16.64655537746854
 30
0.0
  0
VERTEX
  5
28C
  8
TEXT
 10
9.435335254231843
 20
16.65426427280309
 30
0.0
  0
VERTEX
  5
28D
  8
TEXT
 10
9.43003799970763
 20
16.66171349622557
 30
0.0
  0
VERTEX
  5
28E
  8
TEXT
 10
9.424397506892898
 20
16.66889110968192
 30
0.0
  0
VERTEX
  5
28F
  8
TEXT
 10
9.418425713841716
 20
16.67578517511807
 30
0.0
  0
VERTEX
  5
290
  8
TEXT
 10
9.412134558608146
 20
16.68238375447996
 30
0.0
  0
VERTEX
  5
291
  8
TEXT
 10
9.405535979246253
 20
16.68867490971353
 30
0.0
  0
VERTEX
  5
292
  8
TEXT
 10
9.3986419138101
 20
16.69464670276472
 30
0.0
  0
VERTEX
  5
293
  8
TEXT
 10
9.39146430035375
 20
16.70028719557945
 30
0.0
  0
VERTEX
  5
294
  8
TEXT
 10
9.384015076931272
 20
16.70558445010366
 30
0.0
  0
VERTEX
  5
295
  8
TEXT
 10
9.376306181596725
 20
16.7105265282833
 30
0.0
  0
VERTEX
  5
296
  8
TEXT
 10
9.368349552404176
 20
16.71510149206428
 30
0.0
  0
VERTEX
  5
297
  8
TEXT
 10
9.360157127407689
 20
16.71929740339256
 30
0.0
  0
VERTEX
  5
298
  8
TEXT
 10
9.351740844661329
 20
16.72310232421406
 30
0.0
  0
VERTEX
  5
299
  8
TEXT
 10
9.343112642219161
 20
16.72650431647472
 30
0.0
  0
VERTEX
  5
29A
  8
TEXT
 10
9.334284458135244
 20
16.72949144212049
 30
0.0
  0
VERTEX
  5
29B
  8
TEXT
 10
9.32526823046365
 20
16.73205176309729
 30
0.0
  0
VERTEX
  5
29C
  8
TEXT
 10
9.316075897258434
 20
16.73417334135105
 30
0.0
  0
VERTEX
  5
29D
  8
TEXT
 10
9.30671939657367
 20
16.73584423882772
 30
0.0
  0
VERTEX
  5
29E
  8
TEXT
 10
9.297210666463416
 20
16.73705251747324
 30
0.0
  0
VERTEX
  5
29F
  8
TEXT
 10
9.28756164498174
 20
16.73778623923353
 30
0.0
  0
VERTEX
  5
2A0
  8
TEXT
 10
9.277784270182702
 20
16.73803346605452
 30
0.0
  0
VERTEX
  5
2A1
  8
TEXT
 10
9.268006895383664
 20
16.73778623923353
 30
0.0
  0
VERTEX
  5
2A2
  8
TEXT
 10
9.25835787390199
 20
16.73705251747324
 30
0.0
  0
VERTEX
  5
2A3
  8
TEXT
 10
9.248849143791734
 20
16.73584423882772
 30
0.0
  0
VERTEX
  5
2A4
  8
TEXT
 10
9.23949264310697
 20
16.73417334135105
 30
0.0
  0
VERTEX
  5
2A5
  8
TEXT
 10
9.230300309901757
 20
16.73205176309729
 30
0.0
  0
VERTEX
  5
2A6
  8
TEXT
 10
9.221284082230163
 20
16.72949144212049
 30
0.0
  0
VERTEX
  5
2A7
  8
TEXT
 10
9.212455898146246
 20
16.72650431647472
 30
0.0
  0
VERTEX
  5
2A8
  8
TEXT
 10
9.203827695704076
 20
16.72310232421406
 30
0.0
  0
VERTEX
  5
2A9
  8
TEXT
 10
9.195411412957714
 20
16.71929740339256
 30
0.0
  0
VERTEX
  5
2AA
  8
TEXT
 10
9.187218987961227
 20
16.71510149206428
 30
0.0
  0
VERTEX
  5
2AB
  8
TEXT
 10
9.179262358768678
 20
16.7105265282833
 30
0.0
  0
VERTEX
  5
2AC
  8
TEXT
 10
9.171553463434131
 20
16.70558445010366
 30
0.0
  0
VERTEX
  5
2AD
  8
TEXT
 10
9.164104240011653
 20
16.70028719557945
 30
0.0
  0
VERTEX
  5
2AE
  8
TEXT
 10
9.156926626555304
 20
16.69464670276472
 30
0.0
  0
VERTEX
  5
2AF
  8
TEXT
 10
9.15003256111915
 20
16.68867490971353
 30
0.0
  0
VERTEX
  5
2B0
  8
TEXT
 10
9.143433981757257
 20
16.68238375447996
 30
0.0
  0
VERTEX
  5
2B1
  8
TEXT
 10
9.137142826523688
 20
16.67578517511807
 30
0.0
  0
VERTEX
  5
2B2
  8
TEXT
 10
9.131171033472505
 20
16.66889110968192
 30
0.0
  0
VERTEX
  5
2B3
  8
TEXT
 10
9.125530540657774
 20
16.66171349622557
 30
0.0
  0
VERTEX
  5
2B4
  8
TEXT
 10
9.12023328613356
 20
16.65426427280309
 30
0.0
  0
VERTEX
  5
2B5
  8
TEXT
 10
9.115291207953927
 20
16.64655537746854
 30
0.0
  0
VERTEX
  5
2B6
  8
TEXT
 10
9.110716244172941
 20
16.63859874827599
 30
0.0
  0
VERTEX
  5
2B7
  8
TEXT
 10
9.106520332844664
 20
16.6304063232795
 30
0.0
  0
VERTEX
  5
2B8
  8
TEXT
 10
9.10271541202316
 20
16.62199004053314
 30
0.0
  0
VERTEX
  5
2B9
  8
TEXT
 10
9.099313419762494
 20
16.61336183809097
 30
0.0
  0
VERTEX
  5
2BA
  8
TEXT
 10
9.096326294116732
 20
16.60453365400706
 30
0.0
  0
VERTEX
  5
2BB
  8
TEXT
 10
9.093765973139934
 20
16.59551742633546
 30
0.0
  0
VERTEX
  5
2BC
  8
TEXT
 10
9.091644394886169
 20
16.58632509313025
 30
0.0
  0
VERTEX
  5
2BD
  8
TEXT
 10
9.089973497409499
 20
16.57696859244548
 30
0.0
  0
VERTEX
  5
2BE
  8
TEXT
 10
9.088765218763989
 20
16.56745986233523
 30
0.0
  0
VERTEX
  5
2BF
  8
TEXT
 10
9.088031497003701
 20
16.55781084085356
 30
0.0
  0
VERTEX
  5
2C0
  8
TEXT
 10
9.087784270182702
 20
16.54803346605452
 30
0.0
  0
VERTEX
  5
2C1
  8
TEXT
 10
9.088031497003701
 20
16.53825609125548
 30
0.0
  0
VERTEX
  5
2C2
  8
TEXT
 10
9.088765218763989
 20
16.52860706977381
 30
0.0
  0
VERTEX
  5
2C3
  8
TEXT
 10
9.089973497409499
 20
16.51909833966356
 30
0.0
  0
VERTEX
  5
2C4
  8
TEXT
 10
9.091644394886169
 20
16.50974183897879
 30
0.0
  0
VERTEX
  5
2C5
  8
TEXT
 10
9.093765973139934
 20
16.50054950577358
 30
0.0
  0
VERTEX
  5
2C6
  8
TEXT
 10
9.096326294116732
 20
16.49153327810198
 30
0.0
  0
VERTEX
  5
2C7
  8
TEXT
 10
9.099313419762494
 20
16.48270509401807
 30
0.0
  0
VERTEX
  5
2C8
  8
TEXT
 10
9.10271541202316
 20
16.4740768915759
 30
0.0
  0
VERTEX
  5
2C9
  8
TEXT
 10
9.106520332844664
 20
16.46566060882954
 30
0.0
  0
VERTEX
  5
2CA
  8
TEXT
 10
9.110716244172941
 20
16.45746818383305
 30
0.0
  0
VERTEX
  5
2CB
  8
TEXT
 10
9.115291207953927
 20
16.44951155464049
 30
0.0
  0
VERTEX
  5
2CC
  8
TEXT
 10
9.12023328613356
 20
16.44180265930595
 30
0.0
  0
VERTEX
  5
2CD
  8
TEXT
 10
9.125530540657774
 20
16.43435343588347
 30
0.0
  0
VERTEX
  5
2CE
  8
TEXT
 10
9.131171033472505
 20
16.42717582242712
 30
0.0
  0
VERTEX
  5
2CF
  8
TEXT
 10
9.137142826523688
 20
16.42028175699097
 30
0.0
  0
VERTEX
  5
2D0
  8
TEXT
 10
9.143433981757257
 20
16.41368317762907
 30
0.0
  0
VERTEX
  5
2D1
  8
TEXT
 10
9.15003256111915
 20
16.40739202239551
 30
0.0
  0
VERTEX
  5
2D2
  8
TEXT
 10
9.156926626555304
 20
16.40142022934432
 30
0.0
  0
VERTEX
  5
2D3
  8
TEXT
 10
9.164104240011653
 20
16.3957797365296
 30
0.0
  0
VERTEX
  5
2D4
  8
TEXT
 10
9.171553463434131
 20
16.39048248200538
 30
0.0
  0
VERTEX
  5
2D5
  8
TEXT
 10
9.179262358768678
 20
16.38554040382575
 30
0.0
  0
VERTEX
  5
2D6
  8
TEXT
 10
9.187218987961227
 20
16.38096544004476
 30
0.0
  0
VERTEX
  5
2D7
  8
TEXT
 10
9.195411412957714
 20
16.37676952871648
 30
0.0
  0
VERTEX
  5
2D8
  8
TEXT
 10
9.203827695704076
 20
16.37296460789498
 30
0.0
  0
VERTEX
  5
2D9
  8
TEXT
 10
9.212455898146246
 20
16.36956261563432
 30
0.0
  0
VERTEX
  5
2DA
  8
TEXT
 10
9.221284082230163
 20
16.36657548998855
 30
0.0
  0
VERTEX
  5
2DB
  8
TEXT
 10
9.230300309901757
 20
16.36401516901175
 30
0.0
  0
VERTEX
  5
2DC
  8
TEXT
 10
9.23949264310697
 20
16.36189359075799
 30
0.0
  0
VERTEX
  5
2DD
  8
TEXT
 10
9.248849143791734
 20
16.36022269328132
 30
0.0
  0
VERTEX
  5
2DE
  8
TEXT
 10
9.25835787390199
 20
16.35901441463581
 30
0.0
  0
VERTEX
  5
2DF
  8
TEXT
 10
9.268006895383664
 20
16.35828069287552
 30
0.0
  0
SEQEND
  5
B85
  8
TEXT
  0
POLYLINE
  5
83
  8
TEXT
 66
     1
 10
0.0
 20
0.0
 30
0.0
  0
VERTEX
  5
2E0
  8
TEXT
 10
9.567784270182702
 20
16.36303346605452
 30
0.0
  0
VERTEX
  5
2E1
  8
TEXT
 10
9.567784270182702
 20
16.73303346605452
 30
0.0
  0
VERTEX
  5
2E2
  8
TEXT
 10
9.567784270182702
 20
16.59303346605452
 30
0.0
 42
-1.0
  0
VERTEX
  5
2E3
  8
TEXT
 10
9.857784270182702
 20
16.59303346605452
 30
0.0
  0
VERTEX
  5
2E4
  8
TEXT
 10
9.857784270182702
 20
16.36303346605452
 30
0.0
  0
SEQEND
  5
B86
  8
TEXT
  0
POLYLINE
  5
84
  8
TEXT
 66
     1
 10
0.0
 20
0.0
 30
0.0
  0
VERTEX
  5
2E5
  8
TEXT
 10
10.0577842701827
 20
16.36303346605452
 30
0.0
  0
VERTEX
  5
2E6
  8
TEXT
 10
10.0577842701827
 20
16.71303346605452
 30
0.0
  0
VERTEX
  5
2E7
  8
TEXT
 10
9.957784270182701
 20
16.71303346605452
 30
0.0
  0
VERTEX
  5
2E8
  8
TEXT
 10
10.1577842701827
 20
16.71303346605452
 30
0.0
  0
VERTEX
  5
2E9
  8
TEXT
 10
10.0577842701827
 20
16.71303346605452
 30
0.0
  0
VERTEX
  5
2EA
  8
TEXT
 10
10.0577842701827
 20
16.86303346605452
 30
0.0
  0
SEQEND
  5
B87
  8
TEXT
  0
POLYLINE
  5
85
  8
TEXT
 66
     1
 10
0.0
 20
0.0
 30
0.0
  0
VERTEX
  5
2EB
  8
TEXT
 10
15.57663306435662
 20
14.23695290334474
 30
0.0
  0
VERTEX
  5
2EC
  8
TEXT
 10
15.57663306435662
 20
14.73695290334474
 30
0.0
  0
VERTEX
  5
2ED
  8
TEXT
 10
15.42663306435661
 20
14.73695290334474
 30
0.0
  0
VERTEX
  5
2EE
  8
TEXT
 10
15.72663306435662
 20
14.73695290334474
 30
0.0
  0
SEQEND
  5
B88
  8
TEXT
  0
POLYLINE
  5
86
  8
TEXT
 66
     1
 10
0.0
 20
0.0
 30
0.0
 70
     1
  0
VERTEX
  5
2EF
  8
TEXT
 10
16.01663306435661
 20
14.23195290334474
 30
0.0
  0
VERTEX
  5
2F0
  8
TEXT
 10
16.02641043915565
 20
14.23220013016574
 30
0.0
  0
VERTEX
  5
2F1
  8
TEXT
 10
16.03605946063733
 20
14.23293385192603
 30
0.0
  0
VERTEX
  5
2F2
  8
TEXT
 10
16.04556819074758
 20
14.23414213057154
 30
0.0
  0
VERTEX
  5
2F3
  8
TEXT
 10
16.05492469143235
 20
14.23581302804821
 30
0.0
  0
VERTEX
  5
2F4
  8
TEXT
 10
16.06411702463756
 20
14.23793460630197
 30
0.0
  0
VERTEX
  5
2F5
  8
TEXT
 10
16.07313325230916
 20
14.24049492727877
 30
0.0
  0
VERTEX
  5
2F6
  8
TEXT
 10
16.08196143639307
 20
14.24348205292453
 30
0.0
  0
VERTEX
  5
2F7
  8
TEXT
 10
16.09058963883524
 20
14.2468840451852
 30
0.0
  0
VERTEX
  5
2F8
  8
TEXT
 10
16.0990059215816
 20
14.2506889660067
 30
0.0
  0
VERTEX
  5
2F9
  8
TEXT
 10
16.10719834657809
 20
14.25488487733498
 30
0.0
  0
VERTEX
  5
2FA
  8
TEXT
 10
16.11515497577064
 20
14.25945984111597
 30
0.0
  0
VERTEX
  5
2FB
  8
TEXT
 10
16.12286387110519
 20
14.2644019192956
 30
0.0
  0
VERTEX
  5
2FC
  8
TEXT
 10
16.13031309452767
 20
14.26969917381982
 30
0.0
  0
VERTEX
  5
2FD
  8
TEXT
 10
16.13749070798402
 20
14.27533966663455
 30
0.0
  0
VERTEX
  5
2FE
  8
TEXT
 10
16.14438477342017
 20
14.28131145968573
 30
0.0
  0
VERTEX
  5
2FF
  8
TEXT
 10
16.15098335278206
 20
14.2876026149193
 30
0.0
  0
VERTEX
  5
300
  8
TEXT
 10
16.15727450801563
 20
14.29420119428119
 30
0.0
  0
VERTEX
  5
301
  8
TEXT
 10
16.16324630106681
 20
14.30109525971735
 30
0.0
  0
VERTEX
  5
302
  8
TEXT
 10
16.16888679388154
 20
14.3082728731737
 30
0.0
  0
VERTEX
  5
303
  8
TEXT
 10
16.17418404840576
 20
14.31572209659617
 30
0.0
  0
VERTEX
  5
304
  8
TEXT
 10
16.17912612658539
 20
14.32343099193072
 30
0.0
  0
VERTEX
  5
305
  8
TEXT
 10
16.18370109036638
 20
14.33138762112327
 30
0.0
  0
VERTEX
  5
306
  8
TEXT
 10
16.18789700169466
 20
14.33958004611976
 30
0.0
  0
VERTEX
  5
307
  8
TEXT
 10
16.19170192251616
 20
14.34799632886612
 30
0.0
  0
VERTEX
  5
308
  8
TEXT
 10
16.19510391477682
 20
14.35662453130828
 30
0.0
  0
VERTEX
  5
309
  8
TEXT
 10
16.19809104042259
 20
14.3654527153922
 30
0.0
  0
VERTEX
  5
30A
  8
TEXT
 10
16.20065136139939
 20
14.3744689430638
 30
0.0
  0
VERTEX
  5
30B
  8
TEXT
 10
16.20277293965315
 20
14.38366127626901
 30
0.0
  0
VERTEX
  5
30C
  8
TEXT
 10
16.20444383712982
 20
14.39301777695378
 30
0.0
  0
VERTEX
  5
30D
  8
TEXT
 10
16.20565211577533
 20
14.40252650706403
 30
0.0
  0
VERTEX
  5
30E
  8
TEXT
 10
16.20638583753562
 20
14.41217552854571
 30
0.0
  0
VERTEX
  5
30F
  8
TEXT
 10
16.20663306435662
 20
14.42195290334474
 30
0.0
  0
VERTEX
  5
310
  8
TEXT
 10
16.20638583753562
 20
14.43173027814378
 30
0.0
  0
VERTEX
  5
311
  8
TEXT
 10
16.20565211577533
 20
14.44137929962546
 30
0.0
  0
VERTEX
  5
312
  8
TEXT
 10
16.20444383712982
 20
14.45088802973571
 30
0.0
  0
VERTEX
  5
313
  8
TEXT
 10
16.20277293965315
 20
14.46024453042047
 30
0.0
  0
VERTEX
  5
314
  8
TEXT
 10
16.20065136139939
 20
14.46943686362569
 30
0.0
  0
VERTEX
  5
315
  8
TEXT
 10
16.19809104042259
 20
14.47845309129728
 30
0.0
  0
VERTEX
  5
316
  8
TEXT
 10
16.19510391477682
 20
14.4872812753812
 30
0.0
  0
VERTEX
  5
317
  8
TEXT
 10
16.19170192251616
 20
14.49590947782337
 30
0.0
  0
VERTEX
  5
318
  8
TEXT
 10
16.18789700169466
 20
14.50432576056973
 30
0.0
  0
VERTEX
  5
319
  8
TEXT
 10
16.18370109036638
 20
14.51251818556622
 30
0.0
  0
VERTEX
  5
31A
  8
TEXT
 10
16.17912612658539
 20
14.52047481475877
 30
0.0
  0
VERTEX
  5
31B
  8
TEXT
 10
16.17418404840576
 20
14.52818371009331
 30
0.0
  0
VERTEX
  5
31C
  8
TEXT
 10
16.16888679388154
 20
14.53563293351579
 30
0.0
  0
VERTEX
  5
31D
  8
TEXT
 10
16.16324630106681
 20
14.54281054697214
 30
0.0
  0
VERTEX
  5
31E
  8
TEXT
 10
16.15727450801563
 20
14.54970461240829
 30
0.0
  0
VERTEX
  5
31F
  8
TEXT
 10
16.15098335278206
 20
14.55630319177019
 30
0.0
  0
VERTEX
  5
320
  8
TEXT
 10
16.14438477342017
 20
14.56259434700376
 30
0.0
  0
VERTEX
  5
321
  8
TEXT
 10
16.13749070798402
 20
14.56856614005494
 30
0.0
  0
VERTEX
  5
322
  8
TEXT
 10
16.13031309452767
 20
14.57420663286967
 30
0.0
  0
VERTEX
  5
323
  8
TEXT
 10
16.12286387110519
 20
14.57950388739389
 30
0.0
  0
VERTEX
  5
324
  8
TEXT
 10
16.11515497577064
 20
14.58444596557352
 30
0.0
  0
VERTEX
  5
325
  8
TEXT
 10
16.10719834657809
 20
14.5890209293545
 30
0.0
  0
VERTEX
  5
326
  8
TEXT
 10
16.0990059215816
 20
14.59321684068278
 30
0.0
  0
VERTEX
  5
327
  8
TEXT
 10
16.09058963883524
 20
14.59702176150429
 30
0.0
  0
VERTEX
  5
328
  8
TEXT
 10
16.08196143639307
 20
14.60042375376495
 30
0.0
  0
VERTEX
  5
329
  8
TEXT
 10
16.07313325230916
 20
14.60341087941071
 30
0.0
  0
VERTEX
  5
32A
  8
TEXT
 10
16.06411702463756
 20
14.60597120038751
 30
0.0
  0
VERTEX
  5
32B
  8
TEXT
 10
16.05492469143235
 20
14.60809277864128
 30
0.0
  0
VERTEX
  5
32C
  8
TEXT
 10
16.04556819074758
 20
14.60976367611795
 30
0.0
  0
VERTEX
  5
32D
  8
TEXT
 10
16.03605946063733
 20
14.61097195476346
 30
0.0
  0
VERTEX
  5
32E
  8
TEXT
 10
16.02641043915565
 20
14.61170567652374
 30
0.0
  0
VERTEX
  5
32F
  8
TEXT
 10
16.01663306435661
 20
14.61195290334474
 30
0.0
  0
VERTEX
  5
330
  8
TEXT
 10
16.00685568955758
 20
14.61170567652374
 30
0.0
  0
VERTEX
  5
331
  8
TEXT
 10
15.9972066680759
 20
14.61097195476346
 30
0.0
  0
VERTEX
  5
332
  8
TEXT
 10
15.98769793796565
 20
14.60976367611795
 30
0.0
  0
VERTEX
  5
333
  8
TEXT
 10
15.97834143728088
 20
14.60809277864128
 30
0.0
  0
VERTEX
  5
334
  8
TEXT
 10
15.96914910407567
 20
14.60597120038751
 30
0.0
  0
VERTEX
  5
335
  8
TEXT
 10
15.96013287640407
 20
14.60341087941071
 30
0.0
  0
VERTEX
  5
336
  8
TEXT
 10
15.95130469232016
 20
14.60042375376495
 30
0.0
  0
VERTEX
  5
337
  8
TEXT
 10
15.94267648987799
 20
14.59702176150429
 30
0.0
  0
VERTEX
  5
338
  8
TEXT
 10
15.93426020713163
 20
14.59321684068278
 30
0.0
  0
VERTEX
  5
339
  8
TEXT
 10
15.92606778213514
 20
14.5890209293545
 30
0.0
  0
VERTEX
  5
33A
  8
TEXT
 10
15.91811115294259
 20
14.58444596557352
 30
0.0
  0
VERTEX
  5
33B
  8
TEXT
 10
15.91040225760805
 20
14.57950388739389
 30
0.0
  0
VERTEX
  5
33C
  8
TEXT
 10
15.90295303418557
 20
14.57420663286967
 30
0.0
  0
VERTEX
  5
33D
  8
TEXT
 10
15.89577542072922
 20
14.56856614005494
 30
0.0
  0
VERTEX
  5
33E
  8
TEXT
 10
15.88888135529307
 20
14.56259434700376
 30
0.0
  0
VERTEX
  5
33F
  8
TEXT
 10
15.88228277593117
 20
14.55630319177019
 30
0.0
  0
VERTEX
  5
340
  8
TEXT
 10
15.8759916206976
 20
14.54970461240829
 30
0.0
  0
VERTEX
  5
341
  8
TEXT
 10
15.87001982764642
 20
14.54281054697214
 30
0.0
  0
VERTEX
  5
342
  8
TEXT
 10
15.86437933483169
 20
14.53563293351579
 30
0.0
  0
VERTEX
  5
343
  8
TEXT
 10
15.85908208030748
 20
14.52818371009331
 30
0.0
  0
VERTEX
  5
344
  8
TEXT
 10
15.85414000212784
 20
14.52047481475877
 30
0.0
  0
VERTEX
  5
345
  8
TEXT
 10
15.84956503834685
 20
14.51251818556622
 30
0.0
  0
VERTEX
  5
346
  8
TEXT
 10
15.84536912701858
 20
14.50432576056973
 30
0.0
  0
VERTEX
  5
347
  8
TEXT
 10
15.84156420619707
 20
14.49590947782337
 30
0.0
  0
VERTEX
  5
348
  8
TEXT
 10
15.83816221393641
 20
14.4872812753812
 30
0.0
  0
VERTEX
  5
349
  8
TEXT
 10
15.83517508829064
 20
14.47845309129728
 30
0.0
  0
VERTEX
  5
34A
  8
TEXT
 10
15.83261476731385
 20
14.46943686362569
 30
0.0
  0
VERTEX
  5
34B
  8
TEXT
 10
15.83049318906008
 20
14.46024453042047
 30
0.0
  0
VERTEX
  5
34C
  8
TEXT
 10
15.82882229158341
 20
14.45088802973571
 30
0.0
  0
VERTEX
  5
34D
  8
TEXT
 10
15.8276140129379
 20
14.44137929962546
 30
0.0
  0
VERTEX
  5
34E
  8
TEXT
 10
15.82688029117761
 20
14.43173027814378
 30
0.0
  0
VERTEX
  5
34F
  8
TEXT
 10
15.82663306435662
 20
14.42195290334474
 30
0.0
  0
VERTEX
  5
350
  8
TEXT
 10
15.82688029117761
 20
14.41217552854571
 30
0.0
  0
VERTEX
  5
351
  8
TEXT
 10
15.8276140129379
 20
14.40252650706403
 30
0.0
  0
VERTEX
  5
352
  8
TEXT
 10
15.82882229158341
 20
14.39301777695378
 30
0.0
  0
VERTEX
  5
353
  8
TEXT
 10
15.83049318906008
 20
14.38366127626901
 30
0.0
  0
VERTEX
  5
354
  8
TEXT
 10
15.83261476731385
 20
14.3744689430638
 30
0.0
  0
VERTEX
  5
355
  8
TEXT
 10
15.83517508829064
 20
14.3654527153922
 30
0.0
  0
VERTEX
  5
356
  8
TEXT
 10
15.83816221393641
 20
14.35662453130828
 30
0.0
  0
VERTEX
  5
357
  8
TEXT
 10
15.84156420619707
 20
14.34799632886612
 30
0.0
  0
VERTEX
  5
358
  8
TEXT
 10
15.84536912701858
 20
14.33958004611976
 30
0.0
  0
VERTEX
  5
359
  8
TEXT
 10
15.84956503834685
 20
14.33138762112327
 30
0.0
  0
VERTEX
  5
35A
  8
TEXT
 10
15.85414000212784
 20
14.32343099193072
 30
0.0
  0
VERTEX
  5
35B
  8
TEXT
 10
15.85908208030748
 20
14.31572209659617
 30
0.0
  0
VERTEX
  5
35C
  8
TEXT
 10
15.86437933483169
 20
14.3082728731737
 30
0.0
  0
VERTEX
  5
35D
  8
TEXT
 10
15.87001982764642
 20
14.30109525971735
 30
0.0
  0
VERTEX
  5
35E
  8
TEXT
 10
15.8759916206976
 20
14.29420119428119
 30
0.0
  0
VERTEX
  5
35F
  8
TEXT
 10
15.88228277593117
 20
14.2876026149193
 30
0.0
  0
VERTEX
  5
360
  8
TEXT
 10
15.88888135529307
 20
14.28131145968573
 30
0.0
  0
VERTEX
  5
361
  8
TEXT
 10
15.89577542072922
 20
14.27533966663455
 30
0.0
  0
VERTEX
  5
362
  8
TEXT
 10
15.90295303418557
 20
14.26969917381982
 30
0.0
  0
VERTEX
  5
363
  8
TEXT
 10
15.91040225760805
 20
14.2644019192956
 30
0.0
  0
VERTEX
  5
364
  8
TEXT
 10
15.91811115294259
 20
14.25945984111597
 30
0.0
  0
VERTEX
  5
365
  8
TEXT
 10
15.92606778213514
 20
14.25488487733498
 30
0.0
  0
VERTEX
  5
366
  8
TEXT
 10
15.93426020713163
 20
14.2506889660067
 30
0.0
  0
VERTEX
  5
367
  8
TEXT
 10
15.94267648987799
 20
14.2468840451852
 30
0.0
  0
VERTEX
  5
368
  8
TEXT
 10
15.95130469232016
 20
14.24348205292453
 30
0.0
  0
VERTEX
  5
369
  8
TEXT
 10
15.96013287640407
 20
14.24049492727877
 30
0.0
  0
VERTEX
  5
36A
  8
TEXT
 10
15.96914910407567
 20
14.23793460630197
 30
0.0
  0
VERTEX
  5
36B
  8
TEXT
 10
15.97834143728088
 20
14.23581302804821
 30
0.0
  0
VERTEX
  5
36C
  8
TEXT
 10
15.98769793796565
 20
14.23414213057154
 30
0.0
  0
VERTEX
  5
36D
  8
TEXT
 10
15.9972066680759
 20
14.23293385192603
 30
0.0
  0
VERTEX
  5
36E
  8
TEXT
 10
16.00685568955758
 20
14.23220013016574
 30
0.0
  0
SEQEND
  5
B89
  8
TEXT
  0
POLYLINE
  5
87
  8
TEXT
 66
     1
 10
0.0
 20
0.0
 30
0.0
 70
     1
  0
VERTEX
  5
36F
  8
TEXT
 10
16.30663306435661
 20
14.23695290334474
 30
0.0
  0
VERTEX
  5
370
  8
TEXT
 10
16.30663306435661
 20
14.60695290334474
 30
0.0
  0
VERTEX
  5
371
  8
TEXT
 10
16.30663306435661
 20
14.42195290334474
 30
0.0
  0
VERTEX
  5
372
  8
TEXT
 10
16.30688029117761
 20
14.41217552854571
 30
0.0
  0
VERTEX
  5
373
  8
TEXT
 10
16.3076140129379
 20
14.40252650706403
 30
0.0
  0
VERTEX
  5
374
  8
TEXT
 10
16.30882229158341
 20
14.39301777695378
 30
0.0
  0
VERTEX
  5
375
  8
TEXT
 10
16.31049318906008
 20
14.38366127626901
 30
0.0
  0
VERTEX
  5
376
  8
TEXT
 10
16.31261476731385
 20
14.3744689430638
 30
0.0
  0
VERTEX
  5
377
  8
TEXT
 10
16.31517508829064
 20
14.3654527153922
 30
0.0
  0
VERTEX
  5
378
  8
TEXT
 10
16.31816221393641
 20
14.35662453130828
 30
0.0
  0
VERTEX
  5
379
  8
TEXT
 10
16.32156420619707
 20
14.34799632886612
 30
0.0
  0
VERTEX
  5
37A
  8
TEXT
 10
16.32536912701858
 20
14.33958004611976
 30
0.0
  0
VERTEX
  5
37B
  8
TEXT
 10
16.32956503834685
 20
14.33138762112327
 30
0.0
  0
VERTEX
  5
37C
  8
TEXT
 10
16.33414000212784
 20
14.32343099193072
 30
0.0
  0
VERTEX
  5
37D
  8
TEXT
 10
16.33908208030747
 20
14.31572209659617
 30
0.0
  0
VERTEX
  5
37E
  8
TEXT
 10
16.34437933483169
 20
14.3082728731737
 30
0.0
  0
VERTEX
  5
37F
  8
TEXT
 10
16.35001982764641
 20
14.30109525971735
 30
0.0
  0
VERTEX
  5
380
  8
TEXT
 10
16.3559916206976
 20
14.29420119428119
 30
0.0
  0
VERTEX
  5
381
  8
TEXT
 10
16.36228277593117
 20
14.2876026149193
 30
0.0
  0
VERTEX
  5
382
  8
TEXT
 10
16.36888135529306
 20
14.28131145968573
 30
0.0
  0
VERTEX
  5
383
  8
TEXT
 10
16.37577542072922
 20
14.27533966663455
 30
0.0
  0
VERTEX
  5
384
  8
TEXT
 10
16.38295303418556
 20
14.26969917381982
 30
0.0
  0
VERTEX
  5
385
  8
TEXT
 10
16.39040225760805
 20
14.2644019192956
 30
0.0
  0
VERTEX
  5
386
  8
TEXT
 10
16.39811115294259
 20
14.25945984111597
 30
0.0
  0
VERTEX
  5
387
  8
TEXT
 10
16.40606778213514
 20
14.25488487733498
 30
0.0
  0
VERTEX
  5
388
  8
TEXT
 10
16.41426020713163
 20
14.2506889660067
 30
0.0
  0
VERTEX
  5
389
  8
TEXT
 10
16.42267648987799
 20
14.2468840451852
 30
0.0
  0
VERTEX
  5
38A
  8
TEXT
 10
16.43130469232016
 20
14.24348205292453
 30
0.0
  0
VERTEX
  5
38B
  8
TEXT
 10
16.44013287640408
 20
14.24049492727877
 30
0.0
  0
VERTEX
  5
38C
  8
TEXT
 10
16.44914910407567
 20
14.23793460630197
 30
0.0
  0
VERTEX
  5
38D
  8
TEXT
 10
16.45834143728089
 20
14.23581302804821
 30
0.0
  0
VERTEX
  5
38E
  8
TEXT
 10
16.46769793796565
 20
14.23414213057154
 30
0.0
  0
VERTEX
  5
38F
  8
TEXT
 10
16.4772066680759
 20
14.23293385192603
 30
0.0
  0
VERTEX
  5
390
  8
TEXT
 10
16.48685568955758
 20
14.23220013016574
 30
0.0
  0
VERTEX
  5
391
  8
TEXT
 10
16.49663306435662
 20
14.23195290334474
 30
0.0
  0
VERTEX
  5
392
  8
TEXT
 10
16.50641043915565
 20
14.23220013016574
 30
0.0
  0
VERTEX
  5
393
  8
TEXT
 10
16.51605946063733
 20
14.23293385192603
 30
0.0
  0
VERTEX
  5
394
  8
TEXT
 10
16.52556819074758
 20
14.23414213057154
 30
0.0
  0
VERTEX
  5
395
  8
TEXT
 10
16.53492469143234
 20
14.23581302804821
 30
0.0
  0
VERTEX
  5
396
  8
TEXT
 10
16.54411702463756
 20
14.23793460630197
 30
0.0
  0
VERTEX
  5
397
  8
TEXT
 10
16.55313325230915
 20
14.24049492727877
 30
0.0
  0
VERTEX
  5
398
  8
TEXT
 10
16.56196143639307
 20
14.24348205292453
 30
0.0
  0
VERTEX
  5
399
  8
TEXT
 10
16.57058963883524
 20
14.2468840451852
 30
0.0
  0
VERTEX
  5
39A
  8
TEXT
 10
16.5790059215816
 20
14.2506889660067
 30
0.0
  0
VERTEX
  5
39B
  8
TEXT
 10
16.58719834657809
 20
14.25488487733498
 30
0.0
  0
VERTEX
  5
39C
  8
TEXT
 10
16.59515497577064
 20
14.25945984111597
 30
0.0
  0
VERTEX
  5
39D
  8
TEXT
 10
16.60286387110519
 20
14.2644019192956
 30
0.0
  0
VERTEX
  5
39E
  8
TEXT
 10
16.61031309452767
 20
14.26969917381982
 30
0.0
  0
VERTEX
  5
39F
  8
TEXT
 10
16.61749070798401
 20
14.27533966663455
 30
0.0
  0
VERTEX
  5
3A0
  8
TEXT
 10
16.62438477342017
 20
14.28131145968573
 30
0.0
  0
VERTEX
  5
3A1
  8
TEXT
 10
16.63098335278206
 20
14.2876026149193
 30
0.0
  0
VERTEX
  5
3A2
  8
TEXT
 10
16.63727450801563
 20
14.29420119428119
 30
0.0
  0
VERTEX
  5
3A3
  8
TEXT
 10
16.64324630106682
 20
14.30109525971735
 30
0.0
  0
VERTEX
  5
3A4
  8
TEXT
 10
16.64888679388154
 20
14.3082728731737
 30
0.0
  0
VERTEX
  5
3A5
  8
TEXT
 10
16.65418404840576
 20
14.31572209659617
 30
0.0
  0
VERTEX
  5
3A6
  8
TEXT
 10
16.65912612658539
 20
14.32343099193072
 30
0.0
  0
VERTEX
  5
3A7
  8
TEXT
 10
16.66370109036638
 20
14.33138762112327
 30
0.0
  0
VERTEX
  5
3A8
  8
TEXT
 10
16.66789700169466
 20
14.33958004611976
 30
0.0
  0
VERTEX
  5
3A9
  8
TEXT
 10
16.67170192251616
 20
14.34799632886612
 30
0.0
  0
VERTEX
  5
3AA
  8
TEXT
 10
16.67510391477682
 20
14.35662453130828
 30
0.0
  0
VERTEX
  5
3AB
  8
TEXT
 10
16.67809104042259
 20
14.3654527153922
 30
0.0
  0
VERTEX
  5
3AC
  8
TEXT
 10
16.68065136139938
 20
14.3744689430638
 30
0.0
  0
VERTEX
  5
3AD
  8
TEXT
 10
16.68277293965315
 20
14.38366127626901
 30
0.0
  0
VERTEX
  5
3AE
  8
TEXT
 10
16.68444383712982
 20
14.39301777695378
 30
0.0
  0
VERTEX
  5
3AF
  8
TEXT
 10
16.68565211577533
 20
14.40252650706403
 30
0.0
  0
VERTEX
  5
3B0
  8
TEXT
 10
16.68638583753562
 20
14.41217552854571
 30
0.0
  0
VERTEX
  5
3B1
  8
TEXT
 10
16.68663306435662
 20
14.42195290334474
 30
0.0
  0
VERTEX
  5
3B2
  8
TEXT
 10
16.68638583753562
 20
14.43173027814378
 30
0.0
  0
VERTEX
  5
3B3
  8
TEXT
 10
16.68565211577533
 20
14.44137929962546
 30
0.0
  0
VERTEX
  5
3B4
  8
TEXT
 10
16.68444383712982
 20
14.45088802973571
 30
0.0
  0
VERTEX
  5
3B5
  8
TEXT
 10
16.68277293965315
 20
14.46024453042047
 30
0.0
  0
VERTEX
  5
3B6
  8
TEXT
 10
16.68065136139938
 20
14.46943686362569
 30
0.0
  0
VERTEX
  5
3B7
  8
TEXT
 10
16.67809104042259
 20
14.47845309129728
 30
0.0
  0
VERTEX
  5
3B8
  8
TEXT
 10
16.67510391477682
 20
14.4872812753812
 30
0.0
  0
VERTEX
  5
3B9
  8
TEXT
 10
16.67170192251616
 20
14.49590947782337
 30
0.0
  0
VERTEX
  5
3BA
  8
TEXT
 10
16.66789700169466
 20
14.50432576056973
 30
0.0
  0
VERTEX
  5
3BB
  8
TEXT
 10
16.66370109036638
 20
14.51251818556622
 30
0.0
  0
VERTEX
  5
3BC
  8
TEXT
 10
16.65912612658539
 20
14.52047481475877
 30
0.0
  0
VERTEX
  5
3BD
  8
TEXT
 10
16.65418404840576
 20
14.52818371009331
 30
0.0
  0
VERTEX
  5
3BE
  8
TEXT
 10
16.64888679388154
 20
14.53563293351579
 30
0.0
  0
VERTEX
  5
3BF
  8
TEXT
 10
16.64324630106682
 20
14.54281054697214
 30
0.0
  0
VERTEX
  5
3C0
  8
TEXT
 10
16.63727450801563
 20
14.54970461240829
 30
0.0
  0
VERTEX
  5
3C1
  8
TEXT
 10
16.63098335278206
 20
14.55630319177019
 30
0.0
  0
VERTEX
  5
3C2
  8
TEXT
 10
16.62438477342017
 20
14.56259434700376
 30
0.0
  0
VERTEX
  5
3C3
  8
TEXT
 10
16.61749070798401
 20
14.56856614005494
 30
0.0
  0
VERTEX
  5
3C4
  8
TEXT
 10
16.61031309452767
 20
14.57420663286967
 30
0.0
  0
VERTEX
  5
3C5
  8
TEXT
 10
16.60286387110519
 20
14.57950388739389
 30
0.0
  0
VERTEX
  5
3C6
  8
TEXT
 10
16.59515497577064
 20
14.58444596557352
 30
0.0
  0
VERTEX
  5
3C7
  8
TEXT
 10
16.58719834657809
 20
14.5890209293545
 30
0.0
  0
VERTEX
  5
3C8
  8
TEXT
 10
16.5790059215816
 20
14.59321684068278
 30
0.0
  0
VERTEX
  5
3C9
  8
TEXT
 10
16.57058963883524
 20
14.59702176150429
 30
0.0
  0
VERTEX
  5
3CA
  8
TEXT
 10
16.56196143639307
 20
14.60042375376495
 30
0.0
  0
VERTEX
  5
3CB
  8
TEXT
 10
16.55313325230915
 20
14.60341087941071
 30
0.0
  0
VERTEX
  5
3CC
  8
TEXT
 10
16.54411702463756
 20
14.60597120038751
 30
0.0
  0
VERTEX
  5
3CD
  8
TEXT
 10
16.53492469143234
 20
14.60809277864128
 30
0.0
  0
VERTEX
  5
3CE
  8
TEXT
 10
16.52556819074758
 20
14.60976367611795
 30
0.0
  0
VERTEX
  5
3CF
  8
TEXT
 10
16.51605946063733
 20
14.61097195476346
 30
0.0
  0
VERTEX
  5
3D0
  8
TEXT
 10
16.50641043915565
 20
14.61170567652374
 30
0.0
  0
VERTEX
  5
3D1
  8
TEXT
 10
16.49663306435662
 20
14.61195290334474
 30
0.0
  0
VERTEX
  5
3D2
  8
TEXT
 10
16.48685568955758
 20
14.61170567652374
 30
0.0
  0
VERTEX
  5
3D3
  8
TEXT
 10
16.4772066680759
 20
14.61097195476346
 30
0.0
  0
VERTEX
  5
3D4
  8
TEXT
 10
16.46769793796565
 20
14.60976367611795
 30
0.0
  0
VERTEX
  5
3D5
  8
TEXT
 10
16.45834143728089
 20
14.60809277864128
 30
0.0
  0
VERTEX
  5
3D6
  8
TEXT
 10
16.44914910407567
 20
14.60597120038751
 30
0.0
  0
VERTEX
  5
3D7
  8
TEXT
 10
16.44013287640408
 20
14.60341087941071
 30
0.0
  0
VERTEX
  5
3D8
  8
TEXT
 10
16.43130469232016
 20
14.60042375376495
 30
0.0
  0
VERTEX
  5
3D9
  8
TEXT
 10
16.42267648987799
 20
14.59702176150429
 30
0.0
  0
VERTEX
  5
3DA
  8
TEXT
 10
16.41426020713163
 20
14.59321684068278
 30
0.0
  0
VERTEX
  5
3DB
  8
TEXT
 10
16.40606778213514
 20
14.5890209293545
 30
0.0
  0
VERTEX
  5
3DC
  8
TEXT
 10
16.39811115294259
 20
14.58444596557352
 30
0.0
  0
VERTEX
  5
3DD
  8
TEXT
 10
16.39040225760805
 20
14.57950388739389
 30
0.0
  0
VERTEX
  5
3DE
  8
TEXT
 10
16.38295303418556
 20
14.57420663286967
 30
0.0
  0
VERTEX
  5
3DF
  8
TEXT
 10
16.37577542072922
 20
14.56856614005494
 30
0.0
  0
VERTEX
  5
3E0
  8
TEXT
 10
16.36888135529306
 20
14.56259434700376
 30
0.0
  0
VERTEX
  5
3E1
  8
TEXT
 10
16.36228277593117
 20
14.55630319177019
 30
0.0
  0
VERTEX
  5
3E2
  8
TEXT
 10
16.3559916206976
 20
14.54970461240829
 30
0.0
  0
VERTEX
  5
3E3
  8
TEXT
 10
16.35001982764641
 20
14.54281054697214
 30
0.0
  0
VERTEX
  5
3E4
  8
TEXT
 10
16.34437933483169
 20
14.53563293351579
 30
0.0
  0
VERTEX
  5
3E5
  8
TEXT
 10
16.33908208030747
 20
14.52818371009331
 30
0.0
  0
VERTEX
  5
3E6
  8
TEXT
 10
16.33414000212784
 20
14.52047481475877
 30
0.0
  0
VERTEX
  5
3E7
  8
TEXT
 10
16.32956503834685
 20
14.51251818556622
 30
0.0
  0
VERTEX
  5
3E8
  8
TEXT
 10
16.32536912701858
 20
14.50432576056973
 30
0.0
  0
VERTEX
  5
3E9
  8
TEXT
 10
16.32156420619707
 20
14.49590947782337
 30
0.0
  0
VERTEX
  5
3EA
  8
TEXT
 10
16.31816221393641
 20
14.4872812753812
 30
0.0
  0
VERTEX
  5
3EB
  8
TEXT
 10
16.31517508829064
 20
14.47845309129728
 30
0.0
  0
VERTEX
  5
3EC
  8
TEXT
 10
16.31261476731385
 20
14.46943686362569
 30
0.0
  0
VERTEX
  5
3ED
  8
TEXT
 10
16.31049318906008
 20
14.46024453042047
 30
0.0
  0
VERTEX
  5
3EE
  8
TEXT
 10
16.30882229158341
 20
14.45088802973571
 30
0.0
  0
VERTEX
  5
3EF
  8
TEXT
 10
16.3076140129379
 20
14.44137929962546
 30
0.0
  0
VERTEX
  5
3F0
  8
TEXT
 10
16.30688029117761
 20
14.43173027814378
 30
0.0
  0
VERTEX
  5
3F1
  8
TEXT
 10
16.30663306435661
 20
14.42195290334474
 30
0.0
  0
VERTEX
  5
3F2
  8
TEXT
 10
16.30663306435661
 20
14.10695290334474
 30
0.0
  0
SEQEND
  5
B8A
  8
TEXT
  0
POLYLINE
  5
88
  8
TEXT
 66
     1
 10
0.0
 20
0.0
 30
0.0
  0
VERTEX
  5
3F3
  8
TEXT
 10
1.4575
 20
16.9858
 30
0.0
  0
VERTEX
  5
3F4
  8
TEXT
 10
1.4575
 20
16.4858
 30
0.0
  0
VERTEX
  5
3F5
  8
TEXT
 10
1.6975
 20
16.4858
 30
0.0
  0
SEQEND
  5
B8B
  8
TEXT
  0
POLYLINE
  5
89
  8
TEXT
 66
     1
 10
0.0
 20
0.0
 30
0.0
  0
VERTEX
  5
3F6
  8
TEXT
 10
1.8075
 20
16.6708
 30
0.0
  0
VERTEX
  5
3F7
  8
TEXT
 10
2.1775
 20
16.6708
 30
0.0
 42
0.9023199709436645
  0
VERTEX
  5
3F8
  8
TEXT
 10
1.803166666666667
 20
16.71746666666667
 30
0.0
 42
0.8623467340067498
  0
VERTEX
  5
3F9
  8
TEXT
 10
2.1525
 20
16.5808
 30
0.0
  0
SEQEND
  5
B8C
  8
TEXT
  0
POLYLINE
  5
8A
  8
TEXT
 66
     1
 10
0.0
 20
0.0
 30
0.0
  0
VERTEX
  5
3FA
  8
TEXT
 10
2.3475
 20
16.4858
 30
0.0
  0
VERTEX
  5
3FB
  8
TEXT
 10
2.3475
 20
16.8408
 30
0.0
  0
VERTEX
  5
3FC
  8
TEXT
 10
2.2775
 20
16.8408
 30
0.0
  0
VERTEX
  5
3FD
  8
TEXT
 10
2.4525
 20
16.8408
 30
0.0
  0
VERTEX
  5
3FE
  8
TEXT
 10
2.3475
 20
16.8408
 30
0.0
  0
VERTEX
  5
3FF
  8
TEXT
 10
2.3475
 20
16.8858
 30
0.0
 42
-0.4133333333333333
  0
VERTEX
  5
400
  8
TEXT
 10
2.4475
 20
16.9858
 30
0.0
  0
SEQEND
  5
B8D
  8
TEXT
  0
POLYLINE
  5
8B
  8
TEXT
 66
     1
 10
0.0
 20
0.0
 30
0.0
  0
VERTEX
  5
401
  8
TEXT
 10
2.6525
 20
16.4858
 30
0.0
  0
VERTEX
  5
402
  8
TEXT
 10
2.6525
 20
16.8358
 30
0.0
  0
VERTEX
  5
403
  8
TEXT
 10
2.5525
 20
16.8358
 30
0.0
  0
VERTEX
  5
404
  8
TEXT
 10
2.7525
 20
16.8358
 30
0.0
  0
VERTEX
  5
405
  8
TEXT
 10
2.6525
 20
16.8358
 30
0.0
  0
VERTEX
  5
406
  8
TEXT
 10
2.6525
 20
16.9858
 30
0.0
  0
SEQEND
  5
B8E
  8
TEXT
  0
POLYLINE
  5
8C
  8
TEXT
 66
     1
 10
0.0
 20
0.0
 30
0.0
  0
VERTEX
  5
407
  8
TEXT
 10
5.4895
 20
7.1847
 30
0.0
  0
VERTEX
  5
408
  8
TEXT
 10
5.4895
 20
7.6847
 30
0.0
  0
VERTEX
  5
409
  8
TEXT
 10
5.6545
 20
7.6847
 30
0.0
 42
-1.0
  0
VERTEX
  5
40A
  8
TEXT
 10
5.6545
 20
7.3847
 30
0.0
  0
VERTEX
  5
40B
  8
TEXT
 10
5.6145
 20
7.3847
 30
0.0
  0
VERTEX
  5
40C
  8
TEXT
 10
5.764499999999999
 20
7.1847
 30
0.0
  0
SEQEND
  5
B8F
  8
TEXT
  0
POLYLINE
  5
8D
  8
TEXT
 66
     1
 10
0.0
 20
0.0
 30
0.0
  0
VERTEX
  5
40D
  8
TEXT
 10
5.8645
 20
7.1847
 30
0.0
  0
VERTEX
  5
40E
  8
TEXT
 10
5.8645
 20
7.5547
 30
0.0
  0
SEQEND
  5
B90
  8
TEXT
  0
POLYLINE
  5
8E
  8
TEXT
 66
     1
 10
0.0
 20
0.0
 30
0.0
  0
VERTEX
  5
40F
  8
TEXT
 10
5.8645
 20
7.624700000000001
 30
0.0
  0
VERTEX
  5
410
  8
TEXT
 10
5.8645
 20
7.6847
 30
0.0
  0
SEQEND
  5
B91
  8
TEXT
  0
POLYLINE
  5
8F
  8
TEXT
 66
     1
 10
0.0
 20
0.0
 30
0.0
 70
     1
  0
VERTEX
  5
411
  8
TEXT
 10
6.153833333333333
 20
7.1797
 30
0.0
  0
VERTEX
  5
412
  8
TEXT
 10
6.163610708132369
 20
7.179947226821
 30
0.0
  0
VERTEX
  5
413
  8
TEXT
 10
6.173259729614045
 20
7.180680948581286
 30
0.0
  0
VERTEX
  5
414
  8
TEXT
 10
6.182768459724298
 20
7.181889227226797
 30
0.0
  0
VERTEX
  5
415
  8
TEXT
 10
6.192124960409063
 20
7.183560124703467
 30
0.0
  0
VERTEX
  5
416
  8
TEXT
 10
6.201317293614276
 20
7.185681702957233
 30
0.0
  0
VERTEX
  5
417
  8
TEXT
 10
6.210333521285872
 20
7.18824202393403
 30
0.0
  0
VERTEX
  5
418
  8
TEXT
 10
6.219161705369787
 20
7.191229149579794
 30
0.0
  0
VERTEX
  5
419
  8
TEXT
 10
6.227789907811958
 20
7.194631141840459
 30
0.0
  0
VERTEX
  5
41A
  8
TEXT
 10
6.236206190558319
 20
7.198436062661964
 30
0.0
  0
VERTEX
  5
41B
  8
TEXT
 10
6.244398615554806
 20
7.20263197399024
 30
0.0
  0
VERTEX
  5
41C
  8
TEXT
 10
6.252355244747354
 20
7.207206937771227
 30
0.0
  0
VERTEX
  5
41D
  8
TEXT
 10
6.260064140081901
 20
7.212149015950859
 30
0.0
  0
VERTEX
  5
41E
  8
TEXT
 10
6.26751336350438
 20
7.217446270475072
 30
0.0
  0
VERTEX
  5
41F
  8
TEXT
 10
6.27469097696073
 20
7.223086763289802
 30
0.0
  0
VERTEX
  5
420
  8
TEXT
 10
6.281585042396884
 20
7.229058556340984
 30
0.0
  0
VERTEX
  5
421
  8
TEXT
 10
6.288183621758778
 20
7.235349711574555
 30
0.0
  0
VERTEX
  5
422
  8
TEXT
 10
6.294474776992349
 20
7.241948290936449
 30
0.0
  0
VERTEX
  5
423
  8
TEXT
 10
6.300446570043531
 20
7.248842356372603
 30
0.0
  0
VERTEX
  5
424
  8
TEXT
 10
6.306087062858261
 20
7.256019969828952
 30
0.0
  0
VERTEX
  5
425
  8
TEXT
 10
6.311384317382474
 20
7.263469193251432
 30
0.0
  0
VERTEX
  5
426
  8
TEXT
 10
6.316326395562106
 20
7.271178088585978
 30
0.0
  0
VERTEX
  5
427
  8
TEXT
 10
6.320901359343094
 20
7.279134717778527
 30
0.0
  0
VERTEX
  5
428
  8
TEXT
 10
6.325097270671371
 20
7.287327142775014
 30
0.0
  0
VERTEX
  5
429
  8
TEXT
 10
6.328902191492875
 20
7.295743425521375
 30
0.0
  0
VERTEX
  5
42A
  8
TEXT
 10
6.332304183753541
 20
7.304371627963546
 30
0.0
  0
VERTEX
  5
42B
  8
TEXT
 10
6.335291309399304
 20
7.313199812047461
 30
0.0
  0
VERTEX
  5
42C
  8
TEXT
 10
6.337851630376101
 20
7.322216039719057
 30
0.0
  0
VERTEX
  5
42D
  8
TEXT
 10
6.339973208629866
 20
7.33140837292427
 30
0.0
  0
VERTEX
  5
42E
  8
TEXT
 10
6.341644106106537
 20
7.340764873609035
 30
0.0
  0
VERTEX
  5
42F
  8
TEXT
 10
6.342852384752048
 20
7.350273603719288
 30
0.0
  0
VERTEX
  5
430
  8
TEXT
 10
6.343586106512335
 20
7.359922625200964
 30
0.0
  0
VERTEX
  5
431
  8
TEXT
 10
6.343833333333333
 20
7.3697
 30
0.0
  0
VERTEX
  5
432
  8
TEXT
 10
6.343586106512335
 20
7.379477374799036
 30
0.0
  0
VERTEX
  5
433
  8
TEXT
 10
6.342852384752048
 20
7.389126396280712
 30
0.0
  0
VERTEX
  5
434
  8
TEXT
 10
6.341644106106537
 20
7.398635126390965
 30
0.0
  0
VERTEX
  5
435
  8
TEXT
 10
6.339973208629866
 20
7.40799162707573
 30
0.0
  0
VERTEX
  5
436
  8
TEXT
 10
6.337851630376101
 20
7.417183960280942
 30
0.0
  0
VERTEX
  5
437
  8
TEXT
 10
6.335291309399304
 20
7.426200187952539
 30
0.0
  0
VERTEX
  5
438
  8
TEXT
 10
6.332304183753541
 20
7.435028372036454
 30
0.0
  0
VERTEX
  5
439
  8
TEXT
 10
6.328902191492875
 20
7.443656574478624
 30
0.0
  0
VERTEX
  5
43A
  8
TEXT
 10
6.325097270671371
 20
7.452072857224985
 30
0.0
  0
VERTEX
  5
43B
  8
TEXT
 10
6.320901359343094
 20
7.460265282221473
 30
0.0
  0
VERTEX
  5
43C
  8
TEXT
 10
6.316326395562106
 20
7.468221911414021
 30
0.0
  0
VERTEX
  5
43D
  8
TEXT
 10
6.311384317382474
 20
7.475930806748567
 30
0.0
  0
VERTEX
  5
43E
  8
TEXT
 10
6.306087062858261
 20
7.483380030171047
 30
0.0
  0
VERTEX
  5
43F
  8
TEXT
 10
6.300446570043531
 20
7.490557643627397
 30
0.0
  0
VERTEX
  5
440
  8
TEXT
 10
6.294474776992349
 20
7.497451709063551
 30
0.0
  0
VERTEX
  5
441
  8
TEXT
 10
6.288183621758778
 20
7.504050288425445
 30
0.0
  0
VERTEX
  5
442
  8
TEXT
 10
6.281585042396884
 20
7.510341443659016
 30
0.0
  0
VERTEX
  5
443
  8
TEXT
 10
6.27469097696073
 20
7.516313236710197
 30
0.0
  0
VERTEX
  5
444
  8
TEXT
 10
6.26751336350438
 20
7.521953729524927
 30
0.0
  0
VERTEX
  5
445
  8
TEXT
 10
6.260064140081901
 20
7.527250984049141
 30
0.0
  0
VERTEX
  5
446
  8
TEXT
 10
6.252355244747354
 20
7.532193062228773
 30
0.0
  0
VERTEX
  5
447
  8
TEXT
 10
6.244398615554806
 20
7.536768026009761
 30
0.0
  0
VERTEX
  5
448
  8
TEXT
 10
6.236206190558319
 20
7.540963937338038
 30
0.0
  0
VERTEX
  5
449
  8
TEXT
 10
6.227789907811958
 20
7.544768858159542
 30
0.0
  0
VERTEX
  5
44A
  8
TEXT
 10
6.219161705369787
 20
7.548170850420208
 30
0.0
  0
VERTEX
  5
44B
  8
TEXT
 10
6.210333521285872
 20
7.551157976065971
 30
0.0
  0
VERTEX
  5
44C
  8
TEXT
 10
6.201317293614276
 20
7.553718297042768
 30
0.0
  0
VERTEX
  5
44D
  8
TEXT
 10
6.192124960409063
 20
7.555839875296533
 30
0.0
  0
VERTEX
  5
44E
  8
TEXT
 10
6.182768459724298
 20
7.557510772773204
 30
0.0
  0
VERTEX
  5
44F
  8
TEXT
 10
6.173259729614045
 20
7.558719051418715
 30
0.0
  0
VERTEX
  5
450
  8
TEXT
 10
6.163610708132369
 20
7.559452773179002
 30
0.0
  0
VERTEX
  5
451
  8
TEXT
 10
6.153833333333333
 20
7.5597
 30
0.0
  0
VERTEX
  5
452
  8
TEXT
 10
6.144055958534297
 20
7.559452773179002
 30
0.0
  0
VERTEX
  5
453
  8
TEXT
 10
6.134406937052621
 20
7.558719051418715
 30
0.0
  0
VERTEX
  5
454
  8
TEXT
 10
6.124898206942368
 20
7.557510772773204
 30
0.0
  0
VERTEX
  5
455
  8
TEXT
 10
6.115541706257603
 20
7.555839875296533
 30
0.0
  0
VERTEX
  5
456
  8
TEXT
 10
6.106349373052391
 20
7.553718297042768
 30
0.0
  0
VERTEX
  5
457
  8
TEXT
 10
6.097333145380794
 20
7.551157976065971
 30
0.0
  0
VERTEX
  5
458
  8
TEXT
 10
6.088504961296879
 20
7.548170850420208
 30
0.0
  0
VERTEX
  5
459
  8
TEXT
 10
6.079876758854708
 20
7.544768858159542
 30
0.0
  0
VERTEX
  5
45A
  8
TEXT
 10
6.071460476108347
 20
7.540963937338038
 30
0.0
  0
VERTEX
  5
45B
  8
TEXT
 10
6.06326805111186
 20
7.536768026009761
 30
0.0
  0
VERTEX
  5
45C
  8
TEXT
 10
6.055311421919312
 20
7.532193062228773
 30
0.0
  0
VERTEX
  5
45D
  8
TEXT
 10
6.047602526584765
 20
7.527250984049141
 30
0.0
  0
VERTEX
  5
45E
  8
TEXT
 10
6.040153303162286
 20
7.521953729524927
 30
0.0
  0
VERTEX
  5
45F
  8
TEXT
 10
6.032975689705936
 20
7.516313236710197
 30
0.0
  0
VERTEX
  5
460
  8
TEXT
 10
6.026081624269782
 20
7.510341443659016
 30
0.0
  0
VERTEX
  5
461
  8
TEXT
 10
6.019483044907888
 20
7.504050288425445
 30
0.0
  0
VERTEX
  5
462
  8
TEXT
 10
6.013191889674317
 20
7.497451709063551
 30
0.0
  0
VERTEX
  5
463
  8
TEXT
 10
6.007220096623135
 20
7.490557643627397
 30
0.0
  0
VERTEX
  5
464
  8
TEXT
 10
6.001579603808405
 20
7.483380030171047
 30
0.0
  0
VERTEX
  5
465
  8
TEXT
 10
5.996282349284192
 20
7.475930806748567
 30
0.0
  0
VERTEX
  5
466
  8
TEXT
 10
5.99134027110456
 20
7.468221911414021
 30
0.0
  0
VERTEX
  5
467
  8
TEXT
 10
5.986765307323572
 20
7.460265282221473
 30
0.0
  0
VERTEX
  5
468
  8
TEXT
 10
5.982569395995295
 20
7.452072857224985
 30
0.0
  0
VERTEX
  5
469
  8
TEXT
 10
5.978764475173791
 20
7.443656574478624
 30
0.0
  0
VERTEX
  5
46A
  8
TEXT
 10
5.975362482913125
 20
7.435028372036454
 30
0.0
  0
VERTEX
  5
46B
  8
TEXT
 10
5.972375357267362
 20
7.426200187952539
 30
0.0
  0
VERTEX
  5
46C
  8
TEXT
 10
5.969815036290565
 20
7.417183960280942
 30
0.0
  0
VERTEX
  5
46D
  8
TEXT
 10
5.9676934580368
 20
7.40799162707573
 30
0.0
  0
VERTEX
  5
46E
  8
TEXT
 10
5.966022560560129
 20
7.398635126390965
 30
0.0
  0
VERTEX
  5
46F
  8
TEXT
 10
5.964814281914618
 20
7.389126396280712
 30
0.0
  0
VERTEX
  5
470
  8
TEXT
 10
5.964080560154331
 20
7.379477374799036
 30
0.0
  0
VERTEX
  5
471
  8
TEXT
 10
5.963833333333333
 20
7.3697
 30
0.0
  0
VERTEX
  5
472
  8
TEXT
 10
5.964080560154331
 20
7.359922625200964
 30
0.0
  0
VERTEX
  5
473
  8
TEXT
 10
5.964814281914618
 20
7.350273603719288
 30
0.0
  0
VERTEX
  5
474
  8
TEXT
 10
5.966022560560129
 20
7.340764873609035
 30
0.0
  0
VERTEX
  5
475
  8
TEXT
 10
5.9676934580368
 20
7.33140837292427
 30
0.0
  0
VERTEX
  5
476
  8
TEXT
 10
5.969815036290565
 20
7.322216039719057
 30
0.0
  0
VERTEX
  5
477
  8
TEXT
 10
5.972375357267362
 20
7.313199812047461
 30
0.0
  0
VERTEX
  5
478
  8
TEXT
 10
5.975362482913125
 20
7.304371627963546
 30
0.0
  0
VERTEX
  5
479
  8
TEXT
 10
5.978764475173791
 20
7.295743425521375
 30
0.0
  0
VERTEX
  5
47A
  8
TEXT
 10
5.982569395995295
 20
7.287327142775014
 30
0.0
  0
VERTEX
  5
47B
  8
TEXT
 10
5.986765307323572
 20
7.279134717778527
 30
0.0
  0
VERTEX
  5
47C
  8
TEXT
 10
5.99134027110456
 20
7.271178088585978
 30
0.0
  0
VERTEX
  5
47D
  8
TEXT
 10
5.996282349284192
 20
7.263469193251432
 30
0.0
  0
VERTEX
  5
47E
  8
TEXT
 10
6.001579603808405
 20
7.256019969828952
 30
0.0
  0
VERTEX
  5
47F
  8
TEXT
 10
6.007220096623135
 20
7.248842356372603
 30
0.0
  0
VERTEX
  5
480
  8
TEXT
 10
6.013191889674317
 20
7.241948290936449
 30
0.0
  0
VERTEX
  5
481
  8
TEXT
 10
6.019483044907888
 20
7.235349711574556
 30
0.0
  0
VERTEX
  5
482
  8
TEXT
 10
6.026081624269782
 20
7.229058556340986
 30
0.0
  0
VERTEX
  5
483
  8
TEXT
 10
6.032975689705936
 20
7.223086763289803
 30
0.0
  0
VERTEX
  5
484
  8
TEXT
 10
6.040153303162286
 20
7.217446270475072
 30
0.0
  0
VERTEX
  5
485
  8
TEXT
 10
6.047602526584765
 20
7.21214901595086
 30
0.0
  0
VERTEX
  5
486
  8
TEXT
 10
6.055311421919312
 20
7.207206937771227
 30
0.0
  0
VERTEX
  5
487
  8
TEXT
 10
6.06326805111186
 20
7.20263197399024
 30
0.0
  0
VERTEX
  5
488
  8
TEXT
 10
6.071460476108347
 20
7.198436062661964
 30
0.0
  0
VERTEX
  5
489
  8
TEXT
 10
6.079876758854708
 20
7.194631141840459
 30
0.0
  0
VERTEX
  5
48A
  8
TEXT
 10
6.088504961296879
 20
7.191229149579794
 30
0.0
  0
VERTEX
  5
48B
  8
TEXT
 10
6.097333145380794
 20
7.18824202393403
 30
0.0
  0
VERTEX
  5
48C
  8
TEXT
 10
6.106349373052391
 20
7.185681702957233
 30
0.0
  0
VERTEX
  5
48D
  8
TEXT
 10
6.115541706257603
 20
7.183560124703467
 30
0.0
  0
VERTEX
  5
48E
  8
TEXT
 10
6.124898206942368
 20
7.181889227226797
 30
0.0
  0
VERTEX
  5
48F
  8
TEXT
 10
6.134406937052621
 20
7.180680948581286
 30
0.0
  0
VERTEX
  5
490
  8
TEXT
 10
6.144055958534297
 20
7.179947226821
 30
0.0
  0
SEQEND
  5
B92
  8
TEXT
  0
POLYLINE
  5
90
  8
TEXT
 66
     1
 10
0.0
 20
0.0
 30
0.0
  0
VERTEX
  5
491
  8
TEXT
 10
6.153833333333333
 20
7.1797
 30
0.0
 42
0.4216306000241346
  0
VERTEX
  5
492
  8
TEXT
 10
6.343833333333333
 20
7.374700000000001
 30
0.0
  0
VERTEX
  5
493
  8
TEXT
 10
6.343833333333333
 20
7.5597
 30
0.0
  0
VERTEX
  5
494
  8
TEXT
 10
6.343833333333333
 20
7.2447
 30
0.0
 42
-0.7823487490295122
  0
VERTEX
  5
495
  8
TEXT
 10
5.988833333333333
 20
7.1547
 30
0.0
  0
SEQEND
  5
B93
  8
TEXT
  0
POLYLINE
  5
91
  8
TEXT
 66
     1
 10
0.0
 20
0.0
 30
0.0
  0
VERTEX
  5
496
  8
TEXT
 10
6.443833333333333
 20
7.1847
 30
0.0
  0
VERTEX
  5
497
  8
TEXT
 10
6.443833333333333
 20
7.6847
 30
0.0
  0
VERTEX
  5
498
  8
TEXT
 10
6.443833333333333
 20
7.4147
 30
0.0
 42
-1.0
  0
VERTEX
  5
499
  8
TEXT
 10
6.733833333333332
 20
7.4147
 30
0.0
  0
VERTEX
  5
49A
  8
TEXT
 10
6.733833333333332
 20
7.1847
 30
0.0
  0
SEQEND
  5
B94
  8
TEXT
  0
POLYLINE
  5
92
  8
TEXT
 66
     1
 10
0.0
 20
0.0
 30
0.0
  0
VERTEX
  5
49B
  8
TEXT
 10
6.933833333333332
 20
7.1847
 30
0.0
  0
VERTEX
  5
49C
  8
TEXT
 10
6.933833333333332
 20
7.5347
 30
0.0
  0
VERTEX
  5
49D
  8
TEXT
 10
6.833833333333333
 20
7.5347
 30
0.0
  0
VERTEX
  5
49E
  8
TEXT
 10
7.033833333333332
 20
7.5347
 30
0.0
  0
VERTEX
  5
49F
  8
TEXT
 10
6.933833333333332
 20
7.5347
 30
0.0
  0
VERTEX
  5
4A0
  8
TEXT
 10
6.933833333333332
 20
7.6847
 30
0.0
  0
SEQEND
  5
B95
  8
TEXT
  0
POLYLINE
  5
93
  8
TEXT
 66
     1
 10
0.0
 20
0.0
 30
0.0
  0
VERTEX
  5
4A1
  8
TEXT
 10
8.600849601951172
 20
8.155691444693687
 30
0.0
  0
VERTEX
  5
4A2
  8
TEXT
 10
8.600849601951172
 20
8.655691444693687
 30
0.0
  0
VERTEX
  5
4A3
  8
TEXT
 10
8.750849601951172
 20
8.655691444693687
 30
0.0
 42
-1.0
  0
VERTEX
  5
4A4
  8
TEXT
 10
8.750849601951172
 20
8.375691444693688
 30
0.0
  0
VERTEX
  5
4A5
  8
TEXT
 10
8.600849601951172
 20
8.375691444693688
 30
0.0
  0
SEQEND
  5
B96
  8
TEXT
  0
POLYLINE
  5
94
  8
TEXT
 66
     1
 10
0.0
 20
0.0
 30
0.0
 70
     1
  0
VERTEX
  5
4A6
  8
TEXT
 10
8.975849601951172
 20
8.155691444693687
 30
0.0
  0
VERTEX
  5
4A7
  8
TEXT
 10
8.975849601951172
 20
8.655691444693687
 30
0.0
  0
SEQEND
  5
B97
  8
TEXT
  0
POLYLINE
  5
95
  8
TEXT
 66
     1
 10
0.0
 20
0.0
 30
0.0
  0
VERTEX
  5
4A8
  8
TEXT
 10
9.075849601951171
 20
8.525691444693686
 30
0.0
  0
VERTEX
  5
4A9
  8
TEXT
 10
9.075849601951171
 20
8.295691444693688
 30
0.0
 42
1.0
  0
VERTEX
  5
4AA
  8
TEXT
 10
9.36584960195117
 20
8.295691444693688
 30
0.0
  0
VERTEX
  5
4AB
  8
TEXT
 10
9.36584960195117
 20
8.525691444693686
 30
0.0
  0
VERTEX
  5
4AC
  8
TEXT
 10
9.36584960195117
 20
8.155691444693687
 30
0.0
  0
SEQEND
  5
B98
  8
TEXT
  0
POLYLINE
  5
96
  8
TEXT
 66
     1
 10
0.0
 20
0.0
 30
0.0
 70
     1
  0
VERTEX
  5
4AD
  8
TEXT
 10
9.655182935284504
 20
8.150691444693686
 30
0.0
  0
VERTEX
  5
4AE
  8
TEXT
 10
9.66496031008354
 20
8.150938671514684
 30
0.0
  0
VERTEX
  5
4AF
  8
TEXT
 10
9.674609331565218
 20
8.151672393274971
 30
0.0
  0
VERTEX
  5
4B0
  8
TEXT
 10
9.684118061675473
 20
8.152880671920482
 30
0.0
  0
VERTEX
  5
4B1
  8
TEXT
 10
9.693474562360237
 20
8.154551569397153
 30
0.0
  0
VERTEX
  5
4B2
  8
TEXT
 10
9.70266689556545
 20
8.156673147650919
 30
0.0
  0
VERTEX
  5
4B3
  8
TEXT
 10
9.711683123237044
 20
8.159233468627715
 30
0.0
  0
VERTEX
  5
4B4
  8
TEXT
 10
9.720511307320962
 20
8.162220594273478
 30
0.0
  0
VERTEX
  5
4B5
  8
TEXT
 10
9.72913950976313
 20
8.165622586534145
 30
0.0
  0
VERTEX
  5
4B6
  8
TEXT
 10
9.73755579250949
 20
8.169427507355648
 30
0.0
  0
VERTEX
  5
4B7
  8
TEXT
 10
9.745748217505977
 20
8.173623418683926
 30
0.0
  0
VERTEX
  5
4B8
  8
TEXT
 10
9.753704846698525
 20
8.178198382464913
 30
0.0
  0
VERTEX
  5
4B9
  8
TEXT
 10
9.761413742033072
 20
8.183140460644546
 30
0.0
  0
VERTEX
  5
4BA
  8
TEXT
 10
9.76886296545555
 20
8.18843771516876
 30
0.0
  0
VERTEX
  5
4BB
  8
TEXT
 10
9.7760405789119
 20
8.194078207983491
 30
0.0
  0
VERTEX
  5
4BC
  8
TEXT
 10
9.782934644348053
 20
8.200050001034674
 30
0.0
  0
VERTEX
  5
4BD
  8
TEXT
 10
9.789533223709947
 20
8.206341156268243
 30
0.0
  0
VERTEX
  5
4BE
  8
TEXT
 10
9.795824378943516
 20
8.212939735630137
 30
0.0
  0
VERTEX
  5
4BF
  8
TEXT
 10
9.801796171994699
 20
8.21983380106629
 30
0.0
  0
VERTEX
  5
4C0
  8
TEXT
 10
9.80743666480943
 20
8.22701141452264
 30
0.0
  0
VERTEX
  5
4C1
  8
TEXT
 10
9.812733919333644
 20
8.234460637945118
 30
0.0
  0
VERTEX
  5
4C2
  8
TEXT
 10
9.817675997513277
 20
8.242169533279665
 30
0.0
  0
VERTEX
  5
4C3
  8
TEXT
 10
9.822250961294264
 20
8.250126162472213
 30
0.0
  0
VERTEX
  5
4C4
  8
TEXT
 10
9.826446872622542
 20
8.2583185874687
 30
0.0
  0
VERTEX
  5
4C5
  8
TEXT
 10
9.830251793444045
 20
8.26673487021506
 30
0.0
  0
VERTEX
  5
4C6
  8
TEXT
 10
9.833653785704712
 20
8.275363072657228
 30
0.0
  0
VERTEX
  5
4C7
  8
TEXT
 10
9.836640911350475
 20
8.284191256741146
 30
0.0
  0
VERTEX
  5
4C8
  8
TEXT
 10
9.839201232327271
 20
8.29320748441274
 30
0.0
  0
VERTEX
  5
4C9
  8
TEXT
 10
9.841322810581037
 20
8.302399817617955
 30
0.0
  0
VERTEX
  5
4CA
  8
TEXT
 10
9.842993708057708
 20
8.31175631830272
 30
0.0
  0
VERTEX
  5
4CB
  8
TEXT
 10
9.844201986703219
 20
8.321265048412974
 30
0.0
  0
VERTEX
  5
4CC
  8
TEXT
 10
9.844935708463506
 20
8.33091406989465
 30
0.0
  0
VERTEX
  5
4CD
  8
TEXT
 10
9.845182935284504
 20
8.340691444693688
 30
0.0
  0
VERTEX
  5
4CE
  8
TEXT
 10
9.844935708463506
 20
8.350468819492725
 30
0.0
  0
VERTEX
  5
4CF
  8
TEXT
 10
9.844201986703219
 20
8.3601178409744
 30
0.0
  0
VERTEX
  5
4D0
  8
TEXT
 10
9.842993708057708
 20
8.369626571084655
 30
0.0
  0
VERTEX
  5
4D1
  8
TEXT
 10
9.841322810581037
 20
8.378983071769419
 30
0.0
  0
VERTEX
  5
4D2
  8
TEXT
 10
9.839201232327271
 20
8.388175404974632
 30
0.0
  0
VERTEX
  5
4D3
  8
TEXT
 10
9.836640911350475
 20
8.397191632646226
 30
0.0
  0
VERTEX
  5
4D4
  8
TEXT
 10
9.833653785704712
 20
8.406019816730144
 30
0.0
  0
VERTEX
  5
4D5
  8
TEXT
 10
9.830251793444045
 20
8.414648019172313
 30
0.0
  0
VERTEX
  5
4D6
  8
TEXT
 10
9.826446872622542
 20
8.423064301918675
 30
0.0
  0
VERTEX
  5
4D7
  8
TEXT
 10
9.822250961294264
 20
8.431256726915162
 30
0.0
  0
VERTEX
  5
4D8
  8
TEXT
 10
9.817675997513277
 20
8.439213356107711
 30
0.0
  0
VERTEX
  5
4D9
  8
TEXT
 10
9.812733919333644
 20
8.446922251442258
 30
0.0
  0
VERTEX
  5
4DA
  8
TEXT
 10
9.80743666480943
 20
8.454371474864736
 30
0.0
  0
VERTEX
  5
4DB
  8
TEXT
 10
9.801796171994699
 20
8.461549088321085
 30
0.0
  0
VERTEX
  5
4DC
  8
TEXT
 10
9.795824378943516
 20
8.468443153757239
 30
0.0
  0
VERTEX
  5
4DD
  8
TEXT
 10
9.789533223709947
 20
8.475041733119133
 30
0.0
  0
VERTEX
  5
4DE
  8
TEXT
 10
9.782934644348053
 20
8.481332888352702
 30
0.0
  0
VERTEX
  5
4DF
  8
TEXT
 10
9.7760405789119
 20
8.487304681403884
 30
0.0
  0
VERTEX
  5
4E0
  8
TEXT
 10
9.76886296545555
 20
8.492945174218615
 30
0.0
  0
VERTEX
  5
4E1
  8
TEXT
 10
9.761413742033072
 20
8.498242428742829
 30
0.0
  0
VERTEX
  5
4E2
  8
TEXT
 10
9.753704846698525
 20
8.503184506922462
 30
0.0
  0
VERTEX
  5
4E3
  8
TEXT
 10
9.745748217505977
 20
8.507759470703448
 30
0.0
  0
VERTEX
  5
4E4
  8
TEXT
 10
9.73755579250949
 20
8.511955382031726
 30
0.0
  0
VERTEX
  5
4E5
  8
TEXT
 10
9.72913950976313
 20
8.515760302853229
 30
0.0
  0
VERTEX
  5
4E6
  8
TEXT
 10
9.720511307320962
 20
8.519162295113896
 30
0.0
  0
VERTEX
  5
4E7
  8
TEXT
 10
9.711683123237044
 20
8.522149420759657
 30
0.0
  0
VERTEX
  5
4E8
  8
TEXT
 10
9.70266689556545
 20
8.524709741736455
 30
0.0
  0
VERTEX
  5
4E9
  8
TEXT
 10
9.693474562360237
 20
8.52683131999022
 30
0.0
  0
VERTEX
  5
4EA
  8
TEXT
 10
9.684118061675473
 20
8.52850221746689
 30
0.0
  0
VERTEX
  5
4EB
  8
TEXT
 10
9.674609331565218
 20
8.5297104961124
 30
0.0
  0
VERTEX
  5
4EC
  8
TEXT
 10
9.66496031008354
 20
8.530444217872688
 30
0.0
  0
VERTEX
  5
4ED
  8
TEXT
 10
9.655182935284504
 20
8.530691444693687
 30
0.0
  0
VERTEX
  5
4EE
  8
TEXT
 10
9.645405560485468
 20
8.530444217872688
 30
0.0
  0
VERTEX
  5
4EF
  8
TEXT
 10
9.63575653900379
 20
8.5297104961124
 30
0.0
  0
VERTEX
  5
4F0
  8
TEXT
 10
9.626247808893535
 20
8.52850221746689
 30
0.0
  0
VERTEX
  5
4F1
  8
TEXT
 10
9.616891308208771
 20
8.52683131999022
 30
0.0
  0
VERTEX
  5
4F2
  8
TEXT
 10
9.607698975003558
 20
8.524709741736455
 30
0.0
  0
VERTEX
  5
4F3
  8
TEXT
 10
9.598682747331964
 20
8.522149420759657
 30
0.0
  0
VERTEX
  5
4F4
  8
TEXT
 10
9.589854563248046
 20
8.519162295113896
 30
0.0
  0
VERTEX
  5
4F5
  8
TEXT
 10
9.581226360805879
 20
8.515760302853229
 30
0.0
  0
VERTEX
  5
4F6
  8
TEXT
 10
9.572810078059518
 20
8.511955382031726
 30
0.0
  0
VERTEX
  5
4F7
  8
TEXT
 10
9.564617653063031
 20
8.507759470703448
 30
0.0
  0
VERTEX
  5
4F8
  8
TEXT
 10
9.556661023870483
 20
8.503184506922462
 30
0.0
  0
VERTEX
  5
4F9
  8
TEXT
 10
9.548952128535936
 20
8.498242428742829
 30
0.0
  0
VERTEX
  5
4FA
  8
TEXT
 10
9.541502905113457
 20
8.492945174218615
 30
0.0
  0
VERTEX
  5
4FB
  8
TEXT
 10
9.534325291657108
 20
8.487304681403884
 30
0.0
  0
VERTEX
  5
4FC
  8
TEXT
 10
9.527431226220955
 20
8.481332888352702
 30
0.0
  0
VERTEX
  5
4FD
  8
TEXT
 10
9.520832646859061
 20
8.475041733119133
 30
0.0
  0
VERTEX
  5
4FE
  8
TEXT
 10
9.514541491625492
 20
8.468443153757239
 30
0.0
  0
VERTEX
  5
4FF
  8
TEXT
 10
9.50856969857431
 20
8.461549088321085
 30
0.0
  0
VERTEX
  5
500
  8
TEXT
 10
9.502929205759578
 20
8.454371474864736
 30
0.0
  0
VERTEX
  5
501
  8
TEXT
 10
9.497631951235364
 20
8.446922251442258
 30
0.0
  0
VERTEX
  5
502
  8
TEXT
 10
9.492689873055731
 20
8.439213356107711
 30
0.0
  0
VERTEX
  5
503
  8
TEXT
 10
9.488114909274744
 20
8.431256726915162
 30
0.0
  0
VERTEX
  5
504
  8
TEXT
 10
9.483918997946466
 20
8.423064301918675
 30
0.0
  0
VERTEX
  5
505
  8
TEXT
 10
9.480114077124963
 20
8.414648019172313
 30
0.0
  0
VERTEX
  5
506
  8
TEXT
 10
9.476712084864296
 20
8.406019816730144
 30
0.0
  0
VERTEX
  5
507
  8
TEXT
 10
9.473724959218533
 20
8.397191632646226
 30
0.0
  0
VERTEX
  5
508
  8
TEXT
 10
9.471164638241737
 20
8.388175404974632
 30
0.0
  0
VERTEX
  5
509
  8
TEXT
 10
9.469043059987971
 20
8.378983071769419
 30
0.0
  0
VERTEX
  5
50A
  8
TEXT
 10
9.4673721625113
 20
8.369626571084655
 30
0.0
  0
VERTEX
  5
50B
  8
TEXT
 10
9.46616388386579
 20
8.3601178409744
 30
0.0
  0
VERTEX
  5
50C
  8
TEXT
 10
9.465430162105502
 20
8.350468819492725
 30
0.0
  0
VERTEX
  5
50D
  8
TEXT
 10
9.465182935284504
 20
8.340691444693688
 30
0.0
  0
VERTEX
  5
50E
  8
TEXT
 10
9.465430162105502
 20
8.33091406989465
 30
0.0
  0
VERTEX
  5
50F
  8
TEXT
 10
9.46616388386579
 20
8.321265048412974
 30
0.0
  0
VERTEX
  5
510
  8
TEXT
 10
9.4673721625113
 20
8.31175631830272
 30
0.0
  0
VERTEX
  5
511
  8
TEXT
 10
9.469043059987971
 20
8.302399817617955
 30
0.0
  0
VERTEX
  5
512
  8
TEXT
 10
9.471164638241737
 20
8.29320748441274
 30
0.0
  0
VERTEX
  5
513
  8
TEXT
 10
9.473724959218533
 20
8.284191256741146
 30
0.0
  0
VERTEX
  5
514
  8
TEXT
 10
9.476712084864296
 20
8.275363072657228
 30
0.0
  0
VERTEX
  5
515
  8
TEXT
 10
9.480114077124963
 20
8.26673487021506
 30
0.0
  0
VERTEX
  5
516
  8
TEXT
 10
9.483918997946466
 20
8.2583185874687
 30
0.0
  0
VERTEX
  5
517
  8
TEXT
 10
9.488114909274744
 20
8.250126162472213
 30
0.0
  0
VERTEX
  5
518
  8
TEXT
 10
9.492689873055731
 20
8.242169533279665
 30
0.0
  0
VERTEX
  5
519
  8
TEXT
 10
9.497631951235364
 20
8.234460637945118
 30
0.0
  0
VERTEX
  5
51A
  8
TEXT
 10
9.502929205759578
 20
8.22701141452264
 30
0.0
  0
VERTEX
  5
51B
  8
TEXT
 10
9.50856969857431
 20
8.21983380106629
 30
0.0
  0
VERTEX
  5
51C
  8
TEXT
 10
9.514541491625492
 20
8.212939735630137
 30
0.0
  0
VERTEX
  5
51D
  8
TEXT
 10
9.520832646859061
 20
8.206341156268243
 30
0.0
  0
VERTEX
  5
51E
  8
TEXT
 10
9.527431226220955
 20
8.200050001034674
 30
0.0
  0
VERTEX
  5
51F
  8
TEXT
 10
9.534325291657108
 20
8.194078207983491
 30
0.0
  0
VERTEX
  5
520
  8
TEXT
 10
9.541502905113457
 20
8.18843771516876
 30
0.0
  0
VERTEX
  5
521
  8
TEXT
 10
9.548952128535936
 20
8.183140460644546
 30
0.0
  0
VERTEX
  5
522
  8
TEXT
 10
9.556661023870483
 20
8.178198382464913
 30
0.0
  0
VERTEX
  5
523
  8
TEXT
 10
9.564617653063031
 20
8.173623418683926
 30
0.0
  0
VERTEX
  5
524
  8
TEXT
 10
9.572810078059518
 20
8.169427507355648
 30
0.0
  0
VERTEX
  5
525
  8
TEXT
 10
9.581226360805879
 20
8.165622586534145
 30
0.0
  0
VERTEX
  5
526
  8
TEXT
 10
9.589854563248046
 20
8.162220594273478
 30
0.0
  0
VERTEX
  5
527
  8
TEXT
 10
9.598682747331964
 20
8.159233468627715
 30
0.0
  0
VERTEX
  5
528
  8
TEXT
 10
9.607698975003558
 20
8.156673147650919
 30
0.0
  0
VERTEX
  5
529
  8
TEXT
 10
9.616891308208771
 20
8.154551569397153
 30
0.0
  0
VERTEX
  5
52A
  8
TEXT
 10
9.626247808893535
 20
8.152880671920482
 30
0.0
  0
VERTEX
  5
52B
  8
TEXT
 10
9.63575653900379
 20
8.151672393274971
 30
0.0
  0
VERTEX
  5
52C
  8
TEXT
 10
9.645405560485468
 20
8.150938671514684
 30
0.0
  0
SEQEND
  5
B99
  8
TEXT
  0
POLYLINE
  5
97
  8
TEXT
 66
     1
 10
0.0
 20
0.0
 30
0.0
  0
VERTEX
  5
52D
  8
TEXT
 10
9.655182935284504
 20
8.150691444693686
 30
0.0
 42
0.4216306000241346
  0
VERTEX
  5
52E
  8
TEXT
 10
9.845182935284504
 20
8.345691444693687
 30
0.0
  0
VERTEX
  5
52F
  8
TEXT
 10
9.845182935284504
 20
8.530691444693687
 30
0.0
  0
VERTEX
  5
530
  8
TEXT
 10
9.845182935284504
 20
8.215691444693688
 30
0.0
 42
-0.7823487490295122
  0
VERTEX
  5
531
  8
TEXT
 10
9.490182935284505
 20
8.125691444693688
 30
0.0
  0
SEQEND
  5
B9A
  8
TEXT
  0
POLYLINE
  5
98
  8
TEXT
 66
     1
 10
0.0
 20
0.0
 30
0.0
  0
VERTEX
  5
532
  8
TEXT
 10
10.3651829352845
 20
8.155691444693687
 30
0.0
  0
VERTEX
  5
533
  8
TEXT
 10
10.3651829352845
 20
8.655691444693687
 30
0.0
  0
VERTEX
  5
534
  8
TEXT
 10
10.51518293528451
 20
8.655691444693687
 30
0.0
 42
-1.0
  0
VERTEX
  5
535
  8
TEXT
 10
10.51518293528451
 20
8.375691444693688
 30
0.0
  0
VERTEX
  5
536
  8
TEXT
 10
10.3651829352845
 20
8.375691444693688
 30
0.0
  0
SEQEND
  5
B9B
  8
TEXT
  0
POLYLINE
  5
99
  8
TEXT
 66
     1
 10
0.0
 20
0.0
 30
0.0
 70
     1
  0
VERTEX
  5
537
  8
TEXT
 10
10.7401829352845
 20
8.155691444693687
 30
0.0
  0
VERTEX
  5
538
  8
TEXT
 10
10.7401829352845
 20
8.655691444693687
 30
0.0
  0
SEQEND
  5
B9C
  8
TEXT
  0
POLYLINE
  5
9A
  8
TEXT
 66
     1
 10
0.0
 20
0.0
 30
0.0
 70
     1
  0
VERTEX
  5
539
  8
TEXT
 10
11.02951626861784
 20
8.150691444693686
 30
0.0
  0
VERTEX
  5
53A
  8
TEXT
 10
11.03929364341687
 20
8.150938671514684
 30
0.0
  0
VERTEX
  5
53B
  8
TEXT
 10
11.04894266489855
 20
8.151672393274971
 30
0.0
  0
VERTEX
  5
53C
  8
TEXT
 10
11.05845139500881
 20
8.152880671920482
 30
0.0
  0
VERTEX
  5
53D
  8
TEXT
 10
11.06780789569357
 20
8.154551569397153
 30
0.0
  0
VERTEX
  5
53E
  8
TEXT
 10
11.07700022889878
 20
8.156673147650919
 30
0.0
  0
VERTEX
  5
53F
  8
TEXT
 10
11.08601645657038
 20
8.159233468627715
 30
0.0
  0
VERTEX
  5
540
  8
TEXT
 10
11.09484464065429
 20
8.162220594273478
 30
0.0
  0
VERTEX
  5
541
  8
TEXT
 10
11.10347284309646
 20
8.165622586534145
 30
0.0
  0
VERTEX
  5
542
  8
TEXT
 10
11.11188912584282
 20
8.169427507355648
 30
0.0
  0
VERTEX
  5
543
  8
TEXT
 10
11.12008155083931
 20
8.173623418683926
 30
0.0
  0
VERTEX
  5
544
  8
TEXT
 10
11.12803818003186
 20
8.178198382464913
 30
0.0
  0
VERTEX
  5
545
  8
TEXT
 10
11.1357470753664
 20
8.183140460644546
 30
0.0
  0
VERTEX
  5
546
  8
TEXT
 10
11.14319629878888
 20
8.18843771516876
 30
0.0
  0
VERTEX
  5
547
  8
TEXT
 10
11.15037391224523
 20
8.194078207983491
 30
0.0
  0
VERTEX
  5
548
  8
TEXT
 10
11.15726797768139
 20
8.200050001034674
 30
0.0
  0
VERTEX
  5
549
  8
TEXT
 10
11.16386655704328
 20
8.206341156268243
 30
0.0
  0
VERTEX
  5
54A
  8
TEXT
 10
11.17015771227685
 20
8.212939735630137
 30
0.0
  0
VERTEX
  5
54B
  8
TEXT
 10
11.17612950532803
 20
8.21983380106629
 30
0.0
  0
VERTEX
  5
54C
  8
TEXT
 10
11.18176999814276
 20
8.22701141452264
 30
0.0
  0
VERTEX
  5
54D
  8
TEXT
 10
11.18706725266698
 20
8.234460637945118
 30
0.0
  0
VERTEX
  5
54E
  8
TEXT
 10
11.19200933084661
 20
8.242169533279665
 30
0.0
  0
VERTEX
  5
54F
  8
TEXT
 10
11.1965842946276
 20
8.250126162472213
 30
0.0
  0
VERTEX
  5
550
  8
TEXT
 10
11.20078020595587
 20
8.2583185874687
 30
0.0
  0
VERTEX
  5
551
  8
TEXT
 10
11.20458512677738
 20
8.26673487021506
 30
0.0
  0
VERTEX
  5
552
  8
TEXT
 10
11.20798711903804
 20
8.275363072657228
 30
0.0
  0
VERTEX
  5
553
  8
TEXT
 10
11.21097424468381
 20
8.284191256741146
 30
0.0
  0
VERTEX
  5
554
  8
TEXT
 10
11.2135345656606
 20
8.29320748441274
 30
0.0
  0
VERTEX
  5
555
  8
TEXT
 10
11.21565614391437
 20
8.302399817617955
 30
0.0
  0
VERTEX
  5
556
  8
TEXT
 10
11.21732704139104
 20
8.31175631830272
 30
0.0
  0
VERTEX
  5
557
  8
TEXT
 10
11.21853532003655
 20
8.321265048412974
 30
0.0
  0
VERTEX
  5
558
  8
TEXT
 10
11.21926904179684
 20
8.33091406989465
 30
0.0
  0
VERTEX
  5
559
  8
TEXT
 10
11.21951626861784
 20
8.340691444693688
 30
0.0
  0
VERTEX
  5
55A
  8
TEXT
 10
11.21926904179684
 20
8.350468819492725
 30
0.0
  0
VERTEX
  5
55B
  8
TEXT
 10
11.21853532003655
 20
8.3601178409744
 30
0.0
  0
VERTEX
  5
55C
  8
TEXT
 10
11.21732704139104
 20
8.369626571084655
 30
0.0
  0
VERTEX
  5
55D
  8
TEXT
 10
11.21565614391437
 20
8.378983071769419
 30
0.0
  0
VERTEX
  5
55E
  8
TEXT
 10
11.2135345656606
 20
8.388175404974632
 30
0.0
  0
VERTEX
  5
55F
  8
TEXT
 10
11.21097424468381
 20
8.397191632646226
 30
0.0
  0
VERTEX
  5
560
  8
TEXT
 10
11.20798711903804
 20
8.406019816730144
 30
0.0
  0
VERTEX
  5
561
  8
TEXT
 10
11.20458512677738
 20
8.414648019172313
 30
0.0
  0
VERTEX
  5
562
  8
TEXT
 10
11.20078020595587
 20
8.423064301918675
 30
0.0
  0
VERTEX
  5
563
  8
TEXT
 10
11.1965842946276
 20
8.431256726915162
 30
0.0
  0
VERTEX
  5
564
  8
TEXT
 10
11.19200933084661
 20
8.439213356107711
 30
0.0
  0
VERTEX
  5
565
  8
TEXT
 10
11.18706725266698
 20
8.446922251442258
 30
0.0
  0
VERTEX
  5
566
  8
TEXT
 10
11.18176999814276
 20
8.454371474864736
 30
0.0
  0
VERTEX
  5
567
  8
TEXT
 10
11.17612950532803
 20
8.461549088321085
 30
0.0
  0
VERTEX
  5
568
  8
TEXT
 10
11.17015771227685
 20
8.468443153757239
 30
0.0
  0
VERTEX
  5
569
  8
TEXT
 10
11.16386655704328
 20
8.475041733119133
 30
0.0
  0
VERTEX
  5
56A
  8
TEXT
 10
11.15726797768139
 20
8.481332888352702
 30
0.0
  0
VERTEX
  5
56B
  8
TEXT
 10
11.15037391224523
 20
8.487304681403884
 30
0.0
  0
VERTEX
  5
56C
  8
TEXT
 10
11.14319629878888
 20
8.492945174218615
 30
0.0
  0
VERTEX
  5
56D
  8
TEXT
 10
11.1357470753664
 20
8.498242428742829
 30
0.0
  0
VERTEX
  5
56E
  8
TEXT
 10
11.12803818003186
 20
8.503184506922462
 30
0.0
  0
VERTEX
  5
56F
  8
TEXT
 10
11.12008155083931
 20
8.507759470703448
 30
0.0
  0
VERTEX
  5
570
  8
TEXT
 10
11.11188912584282
 20
8.511955382031726
 30
0.0
  0
VERTEX
  5
571
  8
TEXT
 10
11.10347284309646
 20
8.515760302853229
 30
0.0
  0
VERTEX
  5
572
  8
TEXT
 10
11.09484464065429
 20
8.519162295113896
 30
0.0
  0
VERTEX
  5
573
  8
TEXT
 10
11.08601645657038
 20
8.522149420759657
 30
0.0
  0
VERTEX
  5
574
  8
TEXT
 10
11.07700022889878
 20
8.524709741736455
 30
0.0
  0
VERTEX
  5
575
  8
TEXT
 10
11.06780789569357
 20
8.52683131999022
 30
0.0
  0
VERTEX
  5
576
  8
TEXT
 10
11.05845139500881
 20
8.52850221746689
 30
0.0
  0
VERTEX
  5
577
  8
TEXT
 10
11.04894266489855
 20
8.5297104961124
 30
0.0
  0
VERTEX
  5
578
  8
TEXT
 10
11.03929364341687
 20
8.530444217872688
 30
0.0
  0
VERTEX
  5
579
  8
TEXT
 10
11.02951626861784
 20
8.530691444693687
 30
0.0
  0
VERTEX
  5
57A
  8
TEXT
 10
11.0197388938188
 20
8.530444217872688
 30
0.0
  0
VERTEX
  5
57B
  8
TEXT
 10
11.01008987233712
 20
8.5297104961124
 30
0.0
  0
VERTEX
  5
57C
  8
TEXT
 10
11.00058114222687
 20
8.52850221746689
 30
0.0
  0
VERTEX
  5
57D
  8
TEXT
 10
10.9912246415421
 20
8.52683131999022
 30
0.0
  0
VERTEX
  5
57E
  8
TEXT
 10
10.98203230833689
 20
8.524709741736455
 30
0.0
  0
VERTEX
  5
57F
  8
TEXT
 10
10.9730160806653
 20
8.522149420759657
 30
0.0
  0
VERTEX
  5
580
  8
TEXT
 10
10.96418789658138
 20
8.519162295113896
 30
0.0
  0
VERTEX
  5
581
  8
TEXT
 10
10.95555969413921
 20
8.515760302853229
 30
0.0
  0
VERTEX
  5
582
  8
TEXT
 10
10.94714341139285
 20
8.511955382031726
 30
0.0
  0
VERTEX
  5
583
  8
TEXT
 10
10.93895098639636
 20
8.507759470703448
 30
0.0
  0
VERTEX
  5
584
  8
TEXT
 10
10.93099435720382
 20
8.503184506922462
 30
0.0
  0
VERTEX
  5
585
  8
TEXT
 10
10.92328546186927
 20
8.498242428742829
 30
0.0
  0
VERTEX
  5
586
  8
TEXT
 10
10.91583623844679
 20
8.492945174218615
 30
0.0
  0
VERTEX
  5
587
  8
TEXT
 10
10.90865862499044
 20
8.487304681403884
 30
0.0
  0
VERTEX
  5
588
  8
TEXT
 10
10.90176455955429
 20
8.481332888352702
 30
0.0
  0
VERTEX
  5
589
  8
TEXT
 10
10.89516598019239
 20
8.475041733119133
 30
0.0
  0
VERTEX
  5
58A
  8
TEXT
 10
10.88887482495882
 20
8.468443153757239
 30
0.0
  0
VERTEX
  5
58B
  8
TEXT
 10
10.88290303190764
 20
8.461549088321085
 30
0.0
  0
VERTEX
  5
58C
  8
TEXT
 10
10.87726253909291
 20
8.454371474864736
 30
0.0
  0
VERTEX
  5
58D
  8
TEXT
 10
10.8719652845687
 20
8.446922251442258
 30
0.0
  0
VERTEX
  5
58E
  8
TEXT
 10
10.86702320638906
 20
8.439213356107711
 30
0.0
  0
VERTEX
  5
58F
  8
TEXT
 10
10.86244824260808
 20
8.431256726915162
 30
0.0
  0
VERTEX
  5
590
  8
TEXT
 10
10.8582523312798
 20
8.423064301918675
 30
0.0
  0
VERTEX
  5
591
  8
TEXT
 10
10.8544474104583
 20
8.414648019172313
 30
0.0
  0
VERTEX
  5
592
  8
TEXT
 10
10.85104541819763
 20
8.406019816730144
 30
0.0
  0
VERTEX
  5
593
  8
TEXT
 10
10.84805829255187
 20
8.397191632646226
 30
0.0
  0
VERTEX
  5
594
  8
TEXT
 10
10.84549797157507
 20
8.388175404974632
 30
0.0
  0
VERTEX
  5
595
  8
TEXT
 10
10.8433763933213
 20
8.378983071769419
 30
0.0
  0
VERTEX
  5
596
  8
TEXT
 10
10.84170549584463
 20
8.369626571084655
 30
0.0
  0
VERTEX
  5
597
  8
TEXT
 10
10.84049721719912
 20
8.3601178409744
 30
0.0
  0
VERTEX
  5
598
  8
TEXT
 10
10.83976349543883
 20
8.350468819492725
 30
0.0
  0
VERTEX
  5
599
  8
TEXT
 10
10.83951626861784
 20
8.340691444693688
 30
0.0
  0
VERTEX
  5
59A
  8
TEXT
 10
10.83976349543883
 20
8.33091406989465
 30
0.0
  0
VERTEX
  5
59B
  8
TEXT
 10
10.84049721719912
 20
8.321265048412974
 30
0.0
  0
VERTEX
  5
59C
  8
TEXT
 10
10.84170549584463
 20
8.31175631830272
 30
0.0
  0
VERTEX
  5
59D
  8
TEXT
 10
10.8433763933213
 20
8.302399817617955
 30
0.0
  0
VERTEX
  5
59E
  8
TEXT
 10
10.84549797157507
 20
8.29320748441274
 30
0.0
  0
VERTEX
  5
59F
  8
TEXT
 10
10.84805829255187
 20
8.284191256741146
 30
0.0
  0
VERTEX
  5
5A0
  8
TEXT
 10
10.85104541819763
 20
8.275363072657228
 30
0.0
  0
VERTEX
  5
5A1
  8
TEXT
 10
10.8544474104583
 20
8.26673487021506
 30
0.0
  0
VERTEX
  5
5A2
  8
TEXT
 10
10.8582523312798
 20
8.2583185874687
 30
0.0
  0
VERTEX
  5
5A3
  8
TEXT
 10
10.86244824260808
 20
8.250126162472213
 30
0.0
  0
VERTEX
  5
5A4
  8
TEXT
 10
10.86702320638906
 20
8.242169533279665
 30
0.0
  0
VERTEX
  5
5A5
  8
TEXT
 10
10.8719652845687
 20
8.234460637945118
 30
0.0
  0
VERTEX
  5
5A6
  8
TEXT
 10
10.87726253909291
 20
8.22701141452264
 30
0.0
  0
VERTEX
  5
5A7
  8
TEXT
 10
10.88290303190764
 20
8.21983380106629
 30
0.0
  0
VERTEX
  5
5A8
  8
TEXT
 10
10.88887482495882
 20
8.212939735630137
 30
0.0
  0
VERTEX
  5
5A9
  8
TEXT
 10
10.89516598019239
 20
8.206341156268243
 30
0.0
  0
VERTEX
  5
5AA
  8
TEXT
 10
10.90176455955429
 20
8.200050001034674
 30
0.0
  0
VERTEX
  5
5AB
  8
TEXT
 10
10.90865862499044
 20
8.194078207983491
 30
0.0
  0
VERTEX
  5
5AC
  8
TEXT
 10
10.91583623844679
 20
8.18843771516876
 30
0.0
  0
VERTEX
  5
5AD
  8
TEXT
 10
10.92328546186927
 20
8.183140460644546
 30
0.0
  0
VERTEX
  5
5AE
  8
TEXT
 10
10.93099435720382
 20
8.178198382464913
 30
0.0
  0
VERTEX
  5
5AF
  8
TEXT
 10
10.93895098639636
 20
8.173623418683926
 30
0.0
  0
VERTEX
  5
5B0
  8
TEXT
 10
10.94714341139285
 20
8.169427507355648
 30
0.0
  0
VERTEX
  5
5B1
  8
TEXT
 10
10.95555969413921
 20
8.165622586534145
 30
0.0
  0
VERTEX
  5
5B2
  8
TEXT
 10
10.96418789658138
 20
8.162220594273478
 30
0.0
  0
VERTEX
  5
5B3
  8
TEXT
 10
10.9730160806653
 20
8.159233468627715
 30
0.0
  0
VERTEX
  5
5B4
  8
TEXT
 10
10.98203230833689
 20
8.156673147650919
 30
0.0
  0
VERTEX
  5
5B5
  8
TEXT
 10
10.9912246415421
 20
8.154551569397153
 30
0.0
  0
VERTEX
  5
5B6
  8
TEXT
 10
11.00058114222687
 20
8.152880671920482
 30
0.0
  0
VERTEX
  5
5B7
  8
TEXT
 10
11.01008987233712
 20
8.151672393274971
 30
0.0
  0
VERTEX
  5
5B8
  8
TEXT
 10
11.0197388938188
 20
8.150938671514684
 30
0.0
  0
SEQEND
  5
B9D
  8
TEXT
  0
POLYLINE
  5
9B
  8
TEXT
 66
     1
 10
0.0
 20
0.0
 30
0.0
  0
VERTEX
  5
5B9
  8
TEXT
 10
11.02951626861784
 20
8.150691444693686
 30
0.0
 42
0.4216306000241345
  0
VERTEX
  5
5BA
  8
TEXT
 10
11.21951626861784
 20
8.345691444693687
 30
0.0
  0
VERTEX
  5
5BB
  8
TEXT
 10
11.21951626861784
 20
8.530691444693687
 30
0.0
  0
VERTEX
  5
5BC
  8
TEXT
 10
11.21951626861784
 20
8.155691444693687
 30
0.0
  0
SEQEND
  5
B9E
  8
TEXT
  0
POLYLINE
  5
9C
  8
TEXT
 66
     1
 10
0.0
 20
0.0
 30
0.0
  0
VERTEX
  5
5BD
  8
TEXT
 10
11.41951626861784
 20
8.155691444693687
 30
0.0
  0
VERTEX
  5
5BE
  8
TEXT
 10
11.41951626861784
 20
8.505691444693687
 30
0.0
  0
VERTEX
  5
5BF
  8
TEXT
 10
11.31951626861784
 20
8.505691444693687
 30
0.0
  0
VERTEX
  5
5C0
  8
TEXT
 10
11.51951626861784
 20
8.505691444693687
 30
0.0
  0
VERTEX
  5
5C1
  8
TEXT
 10
11.41951626861784
 20
8.505691444693687
 30
0.0
  0
VERTEX
  5
5C2
  8
TEXT
 10
11.41951626861784
 20
8.655691444693687
 30
0.0
  0
SEQEND
  5
B9F
  8
TEXT
  0
POLYLINE
  5
9D
  8
TEXT
 66
     1
 10
0.0
 20
0.0
 30
0.0
  0
VERTEX
  5
5C3
  8
TEXT
 10
11.62951626861784
 20
8.340691444693688
 30
0.0
  0
VERTEX
  5
5C4
  8
TEXT
 10
11.99951626861784
 20
8.340691444693688
 30
0.0
 42
0.9023199709436645
  0
VERTEX
  5
5C5
  8
TEXT
 10
11.6251829352845
 20
8.387358111360355
 30
0.0
 42
0.8623467340067498
  0
VERTEX
  5
5C6
  8
TEXT
 10
11.97451626861784
 20
8.250691444693688
 30
0.0
  0
SEQEND
  5
BA0
  8
TEXT
  0
POLYLINE
  5
9E
  8
TEXT
 66
     1
 10
0.0
 20
0.0
 30
0.0
  0
VERTEX
  5
5C7
  8
TEXT
 10
19.21965882193239
 20
6.512461994253833
 30
0.0
  0
VERTEX
  5
5C8
  8
TEXT
 10
19.21965882193239
 20
7.012461994253833
 30
0.0
  0
VERTEX
  5
5C9
  8
TEXT
 10
19.45965882193239
 20
7.012461994253833
 30
0.0
  0
VERTEX
  5
5CA
  8
TEXT
 10
19.21965882193239
 20
7.012461994253833
 30
0.0
  0
VERTEX
  5
5CB
  8
TEXT
 10
19.21965882193239
 20
6.767461994253833
 30
0.0
  0
VERTEX
  5
5CC
  8
TEXT
 10
19.45965882193239
 20
6.767461994253833
 30
0.0
  0
SEQEND
  5
BA1
  8
TEXT
  0
POLYLINE
  5
9F
  8
TEXT
 66
     1
 10
0.0
 20
0.0
 30
0.0
  0
VERTEX
  5
5CD
  8
TEXT
 10
19.55965882193239
 20
6.512461994253833
 30
0.0
  0
VERTEX
  5
5CE
  8
TEXT
 10
19.55965882193239
 20
6.882461994253833
 30
0.0
  0
SEQEND
  5
BA2
  8
TEXT
  0
POLYLINE
  5
A0
  8
TEXT
 66
     1
 10
0.0
 20
0.0
 30
0.0
  0
VERTEX
  5
5CF
  8
TEXT
 10
19.55965882193239
 20
6.952461994253833
 30
0.0
  0
VERTEX
  5
5D0
  8
TEXT
 10
19.55965882193239
 20
7.012461994253833
 30
0.0
  0
SEQEND
  5
BA3
  8
TEXT
  0
POLYLINE
  5
A1
  8
TEXT
 66
     1
 10
0.0
 20
0.0
 30
0.0
  0
VERTEX
  5
5D1
  8
TEXT
 10
19.65965882193239
 20
6.512461994253833
 30
0.0
  0
VERTEX
  5
5D2
  8
TEXT
 10
19.65965882193239
 20
6.882461994253833
 30
0.0
  0
VERTEX
  5
5D3
  8
TEXT
 10
19.65965882193239
 20
6.742461994253834
 30
0.0
 42
-0.4160919540229884
  0
VERTEX
  5
5D4
  8
TEXT
 10
19.80465882193239
 20
6.887461994253833
 30
0.0
  0
SEQEND
  5
BA4
  8
TEXT
  0
POLYLINE
  5
A2
  8
TEXT
 66
     1
 10
0.0
 20
0.0
 30
0.0
  0
VERTEX
  5
5D5
  8
TEXT
 10
19.90465882193239
 20
6.627461994253833
 30
0.0
  0
VERTEX
  5
5D6
  8
TEXT
 10
19.90465882193239
 20
6.617461994253834
 30
0.0
 42
1.0
  0
VERTEX
  5
5D7
  8
TEXT
 10
20.12465882193239
 20
6.617461994253834
 30
0.0
 42
0.3291043339277775
  0
VERTEX
  5
5D8
  8
TEXT
 10
20.06965882193239
 20
6.692461994253833
 30
0.0
  0
SEQEND
  5
BA5
  8
TEXT
  0
POLYLINE
  5
A3
  8
TEXT
 66
     1
 10
0.0
 20
0.0
 30
0.0
  0
VERTEX
  5
5D9
  8
TEXT
 10
20.06465882193239
 20
6.692461994253833
 30
0.0
  0
VERTEX
  5
5DA
  8
TEXT
 10
20.04465882193239
 20
6.702461994253833
 30
0.0
  0
VERTEX
  5
5DB
  8
TEXT
 10
20.02965882193239
 20
6.707461994253833
 30
0.0
  0
VERTEX
  5
5DC
  8
TEXT
 10
20.00465882193238
 20
6.717461994253833
 30
0.0
  0
VERTEX
  5
5DD
  8
TEXT
 10
19.98965882193239
 20
6.722461994253833
 30
0.0
  0
VERTEX
  5
5DE
  8
TEXT
 10
19.98465882193238
 20
6.722461994253833
 30
0.0
 42
-0.313297509120091
  0
VERTEX
  5
5DF
  8
TEXT
 10
19.92965882193239
 20
6.797461994253833
 30
0.0
 42
-1.0
  0
VERTEX
  5
5E0
  8
TEXT
 10
20.10965882193238
 20
6.797461994253833
 30
0.0
  0
SEQEND
  5
BA6
  8
TEXT
  0
POLYLINE
  5
A4
  8
TEXT
 66
     1
 10
0.0
 20
0.0
 30
0.0
  0
VERTEX
  5
5E1
  8
TEXT
 10
20.32465882193239
 20
6.512461994253833
 30
0.0
  0
VERTEX
  5
5E2
  8
TEXT
 10
20.32465882193239
 20
6.862461994253833
 30
0.0
  0
VERTEX
  5
5E3
  8
TEXT
 10
20.22465882193239
 20
6.862461994253833
 30
0.0
  0
VERTEX
  5
5E4
  8
TEXT
 10
20.42465882193239
 20
6.862461994253833
 30
0.0
  0
VERTEX
  5
5E5
  8
TEXT
 10
20.32465882193239
 20
6.862461994253833
 30
0.0
  0
VERTEX
  5
5E6
  8
TEXT
 10
20.32465882193239
 20
7.012461994253833
 30
0.0
  0
SEQEND
  5
BA7
  8
TEXT
  0
POLYLINE
  5
A5
  8
TEXT
 66
     1
 10
0.0
 20
0.0
 30
0.0
 70
     1
  0
VERTEX
  5
5E7
  8
TEXT
 10
20.94465882193239
 20
6.512461994253833
 30
0.0
  0
VERTEX
  5
5E8
  8
TEXT
 10
20.94465882193239
 20
7.012461994253833
 30
0.0
  0
VERTEX
  5
5E9
  8
TEXT
 10
21.07465882193239
 20
7.012461994253833
 30
0.0
 42
-1.0
  0
VERTEX
  5
5EA
  8
TEXT
 10
21.07465882193239
 20
6.772461994253833
 30
0.0
  0
VERTEX
  5
5EB
  8
TEXT
 10
20.94465882193239
 20
6.772461994253833
 30
0.0
  0
VERTEX
  5
5EC
  8
TEXT
 10
21.07465882193239
 20
6.772461994253833
 30
0.0
  0
VERTEX
  5
5ED
  8
TEXT
 10
21.08234349545865
 20
6.772292839060518
 30
0.0
  0
VERTEX
  5
5EE
  8
TEXT
 10
21.08992728778109
 20
6.771790818908743
 30
0.0
  0
VERTEX
  5
5EF
  8
TEXT
 10
21.09740081600809
 20
6.770964101940761
 30
0.0
  0
VERTEX
  5
5F0
  8
TEXT
 10
21.10475469724805
 20
6.769820856298828
 30
0.0
  0
VERTEX
  5
5F1
  8
TEXT
 10
21.11197954860934
 20
6.7683692501252
 30
0.0
  0
VERTEX
  5
5F2
  8
TEXT
 10
21.11906598720035
 20
6.766617451562128
 30
0.0
  0
VERTEX
  5
5F3
  8
TEXT
 10
21.12600463012947
 20
6.764573628751869
 30
0.0
  0
VERTEX
  5
5F4
  8
TEXT
 10
21.13278609450506
 20
6.762245949836677
 30
0.0
  0
VERTEX
  5
5F5
  8
TEXT
 10
21.13940099743554
 20
6.759642582958806
 30
0.0
  0
VERTEX
  5
5F6
  8
TEXT
 10
21.14583995602927
 20
6.756771696260511
 30
0.0
  0
VERTEX
  5
5F7
  8
TEXT
 10
21.15209358739464
 20
6.753641457884045
 30
0.0
  0
VERTEX
  5
5F8
  8
TEXT
 10
21.15815250864004
 20
6.750260035971666
 30
0.0
  0
VERTEX
  5
5F9
  8
TEXT
 10
21.16400733687384
 20
6.746635598665625
 30
0.0
  0
VERTEX
  5
5FA
  8
TEXT
 10
21.16964868920445
 20
6.742776314108178
 30
0.0
  0
VERTEX
  5
5FB
  8
TEXT
 10
21.17506718274024
 20
6.73869035044158
 30
0.0
  0
VERTEX
  5
5FC
  8
TEXT
 10
21.18025343458958
 20
6.734385875808084
 30
0.0
  0
VERTEX
  5
5FD
  8
TEXT
 10
21.18519806186088
 20
6.729871058349946
 30
0.0
  0
VERTEX
  5
5FE
  8
TEXT
 10
21.18989168166251
 20
6.72515406620942
 30
0.0
  0
VERTEX
  5
5FF
  8
TEXT
 10
21.19432491110286
 20
6.72024306752876
 30
0.0
  0
VERTEX
  5
600
  8
TEXT
 10
21.19848836729031
 20
6.715146230450221
 30
0.0
  0
VERTEX
  5
601
  8
TEXT
 10
21.20237266733325
 20
6.709871723116057
 30
0.0
  0
VERTEX
  5
602
  8
TEXT
 10
21.20596842834006
 20
6.704427713668524
 30
0.0
  0
VERTEX
  5
603
  8
TEXT
 10
21.20926626741913
 20
6.698822370249875
 30
0.0
  0
VERTEX
  5
604
  8
TEXT
 10
21.21225680167884
 20
6.693063861002366
 30
0.0
  0
VERTEX
  5
605
  8
TEXT
 10
21.21493064822757
 20
6.687160354068249
 30
0.0
  0
VERTEX
  5
606
  8
TEXT
 10
21.21727842417371
 20
6.681120017589781
 30
0.0
  0
VERTEX
  5
607
  8
TEXT
 10
21.21929074662565
 20
6.674951019709216
 30
0.0
  0
VERTEX
  5
608
  8
TEXT
 10
21.22095823269177
 20
6.668661528568807
 30
0.0
  0
VERTEX
  5
609
  8
TEXT
 10
21.22227149948045
 20
6.66225971231081
 30
0.0
  0
VERTEX
  5
60A
  8
TEXT
 10
21.22322116410008
 20
6.655753739077478
 30
0.0
  0
VERTEX
  5
60B
  8
TEXT
 10
21.22379784365905
 20
6.649151777011069
 30
0.0
  0
VERTEX
  5
60C
  8
TEXT
 10
21.22399215526572
 20
6.642461994253833
 30
0.0
  0
VERTEX
  5
60D
  8
TEXT
 10
21.22379784365905
 20
6.635772211496597
 30
0.0
  0
VERTEX
  5
60E
  8
TEXT
 10
21.22322116410008
 20
6.629170249430188
 30
0.0
  0
VERTEX
  5
60F
  8
TEXT
 10
21.22227149948045
 20
6.622664276196856
 30
0.0
  0
VERTEX
  5
610
  8
TEXT
 10
21.22095823269177
 20
6.616262459938859
 30
0.0
  0
VERTEX
  5
611
  8
TEXT
 10
21.21929074662565
 20
6.60997296879845
 30
0.0
  0
VERTEX
  5
612
  8
TEXT
 10
21.21727842417371
 20
6.603803970917885
 30
0.0
  0
VERTEX
  5
613
  8
TEXT
 10
21.21493064822757
 20
6.597763634439417
 30
0.0
  0
VERTEX
  5
614
  8
TEXT
 10
21.21225680167884
 20
6.5918601275053
 30
0.0
  0
VERTEX
  5
615
  8
TEXT
 10
21.20926626741913
 20
6.586101618257791
 30
0.0
  0
VERTEX
  5
616
  8
TEXT
 10
21.20596842834006
 20
6.580496274839142
 30
0.0
  0
VERTEX
  5
617
  8
TEXT
 10
21.20237266733325
 20
6.575052265391609
 30
0.0
  0
VERTEX
  5
618
  8
TEXT
 10
21.19848836729031
 20
6.569777758057445
 30
0.0
  0
VERTEX
  5
619
  8
TEXT
 10
21.19432491110286
 20
6.564680920978906
 30
0.0
  0
VERTEX
  5
61A
  8
TEXT
 10
21.18989168166251
 20
6.559769922298246
 30
0.0
  0
VERTEX
  5
61B
  8
TEXT
 10
21.18519806186088
 20
6.55505293015772
 30
0.0
  0
VERTEX
  5
61C
  8
TEXT
 10
21.18025343458958
 20
6.550538112699582
 30
0.0
  0
VERTEX
  5
61D
  8
TEXT
 10
21.17506718274024
 20
6.546233638066086
 30
0.0
  0
VERTEX
  5
61E
  8
TEXT
 10
21.16964868920445
 20
6.542147674399488
 30
0.0
  0
VERTEX
  5
61F
  8
TEXT
 10
21.16400733687384
 20
6.538288389842041
 30
0.0
  0
VERTEX
  5
620
  8
TEXT
 10
21.15815250864004
 20
6.534663952536
 30
0.0
  0
VERTEX
  5
621
  8
TEXT
 10
21.15209358739464
 20
6.531282530623621
 30
0.0
  0
VERTEX
  5
622
  8
TEXT
 10
21.14583995602927
 20
6.528152292247155
 30
0.0
  0
VERTEX
  5
623
  8
TEXT
 10
21.13940099743554
 20
6.52528140554886
 30
0.0
  0
VERTEX
  5
624
  8
TEXT
 10
21.13278609450506
 20
6.522678038670989
 30
0.0
  0
VERTEX
  5
625
  8
TEXT
 10
21.12600463012947
 20
6.520350359755797
 30
0.0
  0
VERTEX
  5
626
  8
TEXT
 10
21.11906598720035
 20
6.518306536945538
 30
0.0
  0
VERTEX
  5
627
  8
TEXT
 10
21.11197954860934
 20
6.516554738382466
 30
0.0
  0
VERTEX
  5
628
  8
TEXT
 10
21.10475469724805
 20
6.515103132208838
 30
0.0
  0
VERTEX
  5
629
  8
TEXT
 10
21.09740081600809
 20
6.513959886566905
 30
0.0
  0
VERTEX
  5
62A
  8
TEXT
 10
21.08992728778109
 20
6.513133169598923
 30
0.0
  0
VERTEX
  5
62B
  8
TEXT
 10
21.08234349545865
 20
6.512631149447148
 30
0.0
  0
VERTEX
  5
62C
  8
TEXT
 10
21.07465882193239
 20
6.512461994253833
 30
0.0
  0
SEQEND
  5
BA8
  8
TEXT
  0
POLYLINE
  5
A6
  8
TEXT
 66
     1
 10
0.0
 20
0.0
 30
0.0
 70
     1
  0
VERTEX
  5
62D
  8
TEXT
 10
21.51332548859905
 20
6.507461994253833
 30
0.0
  0
VERTEX
  5
62E
  8
TEXT
 10
21.52310286339809
 20
6.507709221074832
 30
0.0
  0
VERTEX
  5
62F
  8
TEXT
 10
21.53275188487977
 20
6.508442942835119
 30
0.0
  0
VERTEX
  5
630
  8
TEXT
 10
21.54226061499002
 20
6.509651221480629
 30
0.0
  0
VERTEX
  5
631
  8
TEXT
 10
21.55161711567479
 20
6.511322118957301
 30
0.0
  0
VERTEX
  5
632
  8
TEXT
 10
21.56080944888
 20
6.513443697211065
 30
0.0
  0
VERTEX
  5
633
  8
TEXT
 10
21.56982567655159
 20
6.516004018187862
 30
0.0
  0
VERTEX
  5
634
  8
TEXT
 10
21.57865386063551
 20
6.518991143833626
 30
0.0
  0
VERTEX
  5
635
  8
TEXT
 10
21.58728206307768
 20
6.522393136094291
 30
0.0
  0
VERTEX
  5
636
  8
TEXT
 10
21.59569834582404
 20
6.526198056915796
 30
0.0
  0
VERTEX
  5
637
  8
TEXT
 10
21.60389077082053
 20
6.530393968244073
 30
0.0
  0
VERTEX
  5
638
  8
TEXT
 10
21.61184740001308
 20
6.534968932025061
 30
0.0
  0
VERTEX
  5
639
  8
TEXT
 10
21.61955629534763
 20
6.539911010204692
 30
0.0
  0
VERTEX
  5
63A
  8
TEXT
 10
21.62700551877011
 20
6.545208264728906
 30
0.0
  0
VERTEX
  5
63B
  8
TEXT
 10
21.63418313222646
 20
6.550848757543636
 30
0.0
  0
VERTEX
  5
63C
  8
TEXT
 10
21.64107719766261
 20
6.556820550594818
 30
0.0
  0
VERTEX
  5
63D
  8
TEXT
 10
21.6476757770245
 20
6.563111705828389
 30
0.0
  0
VERTEX
  5
63E
  8
TEXT
 10
21.65396693225807
 20
6.569710285190283
 30
0.0
  0
VERTEX
  5
63F
  8
TEXT
 10
21.65993872530925
 20
6.576604350626436
 30
0.0
  0
VERTEX
  5
640
  8
TEXT
 10
21.66557921812398
 20
6.583781964082785
 30
0.0
  0
VERTEX
  5
641
  8
TEXT
 10
21.6708764726482
 20
6.591231187505265
 30
0.0
  0
VERTEX
  5
642
  8
TEXT
 10
21.67581855082783
 20
6.59894008283981
 30
0.0
  0
VERTEX
  5
643
  8
TEXT
 10
21.68039351460882
 20
6.606896712032359
 30
0.0
  0
VERTEX
  5
644
  8
TEXT
 10
21.6845894259371
 20
6.615089137028846
 30
0.0
  0
VERTEX
  5
645
  8
TEXT
 10
21.6883943467586
 20
6.623505419775207
 30
0.0
  0
VERTEX
  5
646
  8
TEXT
 10
21.69179633901926
 20
6.632133622217378
 30
0.0
  0
VERTEX
  5
647
  8
TEXT
 10
21.69478346466503
 20
6.640961806301293
 30
0.0
  0
VERTEX
  5
648
  8
TEXT
 10
21.69734378564183
 20
6.649978033972889
 30
0.0
  0
VERTEX
  5
649
  8
TEXT
 10
21.69946536389559
 20
6.659170367178102
 30
0.0
  0
VERTEX
  5
64A
  8
TEXT
 10
21.70113626137226
 20
6.668526867862867
 30
0.0
  0
VERTEX
  5
64B
  8
TEXT
 10
21.70234454001777
 20
6.678035597973119
 30
0.0
  0
VERTEX
  5
64C
  8
TEXT
 10
21.70307826177806
 20
6.687684619454797
 30
0.0
  0
VERTEX
  5
64D
  8
TEXT
 10
21.70332548859906
 20
6.697461994253833
 30
0.0
  0
VERTEX
  5
64E
  8
TEXT
 10
21.70307826177806
 20
6.707239369052869
 30
0.0
  0
VERTEX
  5
64F
  8
TEXT
 10
21.70234454001777
 20
6.716888390534546
 30
0.0
  0
VERTEX
  5
650
  8
TEXT
 10
21.70113626137226
 20
6.726397120644799
 30
0.0
  0
VERTEX
  5
651
  8
TEXT
 10
21.69946536389559
 20
6.735753621329564
 30
0.0
  0
VERTEX
  5
652
  8
TEXT
 10
21.69734378564183
 20
6.744945954534776
 30
0.0
  0
VERTEX
  5
653
  8
TEXT
 10
21.69478346466503
 20
6.753962182206372
 30
0.0
  0
VERTEX
  5
654
  8
TEXT
 10
21.69179633901926
 20
6.762790366290288
 30
0.0
  0
VERTEX
  5
655
  8
TEXT
 10
21.6883943467586
 20
6.771418568732458
 30
0.0
  0
VERTEX
  5
656
  8
TEXT
 10
21.6845894259371
 20
6.779834851478819
 30
0.0
  0
VERTEX
  5
657
  8
TEXT
 10
21.68039351460882
 20
6.788027276475306
 30
0.0
  0
VERTEX
  5
658
  8
TEXT
 10
21.67581855082783
 20
6.795983905667855
 30
0.0
  0
VERTEX
  5
659
  8
TEXT
 10
21.6708764726482
 20
6.803692801002401
 30
0.0
  0
VERTEX
  5
65A
  8
TEXT
 10
21.66557921812398
 20
6.811142024424881
 30
0.0
  0
VERTEX
  5
65B
  8
TEXT
 10
21.65993872530925
 20
6.81831963788123
 30
0.0
  0
VERTEX
  5
65C
  8
TEXT
 10
21.65396693225807
 20
6.825213703317385
 30
0.0
  0
VERTEX
  5
65D
  8
TEXT
 10
21.6476757770245
 20
6.831812282679278
 30
0.0
  0
VERTEX
  5
65E
  8
TEXT
 10
21.64107719766261
 20
6.838103437912848
 30
0.0
  0
VERTEX
  5
65F
  8
TEXT
 10
21.63418313222646
 20
6.84407523096403
 30
0.0
  0
VERTEX
  5
660
  8
TEXT
 10
21.62700551877011
 20
6.849715723778761
 30
0.0
  0
VERTEX
  5
661
  8
TEXT
 10
21.61955629534763
 20
6.855012978302973
 30
0.0
  0
VERTEX
  5
662
  8
TEXT
 10
21.61184740001308
 20
6.859955056482606
 30
0.0
  0
VERTEX
  5
663
  8
TEXT
 10
21.60389077082053
 20
6.864530020263594
 30
0.0
  0
VERTEX
  5
664
  8
TEXT
 10
21.59569834582404
 20
6.86872593159187
 30
0.0
  0
VERTEX
  5
665
  8
TEXT
 10
21.58728206307768
 20
6.872530852413375
 30
0.0
  0
VERTEX
  5
666
  8
TEXT
 10
21.57865386063551
 20
6.87593284467404
 30
0.0
  0
VERTEX
  5
667
  8
TEXT
 10
21.56982567655159
 20
6.878919970319804
 30
0.0
  0
VERTEX
  5
668
  8
TEXT
 10
21.56080944888
 20
6.881480291296601
 30
0.0
  0
VERTEX
  5
669
  8
TEXT
 10
21.55161711567479
 20
6.883601869550366
 30
0.0
  0
VERTEX
  5
66A
  8
TEXT
 10
21.54226061499002
 20
6.885272767027036
 30
0.0
  0
VERTEX
  5
66B
  8
TEXT
 10
21.53275188487977
 20
6.886481045672547
 30
0.0
  0
VERTEX
  5
66C
  8
TEXT
 10
21.52310286339809
 20
6.887214767432834
 30
0.0
  0
VERTEX
  5
66D
  8
TEXT
 10
21.51332548859905
 20
6.887461994253833
 30
0.0
  0
VERTEX
  5
66E
  8
TEXT
 10
21.50354811380002
 20
6.887214767432834
 30
0.0
  0
VERTEX
  5
66F
  8
TEXT
 10
21.49389909231834
 20
6.886481045672547
 30
0.0
  0
VERTEX
  5
670
  8
TEXT
 10
21.48439036220809
 20
6.885272767027036
 30
0.0
  0
VERTEX
  5
671
  8
TEXT
 10
21.47503386152332
 20
6.883601869550366
 30
0.0
  0
VERTEX
  5
672
  8
TEXT
 10
21.46584152831811
 20
6.881480291296601
 30
0.0
  0
VERTEX
  5
673
  8
TEXT
 10
21.45682530064651
 20
6.878919970319804
 30
0.0
  0
VERTEX
  5
674
  8
TEXT
 10
21.4479971165626
 20
6.87593284467404
 30
0.0
  0
VERTEX
  5
675
  8
TEXT
 10
21.43936891412043
 20
6.872530852413375
 30
0.0
  0
VERTEX
  5
676
  8
TEXT
 10
21.43095263137407
 20
6.86872593159187
 30
0.0
  0
VERTEX
  5
677
  8
TEXT
 10
21.42276020637758
 20
6.864530020263594
 30
0.0
  0
VERTEX
  5
678
  8
TEXT
 10
21.41480357718503
 20
6.859955056482606
 30
0.0
  0
VERTEX
  5
679
  8
TEXT
 10
21.40709468185048
 20
6.855012978302973
 30
0.0
  0
VERTEX
  5
67A
  8
TEXT
 10
21.399645458428
 20
6.849715723778761
 30
0.0
  0
VERTEX
  5
67B
  8
TEXT
 10
21.39246784497165
 20
6.84407523096403
 30
0.0
  0
VERTEX
  5
67C
  8
TEXT
 10
21.3855737795355
 20
6.838103437912848
 30
0.0
  0
VERTEX
  5
67D
  8
TEXT
 10
21.37897520017361
 20
6.831812282679278
 30
0.0
  0
VERTEX
  5
67E
  8
TEXT
 10
21.37268404494004
 20
6.825213703317385
 30
0.0
  0
VERTEX
  5
67F
  8
TEXT
 10
21.36671225188886
 20
6.81831963788123
 30
0.0
  0
VERTEX
  5
680
  8
TEXT
 10
21.36107175907413
 20
6.811142024424881
 30
0.0
  0
VERTEX
  5
681
  8
TEXT
 10
21.35577450454991
 20
6.803692801002401
 30
0.0
  0
VERTEX
  5
682
  8
TEXT
 10
21.35083242637028
 20
6.795983905667855
 30
0.0
  0
VERTEX
  5
683
  8
TEXT
 10
21.34625746258929
 20
6.788027276475306
 30
0.0
  0
VERTEX
  5
684
  8
TEXT
 10
21.34206155126101
 20
6.779834851478819
 30
0.0
  0
VERTEX
  5
685
  8
TEXT
 10
21.33825663043951
 20
6.771418568732458
 30
0.0
  0
VERTEX
  5
686
  8
TEXT
 10
21.33485463817885
 20
6.762790366290288
 30
0.0
  0
VERTEX
  5
687
  8
TEXT
 10
21.33186751253308
 20
6.753962182206372
 30
0.0
  0
VERTEX
  5
688
  8
TEXT
 10
21.32930719155628
 20
6.744945954534776
 30
0.0
  0
VERTEX
  5
689
  8
TEXT
 10
21.32718561330252
 20
6.735753621329564
 30
0.0
  0
VERTEX
  5
68A
  8
TEXT
 10
21.32551471582585
 20
6.726397120644799
 30
0.0
  0
VERTEX
  5
68B
  8
TEXT
 10
21.32430643718034
 20
6.716888390534546
 30
0.0
  0
VERTEX
  5
68C
  8
TEXT
 10
21.32357271542005
 20
6.707239369052869
 30
0.0
  0
VERTEX
  5
68D
  8
TEXT
 10
21.32332548859905
 20
6.697461994253833
 30
0.0
  0
VERTEX
  5
68E
  8
TEXT
 10
21.32357271542005
 20
6.687684619454797
 30
0.0
  0
VERTEX
  5
68F
  8
TEXT
 10
21.32430643718034
 20
6.678035597973119
 30
0.0
  0
VERTEX
  5
690
  8
TEXT
 10
21.32551471582585
 20
6.668526867862867
 30
0.0
  0
VERTEX
  5
691
  8
TEXT
 10
21.32718561330252
 20
6.659170367178102
 30
0.0
  0
VERTEX
  5
692
  8
TEXT
 10
21.32930719155628
 20
6.649978033972889
 30
0.0
  0
VERTEX
  5
693
  8
TEXT
 10
21.33186751253308
 20
6.640961806301293
 30
0.0
  0
VERTEX
  5
694
  8
TEXT
 10
21.33485463817885
 20
6.632133622217378
 30
0.0
  0
VERTEX
  5
695
  8
TEXT
 10
21.33825663043951
 20
6.623505419775207
 30
0.0
  0
VERTEX
  5
696
  8
TEXT
 10
21.34206155126101
 20
6.615089137028846
 30
0.0
  0
VERTEX
  5
697
  8
TEXT
 10
21.34625746258929
 20
6.606896712032359
 30
0.0
  0
VERTEX
  5
698
  8
TEXT
 10
21.35083242637028
 20
6.59894008283981
 30
0.0
  0
VERTEX
  5
699
  8
TEXT
 10
21.35577450454991
 20
6.591231187505265
 30
0.0
  0
VERTEX
  5
69A
  8
TEXT
 10
21.36107175907413
 20
6.583781964082785
 30
0.0
  0
VERTEX
  5
69B
  8
TEXT
 10
21.36671225188886
 20
6.576604350626436
 30
0.0
  0
VERTEX
  5
69C
  8
TEXT
 10
21.37268404494004
 20
6.569710285190283
 30
0.0
  0
VERTEX
  5
69D
  8
TEXT
 10
21.37897520017361
 20
6.563111705828389
 30
0.0
  0
VERTEX
  5
69E
  8
TEXT
 10
21.3855737795355
 20
6.556820550594818
 30
0.0
  0
VERTEX
  5
69F
  8
TEXT
 10
21.39246784497165
 20
6.550848757543636
 30
0.0
  0
VERTEX
  5
6A0
  8
TEXT
 10
21.399645458428
 20
6.545208264728906
 30
0.0
  0
VERTEX
  5
6A1
  8
TEXT
 10
21.40709468185048
 20
6.539911010204692
 30
0.0
  0
VERTEX
  5
6A2
  8
TEXT
 10
21.41480357718503
 20
6.534968932025061
 30
0.0
  0
VERTEX
  5
6A3
  8
TEXT
 10
21.42276020637758
 20
6.530393968244073
 30
0.0
  0
VERTEX
  5
6A4
  8
TEXT
 10
21.43095263137407
 20
6.526198056915796
 30
0.0
  0
VERTEX
  5
6A5
  8
TEXT
 10
21.43936891412043
 20
6.522393136094291
 30
0.0
  0
VERTEX
  5
6A6
  8
TEXT
 10
21.4479971165626
 20
6.518991143833626
 30
0.0
  0
VERTEX
  5
6A7
  8
TEXT
 10
21.45682530064651
 20
6.516004018187862
 30
0.0
  0
VERTEX
  5
6A8
  8
TEXT
 10
21.46584152831811
 20
6.513443697211065
 30
0.0
  0
VERTEX
  5
6A9
  8
TEXT
 10
21.47503386152332
 20
6.511322118957301
 30
0.0
  0
VERTEX
  5
6AA
  8
TEXT
 10
21.48439036220809
 20
6.509651221480629
 30
0.0
  0
VERTEX
  5
6AB
  8
TEXT
 10
21.49389909231834
 20
6.508442942835119
 30
0.0
  0
VERTEX
  5
6AC
  8
TEXT
 10
21.50354811380002
 20
6.507709221074832
 30
0.0
  0
SEQEND
  5
BA9
  8
TEXT
  0
POLYLINE
  5
A7
  8
TEXT
 66
     1
 10
0.0
 20
0.0
 30
0.0
  0
VERTEX
  5
6AD
  8
TEXT
 10
21.51332548859905
 20
6.507461994253833
 30
0.0
 42
0.4216306000241345
  0
VERTEX
  5
6AE
  8
TEXT
 10
21.70332548859906
 20
6.702461994253833
 30
0.0
  0
VERTEX
  5
6AF
  8
TEXT
 10
21.70332548859906
 20
6.887461994253833
 30
0.0
  0
VERTEX
  5
6B0
  8
TEXT
 10
21.70332548859906
 20
6.512461994253833
 30
0.0
  0
SEQEND
  5
BAA
  8
TEXT
  0
POLYLINE
  5
A8
  8
TEXT
 66
     1
 10
0.0
 20
0.0
 30
0.0
  0
VERTEX
  5
6B1
  8
TEXT
 10
21.87332548859906
 20
6.512461994253833
 30
0.0
  0
VERTEX
  5
6B2
  8
TEXT
 10
21.87332548859906
 20
6.867461994253834
 30
0.0
  0
VERTEX
  5
6B3
  8
TEXT
 10
21.80332548859906
 20
6.867461994253834
 30
0.0
  0
VERTEX
  5
6B4
  8
TEXT
 10
21.97832548859905
 20
6.867461994253834
 30
0.0
  0
VERTEX
  5
6B5
  8
TEXT
 10
21.87332548859906
 20
6.867461994253834
 30
0.0
  0
VERTEX
  5
6B6
  8
TEXT
 10
21.87332548859906
 20
6.912461994253833
 30
0.0
 42
-0.4133333333333333
  0
VERTEX
  5
6B7
  8
TEXT
 10
21.97332548859906
 20
7.012461994253833
 30
0.0
  0
SEQEND
  5
BAB
  8
TEXT
  0
POLYLINE
  5
A9
  8
TEXT
 66
     1
 10
0.0
 20
0.0
 30
0.0
  0
VERTEX
  5
6B8
  8
TEXT
 10
22.14832548859906
 20
6.512461994253833
 30
0.0
  0
VERTEX
  5
6B9
  8
TEXT
 10
22.14832548859906
 20
6.867461994253834
 30
0.0
  0
VERTEX
  5
6BA
  8
TEXT
 10
22.07832548859906
 20
6.867461994253834
 30
0.0
  0
VERTEX
  5
6BB
  8
TEXT
 10
22.25332548859905
 20
6.867461994253834
 30
0.0
  0
VERTEX
  5
6BC
  8
TEXT
 10
22.14832548859906
 20
6.867461994253834
 30
0.0
  0
VERTEX
  5
6BD
  8
TEXT
 10
22.14832548859906
 20
6.912461994253833
 30
0.0
 42
-0.4133333333333333
  0
VERTEX
  5
6BE
  8
TEXT
 10
22.24832548859905
 20
7.012461994253833
 30
0.0
  0
SEQEND
  5
BAC
  8
TEXT
  0
POLYLINE
  5
AA
  8
TEXT
 66
     1
 10
0.0
 20
0.0
 30
0.0
 70
     1
  0
VERTEX
  5
6BF
  8
TEXT
 10
22.35332548859905
 20
6.512461994253833
 30
0.0
  0
VERTEX
  5
6C0
  8
TEXT
 10
22.35332548859905
 20
7.012461994253833
 30
0.0
  0
SEQEND
  5
BAD
  8
TEXT
  0
POLYLINE
  5
AB
  8
TEXT
 66
     1
 10
0.0
 20
0.0
 30
0.0
  0
VERTEX
  5
6C1
  8
TEXT
 10
22.46332548859905
 20
6.697461994253833
 30
0.0
  0
VERTEX
  5
6C2
  8
TEXT
 10
22.83332548859905
 20
6.697461994253833
 30
0.0
 42
0.9023199709436645
  0
VERTEX
  5
6C3
  8
TEXT
 10
22.45899215526572
 20
6.7441286609205
 30
0.0
 42
0.8623467340067498
  0
VERTEX
  5
6C4
  8
TEXT
 10
22.80832548859905
 20
6.607461994253833
 30
0.0
  0
SEQEND
  5
BAE
  8
TEXT
  0
POLYLINE
  5
AC
  8
TEXT
 66
     1
 10
0.0
 20
0.0
 30
0.0
  0
VERTEX
  5
6C5
  8
TEXT
 10
19.32116033708389
 20
14.31196199425383
 30
0.0
 42
-0.4238676972146167
  0
VERTEX
  5
6C6
  8
TEXT
 10
19.47116033708389
 20
14.46696199425383
 30
0.0
 42
-0.4139114804918755
  0
VERTEX
  5
6C7
  8
TEXT
 10
19.62116033708389
 20
14.31696199425383
 30
0.0
 42
-0.1946370063820205
  0
VERTEX
  5
6C8
  8
TEXT
 10
19.57616033708389
 20
14.21196199425383
 30
0.0
  0
VERTEX
  5
6C9
  8
TEXT
 10
19.32616033708389
 20
13.96196199425383
 30
0.0
  0
VERTEX
  5
6CA
  8
TEXT
 10
19.64616033708389
 20
13.96196199425383
 30
0.0
  0
SEQEND
  5
BAF
  8
TEXT
  0
POLYLINE
  5
AD
  8
TEXT
 66
     1
 10
0.0
 20
0.0
 30
0.0
  0
VERTEX
  5
6CB
  8
TEXT
 10
19.74616033708389
 20
13.96196199425383
 30
0.0
  0
VERTEX
  5
6CC
  8
TEXT
 10
19.74616033708389
 20
14.33196199425383
 30
0.0
  0
VERTEX
  5
6CD
  8
TEXT
 10
19.74616033708389
 20
14.19196199425383
 30
0.0
 42
-1.0
  0
VERTEX
  5
6CE
  8
TEXT
 10
20.03616033708389
 20
14.19196199425383
 30
0.0
  0
VERTEX
  5
6CF
  8
TEXT
 10
20.03616033708389
 20
13.96196199425383
 30
0.0
  0
SEQEND
  5
BB0
  8
TEXT
  0
POLYLINE
  5
AE
  8
TEXT
 66
     1
 10
0.0
 20
0.0
 30
0.0
  0
VERTEX
  5
6D0
  8
TEXT
 10
20.51616033708389
 20
13.96196199425383
 30
0.0
  0
VERTEX
  5
6D1
  8
TEXT
 10
20.51616033708389
 20
14.14696199425383
 30
0.0
  0
VERTEX
  5
6D2
  8
TEXT
 10
20.51591311026289
 20
14.15673936905286
 30
0.0
  0
VERTEX
  5
6D3
  8
TEXT
 10
20.5151793885026
 20
14.16638839053454
 30
0.0
  0
VERTEX
  5
6D4
  8
TEXT
 10
20.51397110985709
 20
14.17589712064479
 30
0.0
  0
VERTEX
  5
6D5
  8
TEXT
 10
20.51230021238042
 20
14.18525362132956
 30
0.0
  0
VERTEX
  5
6D6
  8
TEXT
 10
20.51017863412666
 20
14.19444595453477
 30
0.0
  0
VERTEX
  5
6D7
  8
TEXT
 10
20.50761831314986
 20
14.20346218220637
 30
0.0
  0
VERTEX
  5
6D8
  8
TEXT
 10
20.5046311875041
 20
14.21229036629028
 30
0.0
  0
VERTEX
  5
6D9
  8
TEXT
 10
20.50122919524343
 20
14.22091856873245
 30
0.0
  0
VERTEX
  5
6DA
  8
TEXT
 10
20.49742427442193
 20
14.22933485147881
 30
0.0
  0
VERTEX
  5
6DB
  8
TEXT
 10
20.49322836309365
 20
14.2375272764753
 30
0.0
  0
VERTEX
  5
6DC
  8
TEXT
 10
20.48865339931266
 20
14.24548390566785
 30
0.0
  0
VERTEX
  5
6DD
  8
TEXT
 10
20.48371132113303
 20
14.2531928010024
 30
0.0
  0
VERTEX
  5
6DE
  8
TEXT
 10
20.47841406660881
 20
14.26064202442488
 30
0.0
  0
VERTEX
  5
6DF
  8
TEXT
 10
20.47277357379409
 20
14.26781963788122
 30
0.0
  0
VERTEX
  5
6E0
  8
TEXT
 10
20.46680178074291
 20
14.27471370331738
 30
0.0
  0
VERTEX
  5
6E1
  8
TEXT
 10
20.46051062550934
 20
14.28131228267927
 30
0.0
  0
VERTEX
  5
6E2
  8
TEXT
 10
20.45391204614744
 20
14.28760343791284
 30
0.0
  0
VERTEX
  5
6E3
  8
TEXT
 10
20.44701798071129
 20
14.29357523096402
 30
0.0
  0
VERTEX
  5
6E4
  8
TEXT
 10
20.43984036725494
 20
14.29921572377875
 30
0.0
  0
VERTEX
  5
6E5
  8
TEXT
 10
20.43239114383246
 20
14.30451297830297
 30
0.0
  0
VERTEX
  5
6E6
  8
TEXT
 10
20.42468224849792
 20
14.3094550564826
 30
0.0
  0
VERTEX
  5
6E7
  8
TEXT
 10
20.41672561930536
 20
14.31403002026359
 30
0.0
  0
VERTEX
  5
6E8
  8
TEXT
 10
20.40853319430887
 20
14.31822593159186
 30
0.0
  0
VERTEX
  5
6E9
  8
TEXT
 10
20.40011691156251
 20
14.32203085241337
 30
0.0
  0
VERTEX
  5
6EA
  8
TEXT
 10
20.39148870912034
 20
14.32543284467403
 30
0.0
  0
VERTEX
  5
6EB
  8
TEXT
 10
20.38266052503643
 20
14.3284199703198
 30
0.0
  0
VERTEX
  5
6EC
  8
TEXT
 10
20.37364429736483
 20
14.33098029129659
 30
0.0
  0
VERTEX
  5
6ED
  8
TEXT
 10
20.36445196415962
 20
14.33310186955036
 30
0.0
  0
VERTEX
  5
6EE
  8
TEXT
 10
20.35509546347485
 20
14.33477276702703
 30
0.0
  0
VERTEX
  5
6EF
  8
TEXT
 10
20.3455867333646
 20
14.33598104567254
 30
0.0
  0
VERTEX
  5
6F0
  8
TEXT
 10
20.33593771188293
 20
14.33671476743283
 30
0.0
  0
VERTEX
  5
6F1
  8
TEXT
 10
20.32616033708389
 20
14.33696199425383
 30
0.0
  0
VERTEX
  5
6F2
  8
TEXT
 10
20.31638296228485
 20
14.33671476743283
 30
0.0
  0
VERTEX
  5
6F3
  8
TEXT
 10
20.30673394080317
 20
14.33598104567254
 30
0.0
  0
VERTEX
  5
6F4
  8
TEXT
 10
20.29722521069292
 20
14.33477276702703
 30
0.0
  0
VERTEX
  5
6F5
  8
TEXT
 10
20.28786871000815
 20
14.33310186955036
 30
0.0
  0
VERTEX
  5
6F6
  8
TEXT
 10
20.27867637680294
 20
14.33098029129659
 30
0.0
  0
VERTEX
  5
6F7
  8
TEXT
 10
20.26966014913135
 20
14.3284199703198
 30
0.0
  0
VERTEX
  5
6F8
  8
TEXT
 10
20.26083196504743
 20
14.32543284467403
 30
0.0
  0
VERTEX
  5
6F9
  8
TEXT
 10
20.25220376260526
 20
14.32203085241337
 30
0.0
  0
VERTEX
  5
6FA
  8
TEXT
 10
20.2437874798589
 20
14.31822593159186
 30
0.0
  0
VERTEX
  5
6FB
  8
TEXT
 10
20.23559505486241
 20
14.31403002026359
 30
0.0
  0
VERTEX
  5
6FC
  8
TEXT
 10
20.22763842566986
 20
14.3094550564826
 30
0.0
  0
VERTEX
  5
6FD
  8
TEXT
 10
20.21992953033531
 20
14.30451297830297
 30
0.0
  0
VERTEX
  5
6FE
  8
TEXT
 10
20.21248030691283
 20
14.29921572377875
 30
0.0
  0
VERTEX
  5
6FF
  8
TEXT
 10
20.20530269345648
 20
14.29357523096402
 30
0.0
  0
VERTEX
  5
700
  8
TEXT
 10
20.19840862802033
 20
14.28760343791284
 30
0.0
  0
VERTEX
  5
701
  8
TEXT
 10
20.19181004865844
 20
14.28131228267927
 30
0.0
  0
VERTEX
  5
702
  8
TEXT
 10
20.18551889342487
 20
14.27471370331738
 30
0.0
  0
VERTEX
  5
703
  8
TEXT
 10
20.17954710037369
 20
14.26781963788122
 30
0.0
  0
VERTEX
  5
704
  8
TEXT
 10
20.17390660755896
 20
14.26064202442488
 30
0.0
  0
VERTEX
  5
705
  8
TEXT
 10
20.16860935303475
 20
14.2531928010024
 30
0.0
  0
VERTEX
  5
706
  8
TEXT
 10
20.16366727485511
 20
14.24548390566785
 30
0.0
  0
VERTEX
  5
707
  8
TEXT
 10
20.15909231107413
 20
14.2375272764753
 30
0.0
  0
VERTEX
  5
708
  8
TEXT
 10
20.15489639974584
 20
14.22933485147881
 30
0.0
  0
VERTEX
  5
709
  8
TEXT
 10
20.15109147892434
 20
14.22091856873245
 30
0.0
  0
VERTEX
  5
70A
  8
TEXT
 10
20.14768948666368
 20
14.21229036629028
 30
0.0
  0
VERTEX
  5
70B
  8
TEXT
 10
20.14470236101791
 20
14.20346218220637
 30
0.0
  0
VERTEX
  5
70C
  8
TEXT
 10
20.14214204004112
 20
14.19444595453477
 30
0.0
  0
VERTEX
  5
70D
  8
TEXT
 10
20.14002046178735
 20
14.18525362132956
 30
0.0
  0
VERTEX
  5
70E
  8
TEXT
 10
20.13834956431068
 20
14.17589712064479
 30
0.0
  0
VERTEX
  5
70F
  8
TEXT
 10
20.13714128566517
 20
14.16638839053454
 30
0.0
  0
VERTEX
  5
710
  8
TEXT
 10
20.13640756390489
 20
14.15673936905286
 30
0.0
  0
VERTEX
  5
711
  8
TEXT
 10
20.13616033708389
 20
14.14696199425383
 30
0.0
  0
VERTEX
  5
712
  8
TEXT
 10
20.13640756390489
 20
14.13718461945479
 30
0.0
  0
VERTEX
  5
713
  8
TEXT
 10
20.13714128566517
 20
14.12753559797311
 30
0.0
  0
VERTEX
  5
714
  8
TEXT
 10
20.13834956431068
 20
14.11802686786286
 30
0.0
  0
VERTEX
  5
715
  8
TEXT
 10
20.14002046178735
 20
14.10867036717809
 30
0.0
  0
VERTEX
  5
716
  8
TEXT
 10
20.14214204004112
 20
14.09947803397288
 30
0.0
  0
VERTEX
  5
717
  8
TEXT
 10
20.14470236101791
 20
14.09046180630128
 30
0.0
  0
VERTEX
  5
718
  8
TEXT
 10
20.14768948666368
 20
14.08163362221737
 30
0.0
  0
VERTEX
  5
719
  8
TEXT
 10
20.15109147892434
 20
14.0730054197752
 30
0.0
  0
VERTEX
  5
71A
  8
TEXT
 10
20.15489639974584
 20
14.06458913702884
 30
0.0
  0
VERTEX
  5
71B
  8
TEXT
 10
20.15909231107413
 20
14.05639671203235
 30
0.0
  0
VERTEX
  5
71C
  8
TEXT
 10
20.16366727485511
 20
14.0484400828398
 30
0.0
  0
VERTEX
  5
71D
  8
TEXT
 10
20.16860935303475
 20
14.04073118750526
 30
0.0
  0
VERTEX
  5
71E
  8
TEXT
 10
20.17390660755896
 20
14.03328196408278
 30
0.0
  0
VERTEX
  5
71F
  8
TEXT
 10
20.17954710037369
 20
14.02610435062643
 30
0.0
  0
VERTEX
  5
720
  8
TEXT
 10
20.18551889342487
 20
14.01921028519028
 30
0.0
  0
VERTEX
  5
721
  8
TEXT
 10
20.19181004865844
 20
14.01261170582838
 30
0.0
  0
VERTEX
  5
722
  8
TEXT
 10
20.19840862802033
 20
14.00632055059481
 30
0.0
  0
VERTEX
  5
723
  8
TEXT
 10
20.20530269345648
 20
14.00034875754363
 30
0.0
  0
VERTEX
  5
724
  8
TEXT
 10
20.21248030691283
 20
13.9947082647289
 30
0.0
  0
VERTEX
  5
725
  8
TEXT
 10
20.21992953033531
 20
13.98941101020469
 30
0.0
  0
VERTEX
  5
726
  8
TEXT
 10
20.22763842566986
 20
13.98446893202505
 30
0.0
  0
VERTEX
  5
727
  8
TEXT
 10
20.23559505486241
 20
13.97989396824407
 30
0.0
  0
VERTEX
  5
728
  8
TEXT
 10
20.2437874798589
 20
13.97569805691579
 30
0.0
  0
VERTEX
  5
729
  8
TEXT
 10
20.25220376260526
 20
13.97189313609428
 30
0.0
  0
VERTEX
  5
72A
  8
TEXT
 10
20.26083196504743
 20
13.96849114383362
 30
0.0
  0
VERTEX
  5
72B
  8
TEXT
 10
20.26966014913135
 20
13.96550401818785
 30
0.0
  0
VERTEX
  5
72C
  8
TEXT
 10
20.27867637680294
 20
13.96294369721106
 30
0.0
  0
VERTEX
  5
72D
  8
TEXT
 10
20.28786871000815
 20
13.96082211895729
 30
0.0
  0
VERTEX
  5
72E
  8
TEXT
 10
20.29722521069292
 20
13.95915122148062
 30
0.0
  0
VERTEX
  5
72F
  8
TEXT
 10
20.30673394080317
 20
13.95794294283511
 30
0.0
  0
VERTEX
  5
730
  8
TEXT
 10
20.31638296228485
 20
13.95720922107482
 30
0.0
  0
VERTEX
  5
731
  8
TEXT
 10
20.32616033708389
 20
13.95696199425383
 30
0.0
  0
VERTEX
  5
732
  8
TEXT
 10
20.33593771188293
 20
13.95720922107482
 30
0.0
  0
VERTEX
  5
733
  8
TEXT
 10
20.3455867333646
 20
13.95794294283511
 30
0.0
  0
VERTEX
  5
734
  8
TEXT
 10
20.35509546347485
 20
13.95915122148062
 30
0.0
  0
VERTEX
  5
735
  8
TEXT
 10
20.36445196415962
 20
13.96082211895729
 30
0.0
  0
VERTEX
  5
736
  8
TEXT
 10
20.37364429736483
 20
13.96294369721106
 30
0.0
  0
VERTEX
  5
737
  8
TEXT
 10
20.38266052503643
 20
13.96550401818785
 30
0.0
  0
VERTEX
  5
738
  8
TEXT
 10
20.39148870912034
 20
13.96849114383362
 30
0.0
  0
VERTEX
  5
739
  8
TEXT
 10
20.40011691156251
 20
13.97189313609428
 30
0.0
  0
VERTEX
  5
73A
  8
TEXT
 10
20.40853319430887
 20
13.97569805691579
 30
0.0
  0
VERTEX
  5
73B
  8
TEXT
 10
20.41672561930536
 20
13.97989396824407
 30
0.0
  0
VERTEX
  5
73C
  8
TEXT
 10
20.42468224849792
 20
13.98446893202505
 30
0.0
  0
VERTEX
  5
73D
  8
TEXT
 10
20.43239114383246
 20
13.98941101020469
 30
0.0
  0
VERTEX
  5
73E
  8
TEXT
 10
20.43984036725494
 20
13.9947082647289
 30
0.0
  0
VERTEX
  5
73F
  8
TEXT
 10
20.44701798071129
 20
14.00034875754363
 30
0.0
  0
VERTEX
  5
740
  8
TEXT
 10
20.45391204614744
 20
14.00632055059481
 30
0.0
  0
VERTEX
  5
741
  8
TEXT
 10
20.46051062550934
 20
14.01261170582838
 30
0.0
  0
VERTEX
  5
742
  8
TEXT
 10
20.46680178074291
 20
14.01921028519028
 30
0.0
  0
VERTEX
  5
743
  8
TEXT
 10
20.47277357379409
 20
14.02610435062643
 30
0.0
  0
VERTEX
  5
744
  8
TEXT
 10
20.47841406660881
 20
14.03328196408278
 30
0.0
  0
VERTEX
  5
745
  8
TEXT
 10
20.48371132113303
 20
14.04073118750526
 30
0.0
  0
VERTEX
  5
746
  8
TEXT
 10
20.48865339931266
 20
14.0484400828398
 30
0.0
  0
VERTEX
  5
747
  8
TEXT
 10
20.49322836309365
 20
14.05639671203235
 30
0.0
  0
VERTEX
  5
748
  8
TEXT
 10
20.49742427442193
 20
14.06458913702884
 30
0.0
  0
VERTEX
  5
749
  8
TEXT
 10
20.50122919524343
 20
14.0730054197752
 30
0.0
  0
VERTEX
  5
74A
  8
TEXT
 10
20.5046311875041
 20
14.08163362221737
 30
0.0
  0
VERTEX
  5
74B
  8
TEXT
 10
20.50761831314986
 20
14.09046180630128
 30
0.0
  0
VERTEX
  5
74C
  8
TEXT
 10
20.51017863412666
 20
14.09947803397288
 30
0.0
  0
VERTEX
  5
74D
  8
TEXT
 10
20.51230021238042
 20
14.10867036717809
 30
0.0
  0
VERTEX
  5
74E
  8
TEXT
 10
20.51397110985709
 20
14.11802686786286
 30
0.0
  0
VERTEX
  5
74F
  8
TEXT
 10
20.5151793885026
 20
14.12753559797311
 30
0.0
  0
VERTEX
  5
750
  8
TEXT
 10
20.51591311026289
 20
14.13718461945479
 30
0.0
  0
VERTEX
  5
751
  8
TEXT
 10
20.51616033708389
 20
14.14696199425383
 30
0.0
  0
VERTEX
  5
752
  8
TEXT
 10
20.51616033708389
 20
14.46196199425383
 30
0.0
  0
SEQEND
  5
BB1
  8
TEXT
  0
POLYLINE
  5
AF
  8
TEXT
 66
     1
 10
0.0
 20
0.0
 30
0.0
 70
     1
  0
VERTEX
  5
753
  8
TEXT
 10
21.03616033708389
 20
13.96196199425383
 30
0.0
  0
VERTEX
  5
754
  8
TEXT
 10
21.03616033708389
 20
14.46196199425383
 30
0.0
  0
VERTEX
  5
755
  8
TEXT
 10
21.16616033708389
 20
14.46196199425383
 30
0.0
 42
-1.0
  0
VERTEX
  5
756
  8
TEXT
 10
21.16616033708389
 20
14.22196199425383
 30
0.0
  0
VERTEX
  5
757
  8
TEXT
 10
21.03616033708389
 20
14.22196199425383
 30
0.0
  0
VERTEX
  5
758
  8
TEXT
 10
21.16616033708389
 20
14.22196199425383
 30
0.0
  0
VERTEX
  5
759
  8
TEXT
 10
21.17384501061015
 20
14.22179283906051
 30
0.0
  0
VERTEX
  5
75A
  8
TEXT
 10
21.18142880293259
 20
14.22129081890873
 30
0.0
  0
VERTEX
  5
75B
  8
TEXT
 10
21.18890233115959
 20
14.22046410194076
 30
0.0
  0
VERTEX
  5
75C
  8
TEXT
 10
21.19625621239955
 20
14.21932085629882
 30
0.0
  0
VERTEX
  5
75D
  8
TEXT
 10
21.20348106376084
 20
14.21786925012519
 30
0.0
  0
VERTEX
  5
75E
  8
TEXT
 10
21.21056750235185
 20
14.21611745156212
 30
0.0
  0
VERTEX
  5
75F
  8
TEXT
 10
21.21750614528096
 20
14.21407362875187
 30
0.0
  0
VERTEX
  5
760
  8
TEXT
 10
21.22428760965656
 20
14.21174594983667
 30
0.0
  0
VERTEX
  5
761
  8
TEXT
 10
21.23090251258704
 20
14.2091425829588
 30
0.0
  0
VERTEX
  5
762
  8
TEXT
 10
21.23734147118077
 20
14.2062716962605
 30
0.0
  0
VERTEX
  5
763
  8
TEXT
 10
21.24359510254614
 20
14.20314145788404
 30
0.0
  0
VERTEX
  5
764
  8
TEXT
 10
21.24965402379154
 20
14.19976003597166
 30
0.0
  0
VERTEX
  5
765
  8
TEXT
 10
21.25550885202534
 20
14.19613559866562
 30
0.0
  0
VERTEX
  5
766
  8
TEXT
 10
21.26115020435595
 20
14.19227631410817
 30
0.0
  0
VERTEX
  5
767
  8
TEXT
 10
21.26656869789173
 20
14.18819035044157
 30
0.0
  0
VERTEX
  5
768
  8
TEXT
 10
21.27175494974108
 20
14.18388587580808
 30
0.0
  0
VERTEX
  5
769
  8
TEXT
 10
21.27669957701238
 20
14.17937105834994
 30
0.0
  0
VERTEX
  5
76A
  8
TEXT
 10
21.28139319681401
 20
14.17465406620941
 30
0.0
  0
VERTEX
  5
76B
  8
TEXT
 10
21.28582642625436
 20
14.16974306752875
 30
0.0
  0
VERTEX
  5
76C
  8
TEXT
 10
21.28998988244181
 20
14.16464623045021
 30
0.0
  0
VERTEX
  5
76D
  8
TEXT
 10
21.29387418248475
 20
14.15937172311605
 30
0.0
  0
VERTEX
  5
76E
  8
TEXT
 10
21.29746994349156
 20
14.15392771366852
 30
0.0
  0
VERTEX
  5
76F
  8
TEXT
 10
21.30076778257063
 20
14.14832237024987
 30
0.0
  0
VERTEX
  5
770
  8
TEXT
 10
21.30375831683034
 20
14.14256386100236
 30
0.0
  0
VERTEX
  5
771
  8
TEXT
 10
21.30643216337907
 20
14.13666035406824
 30
0.0
  0
VERTEX
  5
772
  8
TEXT
 10
21.30877993932521
 20
14.13062001758977
 30
0.0
  0
VERTEX
  5
773
  8
TEXT
 10
21.31079226177715
 20
14.12445101970921
 30
0.0
  0
VERTEX
  5
774
  8
TEXT
 10
21.31245974784327
 20
14.1181615285688
 30
0.0
  0
VERTEX
  5
775
  8
TEXT
 10
21.31377301463195
 20
14.1117597123108
 30
0.0
  0
VERTEX
  5
776
  8
TEXT
 10
21.31472267925158
 20
14.10525373907747
 30
0.0
  0
VERTEX
  5
777
  8
TEXT
 10
21.31529935881055
 20
14.09865177701106
 30
0.0
  0
VERTEX
  5
778
  8
TEXT
 10
21.31549367041722
 20
14.09196199425383
 30
0.0
  0
VERTEX
  5
779
  8
TEXT
 10
21.31529935881055
 20
14.08527221149659
 30
0.0
  0
VERTEX
  5
77A
  8
TEXT
 10
21.31472267925158
 20
14.07867024943018
 30
0.0
  0
VERTEX
  5
77B
  8
TEXT
 10
21.31377301463195
 20
14.07216427619685
 30
0.0
  0
VERTEX
  5
77C
  8
TEXT
 10
21.31245974784327
 20
14.06576245993885
 30
0.0
  0
VERTEX
  5
77D
  8
TEXT
 10
21.31079226177715
 20
14.05947296879845
 30
0.0
  0
VERTEX
  5
77E
  8
TEXT
 10
21.30877993932521
 20
14.05330397091788
 30
0.0
  0
VERTEX
  5
77F
  8
TEXT
 10
21.30643216337907
 20
14.04726363443941
 30
0.0
  0
VERTEX
  5
780
  8
TEXT
 10
21.30375831683034
 20
14.04136012750529
 30
0.0
  0
VERTEX
  5
781
  8
TEXT
 10
21.30076778257063
 20
14.03560161825778
 30
0.0
  0
VERTEX
  5
782
  8
TEXT
 10
21.29746994349156
 20
14.02999627483913
 30
0.0
  0
VERTEX
  5
783
  8
TEXT
 10
21.29387418248475
 20
14.0245522653916
 30
0.0
  0
VERTEX
  5
784
  8
TEXT
 10
21.28998988244181
 20
14.01927775805744
 30
0.0
  0
VERTEX
  5
785
  8
TEXT
 10
21.28582642625436
 20
14.0141809209789
 30
0.0
  0
VERTEX
  5
786
  8
TEXT
 10
21.28139319681401
 20
14.00926992229824
 30
0.0
  0
VERTEX
  5
787
  8
TEXT
 10
21.27669957701238
 20
14.00455293015771
 30
0.0
  0
VERTEX
  5
788
  8
TEXT
 10
21.27175494974108
 20
14.00003811269957
 30
0.0
  0
VERTEX
  5
789
  8
TEXT
 10
21.26656869789173
 20
13.99573363806608
 30
0.0
  0
VERTEX
  5
78A
  8
TEXT
 10
21.26115020435595
 20
13.99164767439948
 30
0.0
  0
VERTEX
  5
78B
  8
TEXT
 10
21.25550885202534
 20
13.98778838984203
 30
0.0
  0
VERTEX
  5
78C
  8
TEXT
 10
21.24965402379154
 20
13.98416395253599
 30
0.0
  0
VERTEX
  5
78D
  8
TEXT
 10
21.24359510254614
 20
13.98078253062361
 30
0.0
  0
VERTEX
  5
78E
  8
TEXT
 10
21.23734147118077
 20
13.97765229224715
 30
0.0
  0
VERTEX
  5
78F
  8
TEXT
 10
21.23090251258704
 20
13.97478140554885
 30
0.0
  0
VERTEX
  5
790
  8
TEXT
 10
21.22428760965656
 20
13.97217803867098
 30
0.0
  0
VERTEX
  5
791
  8
TEXT
 10
21.21750614528096
 20
13.96985035975579
 30
0.0
  0
VERTEX
  5
792
  8
TEXT
 10
21.21056750235185
 20
13.96780653694553
 30
0.0
  0
VERTEX
  5
793
  8
TEXT
 10
21.20348106376084
 20
13.96605473838246
 30
0.0
  0
VERTEX
  5
794
  8
TEXT
 10
21.19625621239955
 20
13.96460313220883
 30
0.0
  0
VERTEX
  5
795
  8
TEXT
 10
21.18890233115959
 20
13.9634598865669
 30
0.0
  0
VERTEX
  5
796
  8
TEXT
 10
21.18142880293259
 20
13.96263316959892
 30
0.0
  0
VERTEX
  5
797
  8
TEXT
 10
21.17384501061015
 20
13.96213114944714
 30
0.0
  0
VERTEX
  5
798
  8
TEXT
 10
21.16616033708389
 20
13.96196199425383
 30
0.0
  0
SEQEND
  5
BB2
  8
TEXT
  0
POLYLINE
  5
B0
  8
TEXT
 66
     1
 10
0.0
 20
0.0
 30
0.0
 70
     1
  0
VERTEX
  5
799
  8
TEXT
 10
21.60482700375055
 20
13.95696199425383
 30
0.0
  0
VERTEX
  5
79A
  8
TEXT
 10
21.61460437854959
 20
13.95720922107482
 30
0.0
  0
VERTEX
  5
79B
  8
TEXT
 10
21.62425340003127
 20
13.95794294283511
 30
0.0
  0
VERTEX
  5
79C
  8
TEXT
 10
21.63376213014152
 20
13.95915122148062
 30
0.0
  0
VERTEX
  5
79D
  8
TEXT
 10
21.64311863082629
 20
13.96082211895729
 30
0.0
  0
VERTEX
  5
79E
  8
TEXT
 10
21.6523109640315
 20
13.96294369721106
 30
0.0
  0
VERTEX
  5
79F
  8
TEXT
 10
21.66132719170309
 20
13.96550401818785
 30
0.0
  0
VERTEX
  5
7A0
  8
TEXT
 10
21.67015537578701
 20
13.96849114383362
 30
0.0
  0
VERTEX
  5
7A1
  8
TEXT
 10
21.67878357822918
 20
13.97189313609428
 30
0.0
  0
VERTEX
  5
7A2
  8
TEXT
 10
21.68719986097554
 20
13.97569805691579
 30
0.0
  0
VERTEX
  5
7A3
  8
TEXT
 10
21.69539228597203
 20
13.97989396824407
 30
0.0
  0
VERTEX
  5
7A4
  8
TEXT
 10
21.70334891516458
 20
13.98446893202505
 30
0.0
  0
VERTEX
  5
7A5
  8
TEXT
 10
21.71105781049913
 20
13.98941101020469
 30
0.0
  0
VERTEX
  5
7A6
  8
TEXT
 10
21.71850703392161
 20
13.9947082647289
 30
0.0
  0
VERTEX
  5
7A7
  8
TEXT
 10
21.72568464737796
 20
14.00034875754363
 30
0.0
  0
VERTEX
  5
7A8
  8
TEXT
 10
21.73257871281411
 20
14.00632055059481
 30
0.0
  0
VERTEX
  5
7A9
  8
TEXT
 10
21.739177292176
 20
14.01261170582838
 30
0.0
  0
VERTEX
  5
7AA
  8
TEXT
 10
21.74546844740957
 20
14.01921028519028
 30
0.0
  0
VERTEX
  5
7AB
  8
TEXT
 10
21.75144024046075
 20
14.02610435062643
 30
0.0
  0
VERTEX
  5
7AC
  8
TEXT
 10
21.75708073327548
 20
14.03328196408278
 30
0.0
  0
VERTEX
  5
7AD
  8
TEXT
 10
21.7623779877997
 20
14.04073118750526
 30
0.0
  0
VERTEX
  5
7AE
  8
TEXT
 10
21.76732006597933
 20
14.0484400828398
 30
0.0
  0
VERTEX
  5
7AF
  8
TEXT
 10
21.77189502976032
 20
14.05639671203235
 30
0.0
  0
VERTEX
  5
7B0
  8
TEXT
 10
21.7760909410886
 20
14.06458913702884
 30
0.0
  0
VERTEX
  5
7B1
  8
TEXT
 10
21.7798958619101
 20
14.0730054197752
 30
0.0
  0
VERTEX
  5
7B2
  8
TEXT
 10
21.78329785417076
 20
14.08163362221737
 30
0.0
  0
VERTEX
  5
7B3
  8
TEXT
 10
21.78628497981653
 20
14.09046180630128
 30
0.0
  0
VERTEX
  5
7B4
  8
TEXT
 10
21.78884530079333
 20
14.09947803397288
 30
0.0
  0
VERTEX
  5
7B5
  8
TEXT
 10
21.79096687904709
 20
14.10867036717809
 30
0.0
  0
VERTEX
  5
7B6
  8
TEXT
 10
21.79263777652376
 20
14.11802686786286
 30
0.0
  0
VERTEX
  5
7B7
  8
TEXT
 10
21.79384605516927
 20
14.12753559797311
 30
0.0
  0
VERTEX
  5
7B8
  8
TEXT
 10
21.79457977692956
 20
14.13718461945479
 30
0.0
  0
VERTEX
  5
7B9
  8
TEXT
 10
21.79482700375056
 20
14.14696199425383
 30
0.0
  0
VERTEX
  5
7BA
  8
TEXT
 10
21.79457977692956
 20
14.15673936905286
 30
0.0
  0
VERTEX
  5
7BB
  8
TEXT
 10
21.79384605516927
 20
14.16638839053454
 30
0.0
  0
VERTEX
  5
7BC
  8
TEXT
 10
21.79263777652376
 20
14.17589712064479
 30
0.0
  0
VERTEX
  5
7BD
  8
TEXT
 10
21.79096687904709
 20
14.18525362132956
 30
0.0
  0
VERTEX
  5
7BE
  8
TEXT
 10
21.78884530079333
 20
14.19444595453477
 30
0.0
  0
VERTEX
  5
7BF
  8
TEXT
 10
21.78628497981653
 20
14.20346218220637
 30
0.0
  0
VERTEX
  5
7C0
  8
TEXT
 10
21.78329785417076
 20
14.21229036629028
 30
0.0
  0
VERTEX
  5
7C1
  8
TEXT
 10
21.7798958619101
 20
14.22091856873245
 30
0.0
  0
VERTEX
  5
7C2
  8
TEXT
 10
21.7760909410886
 20
14.22933485147881
 30
0.0
  0
VERTEX
  5
7C3
  8
TEXT
 10
21.77189502976032
 20
14.2375272764753
 30
0.0
  0
VERTEX
  5
7C4
  8
TEXT
 10
21.76732006597933
 20
14.24548390566785
 30
0.0
  0
VERTEX
  5
7C5
  8
TEXT
 10
21.7623779877997
 20
14.2531928010024
 30
0.0
  0
VERTEX
  5
7C6
  8
TEXT
 10
21.75708073327548
 20
14.26064202442488
 30
0.0
  0
VERTEX
  5
7C7
  8
TEXT
 10
21.75144024046075
 20
14.26781963788122
 30
0.0
  0
VERTEX
  5
7C8
  8
TEXT
 10
21.74546844740957
 20
14.27471370331738
 30
0.0
  0
VERTEX
  5
7C9
  8
TEXT
 10
21.739177292176
 20
14.28131228267927
 30
0.0
  0
VERTEX
  5
7CA
  8
TEXT
 10
21.73257871281411
 20
14.28760343791284
 30
0.0
  0
VERTEX
  5
7CB
  8
TEXT
 10
21.72568464737796
 20
14.29357523096402
 30
0.0
  0
VERTEX
  5
7CC
  8
TEXT
 10
21.71850703392161
 20
14.29921572377875
 30
0.0
  0
VERTEX
  5
7CD
  8
TEXT
 10
21.71105781049913
 20
14.30451297830297
 30
0.0
  0
VERTEX
  5
7CE
  8
TEXT
 10
21.70334891516458
 20
14.3094550564826
 30
0.0
  0
VERTEX
  5
7CF
  8
TEXT
 10
21.69539228597203
 20
14.31403002026359
 30
0.0
  0
VERTEX
  5
7D0
  8
TEXT
 10
21.68719986097554
 20
14.31822593159186
 30
0.0
  0
VERTEX
  5
7D1
  8
TEXT
 10
21.67878357822918
 20
14.32203085241337
 30
0.0
  0
VERTEX
  5
7D2
  8
TEXT
 10
21.67015537578701
 20
14.32543284467403
 30
0.0
  0
VERTEX
  5
7D3
  8
TEXT
 10
21.66132719170309
 20
14.3284199703198
 30
0.0
  0
VERTEX
  5
7D4
  8
TEXT
 10
21.6523109640315
 20
14.33098029129659
 30
0.0
  0
VERTEX
  5
7D5
  8
TEXT
 10
21.64311863082629
 20
14.33310186955036
 30
0.0
  0
VERTEX
  5
7D6
  8
TEXT
 10
21.63376213014152
 20
14.33477276702703
 30
0.0
  0
VERTEX
  5
7D7
  8
TEXT
 10
21.62425340003127
 20
14.33598104567254
 30
0.0
  0
VERTEX
  5
7D8
  8
TEXT
 10
21.61460437854959
 20
14.33671476743283
 30
0.0
  0
VERTEX
  5
7D9
  8
TEXT
 10
21.60482700375055
 20
14.33696199425383
 30
0.0
  0
VERTEX
  5
7DA
  8
TEXT
 10
21.59504962895151
 20
14.33671476743283
 30
0.0
  0
VERTEX
  5
7DB
  8
TEXT
 10
21.58540060746984
 20
14.33598104567254
 30
0.0
  0
VERTEX
  5
7DC
  8
TEXT
 10
21.57589187735959
 20
14.33477276702703
 30
0.0
  0
VERTEX
  5
7DD
  8
TEXT
 10
21.56653537667482
 20
14.33310186955036
 30
0.0
  0
VERTEX
  5
7DE
  8
TEXT
 10
21.55734304346961
 20
14.33098029129659
 30
0.0
  0
VERTEX
  5
7DF
  8
TEXT
 10
21.54832681579801
 20
14.3284199703198
 30
0.0
  0
VERTEX
  5
7E0
  8
TEXT
 10
21.5394986317141
 20
14.32543284467403
 30
0.0
  0
VERTEX
  5
7E1
  8
TEXT
 10
21.53087042927193
 20
14.32203085241337
 30
0.0
  0
VERTEX
  5
7E2
  8
TEXT
 10
21.52245414652557
 20
14.31822593159186
 30
0.0
  0
VERTEX
  5
7E3
  8
TEXT
 10
21.51426172152908
 20
14.31403002026359
 30
0.0
  0
VERTEX
  5
7E4
  8
TEXT
 10
21.50630509233653
 20
14.3094550564826
 30
0.0
  0
VERTEX
  5
7E5
  8
TEXT
 10
21.49859619700198
 20
14.30451297830297
 30
0.0
  0
VERTEX
  5
7E6
  8
TEXT
 10
21.4911469735795
 20
14.29921572377875
 30
0.0
  0
VERTEX
  5
7E7
  8
TEXT
 10
21.48396936012315
 20
14.29357523096402
 30
0.0
  0
VERTEX
  5
7E8
  8
TEXT
 10
21.477075294687
 20
14.28760343791284
 30
0.0
  0
VERTEX
  5
7E9
  8
TEXT
 10
21.47047671532511
 20
14.28131228267927
 30
0.0
  0
VERTEX
  5
7EA
  8
TEXT
 10
21.46418556009154
 20
14.27471370331738
 30
0.0
  0
VERTEX
  5
7EB
  8
TEXT
 10
21.45821376704036
 20
14.26781963788122
 30
0.0
  0
VERTEX
  5
7EC
  8
TEXT
 10
21.45257327422563
 20
14.26064202442488
 30
0.0
  0
VERTEX
  5
7ED
  8
TEXT
 10
21.44727601970141
 20
14.2531928010024
 30
0.0
  0
VERTEX
  5
7EE
  8
TEXT
 10
21.44233394152178
 20
14.24548390566785
 30
0.0
  0
VERTEX
  5
7EF
  8
TEXT
 10
21.43775897774079
 20
14.2375272764753
 30
0.0
  0
VERTEX
  5
7F0
  8
TEXT
 10
21.43356306641251
 20
14.22933485147881
 30
0.0
  0
VERTEX
  5
7F1
  8
TEXT
 10
21.42975814559101
 20
14.22091856873245
 30
0.0
  0
VERTEX
  5
7F2
  8
TEXT
 10
21.42635615333035
 20
14.21229036629028
 30
0.0
  0
VERTEX
  5
7F3
  8
TEXT
 10
21.42336902768458
 20
14.20346218220637
 30
0.0
  0
VERTEX
  5
7F4
  8
TEXT
 10
21.42080870670778
 20
14.19444595453477
 30
0.0
  0
VERTEX
  5
7F5
  8
TEXT
 10
21.41868712845402
 20
14.18525362132956
 30
0.0
  0
VERTEX
  5
7F6
  8
TEXT
 10
21.41701623097735
 20
14.17589712064479
 30
0.0
  0
VERTEX
  5
7F7
  8
TEXT
 10
21.41580795233184
 20
14.16638839053454
 30
0.0
  0
VERTEX
  5
7F8
  8
TEXT
 10
21.41507423057155
 20
14.15673936905286
 30
0.0
  0
VERTEX
  5
7F9
  8
TEXT
 10
21.41482700375055
 20
14.14696199425383
 30
0.0
  0
VERTEX
  5
7FA
  8
TEXT
 10
21.41507423057155
 20
14.13718461945479
 30
0.0
  0
VERTEX
  5
7FB
  8
TEXT
 10
21.41580795233184
 20
14.12753559797311
 30
0.0
  0
VERTEX
  5
7FC
  8
TEXT
 10
21.41701623097735
 20
14.11802686786286
 30
0.0
  0
VERTEX
  5
7FD
  8
TEXT
 10
21.41868712845402
 20
14.10867036717809
 30
0.0
  0
VERTEX
  5
7FE
  8
TEXT
 10
21.42080870670778
 20
14.09947803397288
 30
0.0
  0
VERTEX
  5
7FF
  8
TEXT
 10
21.42336902768458
 20
14.09046180630128
 30
0.0
  0
VERTEX
  5
800
  8
TEXT
 10
21.42635615333035
 20
14.08163362221737
 30
0.0
  0
VERTEX
  5
801
  8
TEXT
 10
21.42975814559101
 20
14.0730054197752
 30
0.0
  0
VERTEX
  5
802
  8
TEXT
 10
21.43356306641251
 20
14.06458913702884
 30
0.0
  0
VERTEX
  5
803
  8
TEXT
 10
21.43775897774079
 20
14.05639671203235
 30
0.0
  0
VERTEX
  5
804
  8
TEXT
 10
21.44233394152178
 20
14.0484400828398
 30
0.0
  0
VERTEX
  5
805
  8
TEXT
 10
21.44727601970141
 20
14.04073118750526
 30
0.0
  0
VERTEX
  5
806
  8
TEXT
 10
21.45257327422563
 20
14.03328196408278
 30
0.0
  0
VERTEX
  5
807
  8
TEXT
 10
21.45821376704036
 20
14.02610435062643
 30
0.0
  0
VERTEX
  5
808
  8
TEXT
 10
21.46418556009154
 20
14.01921028519028
 30
0.0
  0
VERTEX
  5
809
  8
TEXT
 10
21.47047671532511
 20
14.01261170582838
 30
0.0
  0
VERTEX
  5
80A
  8
TEXT
 10
21.477075294687
 20
14.00632055059481
 30
0.0
  0
VERTEX
  5
80B
  8
TEXT
 10
21.48396936012315
 20
14.00034875754363
 30
0.0
  0
VERTEX
  5
80C
  8
TEXT
 10
21.4911469735795
 20
13.9947082647289
 30
0.0
  0
VERTEX
  5
80D
  8
TEXT
 10
21.49859619700198
 20
13.98941101020469
 30
0.0
  0
VERTEX
  5
80E
  8
TEXT
 10
21.50630509233653
 20
13.98446893202505
 30
0.0
  0
VERTEX
  5
80F
  8
TEXT
 10
21.51426172152908
 20
13.97989396824407
 30
0.0
  0
VERTEX
  5
810
  8
TEXT
 10
21.52245414652557
 20
13.97569805691579
 30
0.0
  0
VERTEX
  5
811
  8
TEXT
 10
21.53087042927193
 20
13.97189313609428
 30
0.0
  0
VERTEX
  5
812
  8
TEXT
 10
21.5394986317141
 20
13.96849114383362
 30
0.0
  0
VERTEX
  5
813
  8
TEXT
 10
21.54832681579801
 20
13.96550401818785
 30
0.0
  0
VERTEX
  5
814
  8
TEXT
 10
21.55734304346961
 20
13.96294369721106
 30
0.0
  0
VERTEX
  5
815
  8
TEXT
 10
21.56653537667482
 20
13.96082211895729
 30
0.0
  0
VERTEX
  5
816
  8
TEXT
 10
21.57589187735959
 20
13.95915122148062
 30
0.0
  0
VERTEX
  5
817
  8
TEXT
 10
21.58540060746984
 20
13.95794294283511
 30
0.0
  0
VERTEX
  5
818
  8
TEXT
 10
21.59504962895151
 20
13.95720922107482
 30
0.0
  0
SEQEND
  5
BB3
  8
TEXT
  0
POLYLINE
  5
B1
  8
TEXT
 66
     1
 10
0.0
 20
0.0
 30
0.0
  0
VERTEX
  5
819
  8
TEXT
 10
21.60482700375055
 20
13.95696199425383
 30
0.0
 42
0.4216306000241345
  0
VERTEX
  5
81A
  8
TEXT
 10
21.79482700375056
 20
14.15196199425383
 30
0.0
  0
VERTEX
  5
81B
  8
TEXT
 10
21.79482700375056
 20
14.33696199425383
 30
0.0
  0
VERTEX
  5
81C
  8
TEXT
 10
21.79482700375056
 20
13.96196199425383
 30
0.0
  0
SEQEND
  5
BB4
  8
TEXT
  0
POLYLINE
  5
B2
  8
TEXT
 66
     1
 10
0.0
 20
0.0
 30
0.0
  0
VERTEX
  5
81D
  8
TEXT
 10
21.96482700375056
 20
13.96196199425383
 30
0.0
  0
VERTEX
  5
81E
  8
TEXT
 10
21.96482700375056
 20
14.31696199425383
 30
0.0
  0
VERTEX
  5
81F
  8
TEXT
 10
21.89482700375056
 20
14.31696199425383
 30
0.0
  0
VERTEX
  5
820
  8
TEXT
 10
22.06982700375055
 20
14.31696199425383
 30
0.0
  0
VERTEX
  5
821
  8
TEXT
 10
21.96482700375056
 20
14.31696199425383
 30
0.0
  0
VERTEX
  5
822
  8
TEXT
 10
21.96482700375056
 20
14.36196199425383
 30
0.0
 42
-0.4133333333333333
  0
VERTEX
  5
823
  8
TEXT
 10
22.06482700375055
 20
14.46196199425383
 30
0.0
  0
SEQEND
  5
BB5
  8
TEXT
  0
POLYLINE
  5
B3
  8
TEXT
 66
     1
 10
0.0
 20
0.0
 30
0.0
  0
VERTEX
  5
824
  8
TEXT
 10
22.23982700375056
 20
13.96196199425383
 30
0.0
  0
VERTEX
  5
825
  8
TEXT
 10
22.23982700375056
 20
14.31696199425383
 30
0.0
  0
VERTEX
  5
826
  8
TEXT
 10
22.16982700375056
 20
14.31696199425383
 30
0.0
  0
VERTEX
  5
827
  8
TEXT
 10
22.34482700375055
 20
14.31696199425383
 30
0.0
  0
VERTEX
  5
828
  8
TEXT
 10
22.23982700375056
 20
14.31696199425383
 30
0.0
  0
VERTEX
  5
829
  8
TEXT
 10
22.23982700375056
 20
14.36196199425383
 30
0.0
 42
-0.4133333333333333
  0
VERTEX
  5
82A
  8
TEXT
 10
22.33982700375055
 20
14.46196199425383
 30
0.0
  0
SEQEND
  5
BB6
  8
TEXT
  0
POLYLINE
  5
B4
  8
TEXT
 66
     1
 10
0.0
 20
0.0
 30
0.0
 70
     1
  0
VERTEX
  5
82B
  8
TEXT
 10
22.44482700375055
 20
13.96196199425383
 30
0.0
  0
VERTEX
  5
82C
  8
TEXT
 10
22.44482700375055
 20
14.46196199425383
 30
0.0
  0
SEQEND
  5
BB7
  8
TEXT
  0
POLYLINE
  5
B5
  8
TEXT
 66
     1
 10
0.0
 20
0.0
 30
0.0
  0
VERTEX
  5
82D
  8
TEXT
 10
22.55482700375056
 20
14.14696199425383
 30
0.0
  0
VERTEX
  5
82E
  8
TEXT
 10
22.92482700375056
 20
14.14696199425383
 30
0.0
 42
0.9023199709436645
  0
VERTEX
  5
82F
  8
TEXT
 10
22.55049367041723
 20
14.19362866092049
 30
0.0
 42
0.8623467340067498
  0
VERTEX
  5
830
  8
TEXT
 10
22.89982700375056
 20
14.05696199425383
 30
0.0
  0
SEQEND
  5
BB8
  8
TEXT
  0
POLYLINE
  5
B6
  8
TEXT
 66
     1
 10
0.0
 20
0.0
 30
0.0
  0
VERTEX
  5
831
  8
TEXT
 10
8.481402652366363
 20
3.022670984716333
 30
0.0
  0
VERTEX
  5
832
  8
TEXT
 10
8.481402652366363
 20
2.522670984716333
 30
0.0
  0
VERTEX
  5
833
  8
TEXT
 10
8.721402652366361
 20
2.522670984716333
 30
0.0
  0
SEQEND
  5
BB9
  8
TEXT
  0
POLYLINE
  5
B7
  8
TEXT
 66
     1
 10
0.0
 20
0.0
 30
0.0
 70
     1
  0
VERTEX
  5
834
  8
TEXT
 10
9.010735985699696
 20
2.517670984716333
 30
0.0
  0
VERTEX
  5
835
  8
TEXT
 10
9.020513360498732
 20
2.517918211537332
 30
0.0
  0
VERTEX
  5
836
  8
TEXT
 10
9.03016238198041
 20
2.518651933297619
 30
0.0
  0
VERTEX
  5
837
  8
TEXT
 10
9.039671112090666
 20
2.51986021194313
 30
0.0
  0
VERTEX
  5
838
  8
TEXT
 10
9.04902761277543
 20
2.5215311094198
 30
0.0
  0
VERTEX
  5
839
  8
TEXT
 10
9.058219945980643
 20
2.523652687673566
 30
0.0
  0
VERTEX
  5
83A
  8
TEXT
 10
9.067236173652237
 20
2.526213008650362
 30
0.0
  0
VERTEX
  5
83B
  8
TEXT
 10
9.076064357736154
 20
2.529200134296126
 30
0.0
  0
VERTEX
  5
83C
  8
TEXT
 10
9.084692560178322
 20
2.532602126556792
 30
0.0
  0
VERTEX
  5
83D
  8
TEXT
 10
9.093108842924682
 20
2.536407047378296
 30
0.0
  0
VERTEX
  5
83E
  8
TEXT
 10
9.10130126792117
 20
2.540602958706573
 30
0.0
  0
VERTEX
  5
83F
  8
TEXT
 10
9.109257897113718
 20
2.545177922487561
 30
0.0
  0
VERTEX
  5
840
  8
TEXT
 10
9.116966792448265
 20
2.550120000667193
 30
0.0
  0
VERTEX
  5
841
  8
TEXT
 10
9.124416015870743
 20
2.555417255191406
 30
0.0
  0
VERTEX
  5
842
  8
TEXT
 10
9.131593629327092
 20
2.561057748006136
 30
0.0
  0
VERTEX
  5
843
  8
TEXT
 10
9.138487694763246
 20
2.567029541057318
 30
0.0
  0
VERTEX
  5
844
  8
TEXT
 10
9.14508627412514
 20
2.573320696290889
 30
0.0
  0
VERTEX
  5
845
  8
TEXT
 10
9.151377429358709
 20
2.579919275652783
 30
0.0
  0
VERTEX
  5
846
  8
TEXT
 10
9.157349222409891
 20
2.586813341088937
 30
0.0
  0
VERTEX
  5
847
  8
TEXT
 10
9.162989715224622
 20
2.593990954545286
 30
0.0
  0
VERTEX
  5
848
  8
TEXT
 10
9.168286969748836
 20
2.601440177967765
 30
0.0
  0
VERTEX
  5
849
  8
TEXT
 10
9.17322904792847
 20
2.609149073302312
 30
0.0
  0
VERTEX
  5
84A
  8
TEXT
 10
9.177804011709457
 20
2.617105702494861
 30
0.0
  0
VERTEX
  5
84B
  8
TEXT
 10
9.181999923037734
 20
2.625298127491348
 30
0.0
  0
VERTEX
  5
84C
  8
TEXT
 10
9.185804843859238
 20
2.633714410237708
 30
0.0
  0
VERTEX
  5
84D
  8
TEXT
 10
9.189206836119904
 20
2.642342612679878
 30
0.0
  0
VERTEX
  5
84E
  8
TEXT
 10
9.192193961765668
 20
2.651170796763793
 30
0.0
  0
VERTEX
  5
84F
  8
TEXT
 10
9.194754282742464
 20
2.660187024435389
 30
0.0
  0
VERTEX
  5
850
  8
TEXT
 10
9.19687586099623
 20
2.669379357640602
 30
0.0
  0
VERTEX
  5
851
  8
TEXT
 10
9.1985467584729
 20
2.678735858325367
 30
0.0
  0
VERTEX
  5
852
  8
TEXT
 10
9.199755037118411
 20
2.68824458843562
 30
0.0
  0
VERTEX
  5
853
  8
TEXT
 10
9.200488758878699
 20
2.697893609917297
 30
0.0
  0
VERTEX
  5
854
  8
TEXT
 10
9.200735985699696
 20
2.707670984716333
 30
0.0
  0
VERTEX
  5
855
  8
TEXT
 10
9.200488758878699
 20
2.71744835951537
 30
0.0
  0
VERTEX
  5
856
  8
TEXT
 10
9.199755037118411
 20
2.727097380997046
 30
0.0
  0
VERTEX
  5
857
  8
TEXT
 10
9.1985467584729
 20
2.736606111107299
 30
0.0
  0
VERTEX
  5
858
  8
TEXT
 10
9.19687586099623
 20
2.745962611792065
 30
0.0
  0
VERTEX
  5
859
  8
TEXT
 10
9.194754282742464
 20
2.755154944997277
 30
0.0
  0
VERTEX
  5
85A
  8
TEXT
 10
9.192193961765668
 20
2.764171172668873
 30
0.0
  0
VERTEX
  5
85B
  8
TEXT
 10
9.189206836119904
 20
2.772999356752788
 30
0.0
  0
VERTEX
  5
85C
  8
TEXT
 10
9.185804843859238
 20
2.781627559194958
 30
0.0
  0
VERTEX
  5
85D
  8
TEXT
 10
9.181999923037734
 20
2.790043841941319
 30
0.0
  0
VERTEX
  5
85E
  8
TEXT
 10
9.177804011709457
 20
2.798236266937805
 30
0.0
  0
VERTEX
  5
85F
  8
TEXT
 10
9.17322904792847
 20
2.806192896130354
 30
0.0
  0
VERTEX
  5
860
  8
TEXT
 10
9.168286969748836
 20
2.813901791464901
 30
0.0
  0
VERTEX
  5
861
  8
TEXT
 10
9.162989715224622
 20
2.821351014887381
 30
0.0
  0
VERTEX
  5
862
  8
TEXT
 10
9.157349222409891
 20
2.828528628343729
 30
0.0
  0
VERTEX
  5
863
  8
TEXT
 10
9.151377429358709
 20
2.835422693779883
 30
0.0
  0
VERTEX
  5
864
  8
TEXT
 10
9.14508627412514
 20
2.842021273141778
 30
0.0
  0
VERTEX
  5
865
  8
TEXT
 10
9.138487694763246
 20
2.848312428375348
 30
0.0
  0
VERTEX
  5
866
  8
TEXT
 10
9.131593629327092
 20
2.85428422142653
 30
0.0
  0
VERTEX
  5
867
  8
TEXT
 10
9.124416015870743
 20
2.85992471424126
 30
0.0
  0
VERTEX
  5
868
  8
TEXT
 10
9.116966792448265
 20
2.865221968765474
 30
0.0
  0
VERTEX
  5
869
  8
TEXT
 10
9.109257897113718
 20
2.870164046945106
 30
0.0
  0
VERTEX
  5
86A
  8
TEXT
 10
9.10130126792117
 20
2.874739010726093
 30
0.0
  0
VERTEX
  5
86B
  8
TEXT
 10
9.093108842924682
 20
2.878934922054371
 30
0.0
  0
VERTEX
  5
86C
  8
TEXT
 10
9.084692560178322
 20
2.882739842875875
 30
0.0
  0
VERTEX
  5
86D
  8
TEXT
 10
9.076064357736154
 20
2.886141835136541
 30
0.0
  0
VERTEX
  5
86E
  8
TEXT
 10
9.067236173652237
 20
2.889128960782304
 30
0.0
  0
VERTEX
  5
86F
  8
TEXT
 10
9.058219945980643
 20
2.8916892817591
 30
0.0
  0
VERTEX
  5
870
  8
TEXT
 10
9.04902761277543
 20
2.893810860012866
 30
0.0
  0
VERTEX
  5
871
  8
TEXT
 10
9.039671112090666
 20
2.895481757489537
 30
0.0
  0
VERTEX
  5
872
  8
TEXT
 10
9.03016238198041
 20
2.896690036135047
 30
0.0
  0
VERTEX
  5
873
  8
TEXT
 10
9.020513360498732
 20
2.897423757895334
 30
0.0
  0
VERTEX
  5
874
  8
TEXT
 10
9.010735985699696
 20
2.897670984716333
 30
0.0
  0
VERTEX
  5
875
  8
TEXT
 10
9.00095861090066
 20
2.897423757895334
 30
0.0
  0
VERTEX
  5
876
  8
TEXT
 10
8.991309589418982
 20
2.896690036135047
 30
0.0
  0
VERTEX
  5
877
  8
TEXT
 10
8.981800859308727
 20
2.895481757489537
 30
0.0
  0
VERTEX
  5
878
  8
TEXT
 10
8.972444358623964
 20
2.893810860012866
 30
0.0
  0
VERTEX
  5
879
  8
TEXT
 10
8.96325202541875
 20
2.8916892817591
 30
0.0
  0
VERTEX
  5
87A
  8
TEXT
 10
8.954235797747156
 20
2.889128960782304
 30
0.0
  0
VERTEX
  5
87B
  8
TEXT
 10
8.945407613663239
 20
2.886141835136541
 30
0.0
  0
VERTEX
  5
87C
  8
TEXT
 10
8.936779411221071
 20
2.882739842875875
 30
0.0
  0
VERTEX
  5
87D
  8
TEXT
 10
8.928363128474711
 20
2.878934922054371
 30
0.0
  0
VERTEX
  5
87E
  8
TEXT
 10
8.920170703478224
 20
2.874739010726093
 30
0.0
  0
VERTEX
  5
87F
  8
TEXT
 10
8.912214074285675
 20
2.870164046945106
 30
0.0
  0
VERTEX
  5
880
  8
TEXT
 10
8.904505178951128
 20
2.865221968765474
 30
0.0
  0
VERTEX
  5
881
  8
TEXT
 10
8.89705595552865
 20
2.85992471424126
 30
0.0
  0
VERTEX
  5
882
  8
TEXT
 10
8.8898783420723
 20
2.85428422142653
 30
0.0
  0
VERTEX
  5
883
  8
TEXT
 10
8.882984276636147
 20
2.848312428375348
 30
0.0
  0
VERTEX
  5
884
  8
TEXT
 10
8.876385697274253
 20
2.842021273141778
 30
0.0
  0
VERTEX
  5
885
  8
TEXT
 10
8.870094542040684
 20
2.835422693779883
 30
0.0
  0
VERTEX
  5
886
  8
TEXT
 10
8.864122748989502
 20
2.828528628343729
 30
0.0
  0
VERTEX
  5
887
  8
TEXT
 10
8.85848225617477
 20
2.821351014887381
 30
0.0
  0
VERTEX
  5
888
  8
TEXT
 10
8.853185001650557
 20
2.813901791464901
 30
0.0
  0
VERTEX
  5
889
  8
TEXT
 10
8.848242923470924
 20
2.806192896130354
 30
0.0
  0
VERTEX
  5
88A
  8
TEXT
 10
8.843667959689936
 20
2.798236266937805
 30
0.0
  0
VERTEX
  5
88B
  8
TEXT
 10
8.839472048361658
 20
2.790043841941319
 30
0.0
  0
VERTEX
  5
88C
  8
TEXT
 10
8.835667127540155
 20
2.781627559194958
 30
0.0
  0
VERTEX
  5
88D
  8
TEXT
 10
8.832265135279489
 20
2.772999356752788
 30
0.0
  0
VERTEX
  5
88E
  8
TEXT
 10
8.829278009633725
 20
2.764171172668873
 30
0.0
  0
VERTEX
  5
88F
  8
TEXT
 10
8.82671768865693
 20
2.755154944997277
 30
0.0
  0
VERTEX
  5
890
  8
TEXT
 10
8.824596110403164
 20
2.745962611792065
 30
0.0
  0
VERTEX
  5
891
  8
TEXT
 10
8.822925212926492
 20
2.736606111107299
 30
0.0
  0
VERTEX
  5
892
  8
TEXT
 10
8.821716934280982
 20
2.727097380997046
 30
0.0
  0
VERTEX
  5
893
  8
TEXT
 10
8.820983212520694
 20
2.71744835951537
 30
0.0
  0
VERTEX
  5
894
  8
TEXT
 10
8.820735985699697
 20
2.707670984716333
 30
0.0
  0
VERTEX
  5
895
  8
TEXT
 10
8.820983212520694
 20
2.697893609917297
 30
0.0
  0
VERTEX
  5
896
  8
TEXT
 10
8.821716934280982
 20
2.68824458843562
 30
0.0
  0
VERTEX
  5
897
  8
TEXT
 10
8.822925212926492
 20
2.678735858325367
 30
0.0
  0
VERTEX
  5
898
  8
TEXT
 10
8.824596110403164
 20
2.669379357640602
 30
0.0
  0
VERTEX
  5
899
  8
TEXT
 10
8.82671768865693
 20
2.660187024435389
 30
0.0
  0
VERTEX
  5
89A
  8
TEXT
 10
8.829278009633725
 20
2.651170796763793
 30
0.0
  0
VERTEX
  5
89B
  8
TEXT
 10
8.832265135279489
 20
2.642342612679878
 30
0.0
  0
VERTEX
  5
89C
  8
TEXT
 10
8.835667127540155
 20
2.633714410237708
 30
0.0
  0
VERTEX
  5
89D
  8
TEXT
 10
8.839472048361658
 20
2.625298127491348
 30
0.0
  0
VERTEX
  5
89E
  8
TEXT
 10
8.843667959689936
 20
2.617105702494861
 30
0.0
  0
VERTEX
  5
89F
  8
TEXT
 10
8.848242923470924
 20
2.609149073302312
 30
0.0
  0
VERTEX
  5
8A0
  8
TEXT
 10
8.853185001650557
 20
2.601440177967765
 30
0.0
  0
VERTEX
  5
8A1
  8
TEXT
 10
8.85848225617477
 20
2.593990954545286
 30
0.0
  0
VERTEX
  5
8A2
  8
TEXT
 10
8.864122748989502
 20
2.586813341088937
 30
0.0
  0
VERTEX
  5
8A3
  8
TEXT
 10
8.870094542040684
 20
2.579919275652783
 30
0.0
  0
VERTEX
  5
8A4
  8
TEXT
 10
8.876385697274253
 20
2.573320696290889
 30
0.0
  0
VERTEX
  5
8A5
  8
TEXT
 10
8.882984276636147
 20
2.567029541057318
 30
0.0
  0
VERTEX
  5
8A6
  8
TEXT
 10
8.8898783420723
 20
2.561057748006136
 30
0.0
  0
VERTEX
  5
8A7
  8
TEXT
 10
8.89705595552865
 20
2.555417255191406
 30
0.0
  0
VERTEX
  5
8A8
  8
TEXT
 10
8.904505178951128
 20
2.550120000667193
 30
0.0
  0
VERTEX
  5
8A9
  8
TEXT
 10
8.912214074285675
 20
2.545177922487561
 30
0.0
  0
VERTEX
  5
8AA
  8
TEXT
 10
8.920170703478224
 20
2.540602958706573
 30
0.0
  0
VERTEX
  5
8AB
  8
TEXT
 10
8.928363128474711
 20
2.536407047378296
 30
0.0
  0
VERTEX
  5
8AC
  8
TEXT
 10
8.936779411221071
 20
2.532602126556792
 30
0.0
  0
VERTEX
  5
8AD
  8
TEXT
 10
8.945407613663239
 20
2.529200134296126
 30
0.0
  0
VERTEX
  5
8AE
  8
TEXT
 10
8.954235797747156
 20
2.526213008650362
 30
0.0
  0
VERTEX
  5
8AF
  8
TEXT
 10
8.96325202541875
 20
2.523652687673566
 30
0.0
  0
VERTEX
  5
8B0
  8
TEXT
 10
8.972444358623964
 20
2.5215311094198
 30
0.0
  0
VERTEX
  5
8B1
  8
TEXT
 10
8.981800859308727
 20
2.51986021194313
 30
0.0
  0
VERTEX
  5
8B2
  8
TEXT
 10
8.991309589418982
 20
2.518651933297619
 30
0.0
  0
VERTEX
  5
8B3
  8
TEXT
 10
9.00095861090066
 20
2.517918211537332
 30
0.0
  0
SEQEND
  5
BBA
  8
TEXT
  0
POLYLINE
  5
B8
  8
TEXT
 66
     1
 10
0.0
 20
0.0
 30
0.0
  0
VERTEX
  5
8B4
  8
TEXT
 10
9.010735985699696
 20
2.517670984716333
 30
0.0
 42
0.4216306000241345
  0
VERTEX
  5
8B5
  8
TEXT
 10
9.200735985699696
 20
2.712670984716333
 30
0.0
  0
VERTEX
  5
8B6
  8
TEXT
 10
9.200735985699696
 20
2.897670984716333
 30
0.0
  0
VERTEX
  5
8B7
  8
TEXT
 10
9.200735985699696
 20
2.522670984716333
 30
0.0
  0
SEQEND
  5
BBB
  8
TEXT
  0
POLYLINE
  5
B9
  8
TEXT
 66
     1
 10
0.0
 20
0.0
 30
0.0
  0
VERTEX
  5
8B8
  8
TEXT
 10
9.300735985699697
 20
2.637670984716333
 30
0.0
  0
VERTEX
  5
8B9
  8
TEXT
 10
9.300735985699697
 20
2.627670984716333
 30
0.0
 42
1.0
  0
VERTEX
  5
8BA
  8
TEXT
 10
9.520735985699696
 20
2.627670984716333
 30
0.0
 42
0.3291043339277775
  0
VERTEX
  5
8BB
  8
TEXT
 10
9.465735985699697
 20
2.702670984716333
 30
0.0
  0
SEQEND
  5
BBC
  8
TEXT
  0
POLYLINE
  5
BA
  8
TEXT
 66
     1
 10
0.0
 20
0.0
 30
0.0
  0
VERTEX
  5
8BC
  8
TEXT
 10
9.460735985699698
 20
2.702670984716333
 30
0.0
  0
VERTEX
  5
8BD
  8
TEXT
 10
9.440735985699696
 20
2.712670984716333
 30
0.0
  0
VERTEX
  5
8BE
  8
TEXT
 10
9.425735985699697
 20
2.717670984716333
 30
0.0
  0
VERTEX
  5
8BF
  8
TEXT
 10
9.400735985699697
 20
2.727670984716333
 30
0.0
  0
VERTEX
  5
8C0
  8
TEXT
 10
9.385735985699696
 20
2.732670984716333
 30
0.0
  0
VERTEX
  5
8C1
  8
TEXT
 10
9.380735985699697
 20
2.732670984716333
 30
0.0
 42
-0.313297509120091
  0
VERTEX
  5
8C2
  8
TEXT
 10
9.325735985699696
 20
2.807670984716333
 30
0.0
 42
-1.0
  0
VERTEX
  5
8C3
  8
TEXT
 10
9.505735985699697
 20
2.807670984716333
 30
0.0
  0
SEQEND
  5
BBD
  8
TEXT
  0
POLYLINE
  5
BB
  8
TEXT
 66
     1
 10
0.0
 20
0.0
 30
0.0
  0
VERTEX
  5
8C4
  8
TEXT
 10
9.720735985699696
 20
2.522670984716333
 30
0.0
  0
VERTEX
  5
8C5
  8
TEXT
 10
9.720735985699696
 20
2.872670984716333
 30
0.0
  0
VERTEX
  5
8C6
  8
TEXT
 10
9.620735985699696
 20
2.872670984716333
 30
0.0
  0
VERTEX
  5
8C7
  8
TEXT
 10
9.820735985699695
 20
2.872670984716333
 30
0.0
  0
VERTEX
  5
8C8
  8
TEXT
 10
9.720735985699696
 20
2.872670984716333
 30
0.0
  0
VERTEX
  5
8C9
  8
TEXT
 10
9.720735985699696
 20
3.022670984716333
 30
0.0
  0
SEQEND
  5
BBE
  8
TEXT
  0
POLYLINE
  5
BC
  8
TEXT
 66
     1
 10
0.0
 20
0.0
 30
0.0
 70
     1
  0
VERTEX
  5
8CA
  8
TEXT
 10
10.34073598569969
 20
2.522670984716333
 30
0.0
  0
VERTEX
  5
8CB
  8
TEXT
 10
10.34073598569969
 20
3.022670984716333
 30
0.0
  0
VERTEX
  5
8CC
  8
TEXT
 10
10.4707359856997
 20
3.022670984716333
 30
0.0
 42
-1.0
  0
VERTEX
  5
8CD
  8
TEXT
 10
10.4707359856997
 20
2.782670984716333
 30
0.0
  0
VERTEX
  5
8CE
  8
TEXT
 10
10.34073598569969
 20
2.782670984716333
 30
0.0
  0
VERTEX
  5
8CF
  8
TEXT
 10
10.4707359856997
 20
2.782670984716333
 30
0.0
  0
VERTEX
  5
8D0
  8
TEXT
 10
10.47842065922595
 20
2.782501829523018
 30
0.0
  0
VERTEX
  5
8D1
  8
TEXT
 10
10.4860044515484
 20
2.781999809371242
 30
0.0
  0
VERTEX
  5
8D2
  8
TEXT
 10
10.4934779797754
 20
2.781173092403261
 30
0.0
  0
VERTEX
  5
8D3
  8
TEXT
 10
10.50083186101536
 20
2.780029846761329
 30
0.0
  0
VERTEX
  5
8D4
  8
TEXT
 10
10.50805671237665
 20
2.7785782405877
 30
0.0
  0
VERTEX
  5
8D5
  8
TEXT
 10
10.51514315096766
 20
2.776826442024628
 30
0.0
  0
VERTEX
  5
8D6
  8
TEXT
 10
10.52208179389677
 20
2.774782619214369
 30
0.0
  0
VERTEX
  5
8D7
  8
TEXT
 10
10.52886325827237
 20
2.772454940299177
 30
0.0
  0
VERTEX
  5
8D8
  8
TEXT
 10
10.53547816120284
 20
2.769851573421306
 30
0.0
  0
VERTEX
  5
8D9
  8
TEXT
 10
10.54191711979657
 20
2.766980686723011
 30
0.0
  0
VERTEX
  5
8DA
  8
TEXT
 10
10.54817075116194
 20
2.763850448346546
 30
0.0
  0
VERTEX
  5
8DB
  8
TEXT
 10
10.55422967240734
 20
2.760469026434166
 30
0.0
  0
VERTEX
  5
8DC
  8
TEXT
 10
10.56008450064115
 20
2.756844589128125
 30
0.0
  0
VERTEX
  5
8DD
  8
TEXT
 10
10.56572585297175
 20
2.752985304570679
 30
0.0
  0
VERTEX
  5
8DE
  8
TEXT
 10
10.57114434650754
 20
2.74889934090408
 30
0.0
  0
VERTEX
  5
8DF
  8
TEXT
 10
10.57633059835689
 20
2.744594866270584
 30
0.0
  0
VERTEX
  5
8E0
  8
TEXT
 10
10.58127522562818
 20
2.740080048812446
 30
0.0
  0
VERTEX
  5
8E1
  8
TEXT
 10
10.58596884542981
 20
2.73536305667192
 30
0.0
  0
VERTEX
  5
8E2
  8
TEXT
 10
10.59040207487017
 20
2.73045205799126
 30
0.0
  0
VERTEX
  5
8E3
  8
TEXT
 10
10.59456553105762
 20
2.725355220912721
 30
0.0
  0
VERTEX
  5
8E4
  8
TEXT
 10
10.59844983110055
 20
2.720080713578558
 30
0.0
  0
VERTEX
  5
8E5
  8
TEXT
 10
10.60204559210737
 20
2.714636704131024
 30
0.0
  0
VERTEX
  5
8E6
  8
TEXT
 10
10.60534343118643
 20
2.709031360712375
 30
0.0
  0
VERTEX
  5
8E7
  8
TEXT
 10
10.60833396544614
 20
2.703272851464866
 30
0.0
  0
VERTEX
  5
8E8
  8
TEXT
 10
10.61100781199488
 20
2.697369344530749
 30
0.0
  0
VERTEX
  5
8E9
  8
TEXT
 10
10.61335558794102
 20
2.691329008052281
 30
0.0
  0
VERTEX
  5
8EA
  8
TEXT
 10
10.61536791039296
 20
2.685160010171716
 30
0.0
  0
VERTEX
  5
8EB
  8
TEXT
 10
10.61703539645908
 20
2.678870519031307
 30
0.0
  0
VERTEX
  5
8EC
  8
TEXT
 10
10.61834866324776
 20
2.67246870277331
 30
0.0
  0
VERTEX
  5
8ED
  8
TEXT
 10
10.61929832786739
 20
2.665962729539979
 30
0.0
  0
VERTEX
  5
8EE
  8
TEXT
 10
10.61987500742635
 20
2.659360767473569
 30
0.0
  0
VERTEX
  5
8EF
  8
TEXT
 10
10.62006931903303
 20
2.652670984716333
 30
0.0
  0
VERTEX
  5
8F0
  8
TEXT
 10
10.61987500742635
 20
2.645981201959097
 30
0.0
  0
VERTEX
  5
8F1
  8
TEXT
 10
10.61929832786739
 20
2.639379239892687
 30
0.0
  0
VERTEX
  5
8F2
  8
TEXT
 10
10.61834866324776
 20
2.632873266659356
 30
0.0
  0
VERTEX
  5
8F3
  8
TEXT
 10
10.61703539645908
 20
2.626471450401359
 30
0.0
  0
VERTEX
  5
8F4
  8
TEXT
 10
10.61536791039296
 20
2.62018195926095
 30
0.0
  0
VERTEX
  5
8F5
  8
TEXT
 10
10.61335558794102
 20
2.614012961380385
 30
0.0
  0
VERTEX
  5
8F6
  8
TEXT
 10
10.61100781199488
 20
2.607972624901917
 30
0.0
  0
VERTEX
  5
8F7
  8
TEXT
 10
10.60833396544614
 20
2.6020691179678
 30
0.0
  0
VERTEX
  5
8F8
  8
TEXT
 10
10.60534343118643
 20
2.596310608720291
 30
0.0
  0
VERTEX
  5
8F9
  8
TEXT
 10
10.60204559210737
 20
2.590705265301642
 30
0.0
  0
VERTEX
  5
8FA
  8
TEXT
 10
10.59844983110055
 20
2.585261255854108
 30
0.0
  0
VERTEX
  5
8FB
  8
TEXT
 10
10.59456553105762
 20
2.579986748519945
 30
0.0
  0
VERTEX
  5
8FC
  8
TEXT
 10
10.59040207487017
 20
2.574889911441406
 30
0.0
  0
VERTEX
  5
8FD
  8
TEXT
 10
10.58596884542981
 20
2.569978912760746
 30
0.0
  0
VERTEX
  5
8FE
  8
TEXT
 10
10.58127522562818
 20
2.56526192062022
 30
0.0
  0
VERTEX
  5
8FF
  8
TEXT
 10
10.57633059835689
 20
2.560747103162082
 30
0.0
  0
VERTEX
  5
900
  8
TEXT
 10
10.57114434650754
 20
2.556442628528586
 30
0.0
  0
VERTEX
  5
901
  8
TEXT
 10
10.56572585297175
 20
2.552356664861987
 30
0.0
  0
VERTEX
  5
902
  8
TEXT
 10
10.56008450064115
 20
2.548497380304541
 30
0.0
  0
VERTEX
  5
903
  8
TEXT
 10
10.55422967240734
 20
2.5448729429985
 30
0.0
  0
VERTEX
  5
904
  8
TEXT
 10
10.54817075116194
 20
2.54149152108612
 30
0.0
  0
VERTEX
  5
905
  8
TEXT
 10
10.54191711979657
 20
2.538361282709655
 30
0.0
  0
VERTEX
  5
906
  8
TEXT
 10
10.53547816120284
 20
2.53549039601136
 30
0.0
  0
VERTEX
  5
907
  8
TEXT
 10
10.52886325827237
 20
2.532887029133489
 30
0.0
  0
VERTEX
  5
908
  8
TEXT
 10
10.52208179389677
 20
2.530559350218297
 30
0.0
  0
VERTEX
  5
909
  8
TEXT
 10
10.51514315096766
 20
2.528515527408038
 30
0.0
  0
VERTEX
  5
90A
  8
TEXT
 10
10.50805671237665
 20
2.526763728844966
 30
0.0
  0
VERTEX
  5
90B
  8
TEXT
 10
10.50083186101536
 20
2.525312122671337
 30
0.0
  0
VERTEX
  5
90C
  8
TEXT
 10
10.4934779797754
 20
2.524168877029405
 30
0.0
  0
VERTEX
  5
90D
  8
TEXT
 10
10.4860044515484
 20
2.523342160061424
 30
0.0
  0
VERTEX
  5
90E
  8
TEXT
 10
10.47842065922595
 20
2.522840139909648
 30
0.0
  0
VERTEX
  5
90F
  8
TEXT
 10
10.4707359856997
 20
2.522670984716333
 30
0.0
  0
SEQEND
  5
BBF
  8
TEXT
  0
POLYLINE
  5
BD
  8
TEXT
 66
     1
 10
0.0
 20
0.0
 30
0.0
 70
     1
  0
VERTEX
  5
910
  8
TEXT
 10
10.90940265236636
 20
2.517670984716333
 30
0.0
  0
VERTEX
  5
911
  8
TEXT
 10
10.9191800271654
 20
2.517918211537332
 30
0.0
  0
VERTEX
  5
912
  8
TEXT
 10
10.92882904864707
 20
2.518651933297619
 30
0.0
  0
VERTEX
  5
913
  8
TEXT
 10
10.93833777875733
 20
2.51986021194313
 30
0.0
  0
VERTEX
  5
914
  8
TEXT
 10
10.94769427944209
 20
2.5215311094198
 30
0.0
  0
VERTEX
  5
915
  8
TEXT
 10
10.95688661264731
 20
2.523652687673566
 30
0.0
  0
VERTEX
  5
916
  8
TEXT
 10
10.9659028403189
 20
2.526213008650362
 30
0.0
  0
VERTEX
  5
917
  8
TEXT
 10
10.97473102440282
 20
2.529200134296126
 30
0.0
  0
VERTEX
  5
918
  8
TEXT
 10
10.98335922684499
 20
2.532602126556792
 30
0.0
  0
VERTEX
  5
919
  8
TEXT
 10
10.99177550959135
 20
2.536407047378296
 30
0.0
  0
VERTEX
  5
91A
  8
TEXT
 10
10.99996793458784
 20
2.540602958706573
 30
0.0
  0
VERTEX
  5
91B
  8
TEXT
 10
11.00792456378039
 20
2.545177922487561
 30
0.0
  0
VERTEX
  5
91C
  8
TEXT
 10
11.01563345911493
 20
2.550120000667193
 30
0.0
  0
VERTEX
  5
91D
  8
TEXT
 10
11.02308268253741
 20
2.555417255191406
 30
0.0
  0
VERTEX
  5
91E
  8
TEXT
 10
11.03026029599376
 20
2.561057748006136
 30
0.0
  0
VERTEX
  5
91F
  8
TEXT
 10
11.03715436142991
 20
2.567029541057318
 30
0.0
  0
VERTEX
  5
920
  8
TEXT
 10
11.04375294079181
 20
2.573320696290889
 30
0.0
  0
VERTEX
  5
921
  8
TEXT
 10
11.05004409602538
 20
2.579919275652783
 30
0.0
  0
VERTEX
  5
922
  8
TEXT
 10
11.05601588907656
 20
2.586813341088937
 30
0.0
  0
VERTEX
  5
923
  8
TEXT
 10
11.06165638189129
 20
2.593990954545286
 30
0.0
  0
VERTEX
  5
924
  8
TEXT
 10
11.0669536364155
 20
2.601440177967765
 30
0.0
  0
VERTEX
  5
925
  8
TEXT
 10
11.07189571459514
 20
2.609149073302312
 30
0.0
  0
VERTEX
  5
926
  8
TEXT
 10
11.07647067837612
 20
2.617105702494861
 30
0.0
  0
VERTEX
  5
927
  8
TEXT
 10
11.0806665897044
 20
2.625298127491348
 30
0.0
  0
VERTEX
  5
928
  8
TEXT
 10
11.0844715105259
 20
2.633714410237708
 30
0.0
  0
VERTEX
  5
929
  8
TEXT
 10
11.08787350278657
 20
2.642342612679878
 30
0.0
  0
VERTEX
  5
92A
  8
TEXT
 10
11.09086062843233
 20
2.651170796763793
 30
0.0
  0
VERTEX
  5
92B
  8
TEXT
 10
11.09342094940913
 20
2.660187024435389
 30
0.0
  0
VERTEX
  5
92C
  8
TEXT
 10
11.09554252766289
 20
2.669379357640602
 30
0.0
  0
VERTEX
  5
92D
  8
TEXT
 10
11.09721342513956
 20
2.678735858325367
 30
0.0
  0
VERTEX
  5
92E
  8
TEXT
 10
11.09842170378507
 20
2.68824458843562
 30
0.0
  0
VERTEX
  5
92F
  8
TEXT
 10
11.09915542554536
 20
2.697893609917297
 30
0.0
  0
VERTEX
  5
930
  8
TEXT
 10
11.09940265236636
 20
2.707670984716333
 30
0.0
  0
VERTEX
  5
931
  8
TEXT
 10
11.09915542554536
 20
2.71744835951537
 30
0.0
  0
VERTEX
  5
932
  8
TEXT
 10
11.09842170378507
 20
2.727097380997046
 30
0.0
  0
VERTEX
  5
933
  8
TEXT
 10
11.09721342513956
 20
2.736606111107299
 30
0.0
  0
VERTEX
  5
934
  8
TEXT
 10
11.09554252766289
 20
2.745962611792065
 30
0.0
  0
VERTEX
  5
935
  8
TEXT
 10
11.09342094940913
 20
2.755154944997277
 30
0.0
  0
VERTEX
  5
936
  8
TEXT
 10
11.09086062843233
 20
2.764171172668873
 30
0.0
  0
VERTEX
  5
937
  8
TEXT
 10
11.08787350278657
 20
2.772999356752788
 30
0.0
  0
VERTEX
  5
938
  8
TEXT
 10
11.0844715105259
 20
2.781627559194958
 30
0.0
  0
VERTEX
  5
939
  8
TEXT
 10
11.0806665897044
 20
2.790043841941319
 30
0.0
  0
VERTEX
  5
93A
  8
TEXT
 10
11.07647067837612
 20
2.798236266937805
 30
0.0
  0
VERTEX
  5
93B
  8
TEXT
 10
11.07189571459514
 20
2.806192896130354
 30
0.0
  0
VERTEX
  5
93C
  8
TEXT
 10
11.0669536364155
 20
2.813901791464901
 30
0.0
  0
VERTEX
  5
93D
  8
TEXT
 10
11.06165638189129
 20
2.821351014887381
 30
0.0
  0
VERTEX
  5
93E
  8
TEXT
 10
11.05601588907656
 20
2.828528628343729
 30
0.0
  0
VERTEX
  5
93F
  8
TEXT
 10
11.05004409602538
 20
2.835422693779883
 30
0.0
  0
VERTEX
  5
940
  8
TEXT
 10
11.04375294079181
 20
2.842021273141778
 30
0.0
  0
VERTEX
  5
941
  8
TEXT
 10
11.03715436142991
 20
2.848312428375348
 30
0.0
  0
VERTEX
  5
942
  8
TEXT
 10
11.03026029599376
 20
2.85428422142653
 30
0.0
  0
VERTEX
  5
943
  8
TEXT
 10
11.02308268253741
 20
2.85992471424126
 30
0.0
  0
VERTEX
  5
944
  8
TEXT
 10
11.01563345911493
 20
2.865221968765474
 30
0.0
  0
VERTEX
  5
945
  8
TEXT
 10
11.00792456378039
 20
2.870164046945106
 30
0.0
  0
VERTEX
  5
946
  8
TEXT
 10
10.99996793458784
 20
2.874739010726093
 30
0.0
  0
VERTEX
  5
947
  8
TEXT
 10
10.99177550959135
 20
2.878934922054371
 30
0.0
  0
VERTEX
  5
948
  8
TEXT
 10
10.98335922684499
 20
2.882739842875875
 30
0.0
  0
VERTEX
  5
949
  8
TEXT
 10
10.97473102440282
 20
2.886141835136541
 30
0.0
  0
VERTEX
  5
94A
  8
TEXT
 10
10.9659028403189
 20
2.889128960782304
 30
0.0
  0
VERTEX
  5
94B
  8
TEXT
 10
10.95688661264731
 20
2.8916892817591
 30
0.0
  0
VERTEX
  5
94C
  8
TEXT
 10
10.94769427944209
 20
2.893810860012866
 30
0.0
  0
VERTEX
  5
94D
  8
TEXT
 10
10.93833777875733
 20
2.895481757489537
 30
0.0
  0
VERTEX
  5
94E
  8
TEXT
 10
10.92882904864707
 20
2.896690036135047
 30
0.0
  0
VERTEX
  5
94F
  8
TEXT
 10
10.9191800271654
 20
2.897423757895334
 30
0.0
  0
VERTEX
  5
950
  8
TEXT
 10
10.90940265236636
 20
2.897670984716333
 30
0.0
  0
VERTEX
  5
951
  8
TEXT
 10
10.89962527756732
 20
2.897423757895334
 30
0.0
  0
VERTEX
  5
952
  8
TEXT
 10
10.88997625608565
 20
2.896690036135047
 30
0.0
  0
VERTEX
  5
953
  8
TEXT
 10
10.88046752597539
 20
2.895481757489537
 30
0.0
  0
VERTEX
  5
954
  8
TEXT
 10
10.87111102529063
 20
2.893810860012866
 30
0.0
  0
VERTEX
  5
955
  8
TEXT
 10
10.86191869208542
 20
2.8916892817591
 30
0.0
  0
VERTEX
  5
956
  8
TEXT
 10
10.85290246441382
 20
2.889128960782304
 30
0.0
  0
VERTEX
  5
957
  8
TEXT
 10
10.84407428032991
 20
2.886141835136541
 30
0.0
  0
VERTEX
  5
958
  8
TEXT
 10
10.83544607788774
 20
2.882739842875875
 30
0.0
  0
VERTEX
  5
959
  8
TEXT
 10
10.82702979514137
 20
2.878934922054371
 30
0.0
  0
VERTEX
  5
95A
  8
TEXT
 10
10.81883737014489
 20
2.874739010726093
 30
0.0
  0
VERTEX
  5
95B
  8
TEXT
 10
10.81088074095234
 20
2.870164046945106
 30
0.0
  0
VERTEX
  5
95C
  8
TEXT
 10
10.80317184561779
 20
2.865221968765474
 30
0.0
  0
VERTEX
  5
95D
  8
TEXT
 10
10.79572262219531
 20
2.85992471424126
 30
0.0
  0
VERTEX
  5
95E
  8
TEXT
 10
10.78854500873896
 20
2.85428422142653
 30
0.0
  0
VERTEX
  5
95F
  8
TEXT
 10
10.78165094330281
 20
2.848312428375348
 30
0.0
  0
VERTEX
  5
960
  8
TEXT
 10
10.77505236394092
 20
2.842021273141778
 30
0.0
  0
VERTEX
  5
961
  8
TEXT
 10
10.76876120870735
 20
2.835422693779883
 30
0.0
  0
VERTEX
  5
962
  8
TEXT
 10
10.76278941565617
 20
2.828528628343729
 30
0.0
  0
VERTEX
  5
963
  8
TEXT
 10
10.75714892284143
 20
2.821351014887381
 30
0.0
  0
VERTEX
  5
964
  8
TEXT
 10
10.75185166831722
 20
2.813901791464901
 30
0.0
  0
VERTEX
  5
965
  8
TEXT
 10
10.74690959013759
 20
2.806192896130354
 30
0.0
  0
VERTEX
  5
966
  8
TEXT
 10
10.7423346263566
 20
2.798236266937805
 30
0.0
  0
VERTEX
  5
967
  8
TEXT
 10
10.73813871502832
 20
2.790043841941319
 30
0.0
  0
VERTEX
  5
968
  8
TEXT
 10
10.73433379420682
 20
2.781627559194958
 30
0.0
  0
VERTEX
  5
969
  8
TEXT
 10
10.73093180194615
 20
2.772999356752788
 30
0.0
  0
VERTEX
  5
96A
  8
TEXT
 10
10.72794467630039
 20
2.764171172668873
 30
0.0
  0
VERTEX
  5
96B
  8
TEXT
 10
10.72538435532359
 20
2.755154944997277
 30
0.0
  0
VERTEX
  5
96C
  8
TEXT
 10
10.72326277706983
 20
2.745962611792065
 30
0.0
  0
VERTEX
  5
96D
  8
TEXT
 10
10.72159187959316
 20
2.736606111107299
 30
0.0
  0
VERTEX
  5
96E
  8
TEXT
 10
10.72038360094765
 20
2.727097380997046
 30
0.0
  0
VERTEX
  5
96F
  8
TEXT
 10
10.71964987918736
 20
2.71744835951537
 30
0.0
  0
VERTEX
  5
970
  8
TEXT
 10
10.71940265236636
 20
2.707670984716333
 30
0.0
  0
VERTEX
  5
971
  8
TEXT
 10
10.71964987918736
 20
2.697893609917297
 30
0.0
  0
VERTEX
  5
972
  8
TEXT
 10
10.72038360094765
 20
2.68824458843562
 30
0.0
  0
VERTEX
  5
973
  8
TEXT
 10
10.72159187959316
 20
2.678735858325367
 30
0.0
  0
VERTEX
  5
974
  8
TEXT
 10
10.72326277706983
 20
2.669379357640602
 30
0.0
  0
VERTEX
  5
975
  8
TEXT
 10
10.72538435532359
 20
2.660187024435389
 30
0.0
  0
VERTEX
  5
976
  8
TEXT
 10
10.72794467630039
 20
2.651170796763793
 30
0.0
  0
VERTEX
  5
977
  8
TEXT
 10
10.73093180194615
 20
2.642342612679878
 30
0.0
  0
VERTEX
  5
978
  8
TEXT
 10
10.73433379420682
 20
2.633714410237708
 30
0.0
  0
VERTEX
  5
979
  8
TEXT
 10
10.73813871502832
 20
2.625298127491348
 30
0.0
  0
VERTEX
  5
97A
  8
TEXT
 10
10.7423346263566
 20
2.617105702494861
 30
0.0
  0
VERTEX
  5
97B
  8
TEXT
 10
10.74690959013759
 20
2.609149073302312
 30
0.0
  0
VERTEX
  5
97C
  8
TEXT
 10
10.75185166831722
 20
2.601440177967765
 30
0.0
  0
VERTEX
  5
97D
  8
TEXT
 10
10.75714892284143
 20
2.593990954545286
 30
0.0
  0
VERTEX
  5
97E
  8
TEXT
 10
10.76278941565617
 20
2.586813341088937
 30
0.0
  0
VERTEX
  5
97F
  8
TEXT
 10
10.76876120870735
 20
2.579919275652783
 30
0.0
  0
VERTEX
  5
980
  8
TEXT
 10
10.77505236394092
 20
2.573320696290889
 30
0.0
  0
VERTEX
  5
981
  8
TEXT
 10
10.78165094330281
 20
2.567029541057318
 30
0.0
  0
VERTEX
  5
982
  8
TEXT
 10
10.78854500873896
 20
2.561057748006136
 30
0.0
  0
VERTEX
  5
983
  8
TEXT
 10
10.79572262219531
 20
2.555417255191406
 30
0.0
  0
VERTEX
  5
984
  8
TEXT
 10
10.80317184561779
 20
2.550120000667193
 30
0.0
  0
VERTEX
  5
985
  8
TEXT
 10
10.81088074095234
 20
2.545177922487561
 30
0.0
  0
VERTEX
  5
986
  8
TEXT
 10
10.81883737014489
 20
2.540602958706573
 30
0.0
  0
VERTEX
  5
987
  8
TEXT
 10
10.82702979514137
 20
2.536407047378296
 30
0.0
  0
VERTEX
  5
988
  8
TEXT
 10
10.83544607788773
 20
2.532602126556792
 30
0.0
  0
VERTEX
  5
989
  8
TEXT
 10
10.8440742803299
 20
2.529200134296126
 30
0.0
  0
VERTEX
  5
98A
  8
TEXT
 10
10.85290246441382
 20
2.526213008650362
 30
0.0
  0
VERTEX
  5
98B
  8
TEXT
 10
10.86191869208541
 20
2.523652687673566
 30
0.0
  0
VERTEX
  5
98C
  8
TEXT
 10
10.87111102529063
 20
2.5215311094198
 30
0.0
  0
VERTEX
  5
98D
  8
TEXT
 10
10.88046752597539
 20
2.51986021194313
 30
0.0
  0
VERTEX
  5
98E
  8
TEXT
 10
10.88997625608565
 20
2.518651933297619
 30
0.0
  0
VERTEX
  5
98F
  8
TEXT
 10
10.89962527756732
 20
2.517918211537332
 30
0.0
  0
SEQEND
  5
BC0
  8
TEXT
  0
POLYLINE
  5
BE
  8
TEXT
 66
     1
 10
0.0
 20
0.0
 30
0.0
  0
VERTEX
  5
990
  8
TEXT
 10
10.90940265236636
 20
2.517670984716333
 30
0.0
 42
0.4216306000241345
  0
VERTEX
  5
991
  8
TEXT
 10
11.09940265236636
 20
2.712670984716333
 30
0.0
  0
VERTEX
  5
992
  8
TEXT
 10
11.09940265236636
 20
2.897670984716333
 30
0.0
  0
VERTEX
  5
993
  8
TEXT
 10
11.09940265236636
 20
2.522670984716333
 30
0.0
  0
SEQEND
  5
BC1
  8
TEXT
  0
POLYLINE
  5
BF
  8
TEXT
 66
     1
 10
0.0
 20
0.0
 30
0.0
  0
VERTEX
  5
994
  8
TEXT
 10
11.26940265236636
 20
2.522670984716333
 30
0.0
  0
VERTEX
  5
995
  8
TEXT
 10
11.26940265236636
 20
2.877670984716333
 30
0.0
  0
VERTEX
  5
996
  8
TEXT
 10
11.19940265236636
 20
2.877670984716333
 30
0.0
  0
VERTEX
  5
997
  8
TEXT
 10
11.37440265236636
 20
2.877670984716333
 30
0.0
  0
VERTEX
  5
998
  8
TEXT
 10
11.26940265236636
 20
2.877670984716333
 30
0.0
  0
VERTEX
  5
999
  8
TEXT
 10
11.26940265236636
 20
2.922670984716333
 30
0.0
 42
-0.4133333333333333
  0
VERTEX
  5
99A
  8
TEXT
 10
11.36940265236636
 20
3.022670984716333
 30
0.0
  0
SEQEND
  5
BC2
  8
TEXT
  0
POLYLINE
  5
C0
  8
TEXT
 66
     1
 10
0.0
 20
0.0
 30
0.0
  0
VERTEX
  5
99B
  8
TEXT
 10
11.54440265236636
 20
2.522670984716333
 30
0.0
  0
VERTEX
  5
99C
  8
TEXT
 10
11.54440265236636
 20
2.877670984716333
 30
0.0
  0
VERTEX
  5
99D
  8
TEXT
 10
11.47440265236636
 20
2.877670984716333
 30
0.0
  0
VERTEX
  5
99E
  8
TEXT
 10
11.64940265236636
 20
2.877670984716333
 30
0.0
  0
VERTEX
  5
99F
  8
TEXT
 10
11.54440265236636
 20
2.877670984716333
 30
0.0
  0
VERTEX
  5
9A0
  8
TEXT
 10
11.54440265236636
 20
2.922670984716333
 30
0.0
 42
-0.4133333333333333
  0
VERTEX
  5
9A1
  8
TEXT
 10
11.64440265236636
 20
3.022670984716333
 30
0.0
  0
SEQEND
  5
BC3
  8
TEXT
  0
POLYLINE
  5
C1
  8
TEXT
 66
     1
 10
0.0
 20
0.0
 30
0.0
 70
     1
  0
VERTEX
  5
9A2
  8
TEXT
 10
11.74940265236636
 20
2.522670984716333
 30
0.0
  0
VERTEX
  5
9A3
  8
TEXT
 10
11.74940265236636
 20
3.022670984716333
 30
0.0
  0
SEQEND
  5
BC4
  8
TEXT
  0
POLYLINE
  5
C2
  8
TEXT
 66
     1
 10
0.0
 20
0.0
 30
0.0
  0
VERTEX
  5
9A4
  8
TEXT
 10
11.85940265236636
 20
2.707670984716333
 30
0.0
  0
VERTEX
  5
9A5
  8
TEXT
 10
12.22940265236636
 20
2.707670984716333
 30
0.0
 42
0.9023199709436645
  0
VERTEX
  5
9A6
  8
TEXT
 10
11.85506931903303
 20
2.754337651383
 30
0.0
 42
0.8623467340067498
  0
VERTEX
  5
9A7
  8
TEXT
 10
12.20440265236636
 20
2.617670984716333
 30
0.0
  0
SEQEND
  5
BC5
  8
TEXT
  0
POLYLINE
  5
C4
  8
INSIDE_CUT
 66
     1
 10
0.0
 20
0.0
 30
0.0
 70
     1
  0
VERTEX
  5
9A8
  8
INSIDE_CUT
 10
9.273013882528431
 20
14.46651521000004
 30
0.0
 42
0.4142135623730951
  0
VERTEX
  5
9A9
  8
INSIDE_CUT
 10
10.82301388252844
 20
12.91651521000004
 30
0.0
 42
0.4142135623730951
  0
VERTEX
  5
9AA
  8
INSIDE_CUT
 10
12.37301388252844
 20
14.46651521000004
 30
0.0
 42
0.4142135623730951
  0
VERTEX
  5
9AB
  8
INSIDE_CUT
 10
10.82301388252844
 20
16.01651521000004
 30
0.0
 42
0.4142135623730951
  0
SEQEND
  5
BC6
  8
INSIDE_CUT
  0
POLYLINE
  5
C5
  8
INSIDE_CUT
 66
     1
 10
0.0
 20
0.0
 30
0.0
 70
     1
  0
VERTEX
  5
9AC
  8
INSIDE_CUT
 10
9.932559297636338
 20
5.119698801106405
 30
0.0
 42
0.4142135623730951
  0
VERTEX
  5
9AD
  8
INSIDE_CUT
 10
9.802559297636337
 20
4.989698801106407
 30
0.0
 42
0.4142135623730951
  0
VERTEX
  5
9AE
  8
INSIDE_CUT
 10
9.932559297636338
 20
4.859698801106405
 30
0.0
 42
0.4142135623730951
  0
VERTEX
  5
9AF
  8
INSIDE_CUT
 10
10.06255929763634
 20
4.989698801106407
 30
0.0
 42
0.4142135623730951
  0
SEQEND
  5
BC7
  8
INSIDE_CUT
  0
POLYLINE
  5
C6
  8
INSIDE_CUT
 66
     1
 10
0.0
 20
0.0
 30
0.0
 70
     1
  0
VERTEX
  5
9B0
  8
INSIDE_CUT
 10
10.75556291756023
 20
5.119696037000737
 30
0.0
 42
0.4142135623730951
  0
VERTEX
  5
9B1
  8
INSIDE_CUT
 10
10.62556291756023
 20
4.989696037000737
 30
0.0
 42
0.4142135623730951
  0
VERTEX
  5
9B2
  8
INSIDE_CUT
 10
10.75556291756023
 20
4.859696037000737
 30
0.0
 42
0.4142135623730951
  0
VERTEX
  5
9B3
  8
INSIDE_CUT
 10
10.88556291756023
 20
4.989696037000737
 30
0.0
 42
0.4142135623730951
  0
SEQEND
  5
BC8
  8
INSIDE_CUT
  0
POLYLINE
  5
C8
  8
125_POCKET
 66
     1
 10
0.0
 20
0.0
 30
0.0
 70
     1
  0
VERTEX
  5
9B4
  8
125_POCKET
 10
16.17726820478895
 20
1.716616967845013
 30
0.0
  0
VERTEX
  5
9B5
  8
125_POCKET
 10
16.17726820478895
 20
6.066016967845013
 30
0.0
  0
VERTEX
  5
9B6
  8
125_POCKET
 10
15.92726820478895
 20
6.066016967845013
 30
0.0
  0
VERTEX
  5
9B7
  8
125_POCKET
 10
15.92726820478895
 20
1.716616967845013
 30
0.0
  0
SEQEND
  5
BC9
  8
125_POCKET
  0
POLYLINE
  5
C9
  8
125_POCKET
 66
     1
 10
0.0
 20
0.0
 30
0.0
 70
     1
  0
VERTEX
  5
9B8
  8
125_POCKET
 10
10.43199362907678
 20
7.939697028181963
 30
0.0
  0
VERTEX
  5
9B9
  8
125_POCKET
 10
10.4319953259469
 20
5.189697028181962
 30
0.0
  0
VERTEX
  5
9BA
  8
125_POCKET
 10
10.18199702281679
 20
5.189697028181962
 30
0.0
  0
VERTEX
  5
9BB
  8
125_POCKET
 10
10.1819953259469
 20
7.939696654868002
 30
0.0
  0
SEQEND
  5
BCA
  8
125_POCKET
  0
POLYLINE
  5
CB
  8
250_POCKET
 66
     1
 10
0.0
 20
0.0
 30
0.0
 70
     1
  0
VERTEX
  5
9BC
  8
250_POCKET
 10
1.000089241883247
 20
18.20079368871376
 30
0.0
  0
VERTEX
  5
9BD
  8
250_POCKET
 10
7.497112425846955
 20
18.20079364045873
 30
0.0
  0
VERTEX
  5
9BE
  8
250_POCKET
 10
7.4972
 20
18.2008
 30
0.0
 42
-0.4142135623730951
  0
VERTEX
  5
9BF
  8
250_POCKET
 10
7.6222
 20
18.0758
 30
0.0
 42
-0.4142135623730951
  0
VERTEX
  5
9C0
  8
250_POCKET
 10
7.497198848959699
 20
17.95080000000078
 30
0.0
  0
VERTEX
  5
9C1
  8
250_POCKET
 10
7.497196782365677
 20
16.40357978487909
 30
0.0
  0
VERTEX
  5
9C2
  8
250_POCKET
 10
7.505265207789318
 20
16.39470290651047
 30
0.0
  0
VERTEX
  5
9C3
  8
250_POCKET
 10
7.512461720627172
 20
16.38507976116876
 30
0.0
  0
VERTEX
  5
9C4
  8
250_POCKET
 10
7.518723481932793
 20
16.37477318929976
 30
0.0
  0
VERTEX
  5
9C5
  8
250_POCKET
 10
7.523987652759731
 20
16.36384603134926
 30
0.0
  0
VERTEX
  5
9C6
  8
250_POCKET
 10
7.526226004572928
 20
16.35816937023277
 30
0.0
  0
VERTEX
  5
9C7
  8
250_POCKET
 10
7.528191394161537
 20
16.35236112776307
 30
0.0
  0
VERTEX
  5
9C8
  8
250_POCKET
 10
7.529875966657251
 20
16.3464291589959
 30
0.0
  0
VERTEX
  5
9C9
  8
250_POCKET
 10
7.531271867191763
 20
16.34038131898699
 30
0.0
  0
VERTEX
  5
9CA
  8
250_POCKET
 10
7.532371240896769
 20
16.33422546279204
 30
0.0
  0
VERTEX
  5
9CB
  8
250_POCKET
 10
7.533166232903961
 20
16.3279694454668
 30
0.0
  0
VERTEX
  5
9CC
  8
250_POCKET
 10
7.533648988345034
 20
16.32162112206699
 30
0.0
  0
VERTEX
  5
9CD
  8
250_POCKET
 10
7.533811652351682
 20
16.31518834764832
 30
0.0
 42
-0.4142135623730951
  0
VERTEX
  5
9CE
  8
250_POCKET
 10
7.408811652351682
 20
16.19018834764832
 30
0.0
  0
VERTEX
  5
9CF
  8
250_POCKET
 10
7.402380193456575
 20
16.19035094505346
 30
0.0
  0
VERTEX
  5
9D0
  8
250_POCKET
 10
7.396033149205811
 20
16.19083350423747
 30
0.0
  0
VERTEX
  5
9D1
  8
250_POCKET
 10
7.389778369806117
 20
16.19162817565324
 30
0.0
  0
VERTEX
  5
9D2
  8
250_POCKET
 10
7.38362370546422
 20
16.19272710975364
 30
0.0
  0
VERTEX
  5
9D3
  8
250_POCKET
 10
7.377577006386844
 20
16.19412245699158
 30
0.0
  0
VERTEX
  5
9D4
  8
250_POCKET
 10
7.371646122780716
 20
16.19580636781993
 30
0.0
  0
VERTEX
  5
9D5
  8
250_POCKET
 10
7.360163202809113
 20
16.20000848205941
 30
0.0
  0
VERTEX
  5
9D6
  8
250_POCKET
 10
7.349237747203221
 20
16.20527065609517
 30
0.0
  0
VERTEX
  5
9D7
  8
250_POCKET
 10
7.338932557616852
 20
16.21153009355029
 30
0.0
  0
VERTEX
  5
9D8
  8
250_POCKET
 10
7.329310435703816
 20
16.21872399804787
 30
0.0
  0
VERTEX
  5
9D9
  8
250_POCKET
 10
7.320434183117925
 20
16.22678957321099
 30
0.0
  0
VERTEX
  5
9DA
  8
250_POCKET
 10
6.923973743754926
 20
16.22679002560846
 30
0.0
  0
VERTEX
  5
9DB
  8
250_POCKET
 10
6.915097003807295
 20
16.21872229666557
 30
0.0
  0
VERTEX
  5
9DC
  8
250_POCKET
 10
6.905474084880161
 20
16.21152641043093
 30
0.0
  0
VERTEX
  5
9DD
  8
250_POCKET
 10
6.895167818835119
 20
16.20526519876611
 30
0.0
  0
VERTEX
  5
9DE
  8
250_POCKET
 10
6.884241037533759
 20
16.20000149353264
 30
0.0
  0
VERTEX
  5
9DF
  8
250_POCKET
 10
6.878564588618707
 20
16.19776334078439
 30
0.0
  0
VERTEX
  5
9E0
  8
250_POCKET
 10
6.872756572837673
 20
16.19579812659206
 30
0.0
  0
VERTEX
  5
9E1
  8
250_POCKET
 10
6.866824844173356
 20
16.19411370493834
 30
0.0
  0
VERTEX
  5
9E2
  8
250_POCKET
 10
6.860777256608455
 20
16.19271792980592
 30
0.0
  0
VERTEX
  5
9E3
  8
250_POCKET
 10
6.854621664125669
 20
16.1916186551775
 30
0.0
  0
VERTEX
  5
9E4
  8
250_POCKET
 10
6.848365920707698
 20
16.19082373503577
 30
0.0
  0
VERTEX
  5
9E5
  8
250_POCKET
 10
6.84201788033724
 20
16.19034102336343
 30
0.0
  0
VERTEX
  5
9E6
  8
250_POCKET
 10
6.835585396996993
 20
16.19017837414316
 30
0.0
 42
-0.4142135623730951
  0
VERTEX
  5
9E7
  8
250_POCKET
 10
6.710585396996993
 20
16.31517837414316
 30
0.0
  0
VERTEX
  5
9E8
  8
250_POCKET
 10
6.710748046221335
 20
16.32161085756361
 30
0.0
  0
VERTEX
  5
9E9
  8
250_POCKET
 10
6.711230757905739
 20
16.3279588980121
 30
0.0
  0
VERTEX
  5
9EA
  8
250_POCKET
 10
6.712025678067264
 20
16.33421464150572
 30
0.0
  0
VERTEX
  5
9EB
  8
250_POCKET
 10
6.713124952722977
 20
16.34037023406151
 30
0.0
  0
VERTEX
  5
9EC
  8
250_POCKET
 10
6.714520727889937
 20
16.34641782169654
 30
0.0
  0
VERTEX
  5
9ED
  8
250_POCKET
 10
6.716205149585208
 20
16.35234955042787
 30
0.0
  0
VERTEX
  5
9EE
  8
250_POCKET
 10
6.720408516628934
 20
16.36383401524771
 30
0.0
  0
VERTEX
  5
9EF
  8
250_POCKET
 10
6.725672221990656
 20
16.3747607966575
 30
0.0
  0
VERTEX
  5
9F0
  8
250_POCKET
 10
6.731933433806875
 20
16.38506706279377
 30
0.0
  0
VERTEX
  5
9F1
  8
250_POCKET
 10
6.73912932021409
 20
16.394689981793
 30
0.0
  0
VERTEX
  5
9F2
  8
250_POCKET
 10
6.747197049348804
 20
16.40356672179171
 30
0.0
  0
VERTEX
  5
9F3
  8
250_POCKET
 10
6.747197049348409
 20
17.45078740201336
 30
0.0
  0
VERTEX
  5
9F4
  8
250_POCKET
 10
5.559723294443368
 20
17.45078740201311
 30
0.0
  0
VERTEX
  5
9F5
  8
250_POCKET
 10
5.559744525725031
 20
11.30181766437968
 30
0.0
  0
VERTEX
  5
9F6
  8
250_POCKET
 10
5.567898615822023
 20
11.29282605726353
 30
0.0
  0
VERTEX
  5
9F7
  8
250_POCKET
 10
5.575133062115164
 20
11.28310250802022
 30
0.0
  0
VERTEX
  5
9F8
  8
250_POCKET
 10
5.581396216868778
 20
11.27271981031237
 30
0.0
  0
VERTEX
  5
9F9
  8
250_POCKET
 10
5.58663643234719
 20
11.26175075780262
 30
0.0
  0
VERTEX
  5
9FA
  8
250_POCKET
 10
5.588856797940798
 20
11.2560690965166
 30
0.0
  0
VERTEX
  5
9FB
  8
250_POCKET
 10
5.590802060814726
 20
11.25026814415359
 30
0.0
  0
VERTEX
  5
9FC
  8
250_POCKET
 10
5.592465765002014
 20
11.24435699992142
 30
0.0
  0
VERTEX
  5
9FD
  8
250_POCKET
 10
5.593841454535708
 20
11.23834476302792
 30
0.0
  0
VERTEX
  5
9FE
  8
250_POCKET
 10
5.594922673448844
 20
11.23224053268091
 30
0.0
  0
VERTEX
  5
9FF
  8
250_POCKET
 10
5.595702965774463
 20
11.22605340808823
 30
0.0
  0
VERTEX
  5
A00
  8
250_POCKET
 10
5.596175875545607
 20
11.21979248845771
 30
0.0
  0
VERTEX
  5
A01
  8
250_POCKET
 10
5.596334946795316
 20
11.21346687299717
 30
0.0
 42
-0.4142135623730951
  0
VERTEX
  5
A02
  8
250_POCKET
 10
5.471334946795316
 20
11.08846687299717
 30
0.0
  0
VERTEX
  5
A03
  8
250_POCKET
 10
5.46490246337491
 20
11.08862952222151
 30
0.0
  0
VERTEX
  5
A04
  8
250_POCKET
 10
5.458554422926452
 20
11.0891122339059
 30
0.0
  0
VERTEX
  5
A05
  8
250_POCKET
 10
5.452298679432879
 20
11.08990715406742
 30
0.0
  0
VERTEX
  5
A06
  8
250_POCKET
 10
5.446143086877126
 20
11.09100642872312
 30
0.0
  0
VERTEX
  5
A07
  8
250_POCKET
 10
5.440095499242132
 20
11.09240220389007
 30
0.0
  0
VERTEX
  5
A08
  8
250_POCKET
 10
5.434163770510835
 20
11.09408662558532
 30
0.0
  0
VERTEX
  5
A09
  8
250_POCKET
 10
5.422679305691074
 20
11.09828999262901
 30
0.0
  0
VERTEX
  5
A0A
  8
250_POCKET
 10
5.411752524281343
 20
11.1035536979907
 30
0.0
  0
VERTEX
  5
A0B
  8
250_POCKET
 10
5.401446258145139
 20
11.10981490980689
 30
0.0
  0
VERTEX
  5
A0C
  8
250_POCKET
 10
5.39182333914596
 20
11.11701079621407
 30
0.0
  0
VERTEX
  5
A0D
  8
250_POCKET
 10
5.382946599147304
 20
11.12507852534877
 30
0.0
  0
VERTEX
  5
A0E
  8
250_POCKET
 10
4.986499989740327
 20
11.12507852534888
 30
0.0
  0
VERTEX
  5
A0F
  8
250_POCKET
 10
4.977623249741608
 20
11.11701079621417
 30
0.0
  0
VERTEX
  5
A10
  8
250_POCKET
 10
4.968000330742376
 20
11.10981490980696
 30
0.0
  0
VERTEX
  5
A11
  8
250_POCKET
 10
4.957694064606124
 20
11.10355369799076
 30
0.0
  0
VERTEX
  5
A12
  8
250_POCKET
 10
4.946767283196349
 20
11.09828999262906
 30
0.0
  0
VERTEX
  5
A13
  8
250_POCKET
 10
4.941090834221232
 20
11.09605183982599
 30
0.0
  0
VERTEX
  5
A14
  8
250_POCKET
 10
4.935282818376547
 20
11.09408662558535
 30
0.0
  0
VERTEX
  5
A15
  8
250_POCKET
 10
4.929351089645229
 20
11.09240220389009
 30
0.0
  0
VERTEX
  5
A16
  8
250_POCKET
 10
4.923303502010217
 20
11.09100642872314
 30
0.0
  0
VERTEX
  5
A17
  8
250_POCKET
 10
4.917147909454445
 20
11.08990715406743
 30
0.0
  0
VERTEX
  5
A18
  8
250_POCKET
 10
4.910892165960853
 20
11.08911223390591
 30
0.0
  0
VERTEX
  5
A19
  8
250_POCKET
 10
4.904544125512376
 20
11.08862952222151
 30
0.0
  0
VERTEX
  5
A1A
  8
250_POCKET
 10
4.898111642091952
 20
11.08846687299717
 30
0.0
 42
-0.4142135623730951
  0
VERTEX
  5
A1B
  8
250_POCKET
 10
4.773111642091952
 20
11.21346687299717
 30
0.0
  0
VERTEX
  5
A1C
  8
250_POCKET
 10
4.773272058262618
 20
11.21983867220487
 30
0.0
  0
VERTEX
  5
A1D
  8
250_POCKET
 10
4.773748541501422
 20
11.22613400169422
 30
0.0
  0
VERTEX
  5
A1E
  8
250_POCKET
 10
4.774533943898554
 20
11.23234460612907
 30
0.0
  0
VERTEX
  5
A1F
  8
250_POCKET
 10
4.775621117544206
 20
11.23846223017324
 30
0.0
  0
VERTEX
  5
A20
  8
250_POCKET
 10
4.777002914528572
 20
11.24447861849058
 30
0.0
  0
VERTEX
  5
A21
  8
250_POCKET
 10
4.778672186941842
 20
11.25038551574493
 30
0.0
  0
VERTEX
  5
A22
  8
250_POCKET
 10
4.782844566415862
 20
11.26183781571997
 30
0.0
  0
VERTEX
  5
A23
  8
250_POCKET
 10
4.788081072687802
 20
11.27275308740906
 30
0.0
  0
VERTEX
  5
A24
  8
250_POCKET
 10
4.794324522479199
 20
11.2830652881229
 30
0.0
  0
VERTEX
  5
A25
  8
250_POCKET
 10
4.801517732511588
 20
11.29270837517218
 30
0.0
  0
VERTEX
  5
A26
  8
250_POCKET
 10
4.809603519506503
 20
11.30161630586759
 30
0.0
  0
VERTEX
  5
A27
  8
250_POCKET
 10
4.809723294443891
 20
17.45078740201252
 30
0.0
  0
VERTEX
  5
A28
  8
250_POCKET
 10
1.000025370239835
 20
17.45078740201345
 30
0.0
  0
VERTEX
  5
A29
  8
250_POCKET
 10
1.000023255642945
 20
17.45079952859168
 30
0.0
 42
-0.4142135623730951
  0
VERTEX
  5
A2A
  8
250_POCKET
 10
0.875021141456263
 20
17.57579952852017
 30
0.0
 42
-0.4142135623730951
  0
VERTEX
  5
A2B
  8
250_POCKET
 10
1.00001902727479
 20
17.70079937451417
 30
0.0
  0
VERTEX
  5
A2C
  8
250_POCKET
 10
1.000006342130339
 20
17.95080009435951
 30
0.0
 42
-0.4142135623730951
  0
VERTEX
  5
A2D
  8
250_POCKET
 10
0.875004227943657
 20
18.075800094288
 30
0.0
 42
-0.4142135623730951
  0
VERTEX
  5
A2E
  8
250_POCKET
 10
1.000004227943657
 20
18.200800094288
 30
0.0
  0
SEQEND
  5
BCB
  8
250_POCKET
  0
POLYLINE
  5
CC
  8
250_POCKET
 66
     1
 10
0.0
 20
0.0
 30
0.0
 70
     1
  0
VERTEX
  5
A2F
  8
250_POCKET
 10
0.9999999999997347
 20
10.11068740202987
 30
0.0
  0
VERTEX
  5
A30
  8
250_POCKET
 10
7.497197866519517
 20
10.11068739811972
 30
0.0
 42
0.4142135623730951
  0
VERTEX
  5
A31
  8
250_POCKET
 10
7.622197866519517
 20
10.23568739811972
 30
0.0
 42
0.4142135623730951
  0
VERTEX
  5
A32
  8
250_POCKET
 10
7.497197866519517
 20
10.36068739811972
 30
0.0
  0
VERTEX
  5
A33
  8
250_POCKET
 10
7.497198933258677
 20
10.61069999999684
 30
0.0
 42
0.4142135623730951
  0
VERTEX
  5
A34
  8
250_POCKET
 10
7.622199999997836
 20
10.73569999999684
 30
0.0
 42
0.4142135623730951
  0
VERTEX
  5
A35
  8
250_POCKET
 10
7.497199999997836
 20
10.86069999999684
 30
0.0
  0
VERTEX
  5
A36
  8
250_POCKET
 10
7.497112427667053
 20
10.86069364047041
 30
0.0
  0
VERTEX
  5
A37
  8
250_POCKET
 10
6.534113294443397
 20
10.86068875953525
 30
0.0
  0
VERTEX
  5
A38
  8
250_POCKET
 10
6.534113294443445
 20
17.04962070671656
 30
0.0
  0
VERTEX
  5
A39
  8
250_POCKET
 10
6.542181023578147
 20
17.05849744671528
 30
0.0
  0
VERTEX
  5
A3A
  8
250_POCKET
 10
6.549376909985339
 20
17.0681203657145
 30
0.0
  0
VERTEX
  5
A3B
  8
250_POCKET
 10
6.555638121801529
 20
17.07842663185073
 30
0.0
  0
VERTEX
  5
A3C
  8
250_POCKET
 10
6.560901827163219
 20
17.08935341326049
 30
0.0
  0
VERTEX
  5
A3D
  8
250_POCKET
 10
6.563139979966285
 20
17.0950298622356
 30
0.0
  0
VERTEX
  5
A3E
  8
250_POCKET
 10
6.565105194206915
 20
17.10083787808027
 30
0.0
  0
VERTEX
  5
A3F
  8
250_POCKET
 10
6.566789615902172
 20
17.10676960681158
 30
0.0
  0
VERTEX
  5
A40
  8
250_POCKET
 10
6.56818539106912
 20
17.11281719444658
 30
0.0
  0
VERTEX
  5
A41
  8
250_POCKET
 10
6.569284665724821
 20
17.11897278700233
 30
0.0
  0
VERTEX
  5
A42
  8
250_POCKET
 10
6.570079585886339
 20
17.12522853049591
 30
0.0
  0
VERTEX
  5
A43
  8
250_POCKET
 10
6.570562297570738
 20
17.13157657094438
 30
0.0
  0
VERTEX
  5
A44
  8
250_POCKET
 10
6.570724946795079
 20
17.13800905436479
 30
0.0
 42
0.4142135623730951
  0
VERTEX
  5
A45
  8
250_POCKET
 10
6.445724946795079
 20
17.26300905436479
 30
0.0
  0
VERTEX
  5
A46
  8
250_POCKET
 10
6.439367064479638
 20
17.26284891327027
 30
0.0
  0
VERTEX
  5
A47
  8
250_POCKET
 10
6.433081152399408
 20
17.26237312033903
 30
0.0
  0
VERTEX
  5
A48
  8
250_POCKET
 10
6.426875817500887
 20
17.26158862109951
 30
0.0
  0
VERTEX
  5
A49
  8
250_POCKET
 10
6.42075966673058
 20
17.26050236108014
 30
0.0
  0
VERTEX
  5
A4A
  8
250_POCKET
 10
6.414741307034985
 20
17.25912128580936
 30
0.0
  0
VERTEX
  5
A4B
  8
250_POCKET
 10
6.408829345360607
 20
17.25745234081562
 30
0.0
  0
VERTEX
  5
A4C
  8
250_POCKET
 10
6.397359043861499
 20
17.25327862377299
 30
0.0
  0
VERTEX
  5
A4D
  8
250_POCKET
 10
6.38641761780527
 20
17.24803677417977
 30
0.0
  0
VERTEX
  5
A4E
  8
250_POCKET
 10
6.376073922763931
 20
17.24178235626349
 30
0.0
  0
VERTEX
  5
A4F
  8
250_POCKET
 10
6.366396814309493
 20
17.23457093425164
 30
0.0
  0
VERTEX
  5
A50
  8
250_POCKET
 10
6.357455148013969
 20
17.22645807237175
 30
0.0
  0
VERTEX
  5
A51
  8
250_POCKET
 10
5.960879094503095
 20
17.22639750137321
 30
0.0
  0
VERTEX
  5
A52
  8
250_POCKET
 10
5.952002247051375
 20
17.23446577120695
 30
0.0
  0
VERTEX
  5
A53
  8
250_POCKET
 10
5.942379152285163
 20
17.24166214406472
 30
0.0
  0
VERTEX
  5
A54
  8
250_POCKET
 10
5.932072648732421
 20
17.24792378258292
 30
0.0
  0
VERTEX
  5
A55
  8
250_POCKET
 10
5.921145574921113
 20
17.25318784939798
 30
0.0
  0
VERTEX
  5
A56
  8
250_POCKET
 10
5.915468961208484
 20
17.25542615674071
 30
0.0
  0
VERTEX
  5
A57
  8
250_POCKET
 10
5.9096607693792
 20
17.25739150714631
 30
0.0
  0
VERTEX
  5
A58
  8
250_POCKET
 10
5.903728854249255
 20
17.25907604594433
 30
0.0
  0
VERTEX
  5
A59
  8
250_POCKET
 10
5.897681070634647
 20
17.26047191846432
 30
0.0
  0
VERTEX
  5
A5A
  8
250_POCKET
 10
5.891525273351369
 20
17.26157127003583
 30
0.0
  0
VERTEX
  5
A5B
  8
250_POCKET
 10
5.885269317215416
 20
17.26236624598842
 30
0.0
  0
VERTEX
  5
A5C
  8
250_POCKET
 10
5.878921057042784
 20
17.26284899165163
 30
0.0
  0
VERTEX
  5
A5D
  8
250_POCKET
 10
5.872488347649468
 20
17.26301165235502
 30
0.0
 42
0.4142135623730951
  0
VERTEX
  5
A5E
  8
250_POCKET
 10
5.747488347649468
 20
17.13801165235502
 30
0.0
  0
VERTEX
  5
A5F
  8
250_POCKET
 10
5.747651055619093
 20
17.13157801257616
 30
0.0
  0
VERTEX
  5
A60
  8
250_POCKET
 10
5.748133941193094
 20
17.12522884774821
 30
0.0
  0
VERTEX
  5
A61
  8
250_POCKET
 10
5.748929146869159
 20
17.11897201611772
 30
0.0
  0
VERTEX
  5
A62
  8
250_POCKET
 10
5.750028815144977
 20
17.11281537593121
 30
0.0
  0
VERTEX
  5
A63
  8
250_POCKET
 10
5.751425088518236
 20
17.10676678543519
 30
0.0
  0
VERTEX
  5
A64
  8
250_POCKET
 10
5.753110109486625
 20
17.10083410287619
 30
0.0
  0
VERTEX
  5
A65
  8
250_POCKET
 10
5.755076020547833
 20
17.09502518650073
 30
0.0
  0
VERTEX
  5
A66
  8
250_POCKET
 10
5.757314964199547
 20
17.08934789455535
 30
0.0
  0
VERTEX
  5
A67
  8
250_POCKET
 10
5.762580519265248
 20
17.0784196169409
 30
0.0
  0
VERTEX
  5
A68
  8
250_POCKET
 10
5.768843914665238
 20
17.06811213600502
 30
0.0
  0
VERTEX
  5
A69
  8
250_POCKET
 10
5.776042290381024
 20
17.05848831771991
 30
0.0
  0
VERTEX
  5
A6A
  8
250_POCKET
 10
5.784112786394115
 20
17.04961102805777
 30
0.0
  0
VERTEX
  5
A6B
  8
250_POCKET
 10
5.784113294443397
 20
10.86068875953525
 30
0.0
  0
VERTEX
  5
A6C
  8
250_POCKET
 10
1.000025370239518
 20
10.86068740202994
 30
0.0
 42
0.4142135623730951
  0
VERTEX
  5
A6D
  8
250_POCKET
 10
0.8750253702395183
 20
10.73568740202994
 30
0.0
 42
0.4142135623730951
  0
VERTEX
  5
A6E
  8
250_POCKET
 10
1.00002114187664
 20
10.61068771004178
 30
0.0
  0
VERTEX
  5
A6F
  8
250_POCKET
 10
1.000004228373027
 20
10.36068740188684
 30
0.0
 42
0.4142135623730951
  0
VERTEX
  5
A70
  8
250_POCKET
 10
0.8749999999997347
 20
10.23568740202987
 30
0.0
 42
0.4142135623730951
  0
SEQEND
  5
BCC
  8
250_POCKET
  0
POLYLINE
  5
CD
  8
250_POCKET
 66
     1
 10
0.0
 20
0.0
 30
0.0
 70
     1
  0
VERTEX
  5
A71
  8
250_POCKET
 10
1.0
 20
1.016199999999995
 30
0.0
  0
VERTEX
  5
A72
  8
250_POCKET
 10
1.0
 20
1.016199209729636
 30
0.0
  0
VERTEX
  5
A73
  8
250_POCKET
 10
7.500050270612317
 20
1.01619921300966
 30
0.0
  0
VERTEX
  5
A74
  8
250_POCKET
 10
7.500050269849327
 20
1.016200009835138
 30
0.0
  0
VERTEX
  5
A75
  8
250_POCKET
 10
7.5001
 20
1.0162
 30
0.0
 42
0.4142135623730951
  0
VERTEX
  5
A76
  8
250_POCKET
 10
7.6251
 20
1.1412
 30
0.0
 42
0.4142135623730951
  0
VERTEX
  5
A77
  8
250_POCKET
 10
7.5001
 20
1.2662
 30
0.0
  0
VERTEX
  5
A78
  8
250_POCKET
 10
7.500041812948572
 20
1.266199986746683
 30
0.0
  0
VERTEX
  5
A79
  8
250_POCKET
 10
7.500031242878674
 20
1.516200803611332
 30
0.0
 42
0.4142135623730951
  0
VERTEX
  5
A7A
  8
250_POCKET
 10
7.625029128697236
 20
1.641200649605399
 30
0.0
 42
0.4142135623730951
  0
VERTEX
  5
A7B
  8
250_POCKET
 10
7.500027014534885
 20
1.766199931307566
 30
0.0
  0
VERTEX
  5
A7C
  8
250_POCKET
 10
2.713134900404758
 20
1.766200570515046
 30
0.0
  0
VERTEX
  5
A7D
  8
250_POCKET
 10
2.71313490040475
 20
7.95513251771428
 30
0.0
  0
VERTEX
  5
A7E
  8
250_POCKET
 10
2.721202629539457
 20
7.96400925771299
 30
0.0
  0
VERTEX
  5
A7F
  8
250_POCKET
 10
2.728398515946658
 20
7.973632176712216
 30
0.0
  0
VERTEX
  5
A80
  8
250_POCKET
 10
2.734659727762856
 20
7.98393844284846
 30
0.0
  0
VERTEX
  5
A81
  8
250_POCKET
 10
2.739923433124556
 20
7.994865224258229
 30
0.0
  0
VERTEX
  5
A82
  8
250_POCKET
 10
2.742161585927627
 20
8.00054167323334
 30
0.0
  0
VERTEX
  5
A83
  8
250_POCKET
 10
2.744126800168261
 20
8.006349689078021
 30
0.0
  0
VERTEX
  5
A84
  8
250_POCKET
 10
2.745811221863522
 20
8.012281417809337
 30
0.0
  0
VERTEX
  5
A85
  8
250_POCKET
 10
2.747206997030474
 20
8.018329005444345
 30
0.0
  0
VERTEX
  5
A86
  8
250_POCKET
 10
2.748306271686178
 20
8.024484598000114
 30
0.0
  0
VERTEX
  5
A87
  8
250_POCKET
 10
2.749101191847699
 20
8.0307403414937
 30
0.0
  0
VERTEX
  5
A88
  8
250_POCKET
 10
2.749583903532098
 20
8.037088381942176
 30
0.0
  0
VERTEX
  5
A89
  8
250_POCKET
 10
2.74974655275644
 20
8.043520865362595
 30
0.0
 42
0.4142135623730951
  0
VERTEX
  5
A8A
  8
250_POCKET
 10
2.62474655275644
 20
8.168520865362595
 30
0.0
  0
VERTEX
  5
A8B
  8
250_POCKET
 10
2.618314069336021
 20
8.168358216138254
 30
0.0
  0
VERTEX
  5
A8C
  8
250_POCKET
 10
2.61196602888755
 20
8.167875504453853
 30
0.0
  0
VERTEX
  5
A8D
  8
250_POCKET
 10
2.605710285393962
 20
8.167080584292334
 30
0.0
  0
VERTEX
  5
A8E
  8
250_POCKET
 10
2.599554692838197
 20
8.16598130963663
 30
0.0
  0
VERTEX
  5
A8F
  8
250_POCKET
 10
2.593507105203189
 20
8.164585534469678
 30
0.0
  0
VERTEX
  5
A90
  8
250_POCKET
 10
2.587575376471877
 20
8.162901112774419
 30
0.0
  0
VERTEX
  5
A91
  8
250_POCKET
 10
2.576090911652087
 20
8.158697745730716
 30
0.0
  0
VERTEX
  5
A92
  8
250_POCKET
 10
2.565164130242325
 20
8.153434040369017
 30
0.0
  0
VERTEX
  5
A93
  8
250_POCKET
 10
2.554857864106087
 20
8.14717282855282
 30
0.0
  0
VERTEX
  5
A94
  8
250_POCKET
 10
2.54523494510687
 20
8.139976942145621
 30
0.0
  0
VERTEX
  5
A95
  8
250_POCKET
 10
2.53635820510817
 20
8.131909213010914
 30
0.0
  0
VERTEX
  5
A96
  8
250_POCKET
 10
2.139871256621104
 20
8.131904606505483
 30
0.0
  0
VERTEX
  5
A97
  8
250_POCKET
 10
2.130996311810218
 20
8.139970815133513
 30
0.0
  0
VERTEX
  5
A98
  8
250_POCKET
 10
2.121374741857464
 20
8.147165558911436
 30
0.0
  0
VERTEX
  5
A99
  8
250_POCKET
 10
2.111069442360818
 20
8.15342595199327
 30
0.0
  0
VERTEX
  5
A9A
  8
250_POCKET
 10
2.100143308918254
 20
8.158689108533032
 30
0.0
  0
VERTEX
  5
A9B
  8
250_POCKET
 10
2.094467084341621
 20
8.160927071272766
 30
0.0
  0
VERTEX
  5
A9C
  8
250_POCKET
 10
2.088659237127749
 20
8.162892142684742
 30
0.0
  0
VERTEX
  5
A9D
  8
250_POCKET
 10
2.082727629226387
 20
8.164576462038207
 30
0.0
  0
VERTEX
  5
A9E
  8
250_POCKET
 10
2.076680122587279
 20
8.165972168602416
 30
0.0
  0
VERTEX
  5
A9F
  8
250_POCKET
 10
2.070524579160173
 20
8.16707140164662
 30
0.0
  0
VERTEX
  5
AA0
  8
250_POCKET
 10
2.064268860894817
 20
8.167866300440071
 30
0.0
  0
VERTEX
  5
AA1
  8
250_POCKET
 10
2.057920829740957
 20
8.168349004252025
 30
0.0
  0
VERTEX
  5
AA2
  8
250_POCKET
 10
2.05148834764834
 20
8.168511652351732
 30
0.0
 42
0.4142135623730951
  0
VERTEX
  5
AA3
  8
250_POCKET
 10
1.92648834764834
 20
8.043511652351732
 30
0.0
  0
VERTEX
  5
AA4
  8
250_POCKET
 10
1.926651151114827
 20
8.03707613354706
 30
0.0
  0
VERTEX
  5
AA5
  8
250_POCKET
 10
1.927134319361917
 20
8.030725143632782
 30
0.0
  0
VERTEX
  5
AA6
  8
250_POCKET
 10
1.927929989161054
 20
8.024466549740104
 30
0.0
  0
VERTEX
  5
AA7
  8
250_POCKET
 10
1.929030297283685
 20
8.018308219000232
 30
0.0
  0
VERTEX
  5
AA8
  8
250_POCKET
 10
1.930427380501253
 20
8.012258018544374
 30
0.0
  0
VERTEX
  5
AA9
  8
250_POCKET
 10
1.932113375585204
 20
8.006323815503734
 30
0.0
  0
VERTEX
  5
AAA
  8
250_POCKET
 10
1.934080419306982
 20
8.000513477009518
 30
0.0
  0
VERTEX
  5
AAB
  8
250_POCKET
 10
1.936320648438033
 20
7.994834870192935
 30
0.0
  0
VERTEX
  5
AAC
  8
250_POCKET
 10
1.941589210013732
 20
7.98390432011749
 30
0.0
  0
VERTEX
  5
AAD
  8
250_POCKET
 10
1.947856154483859
 20
7.973595102327052
 30
0.0
  0
VERTEX
  5
AAE
  8
250_POCKET
 10
1.955058576019973
 20
7.963970153871272
 30
0.0
  0
VERTEX
  5
AAF
  8
250_POCKET
 10
1.963133568793634
 20
7.955092411799804
 30
0.0
  0
VERTEX
  5
AB0
  8
250_POCKET
 10
1.963134900404758
 20
1.766200570515046
 30
0.0
  0
VERTEX
  5
AB1
  8
250_POCKET
 10
1.0
 20
1.766199604864812
 30
0.0
 42
0.4142135623730951
  0
VERTEX
  5
AB2
  8
250_POCKET
 10
0.875
 20
1.641199999999988
 30
0.0
 42
0.4142135623730951
  0
VERTEX
  5
AB3
  8
250_POCKET
 10
1.0
 20
1.516199999999988
 30
0.0
  0
VERTEX
  5
AB4
  8
250_POCKET
 10
1.0
 20
1.266199999999995
 30
0.0
 42
0.4142135623730951
  0
VERTEX
  5
AB5
  8
250_POCKET
 10
0.875
 20
1.141199999999995
 30
0.0
 42
0.4142135623730951
  0
SEQEND
  5
BCD
  8
250_POCKET
  0
POLYLINE
  5
CE
  8
250_POCKET
 66
     1
 10
0.0
 20
0.0
 30
0.0
 70
     1
  0
VERTEX
  5
AB6
  8
250_POCKET
 10
3.114266158038726
 20
2.030589900168481
 30
0.0
  0
VERTEX
  5
AB7
  8
250_POCKET
 10
3.510733841961264
 20
2.030589900168485
 30
0.0
  0
VERTEX
  5
AB8
  8
250_POCKET
 10
3.519610109837883
 20
2.022524257461208
 30
0.0
  0
VERTEX
  5
AB9
  8
250_POCKET
 10
3.529232256751431
 20
2.01533029081548
 30
0.0
  0
VERTEX
  5
ABA
  8
250_POCKET
 10
3.5395374801009
 20
2.00907079772085
 30
0.0
  0
VERTEX
  5
ABB
  8
250_POCKET
 10
3.550462977285278
 20
2.003808575666865
 30
0.0
  0
VERTEX
  5
ABC
  8
250_POCKET
 10
3.556138702752742
 20
2.001571065495598
 30
0.0
  0
VERTEX
  5
ABD
  8
250_POCKET
 10
3.561945945703556
 20
1.999606422143072
 30
0.0
  0
VERTEX
  5
ABE
  8
250_POCKET
 10
3.567876855812591
 20
1.997922495295481
 30
0.0
  0
VERTEX
  5
ABF
  8
250_POCKET
 10
3.573923582754722
 20
1.996527134639018
 30
0.0
  0
VERTEX
  5
AC0
  8
250_POCKET
 10
3.580078276204823
 20
1.995428189859877
 30
0.0
  0
VERTEX
  5
AC1
  8
250_POCKET
 10
3.586333085837768
 20
1.994633510644251
 30
0.0
  0
VERTEX
  5
AC2
  8
250_POCKET
 10
3.592680161328429
 20
1.994150946678334
 30
0.0
  0
VERTEX
  5
AC3
  8
250_POCKET
 10
3.599111652351682
 20
1.993988347648318
 30
0.0
 42
0.4142135623730951
  0
VERTEX
  5
AC4
  8
250_POCKET
 10
3.724111652351682
 20
2.118988347648318
 30
0.0
  0
VERTEX
  5
AC5
  8
250_POCKET
 10
3.723949001051526
 20
2.125420871933128
 30
0.0
  0
VERTEX
  5
AC6
  8
250_POCKET
 10
3.723466283222562
 20
2.131768952116003
 30
0.0
  0
VERTEX
  5
AC7
  8
250_POCKET
 10
3.722671352972047
 20
2.138024734063363
 30
0.0
  0
VERTEX
  5
AC8
  8
250_POCKET
 10
3.721572064407237
 20
2.144180363641627
 30
0.0
  0
VERTEX
  5
AC9
  8
250_POCKET
 10
3.720176271635388
 20
2.150227986717213
 30
0.0
  0
VERTEX
  5
ACA
  8
250_POCKET
 10
3.718491828763757
 20
2.156159749156541
 30
0.0
  0
VERTEX
  5
ACB
  8
250_POCKET
 10
3.714288409150175
 20
2.167644275592099
 30
0.0
  0
VERTEX
  5
ACC
  8
250_POCKET
 10
3.70902463842454
 20
2.178571109879654
 30
0.0
  0
VERTEX
  5
ACD
  8
250_POCKET
 10
3.702763349444905
 20
2.188877418950558
 30
0.0
  0
VERTEX
  5
ACE
  8
250_POCKET
 10
3.69556737506932
 20
2.198500369736165
 30
0.0
  0
VERTEX
  5
ACF
  8
250_POCKET
 10
3.687499548155836
 20
2.207377129167827
 30
0.0
  0
VERTEX
  5
AD0
  8
250_POCKET
 10
3.687499530184723
 20
8.356299213010463
 30
0.0
  0
VERTEX
  5
AD1
  8
250_POCKET
 10
7.500024900372217
 20
8.35629921301139
 30
0.0
  0
VERTEX
  5
AD2
  8
250_POCKET
 10
7.500027014568759
 20
8.356299504400264
 30
0.0
 42
0.4142135623730951
  0
VERTEX
  5
AD3
  8
250_POCKET
 10
7.625029128750234
 20
8.481299350394197
 30
0.0
 42
0.4142135623730951
  0
VERTEX
  5
AD4
  8
250_POCKET
 10
7.500031242931707
 20
8.606299196388534
 30
0.0
  0
VERTEX
  5
AD5
  8
250_POCKET
 10
7.500043928119698
 20
8.856301203392942
 30
0.0
 42
0.4142135623730951
  0
VERTEX
  5
AD6
  8
250_POCKET
 10
7.625046042306381
 20
8.981301203321426
 30
0.0
 42
0.4142135623730951
  0
VERTEX
  5
AD7
  8
250_POCKET
 10
7.5000481564594
 20
9.106300208166193
 30
0.0
  0
VERTEX
  5
AD8
  8
250_POCKET
 10
1.000000042151919
 20
9.106299605805996
 30
0.0
 42
0.4142135623730951
  0
VERTEX
  5
AD9
  8
250_POCKET
 10
0.8750000843037948
 20
8.981300001880111
 30
0.0
 42
0.4142135623730951
  0
VERTEX
  5
ADA
  8
250_POCKET
 10
1.000000126455937
 20
8.85630000188014
 30
0.0
  0
VERTEX
  5
ADB
  8
250_POCKET
 10
1.000000581362106
 20
7.382300000000392
 30
0.0
 42
0.4142135623730951
  0
VERTEX
  5
ADC
  8
250_POCKET
 10
0.875
 20
7.2573
 30
0.0
 42
0.4142135623730951
  0
VERTEX
  5
ADD
  8
250_POCKET
 10
1.000000665665773
 20
7.132300917089088
 30
0.0
  0
VERTEX
  5
ADE
  8
250_POCKET
 10
1.573321678797339
 20
7.132301766437386
 30
0.0
  0
VERTEX
  5
ADF
  8
250_POCKET
 10
1.582198471574975
 20
7.124233655048076
 30
0.0
  0
VERTEX
  5
AE0
  8
250_POCKET
 10
1.59182149741099
 20
7.117037424738283
 30
0.0
  0
VERTEX
  5
AE1
  8
250_POCKET
 10
1.602127918907144
 20
7.110775911259773
 30
0.0
  0
VERTEX
  5
AE2
  8
250_POCKET
 10
1.6130548986652
 20
7.105511950364308
 30
0.0
  0
VERTEX
  5
AE3
  8
250_POCKET
 10
1.618731461205491
 20
7.103273688307643
 30
0.0
  0
VERTEX
  5
AE4
  8
250_POCKET
 10
1.624539599286918
 20
7.101308377803653
 30
0.0
  0
VERTEX
  5
AE5
  8
250_POCKET
 10
1.630471458234701
 20
7.099623873321306
 30
0.0
  0
VERTEX
  5
AE6
  8
250_POCKET
 10
1.63651918337406
 20
7.098228029329573
 30
0.0
  0
VERTEX
  5
AE7
  8
250_POCKET
 10
1.642674920030215
 20
7.097128700297424
 30
0.0
  0
VERTEX
  5
AE8
  8
250_POCKET
 10
1.648930813528386
 20
7.096333740693831
 30
0.0
  0
VERTEX
  5
AE9
  8
250_POCKET
 10
1.655279009193795
 20
7.095851004987763
 30
0.0
  0
VERTEX
  5
AEA
  8
250_POCKET
 10
1.661711652351659
 20
7.095688347648191
 30
0.0
 42
0.4142135623730951
  0
VERTEX
  5
AEB
  8
250_POCKET
 10
1.786711652351659
 20
7.220688347648191
 30
0.0
  0
VERTEX
  5
AEC
  8
250_POCKET
 10
1.78654893290999
 20
7.227122213073848
 30
0.0
  0
VERTEX
  5
AED
  8
250_POCKET
 10
1.786066013378228
 20
7.233471596413807
 30
0.0
  0
VERTEX
  5
AEE
  8
250_POCKET
 10
1.785270751946245
 20
7.23972863769918
 30
0.0
  0
VERTEX
  5
AEF
  8
250_POCKET
 10
1.784171006803907
 20
7.24588547696108
 30
0.0
  0
VERTEX
  5
AF0
  8
250_POCKET
 10
1.782774636141087
 20
7.251934254230616
 30
0.0
  0
VERTEX
  5
AF1
  8
250_POCKET
 10
1.781089498147652
 20
7.257867109538901
 30
0.0
  0
VERTEX
  5
AF2
  8
250_POCKET
 10
1.779123451013473
 20
7.263676182917044
 30
0.0
  0
VERTEX
  5
AF3
  8
250_POCKET
 10
1.776884352928418
 20
7.269353614396159
 30
0.0
  0
VERTEX
  5
AF4
  8
250_POCKET
 10
1.771618436665163
 20
7.280282111781747
 30
0.0
  0
VERTEX
  5
AF5
  8
250_POCKET
 10
1.765354614876842
 20
7.290589721944555
 30
0.0
  0
VERTEX
  5
AF6
  8
250_POCKET
 10
1.758155753082412
 20
7.300213565133475
 30
0.0
  0
VERTEX
  5
AF7
  8
250_POCKET
 10
1.750084716800828
 20
7.309090761597396
 30
0.0
  0
VERTEX
  5
AF8
  8
250_POCKET
 10
1.750084109664119
 20
8.356299213011287
 30
0.0
  0
VERTEX
  5
AF9
  8
250_POCKET
 10
2.937499530185255
 20
8.35629921301103
 30
0.0
  0
VERTEX
  5
AFA
  8
250_POCKET
 10
2.937499508967373
 20
2.207376183043437
 30
0.0
  0
VERTEX
  5
AFB
  8
250_POCKET
 10
2.929431881267964
 20
2.19849946598905
 30
0.0
  0
VERTEX
  5
AFC
  8
250_POCKET
 10
2.922236088194401
 20
2.18887658451907
 30
0.0
  0
VERTEX
  5
AFD
  8
250_POCKET
 10
2.915974959938692
 20
2.178570369074149
 30
0.0
  0
VERTEX
  5
AFE
  8
250_POCKET
 10
2.91071132669285
 20
2.167643650094941
 30
0.0
  0
VERTEX
  5
AFF
  8
250_POCKET
 10
2.908473205133631
 20
2.161967236292685
 30
0.0
  0
VERTEX
  5
B00
  8
250_POCKET
 10
2.906508018648882
 20
2.156159258022102
 30
0.0
  0
VERTEX
  5
B01
  8
250_POCKET
 10
2.904823621012603
 20
2.150227569088273
 30
0.0
  0
VERTEX
  5
B02
  8
250_POCKET
 10
2.903427865998797
 20
2.144180023296282
 30
0.0
  0
VERTEX
  5
B03
  8
250_POCKET
 10
2.902328607381464
 20
2.138024474451209
 30
0.0
  0
VERTEX
  5
B04
  8
250_POCKET
 10
2.901533698934606
 20
2.131768776358136
 30
0.0
  0
VERTEX
  5
B05
  8
250_POCKET
 10
2.901050994432223
 20
2.125420782822145
 30
0.0
  0
VERTEX
  5
B06
  8
250_POCKET
 10
2.900888347648318
 20
2.118988347648318
 30
0.0
 42
0.4142135623730951
  0
VERTEX
  5
B07
  8
250_POCKET
 10
3.025888347648318
 20
1.993988347648318
 30
0.0
  0
VERTEX
  5
B08
  8
250_POCKET
 10
3.03231983867157
 20
1.994150946678334
 30
0.0
  0
VERTEX
  5
B09
  8
250_POCKET
 10
3.038666914162231
 20
1.994633510644251
 30
0.0
  0
VERTEX
  5
B0A
  8
250_POCKET
 10
3.044921723795175
 20
1.995428189859877
 30
0.0
  0
VERTEX
  5
B0B
  8
250_POCKET
 10
3.051076417245275
 20
1.996527134639018
 30
0.0
  0
VERTEX
  5
B0C
  8
250_POCKET
 10
3.057123144187405
 20
1.99792249529548
 30
0.0
  0
VERTEX
  5
B0D
  8
250_POCKET
 10
3.06305405429644
 20
1.999606422143071
 30
0.0
  0
VERTEX
  5
B0E
  8
250_POCKET
 10
3.074537022714716
 20
2.003808575666863
 30
0.0
  0
VERTEX
  5
B0F
  8
250_POCKET
 10
3.085462519899092
 20
2.009070797720847
 30
0.0
  0
VERTEX
  5
B10
  8
250_POCKET
 10
3.09576774324856
 20
2.015330290815477
 30
0.0
  0
VERTEX
  5
B11
  8
250_POCKET
 10
3.105389890162108
 20
2.022524257461203
 30
0.0
  0
SEQEND
  5
BCE
  8
250_POCKET
  0
POLYLINE
  5
D0
  8
500_POCKET
 66
     1
 10
0.0
 20
0.0
 30
0.0
 70
     1
  0
VERTEX
  5
B12
  8
500_POCKET
 10
9.606996174387442
 20
4.789702425849527
 30
0.0
  0
VERTEX
  5
B13
  8
500_POCKET
 10
9.607158823611783
 20
4.783269942429109
 30
0.0
  0
VERTEX
  5
B14
  8
500_POCKET
 10
9.607641535296182
 20
4.776921901980637
 30
0.0
  0
VERTEX
  5
B15
  8
500_POCKET
 10
9.608436455457703
 20
4.77066615848705
 30
0.0
  0
VERTEX
  5
B16
  8
500_POCKET
 10
9.609535730113407
 20
4.764510565931284
 30
0.0
  0
VERTEX
  5
B17
  8
500_POCKET
 10
9.610931505280359
 20
4.758462978296276
 30
0.0
  0
VERTEX
  5
B18
  8
500_POCKET
 10
9.612615926975618
 20
4.752531249564963
 30
0.0
  0
VERTEX
  5
B19
  8
500_POCKET
 10
9.616819294019322
 20
4.741046784745169
 30
0.0
  0
VERTEX
  5
B1A
  8
500_POCKET
 10
9.622082999381021
 20
4.730120003335401
 30
0.0
  0
VERTEX
  5
B1B
  8
500_POCKET
 10
9.628344211197218
 20
4.719813737199154
 30
0.0
  0
VERTEX
  5
B1C
  8
500_POCKET
 10
9.635540097604418
 20
4.710190818199925
 30
0.0
  0
VERTEX
  5
B1D
  8
500_POCKET
 10
9.643607826739125
 20
4.701314078201209
 30
0.0
  0
VERTEX
  5
B1E
  8
500_POCKET
 10
9.65248456673784
 20
4.693246349066502
 30
0.0
  0
VERTEX
  5
B1F
  8
500_POCKET
 10
9.66210748573707
 20
4.686050462659303
 30
0.0
  0
VERTEX
  5
B20
  8
500_POCKET
 10
9.672413751873318
 20
4.679789250843107
 30
0.0
  0
VERTEX
  5
B21
  8
500_POCKET
 10
9.683340533283085
 20
4.674525545481408
 30
0.0
  0
VERTEX
  5
B22
  8
500_POCKET
 10
9.689016982258195
 20
4.672287392678339
 30
0.0
  0
VERTEX
  5
B23
  8
500_POCKET
 10
9.694824998102877
 20
4.670322178437704
 30
0.0
  0
VERTEX
  5
B24
  8
500_POCKET
 10
9.70075672683419
 20
4.668637756742443
 30
0.0
  0
VERTEX
  5
B25
  8
500_POCKET
 10
9.706804314469197
 20
4.667241981575492
 30
0.0
  0
VERTEX
  5
B26
  8
500_POCKET
 10
9.712959907024963
 20
4.666142706919787
 30
0.0
  0
VERTEX
  5
B27
  8
500_POCKET
 10
9.719215650518551
 20
4.665347786758268
 30
0.0
  0
VERTEX
  5
B28
  8
500_POCKET
 10
9.725563690967023
 20
4.664865075073869
 30
0.0
  0
VERTEX
  5
B29
  8
500_POCKET
 10
9.731996174387442
 20
4.664702425849527
 30
0.0
  0
VERTEX
  5
B2A
  8
500_POCKET
 10
10.88199617438744
 20
4.664702425849527
 30
0.0
  0
VERTEX
  5
B2B
  8
500_POCKET
 10
10.88842865780786
 20
4.664865075073869
 30
0.0
  0
VERTEX
  5
B2C
  8
500_POCKET
 10
10.89477669825633
 20
4.665347786758268
 30
0.0
  0
VERTEX
  5
B2D
  8
500_POCKET
 10
10.90103244174992
 20
4.666142706919787
 30
0.0
  0
VERTEX
  5
B2E
  8
500_POCKET
 10
10.90718803430569
 20
4.667241981575492
 30
0.0
  0
VERTEX
  5
B2F
  8
500_POCKET
 10
10.91323562194069
 20
4.668637756742443
 30
0.0
  0
VERTEX
  5
B30
  8
500_POCKET
 10
10.91916735067201
 20
4.670322178437704
 30
0.0
  0
VERTEX
  5
B31
  8
500_POCKET
 10
10.9306518154918
 20
4.674525545481408
 30
0.0
  0
VERTEX
  5
B32
  8
500_POCKET
 10
10.94157859690156
 20
4.679789250843107
 30
0.0
  0
VERTEX
  5
B33
  8
500_POCKET
 10
10.95188486303781
 20
4.686050462659303
 30
0.0
  0
VERTEX
  5
B34
  8
500_POCKET
 10
10.96150778203704
 20
4.693246349066502
 30
0.0
  0
VERTEX
  5
B35
  8
500_POCKET
 10
10.97038452203576
 20
4.701314078201209
 30
0.0
  0
VERTEX
  5
B36
  8
500_POCKET
 10
10.97845225117046
 20
4.710190818199925
 30
0.0
  0
VERTEX
  5
B37
  8
500_POCKET
 10
10.98564813757766
 20
4.719813737199154
 30
0.0
  0
VERTEX
  5
B38
  8
500_POCKET
 10
10.99190934939386
 20
4.730120003335401
 30
0.0
  0
VERTEX
  5
B39
  8
500_POCKET
 10
10.99717305475556
 20
4.741046784745169
 30
0.0
  0
VERTEX
  5
B3A
  8
500_POCKET
 10
10.99941120755863
 20
4.746723233720282
 30
0.0
  0
VERTEX
  5
B3B
  8
500_POCKET
 10
11.00137642179926
 20
4.752531249564963
 30
0.0
  0
VERTEX
  5
B3C
  8
500_POCKET
 10
11.00306084349452
 20
4.758462978296276
 30
0.0
  0
VERTEX
  5
B3D
  8
500_POCKET
 10
11.00445661866148
 20
4.764510565931284
 30
0.0
  0
VERTEX
  5
B3E
  8
500_POCKET
 10
11.00555589331718
 20
4.77066615848705
 30
0.0
  0
VERTEX
  5
B3F
  8
500_POCKET
 10
11.0063508134787
 20
4.776921901980637
 30
0.0
  0
VERTEX
  5
B40
  8
500_POCKET
 10
11.0068335251631
 20
4.783269942429109
 30
0.0
  0
VERTEX
  5
B41
  8
500_POCKET
 10
11.00699617438744
 20
4.789702425849527
 30
0.0
  0
VERTEX
  5
B42
  8
500_POCKET
 10
11.00699617438744
 20
5.189702425849528
 30
0.0
  0
VERTEX
  5
B43
  8
500_POCKET
 10
11.0068335251631
 20
5.196134909269946
 30
0.0
  0
VERTEX
  5
B44
  8
500_POCKET
 10
11.0063508134787
 20
5.202482949718418
 30
0.0
  0
VERTEX
  5
B45
  8
500_POCKET
 10
11.00555589331718
 20
5.208738693212005
 30
0.0
  0
VERTEX
  5
B46
  8
500_POCKET
 10
11.00445661866148
 20
5.214894285767771
 30
0.0
  0
VERTEX
  5
B47
  8
500_POCKET
 10
11.00306084349452
 20
5.220941873402779
 30
0.0
  0
VERTEX
  5
B48
  8
500_POCKET
 10
11.00137642179926
 20
5.226873602134092
 30
0.0
  0
VERTEX
  5
B49
  8
500_POCKET
 10
10.99717305475556
 20
5.238358066953886
 30
0.0
  0
VERTEX
  5
B4A
  8
500_POCKET
 10
10.99190934939386
 20
5.249284848363654
 30
0.0
  0
VERTEX
  5
B4B
  8
500_POCKET
 10
10.98564813757766
 20
5.259591114499901
 30
0.0
  0
VERTEX
  5
B4C
  8
500_POCKET
 10
10.97845225117046
 20
5.26921403349913
 30
0.0
  0
VERTEX
  5
B4D
  8
500_POCKET
 10
10.97038452203576
 20
5.278090773497846
 30
0.0
  0
VERTEX
  5
B4E
  8
500_POCKET
 10
10.96150778203704
 20
5.286158502632553
 30
0.0
  0
VERTEX
  5
B4F
  8
500_POCKET
 10
10.95188486303781
 20
5.293354389039752
 30
0.0
  0
VERTEX
  5
B50
  8
500_POCKET
 10
10.94157859690156
 20
5.299615600855948
 30
0.0
  0
VERTEX
  5
B51
  8
500_POCKET
 10
10.9306518154918
 20
5.304879306217647
 30
0.0
  0
VERTEX
  5
B52
  8
500_POCKET
 10
10.92497536651669
 20
5.307117459020716
 30
0.0
  0
VERTEX
  5
B53
  8
500_POCKET
 10
10.91916735067201
 20
5.309082673261351
 30
0.0
  0
VERTEX
  5
B54
  8
500_POCKET
 10
10.91323562194069
 20
5.310767094956612
 30
0.0
  0
VERTEX
  5
B55
  8
500_POCKET
 10
10.90718803430569
 20
5.312162870123563
 30
0.0
  0
VERTEX
  5
B56
  8
500_POCKET
 10
10.90103244174992
 20
5.313262144779268
 30
0.0
  0
VERTEX
  5
B57
  8
500_POCKET
 10
10.89477669825633
 20
5.314057064940787
 30
0.0
  0
VERTEX
  5
B58
  8
500_POCKET
 10
10.88842865780786
 20
5.314539776625186
 30
0.0
  0
VERTEX
  5
B59
  8
500_POCKET
 10
10.88199617438744
 20
5.314702425849528
 30
0.0
  0
VERTEX
  5
B5A
  8
500_POCKET
 10
9.731996174387442
 20
5.314702425849528
 30
0.0
  0
VERTEX
  5
B5B
  8
500_POCKET
 10
9.725563690967023
 20
5.314539776625186
 30
0.0
  0
VERTEX
  5
B5C
  8
500_POCKET
 10
9.719215650518551
 20
5.314057064940787
 30
0.0
  0
VERTEX
  5
B5D
  8
500_POCKET
 10
9.712959907024963
 20
5.313262144779268
 30
0.0
  0
VERTEX
  5
B5E
  8
500_POCKET
 10
9.706804314469197
 20
5.312162870123563
 30
0.0
  0
VERTEX
  5
B5F
  8
500_POCKET
 10
9.70075672683419
 20
5.310767094956612
 30
0.0
  0
VERTEX
  5
B60
  8
500_POCKET
 10
9.694824998102877
 20
5.309082673261351
 30
0.0
  0
VERTEX
  5
B61
  8
500_POCKET
 10
9.683340533283085
 20
5.304879306217647
 30
0.0
  0
VERTEX
  5
B62
  8
500_POCKET
 10
9.672413751873318
 20
5.299615600855948
 30
0.0
  0
VERTEX
  5
B63
  8
500_POCKET
 10
9.66210748573707
 20
5.293354389039752
 30
0.0
  0
VERTEX
  5
B64
  8
500_POCKET
 10
9.65248456673784
 20
5.286158502632553
 30
0.0
  0
VERTEX
  5
B65
  8
500_POCKET
 10
9.643607826739125
 20
5.278090773497846
 30
0.0
  0
VERTEX
  5
B66
  8
500_POCKET
 10
9.635540097604418
 20
5.26921403349913
 30
0.0
  0
VERTEX
  5
B67
  8
500_POCKET
 10
9.628344211197218
 20
5.259591114499901
 30
0.0
  0
VERTEX
  5
B68
  8
500_POCKET
 10
9.622082999381021
 20
5.249284848363654
 30
0.0
  0
VERTEX
  5
B69
  8
500_POCKET
 10
9.616819294019322
 20
5.238358066953886
 30
0.0
  0
VERTEX
  5
B6A
  8
500_POCKET
 10
9.614581141216252
 20
5.232681617978773
 30
0.0
  0
VERTEX
  5
B6B
  8
500_POCKET
 10
9.612615926975618
 20
5.226873602134092
 30
0.0
  0
VERTEX
  5
B6C
  8
500_POCKET
 10
9.610931505280359
 20
5.220941873402779
 30
0.0
  0
VERTEX
  5
B6D
  8
500_POCKET
 10
9.609535730113407
 20
5.214894285767771
 30
0.0
  0
VERTEX
  5
B6E
  8
500_POCKET
 10
9.608436455457703
 20
5.208738693212005
 30
0.0
  0
VERTEX
  5
B6F
  8
500_POCKET
 10
9.607641535296182
 20
5.202482949718418
 30
0.0
  0
VERTEX
  5
B70
  8
500_POCKET
 10
9.607158823611783
 20
5.196134909269946
 30
0.0
  0
VERTEX
  5
B71
  8
500_POCKET
 10
9.606996174387442
 20
5.189702425849528
 30
0.0
  0
SEQEND
  5
BCF
  8
500_POCKET
  0
ENDSEC
  0
EOF
