  0
SECTION
  2
HEADER
  9
$ACADVER
  1
AC1015
  9
$ACADMAINTVER
 70
    20
  9
$DWGCODEPAGE
  3
ANSI_1252
  9
$INSBASE
 10
0.0
 20
0.0
 30
0.0
  9
$EXTMIN
 10
-1834.859885778855
 20
2891.159203917021
 30
-0.0207022658491951
  9
$EXTMAX
 10
-634.7403179110687
 20
3291.425646620691
 30
0.0078574499331125
  9
$LIMMIN
 10
0.0
 20
0.0
  9
$LIMMAX
 10
420.0
 20
297.0
  9
$ORTHOMODE
 70
     0
  9
$REGENMODE
 70
     1
  9
$FILLMODE
 70
     1
  9
$QTEXTMODE
 70
     0
  9
$MIRRTEXT
 70
     1
  9
$LTSCALE
 40
1.0
  9
$ATTMODE
 70
     1
  9
$TEXTSIZE
 40
10.0
  9
$TRACEWID
 40
1.0
  9
$TEXTSTYLE
  7
STANDARD
  9
$CLAYER
  8
0
  9
$CELTYPE
  6
BYLAYER
  9
$CECOLOR
 62
     4
  9
$CELTSCALE
 40
1.0
  9
$DISPSILH
 70
     0
  9
$DIMSCALE
 40
1.0
  9
$DIMASZ
 40
2.5
  9
$DIMEXO
 40
0.625
  9
$DIMDLI
 40
3.75
  9
$DIMRND
 40
0.0
  9
$DIMDLE
 40
0.0
  9
$DIMEXE
 40
1.25
  9
$DIMTP
 40
0.0
  9
$DIMTM
 40
0.0
  9
$DIMTXT
 40
2.5
  9
$DIMCEN
 40
2.5
  9
$DIMTSZ
 40
0.0
  9
$DIMTOL
 70
     0
  9
$DIMLIM
 70
     0
  9
$DIMTIH
 70
     0
  9
$DIMTOH
 70
     0
  9
$DIMSE1
 70
     0
  9
$DIMSE2
 70
     0
  9
$DIMTAD
 70
     1
  9
$DIMZIN
 70
     8
  9
$DIMBLK
  1

  9
$DIMASO
 70
     1
  9
$DIMSHO
 70
     1
  9
$DIMPOST
  1

  9
$DIMAPOST
  1

  9
$DIMALT
 70
     0
  9
$DIMALTD
 70
     4
  9
$DIMALTF
 40
0.0394
  9
$DIMLFAC
 40
1.0
  9
$DIMTOFL
 70
     1
  9
$DIMTVP
 40
0.0
  9
$DIMTIX
 70
     0
  9
$DIMSOXD
 70
     0
  9
$DIMSAH
 70
     0
  9
$DIMBLK1
  1

  9
$DIMBLK2
  1

  9
$DIMSTYLE
  2
ISO-25
  9
$DIMCLRD
 70
     0
  9
$DIMCLRE
 70
     0
  9
$DIMCLRT
 70
     0
  9
$DIMTFAC
 40
1.0
  9
$DIMGAP
 40
0.625
  9
$DIMJUST
 70
     0
  9
$DIMSD1
 70
     0
  9
$DIMSD2
 70
     0
  9
$DIMTOLJ
 70
     1
  9
$DIMTZIN
 70
     0
  9
$DIMALTZ
 70
     0
  9
$DIMALTTZ
 70
     0
  9
$DIMUPT
 70
     0
  9
$DIMDEC
 70
     4
  9
$DIMTDEC
 70
     4
  9
$DIMALTU
 70
     8
  9
$DIMALTTD
 70
     4
  9
$DIMTXSTY
  7
STANDARD
  9
$DIMAUNIT
 70
     0
  9
$DIMADEC
 70
     0
  9
$DIMALTRND
 40
0.0
  9
$DIMAZIN
 70
     0
  9
$DIMDSEP
 70
    46
  9
$DIMATFIT
 70
     3
  9
$DIMFRAC
 70
     0
  9
$DIMLDRBLK
  1

  9
$DIMLUNIT
 70
     6
  9
$DIMLWD
 70
    -2
  9
$DIMLWE
 70
    -2
  9
$DIMTMOVE
 70
     0
  9
$LUNITS
 70
     2
  9
$LUPREC
 70
     4
  9
$SKETCHINC
 40
1.0
  9
$FILLETRAD
 40
0.0
  9
$AUNITS
 70
     0
  9
$AUPREC
 70
     0
  9
$MENU
  1
.
  9
$ELEVATION
 40
0.0
  9
$PELEVATION
 40
0.0
  9
$THICKNESS
 40
0.0
  9
$LIMCHECK
 70
     0
  9
$CHAMFERA
 40
10.0
  9
$CHAMFERB
 40
10.0
  9
$CHAMFERC
 40
20.0
  9
$CHAMFERD
 40
0.0
  9
$SKPOLY
 70
     1
  9
$TDCREATE
 40
2453833.653018298
  9
$TDUCREATE
 40
2453833.569684965
  9
$TDUPDATE
 40
2454331.676844074
  9
$TDUUPDATE
 40
2454331.593510741
  9
$TDINDWG
 40
3.5103126273
  9
$TDUSRTIMER
 40
3.5103126273
  9
$USRTIMER
 70
     1
  9
$ANGBASE
 50
0.0
  9
$ANGDIR
 70
     0
  9
$PDMODE
 70
     0
  9
$PDSIZE
 40
0.0
  9
$PLINEWID
 40
0.0
  9
$SPLFRAME
 70
     0
  9
$SPLINETYPE
 70
     6
  9
$SPLINESEGS
 70
     8
  9
$HANDSEED
  5
425C
  9
$SURFTAB1
 70
     6
  9
$SURFTAB2
 70
     6
  9
$SURFTYPE
 70
     6
  9
$SURFU
 70
     6
  9
$SURFV
 70
     6
  9
$UCSBASE
  2

  9
$UCSNAME
  2

  9
$UCSORG
 10
0.0
 20
0.0
 30
0.0
  9
$UCSXDIR
 10
1.0
 20
0.0
 30
0.0
  9
$UCSYDIR
 10
0.0
 20
1.0
 30
0.0
  9
$UCSORTHOREF
  2

  9
$UCSORTHOVIEW
 70
     1
  9
$UCSORGTOP
 10
0.0
 20
0.0
 30
0.0
  9
$UCSORGBOTTOM
 10
0.0
 20
0.0
 30
0.0
  9
$UCSORGLEFT
 10
0.0
 20
0.0
 30
0.0
  9
$UCSORGRIGHT
 10
0.0
 20
0.0
 30
0.0
  9
$UCSORGFRONT
 10
0.0
 20
0.0
 30
0.0
  9
$UCSORGBACK
 10
0.0
 20
0.0
 30
0.0
  9
$PUCSBASE
  2

  9
$PUCSNAME
  2

  9
$PUCSORG
 10
0.0
 20
0.0
 30
0.0
  9
$PUCSXDIR
 10
1.0
 20
0.0
 30
0.0
  9
$PUCSYDIR
 10
0.0
 20
1.0
 30
0.0
  9
$PUCSORTHOREF
  2

  9
$PUCSORTHOVIEW
 70
     0
  9
$PUCSORGTOP
 10
0.0
 20
0.0
 30
0.0
  9
$PUCSORGBOTTOM
 10
0.0
 20
0.0
 30
0.0
  9
$PUCSORGLEFT
 10
0.0
 20
0.0
 30
0.0
  9
$PUCSORGRIGHT
 10
0.0
 20
0.0
 30
0.0
  9
$PUCSORGFRONT
 10
0.0
 20
0.0
 30
0.0
  9
$PUCSORGBACK
 10
0.0
 20
0.0
 30
0.0
  9
$USERI1
 70
     0
  9
$USERI2
 70
     0
  9
$USERI3
 70
     0
  9
$USERI4
 70
     0
  9
$USERI5
 70
     0
  9
$USERR1
 40
0.0
  9
$USERR2
 40
0.0
  9
$USERR3
 40
0.0
  9
$USERR4
 40
0.0
  9
$USERR5
 40
0.0
  9
$WORLDVIEW
 70
     1
  9
$SHADEDGE
 70
     3
  9
$SHADEDIF
 70
    70
  9
$TILEMODE
 70
     1
  9
$MAXACTVP
 70
    48
  9
$PINSBASE
 10
0.0
 20
0.0
 30
0.0
  9
$PLIMCHECK
 70
     0
  9
$PEXTMIN
 10
1.000000000000000E+20
 20
1.000000000000000E+20
 30
1.000000000000000E+20
  9
$PEXTMAX
 10
-1.000000000000000E+20
 20
-1.000000000000000E+20
 30
-1.000000000000000E+20
  9
$PLIMMIN
 10
0.0
 20
0.0
  9
$PLIMMAX
 10
420.0
 20
297.0
  9
$UNITMODE
 70
     0
  9
$VISRETAIN
 70
     1
  9
$PLINEGEN
 70
     0
  9
$PSLTSCALE
 70
     1
  9
$TREEDEPTH
 70
  3020
  9
$CMLSTYLE
  2
STANDARD
  9
$CMLJUST
 70
     0
  9
$CMLSCALE
 40
1.0
  9
$PROXYGRAPHICS
 70
     1
  9
$MEASUREMENT
 70
     1
  9
$CELWEIGHT
370
    -1
  9
$ENDCAPS
280
     0
  9
$JOINSTYLE
280
     0
  9
$LWDISPLAY
290
     0
  9
$INSUNITS
 70
     0
  9
$HYPERLINKBASE
  1

  9
$STYLESHEET
  1

  9
$XEDIT
290
     1
  9
$CEPSNTYPE
380
     0
  9
$PSTYLEMODE
290
     1
  9
$FINGERPRINTGUID
  2
{6A994BFB-005D-4C99-99A8-4B39A2164F4E}
  9
$VERSIONGUID
  2
{5F77E24D-71D1-406D-93B9-727173B0CB6F}
  9
$EXTNAMES
290
     1
  9
$PSVPSCALE
 40
0.0
  9
$OLESTARTUP
290
     0
  0
ENDSEC
  0
SECTION
  2
CLASSES
  0
CLASS
  1
DICTIONARYVAR
  2
AcDbDictionaryVar
  3
ObjectDBX Classes
 90
        0
280
     0
281
     0
  0
CLASS
  1
RASTERVARIABLES
  2
AcDbRasterVariables
  3
ISM
 90
        0
280
     0
281
     0
  0
CLASS
  1
IMAGEDEF
  2
AcDbRasterImageDef
  3
ISM
 90
        0
280
     0
281
     0
  0
CLASS
  1
IMAGEDEF_REACTOR
  2
AcDbRasterImageDefReactor
  3
ISM
 90
    32769
280
     0
281
     0
  0
CLASS
  1
IMAGE
  2
AcDbRasterImage
  3
ISM
 90
    32895
280
     0
281
     1
  0
CLASS
  1
ACDBDICTIONARYWDFLT
  2
AcDbDictionaryWithDefault
  3
ObjectDBX Classes
 90
        0
280
     0
281
     0
  0
CLASS
  1
ACDBPLACEHOLDER
  2
AcDbPlaceHolder
  3
ObjectDBX Classes
 90
        0
280
     0
281
     0
  0
CLASS
  1
LAYOUT
  2
AcDbLayout
  3
ObjectDBX Classes
 90
        0
280
     0
281
     0
  0
ENDSEC
  0
SECTION
  2
TABLES
  0
TABLE
  2
VPORT
  5
8
330
0
100
AcDbSymbolTable
 70
     4
  0
VPORT
  5
4252
330
8
100
AcDbSymbolTableRecord
100
AcDbViewportTableRecord
  2
*Active
 70
     0
 10
0.0
 20
0.0
 11
1.0
 21
1.0
 12
-1234.800101844962
 22
3091.292425268856
 13
0.0
 23
0.0
 14
10.0
 24
10.0
 15
10.0
 25
10.0
 16
0.0
 26
0.0
 36
1.0
 17
0.0
 27
0.0
 37
0.0
 40
805.055338153325
 41
1.498136645962732
 42
50.0
 43
0.0
 44
0.0
 50
0.0
 51
0.0
 71
     0
 72
   100
 73
     1
 74
     1
 75
     0
 76
     0
 77
     0
 78
     0
281
     5
 65
     1
110
0.0
120
0.0
130
0.0
111
1.0
121
0.0
131
0.0
112
0.0
122
1.0
132
0.0
 79
     1
146
0.0
  0
ENDTAB
  0
TABLE
  2
LTYPE
  5
5
330
0
100
AcDbSymbolTable
 70
     1
  0
LTYPE
  5
14
330
5
100
AcDbSymbolTableRecord
100
AcDbLinetypeTableRecord
  2
BYBLOCK
 70
     0
  3

 72
    65
 73
     0
 40
0.0
  0
LTYPE
  5
15
330
5
100
AcDbSymbolTableRecord
100
AcDbLinetypeTableRecord
  2
BYLAYER
 70
     0
  3

 72
    65
 73
     0
 40
0.0
  0
LTYPE
  5
16
330
5
100
AcDbSymbolTableRecord
100
AcDbLinetypeTableRecord
  2
CONTINUOUS
 70
     0
  3
Solid line
 72
    65
 73
     0
 40
0.0
  0
ENDTAB
  0
TABLE
  2
LAYER
  5
2
330
0
100
AcDbSymbolTable
 70
     3
  0
LAYER
  5
F
330
2
100
AcDbSymbolTableRecord
100
AcDbLayerTableRecord
  2
0
 70
     0
 62
     7
  6
CONTINUOUS
370
    -3
390
41C4
  0
LAYER
  5
2313
330
2
100
AcDbSymbolTableRecord
100
AcDbLayerTableRecord
  2
ASHADE
 70
     4
 62
     7
  6
CONTINUOUS
370
    -3
390
41C4
  0
ENDTAB
  0
TABLE
  2
STYLE
  5
3
330
0
100
AcDbSymbolTable
 70
     2
  0
STYLE
  5
10
330
3
100
AcDbSymbolTableRecord
100
AcDbTextStyleTableRecord
  2
STANDARD
 70
     0
 40
0.0
 41
1.0
 50
0.0
 71
     0
 42
10.0
  3
ISOCP
  4

  0
ENDTAB
  0
TABLE
  2
VIEW
  5
6
330
0
100
AcDbSymbolTable
 70
     0
  0
ENDTAB
  0
TABLE
  2
UCS
  5
7
330
0
100
AcDbSymbolTable
 70
     0
  0
ENDTAB
  0
TABLE
  2
APPID
  5
9
330
0
100
AcDbSymbolTable
 70
     6
  0
APPID
  5
11
330
9
100
AcDbSymbolTableRecord
100
AcDbRegAppTableRecord
  2
ACAD
 70
     0
  0
APPID
  5
2311
330
9
100
AcDbSymbolTableRecord
100
AcDbRegAppTableRecord
  2
AVE_RENDER
 70
     0
  0
APPID
  5
2312
330
9
100
AcDbSymbolTableRecord
100
AcDbRegAppTableRecord
  2
AVE_ENTITY_MATERIAL
 70
     0
  0
APPID
  5
231F
330
9
100
AcDbSymbolTableRecord
100
AcDbRegAppTableRecord
  2
AVE_FINISH
 70
     0
  0
APPID
  5
2320
330
9
100
AcDbSymbolTableRecord
100
AcDbRegAppTableRecord
  2
AVE_MATERIAL
 70
     0
  0
APPID
  5
2321
330
9
100
AcDbSymbolTableRecord
100
AcDbRegAppTableRecord
  2
AVE_GLOBAL
 70
     0
  0
ENDTAB
  0
TABLE
  2
DIMSTYLE
  5
A
330
0
100
AcDbSymbolTable
 70
     9
100
AcDbDimStyleTable
 71
     0
  0
DIMSTYLE
105
1D
330
A
100
AcDbSymbolTableRecord
100
AcDbDimStyleTableRecord
  2
STANDARD
 70
     0
 41
2.5
 42
0.625
 43
3.75
 44
1.25
 73
     0
 74
     0
 77
     1
 78
     8
140
2.5
141
2.5
143
0.0394
147
0.625
171
     4
172
     1
273
     8
274
     4
277
     6
340
10
  0
DIMSTYLE
105
62
330
A
100
AcDbSymbolTableRecord
100
AcDbDimStyleTableRecord
  2
ISO-25
 70
     0
 41
2.5
 42
0.625
 43
3.75
 44
1.25
 73
     0
 74
     0
 77
     1
 78
     8
140
2.5
141
2.5
143
0.0394
147
0.625
171
     4
172
     1
273
     8
274
     4
277
     6
340
10
  0
ENDTAB
  0
TABLE
  2
BLOCK_RECORD
  5
1
330
0
100
AcDbSymbolTable
 70
     3
  0
BLOCK_RECORD
  5
1A
330
1
100
AcDbSymbolTableRecord
100
AcDbBlockTableRecord
  2
*MODEL_SPACE
340
41C9
  0
BLOCK_RECORD
  5
17
330
1
100
AcDbSymbolTableRecord
100
AcDbBlockTableRecord
  2
*PAPER_SPACE
340
41CA
  0
BLOCK_RECORD
  5
2314
330
1
100
AcDbSymbolTableRecord
100
AcDbBlockTableRecord
  2
AVE_RENDER
340
0
102
{BLKREFS
331
2317
331
2318
331
2319
331
231A
331
231B
331
231C
331
231D
331
231E
331
2721
331
2722
331
2723
331
2724
331
2725
331
2726
331
2727
331
2728
102
}
  0
BLOCK_RECORD
  5
2322
330
1
100
AcDbSymbolTableRecord
100
AcDbBlockTableRecord
  2
AVE_GLOBAL
340
0
102
{BLKREFS
331
2325
331
2820
331
2729
102
}
  0
ENDTAB
  0
ENDSEC
  0
SECTION
  2
BLOCKS
  0
BLOCK
  5
1B
330
1A
100
AcDbEntity
  8
0
100
AcDbBlockBegin
  2
*MODEL_SPACE
 70
     0
 10
0.0
 20
0.0
 30
0.0
  3
*MODEL_SPACE
  1

  0
ENDBLK
  5
1C
330
1A
100
AcDbEntity
  8
0
100
AcDbBlockEnd
  0
BLOCK
  5
18
330
17
100
AcDbEntity
 67
     1
  8
0
100
AcDbBlockBegin
  2
*PAPER_SPACE
 70
     0
 10
0.0
 20
0.0
 30
0.0
  3
*PAPER_SPACE
  1

  0
ENDBLK
  5
19
330
17
100
AcDbEntity
 67
     1
  8
0
100
AcDbBlockEnd
  0
BLOCK
  5
2315
330
2314
100
AcDbEntity
  8
ASHADE
100
AcDbBlockBegin
  2
AVE_RENDER
 70
     0
 10
0.0
 20
0.0
 30
0.0
  3
AVE_RENDER
  1
AVE_RENDER
  0
ENDBLK
  5
2316
330
2314
100
AcDbEntity
  8
0
100
AcDbBlockEnd
  0
BLOCK
  5
2323
330
2322
100
AcDbEntity
  8
ASHADE
100
AcDbBlockBegin
  2
AVE_GLOBAL
 70
     0
 10
0.0
 20
0.0
 30
0.0
  3
AVE_GLOBAL
  1
AVE_GLOBAL
  0
ENDBLK
  5
2324
330
2322
100
AcDbEntity
  8
0
100
AcDbBlockEnd
  0
ENDSEC
  0
SECTION
  2
ENTITIES
  0
INSERT
  5
2317
330
1A
100
AcDbEntity
  8
ASHADE
 62
     1
100
AcDbBlockReference
  2
AVE_RENDER
 10
0.0
 20
0.0
 30
0.0
1001
AVE_RENDER
1002
{
1070
     7
1000
Pref
1070
    30
1070
    20
1070
     1
1070
     0
1000

1070
    10
1070
     1
1070
    10
1040
1.0
1070
     1
1040
0.3
1040
0.7
1040
0.0
1040
10.0
1010
-1.0
1020
-1.0
1030
-1.0
1040
0.3
1070
    49
1070
     0
1070
     1
1010
1.0
1020
1.0
1030
1.0
1040
45.0
1070
     1
1070
     0
1000
WCS
1040
0.0
1070
     0
1040
10.0
1002
}
  0
INSERT
  5
2318
330
1A
100
AcDbEntity
  8
ASHADE
 62
     3
100
AcDbBlockReference
  2
AVE_RENDER
 10
0.0
 20
0.0
 30
0.0
1001
AVE_RENDER
1002
{
1070
     0
1000
Full Opt
1070
     0
1070
     1
1070
     1
1070
     1
1070
     0
1070
     0
1070
     0
1070
     1
1070
     1
1040
0.0001
1040
0.0001
1002
}
  0
INSERT
  5
2319
330
1A
100
AcDbEntity
  8
ASHADE
 62
     4
100
AcDbBlockReference
  2
AVE_RENDER
 10
0.0
 20
0.0
 30
0.0
1001
AVE_RENDER
1002
{
1070
     0
1000
Quick Opt
1070
     0
1070
     1
1070
     1
1070
     1
1070
     0
1070
     0
1070
     1
1002
}
  0
INSERT
  5
231A
330
1A
100
AcDbEntity
  8
ASHADE
 62
     5
100
AcDbBlockReference
  2
AVE_RENDER
 10
0.0
 20
0.0
 30
0.0
1001
AVE_RENDER
1002
{
1070
     1
1000
Scanl Opt
1070
     2
1070
     0
1070
     2
1040
2.0
1040
4.0
1070
     0
1070
     1
1070
     0
1040
0.03
1002
}
  0
INSERT
  5
231B
330
1A
100
AcDbEntity
  8
ASHADE
 62
     6
100
AcDbBlockReference
  2
AVE_RENDER
 10
0.0
 20
0.0
 30
0.0
1001
AVE_RENDER
1002
{
1070
     2
1000
Raytr Opt
1070
     2
1070
     0
1070
     2
1040
2.0
1040
4.0
1070
     0
1070
     1
1070
     1
1040
0.03
1070
     3
1040
0.03
1002
}
  0
INSERT
  5
231C
330
1A
100
AcDbEntity
  8
ASHADE
 62
     7
100
AcDbBlockReference
  2
AVE_RENDER
 10
0.0
 20
0.0
 30
0.0
1001
AVE_RENDER
1002
{
1070
     0
1000
RFile Opt
1070
     1
1070
   640
1070
   480
1070
 10000
1070
     1
1070
     8
1070
     8
1070
     0
1070
     0
1070
     0
1070
     0
1070
     0
1070
     0
1070
     0
1002
}
  0
INSERT
  5
231D
330
1A
100
AcDbEntity
  8
ASHADE
 62
     8
100
AcDbBlockReference
  2
AVE_RENDER
 10
0.0
 20
0.0
 30
0.0
1001
AVE_RENDER
1002
{
1070
     0
1000
Fog Opt
1070
     0
1070
     0
1040
0.0
1040
1.0
1040
0.0
1040
1.0
1010
0.5
1020
0.5
1030
0.5
1002
}
  0
INSERT
  5
231E
330
1A
100
AcDbEntity
  8
ASHADE
 62
     9
100
AcDbBlockReference
  2
AVE_RENDER
 10
0.0
 20
0.0
 30
0.0
1001
AVE_RENDER
1002
{
1070
     0
1000
BG Opt
1070
     0
1070
     1
1010
0.0
1020
0.0
1030
0.0
1010
1.0
1020
0.0
1030
0.0
1010
0.0
1020
1.0
1030
0.0
1010
0.0
1020
0.0
1030
1.0
1040
0.5
1040
0.33
1040
0.0
1000

1070
     1
1000

1070
     1
1070
     1
1040
1.0
1040
1.0
1040
0.0
1040
0.0
1070
     0
1002
}
  0
INSERT
  5
2325
330
1A
100
AcDbEntity
  8
ASHADE
 62
     1
100
AcDbBlockReference
  2
AVE_GLOBAL
 10
0.0
 20
0.0
 30
0.0
1001
AVE_MATERIAL
1002
{
1000
*GLOBAL*
1000
1
1000
Globales Material.
1002
{
1002
}
1002
{
1070
    63
1002
{
1002
{
1010
-1.0
1020
-1.0
1030
-1.0
1002
}
1040
0.1000000014901161
1000

1040
0.0
1002
{
1002
}
1040
0.0
1002
{
1002
}
1040
0.0
1002
}
1002
{
1002
{
1010
-1.0
1020
-1.0
1030
-1.0
1002
}
1040
0.6999999880790711
1000

1040
0.0
1002
{
1002
}
1040
0.0
1002
{
1002
}
1040
0.0
1002
}
1002
{
1002
{
1010
-1.0
1020
-1.0
1030
-1.0
1002
}
1040
0.2000000029802322
1000

1040
0.0
1002
{
1002
}
1040
0.0
1002
{
1002
}
1040
0.0
1002
}
1002
{
1070
     0
1002
{
1070
     1
1002
{
1040
1.0
1040
1.0
1000

1040
0.0
1002
{
1002
}
1040
0.0
1002
{
1002
}
1040
0.0
1002
}
1002
}
1040
1.0
1040
0.0
1040
0.0
1002
}
1002
{
1040
1.0
1040
1.0
1000

1040
0.0
1002
{
1002
}
1040
0.0
1002
{
1002
}
1040
0.0
1002
}
1002
{
1040
0.5
1040
1.0
1000

1040
0.0
1002
{
1002
}
1040
0.0
1002
{
1002
}
1040
0.0
1002
}
1002
{
1070
     0
1040
0.0
1002
{
1002
}
1040
1.0
1002
{
1002
}
1040
0.0
1002
}
1002
{
1040
0.0
1002
{
1002
{
1010
0.0
1020
0.0
1030
0.0
1002
}
1040
1.0
1000

1040
0.0
1002
{
1002
}
1040
0.0
1002
{
1002
}
1040
0.0
1002
}
1002
}
1002
{
1002
{
1070
     1
1002
{
1040
0.0
1040
1.0
1000

1040
0.0
1002
{
1002
}
1040
0.0
1002
{
1002
}
1040
0.0
1002
}
1002
}
1040
0.0
1002
{
1002
}
1010
1.0
1020
0.0
1030
0.0
1010
0.0
1020
1.0
1030
0.0
1010
0.0
1020
0.0
1030
1.0
1070
     0
1002
}
1002
{
1002
{
1040
1.0
1040
1.0
1002
{
1070
     1
1002
{
1040
1.0
1040
1.0
1000

1040
0.0
1002
{
1002
}
1040
0.0
1002
{
1002
}
1040
0.0
1002
}
1002
}
1002
}
1070
     0
1040
0.0
1002
{
1002
}
1002
}
1002
{
1002
}
1002
}
1002
{
1071
        3
1070
     3
1070
     0
1002
{
1070
     2
1070
     0
1070
     0
1040
0.0
1002
}
1070
     0
1070
     2
1002
{
1002
}
1002
}
1002
{
1040
8030.0
1040
190.3000030517578
1040
0.3050000071525574
1040
228.0
1040
545.0
1040
14.0
1040
17.39999961853027
1040
0.4560000002384186
1002
}
1002
}
  0
INSERT
  5
2820
330
1A
100
AcDbEntity
  8
ASHADE
 62
     1
100
AcDbBlockReference
  2
AVE_GLOBAL
 10
-1165.996069802244
 20
677.4459733339313
 30
0.0
1001
AVE_MATERIAL
1002
{
1000
*GLOBAL*
1000
1
1000
Globales Material.
1002
{
1002
}
1002
{
1070
    63
1002
{
1002
{
1010
-1.0
1020
-1.0
1030
-1.0
1002
}
1040
0.1000000014901161
1000

1040
0.0
1002
{
1002
}
1040
0.0
1002
{
1002
}
1040
0.0
1002
}
1002
{
1002
{
1010
-1.0
1020
-1.0
1030
-1.0
1002
}
1040
0.6999999880790711
1000

1040
0.0
1002
{
1002
}
1040
0.0
1002
{
1002
}
1040
0.0
1002
}
1002
{
1002
{
1010
-1.0
1020
-1.0
1030
-1.0
1002
}
1040
0.2000000029802322
1000

1040
0.0
1002
{
1002
}
1040
0.0
1002
{
1002
}
1040
0.0
1002
}
1002
{
1070
     0
1002
{
1070
     1
1002
{
1040
1.0
1040
1.0
1000

1040
0.0
1002
{
1002
}
1040
0.0
1002
{
1002
}
1040
0.0
1002
}
1002
}
1040
1.0
1040
0.0
1040
0.0
1002
}
1002
{
1040
1.0
1040
1.0
1000

1040
0.0
1002
{
1002
}
1040
0.0
1002
{
1002
}
1040
0.0
1002
}
1002
{
1040
0.5
1040
1.0
1000

1040
0.0
1002
{
1002
}
1040
0.0
1002
{
1002
}
1040
0.0
1002
}
1002
{
1070
     0
1040
0.0
1002
{
1002
}
1040
1.0
1002
{
1002
}
1040
0.0
1002
}
1002
{
1040
0.0
1002
{
1002
{
1010
0.0
1020
0.0
1030
0.0
1002
}
1040
1.0
1000

1040
0.0
1002
{
1002
}
1040
0.0
1002
{
1002
}
1040
0.0
1002
}
1002
}
1002
{
1002
{
1070
     1
1002
{
1040
0.0
1040
1.0
1000

1040
0.0
1002
{
1002
}
1040
0.0
1002
{
1002
}
1040
0.0
1002
}
1002
}
1040
0.0
1002
{
1002
}
1010
1.0
1020
0.0
1030
0.0
1010
0.0
1020
1.0
1030
0.0
1010
0.0
1020
0.0
1030
1.0
1070
     0
1002
}
1002
{
1002
{
1040
1.0
1040
1.0
1002
{
1070
     1
1002
{
1040
1.0
1040
1.0
1000

1040
0.0
1002
{
1002
}
1040
0.0
1002
{
1002
}
1040
0.0
1002
}
1002
}
1002
}
1070
     0
1040
0.0
1002
{
1002
}
1002
}
1002
{
1002
}
1002
}
1002
{
1071
        3
1070
     3
1070
     0
1002
{
1070
     2
1070
     0
1070
     0
1040
0.0
1002
}
1070
     0
1070
     2
1002
{
1002
}
1002
}
1002
{
1040
8030.0
1040
190.3000030517578
1040
0.3050000071525574
1040
228.0
1040
545.0
1040
14.0
1040
17.39999961853027
1040
0.4560000002384186
1002
}
1002
}
  0
LWPOLYLINE
  5
2E22
330
1A
100
AcDbEntity
  8
0
 62
     1
100
AcDbPolyline
 90
        4
 70
     1
 43
0.0
 10
-1712.064331533825
 20
3138.070802579095
 10
-1708.183397275338
 20
3137.102118274843
 10
-1715.448529557219
 20
3107.995111336191
 10
-1719.329463815707
 20
3108.963795640442
  0
LWPOLYLINE
  5
2E23
330
1A
100
AcDbEntity
  8
0
 62
     1
100
AcDbPolyline
 90
        4
 70
     1
 43
0.0
 10
-1662.0399771556
 20
3137.102118274843
 10
-1654.774844873719
 20
3107.995111336191
 10
-1650.893910615232
 20
3108.963795640442
 10
-1658.159042897113
 20
3138.070802579095
  0
LWPOLYLINE
  5
2E64
330
1A
100
AcDbEntity
  8
0
 62
     4
100
AcDbPolyline
 90
       12
 70
     1
 43
0.0
 10
-1533.220046096355
 20
3159.366752248503
 10
-1533.220046096355
 20
3155.366752248502
 10
-1541.946452336572
 20
3155.366752248502
 10
-1541.946452336572
 20
3086.891381731959
 10
-1533.220046096355
 20
3086.891381731959
 10
-1533.220046096355
 20
3082.891381731959
 10
-1438.272055218221
 20
3082.89138173196
 10
-1438.272055218221
 20
3086.891381731959
 10
-1429.545648978004
 20
3086.891381731959
 10
-1429.545648978004
 20
3155.366752248502
 10
-1438.272055218221
 20
3155.366752248502
 10
-1438.272055218221
 20
3159.366752248502
  0
LWPOLYLINE
  5
2E65
330
1A
100
AcDbEntity
  8
0
 62
     1
100
AcDbPolyline
 90
        4
 70
     1
 43
0.0
 10
-1510.746050657287
 20
3100.138021422813
 10
-1510.746050657287
 20
3095.338021422813
 10
-1460.746050657287
 20
3095.338021422814
 10
-1460.746050657287
 20
3100.138021422814
  0
LWPOLYLINE
  5
2E66
330
1A
100
AcDbEntity
  8
0
 62
     1
100
AcDbPolyline
 90
        4
 70
     1
 43
0.0
 10
-1510.746050657288
 20
3146.92011255765
 10
-1510.746050657288
 20
3142.120112557649
 10
-1460.746050657288
 20
3142.12011255765
 10
-1460.746050657288
 20
3146.92011255765
  0
LWPOLYLINE
  5
2E6D
330
1A
100
AcDbEntity
  8
0
 62
     4
100
AcDbPolyline
 90
       12
 70
     1
 43
0.0
 10
-1533.220046096355
 20
3255.485256203903
 10
-1533.220046096355
 20
3251.485256203902
 10
-1541.946452336572
 20
3251.485256203902
 10
-1541.946452336572
 20
3183.009885687359
 10
-1533.220046096355
 20
3183.009885687359
 10
-1533.220046096355
 20
3179.009885687359
 10
-1438.272055218221
 20
3179.009885687359
 10
-1438.272055218221
 20
3183.009885687359
 10
-1429.545648978004
 20
3183.009885687359
 10
-1429.545648978004
 20
3251.485256203902
 10
-1438.272055218221
 20
3251.485256203902
 10
-1438.272055218221
 20
3255.485256203902
  0
LWPOLYLINE
  5
2E74
330
1A
100
AcDbEntity
  8
0
 62
     1
100
AcDbPolyline
 90
        4
 70
     1
 43
0.0
 10
-1510.746050657287
 20
3196.256525378212
 10
-1510.746050657287
 20
3191.456525378213
 10
-1460.746050657287
 20
3191.456525378213
 10
-1460.746050657287
 20
3196.256525378213
  0
LWPOLYLINE
  5
2E75
330
1A
100
AcDbEntity
  8
0
 62
     1
100
AcDbPolyline
 90
        4
 70
     1
 43
0.0
 10
-1510.746050657288
 20
3243.038616513049
 10
-1510.746050657288
 20
3238.238616513049
 10
-1460.746050657288
 20
3238.238616513049
 10
-1460.746050657288
 20
3243.038616513049
  0
LWPOLYLINE
  5
2EA5
330
1A
100
AcDbEntity
  8
0
 62
     4
100
AcDbPolyline
 90
       11
 70
     1
 43
0.0
 10
-1614.800561534729
 20
3136.583419488604
 10
-1618.681495793216
 20
3137.552103792855
 10
-1625.704456999035
 20
3109.415330418825
 10
-1621.823522740548
 20
3108.446646114573
 10
-1628.202137231191
 20
3082.891381731958
 10
-1586.220046096355
 20
3082.891381731959
 10
-1592.598660586998
 20
3108.446646114573
 10
-1588.717726328511
 20
3109.415330418825
 10
-1595.740687534329
 20
3137.552103792854
 10
-1599.621621792817
 20
3136.583419488605
 10
-1607.211091663773
 20
3166.989851694327
  0
LWPOLYLINE
  5
2EAE
330
1A
100
AcDbEntity
  8
0
 62
     4
100
AcDbPolyline
 90
        8
 70
     1
 43
0.0
 10
-1660.111687215469
 20
3078.891381731958
 10
-1660.111687215469
 20
3082.891381731958
 10
-1638.202137231191
 20
3082.891381731958
 10
-1659.208013505693
 20
3167.04926940033
 10
-1711.015360925245
 20
3167.04926940033
 10
-1732.021237199748
 20
3082.891381731958
 10
-1710.111687215469
 20
3082.891381731958
 10
-1710.111687215469
 20
3078.891381731958
  0
LWPOLYLINE
  5
2EB9
330
1A
100
AcDbEntity
  8
0
 62
     1
100
AcDbPolyline
 90
        4
 70
     1
 43
0.0
 10
-1712.064331533825
 20
3238.027542834629
 10
-1708.183397275338
 20
3237.058858530378
 10
-1715.448529557219
 20
3207.951851591726
 10
-1719.329463815707
 20
3208.920535895976
  0
LWPOLYLINE
  5
2EBA
330
1A
100
AcDbEntity
  8
0
 62
     1
100
AcDbPolyline
 90
        4
 70
     1
 43
0.0
 10
-1662.0399771556
 20
3237.058858530378
 10
-1654.774844873719
 20
3207.951851591726
 10
-1650.893910615232
 20
3208.920535895976
 10
-1658.159042897113
 20
3238.027542834629
  0
LWPOLYLINE
  5
2EBB
330
1A
100
AcDbEntity
  8
0
 62
     4
100
AcDbPolyline
 90
        8
 70
     1
 43
0.0
 10
-1660.111687215469
 20
3178.848121987493
 10
-1660.111687215469
 20
3182.848121987493
 10
-1638.202137231191
 20
3182.848121987494
 10
-1659.208013505693
 20
3267.006009655864
 10
-1711.015360925245
 20
3267.006009655864
 10
-1732.021237199748
 20
3182.848121987493
 10
-1710.111687215469
 20
3182.848121987493
 10
-1710.111687215469
 20
3178.848121987492
  0
LWPOLYLINE
  5
2EBC
330
1A
100
AcDbEntity
  8
0
 62
     4
100
AcDbPolyline
 90
       11
 70
     1
 43
0.0
 10
-1614.800561534729
 20
3236.540159744139
 10
-1618.681495793216
 20
3237.50884404839
 10
-1625.704456999035
 20
3209.37207067436
 10
-1621.823522740548
 20
3208.403386370108
 10
-1628.202137231191
 20
3182.848121987494
 10
-1586.220046096355
 20
3182.848121987494
 10
-1592.598660586998
 20
3208.403386370108
 10
-1588.717726328511
 20
3209.37207067436
 10
-1595.740687534329
 20
3237.508844048389
 10
-1599.621621792817
 20
3236.54015974414
 10
-1607.211091663773
 20
3266.946591949862
  0
LWPOLYLINE
  5
2EBE
330
1A
100
AcDbEntity
  8
0
 62
     4
100
AcDbPolyline
 90
        8
 70
     1
 43
0.0
 10
-1742.924910909524
 20
3167.04926940033
 10
-1742.924910909524
 20
3163.04926940033
 10
-1721.015360925245
 20
3163.04926940033
 10
-1742.021237199747
 20
3078.891381731959
 10
-1793.828584619299
 20
3078.891381731958
 10
-1814.834460893802
 20
3163.04926940033
 10
-1792.924910909523
 20
3163.04926940033
 10
-1792.924910909523
 20
3167.049269400331
  0
LWPOLYLINE
  5
2EBF
330
1A
100
AcDbEntity
  8
0
 62
     1
100
AcDbPolyline
 90
        4
 70
     1
 43
0.0
 10
-1744.853200849654
 20
3108.838532857446
 10
-1737.588068567773
 20
3137.945539796098
 10
-1733.707134309286
 20
3136.976855491847
 10
-1740.972266591167
 20
3107.869848553194
  0
LWPOLYLINE
  5
2EC0
330
1A
100
AcDbEntity
  8
0
 62
     1
100
AcDbPolyline
 90
        4
 70
     1
 43
0.0
 10
-1794.87755522788
 20
3107.869848553194
 10
-1790.996620969393
 20
3108.838532857446
 10
-1798.261753251274
 20
3137.945539796098
 10
-1802.142687509761
 20
3136.976855491847
  0
LWPOLYLINE
  5
2EC1
330
1A
100
AcDbEntity
  8
0
 62
     4
100
AcDbPolyline
 90
        8
 70
     1
 43
0.0
 10
-1742.924910909524
 20
3267.006009655865
 10
-1742.924910909524
 20
3263.006009655865
 10
-1721.015360925245
 20
3263.006009655864
 10
-1742.021237199747
 20
3178.848121987494
 10
-1793.828584619299
 20
3178.848121987494
 10
-1814.834460893802
 20
3263.006009655865
 10
-1792.924910909523
 20
3263.006009655865
 10
-1792.924910909523
 20
3267.006009655866
  0
LWPOLYLINE
  5
2EC2
330
1A
100
AcDbEntity
  8
0
 62
     1
100
AcDbPolyline
 90
        4
 70
     1
 43
0.0
 10
-1794.87755522788
 20
3207.826588808729
 10
-1790.996620969393
 20
3208.79527311298
 10
-1798.261753251274
 20
3237.902280051633
 10
-1802.142687509761
 20
3236.933595747382
  0
LWPOLYLINE
  5
2EC3
330
1A
100
AcDbEntity
  8
0
 62
     1
100
AcDbPolyline
 90
        4
 70
     1
 43
0.0
 10
-1744.853200849654
 20
3208.79527311298
 10
-1737.588068567773
 20
3237.902280051633
 10
-1733.707134309286
 20
3236.933595747382
 10
-1740.972266591167
 20
3207.826588808729
  0
LWPOLYLINE
  5
2EC4
330
1A
100
AcDbEntity
  8
0
 62
     4
100
AcDbPolyline
 90
       11
 70
     1
 43
0.0
 10
-1578.809515967311
 20
3113.297813937681
 10
-1582.690450225798
 20
3112.329129633431
 10
-1589.713411431617
 20
3140.465903007461
 10
-1585.83247717313
 20
3141.434587311712
 10
-1592.211091663773
 20
3166.989851694327
 10
-1550.229000528937
 20
3166.989851694327
 10
-1556.60761501958
 20
3141.434587311712
 10
-1552.726680761093
 20
3140.465903007461
 10
-1559.749641966911
 20
3112.329129633432
 10
-1563.630576225398
 20
3113.297813937681
 10
-1571.220046096355
 20
3082.891381731958
  0
LWPOLYLINE
  5
2EC5
330
1A
100
AcDbEntity
  8
0
 62
     4
100
AcDbPolyline
 90
       11
 70
     1
 43
0.0
 10
-1578.809515967311
 20
3213.254554193217
 10
-1582.690450225798
 20
3212.285869888966
 10
-1589.713411431617
 20
3240.422643262995
 10
-1585.83247717313
 20
3241.391327567247
 10
-1592.211091663773
 20
3266.946591949862
 10
-1550.229000528937
 20
3266.946591949861
 10
-1556.60761501958
 20
3241.391327567247
 10
-1552.726680761093
 20
3240.422643262995
 10
-1559.749641966911
 20
3212.285869888967
 10
-1563.630576225398
 20
3213.254554193215
 10
-1571.220046096355
 20
3182.848121987494
  0
LWPOLYLINE
  5
3382
330
1A
100
AcDbEntity
  8
0
 62
     4
100
AcDbPolyline
 90
       12
 70
     1
 43
0.0
 10
-815.9669816503884
 20
3273.789616241921
 10
-815.9669816503889
 20
3255.789616241921
 10
-784.9669816503882
 20
3255.789616241921
 10
-784.9669816503882
 20
3251.789616241921
 10
-734.9669816503883
 20
3251.789616241921
 10
-734.9669816503883
 20
3255.789616241921
 10
-703.9669816503886
 20
3255.789616241921
 10
-703.9669816503882
 20
3273.789616241921
 10
-734.9669816503883
 20
3273.789616241921
 10
-734.9669816503883
 20
3277.78961624192
 10
-784.9669816503882
 20
3277.789616241921
 10
-784.9669816503882
 20
3273.789616241922
  0
LWPOLYLINE
  5
3383
330
1A
100
AcDbEntity
  8
0
 62
     4
100
AcDbPolyline
 90
        4
 70
     1
 43
0.0
 10
-778.7071964584781
 20
3266.789616241921
 10
-778.7071964584781
 20
3262.789616241921
 10
-749.9669816503882
 20
3262.789616241921
 10
-749.9669816503881
 20
3266.789616241921
  0
LWPOLYLINE
  5
3384
330
1A
100
AcDbEntity
  8
0
 62
     4
100
AcDbPolyline
 90
       13
 70
     1
 43
0.0
 10
-769.9669816503882
 20
3231.190821252019
 10
-769.9669816503882
 20
3235.190821252019
 10
-778.7071964584781
 20
3235.190821252019
 42
-0.4142135623730951
 10
-771.9275164584781
 20
3241.970501252019
 10
-754.2042816503882
 20
3241.970501252019
 42
-0.4142135623730951
 10
-749.9669816503882
 20
3237.733201252019
 10
-749.9669816503882
 20
3231.190821252019
 10
-703.7206471783339
 20
3231.190821252019
 10
-723.0062096721094
 20
3193.032392418599
 42
-0.2829131167174331
 10
-731.9310931270738
 20
3187.543096943981
 10
-787.9513017484592
 20
3187.543096943981
 42
-0.2849300046445403
 10
-796.9096118561625
 20
3193.099148247808
 10
-815.8057472373839
 20
3231.190821252019
  0
LWPOLYLINE
  5
3385
330
1A
100
AcDbEntity
  8
0
 62
     4
100
AcDbPolyline
 90
       43
 70
     1
 43
0.0
 10
-982.5409887543688
 20
3265.047782093122
 42
0.761882905491513
 10
-981.31244169095
 20
3260.980584449534
 10
-978.1075106452767
 20
3261.059689209119
 10
-978.1075106452762
 20
3250.313470214266
 10
-991.9779782297659
 20
3250.313470214266
 10
-991.9779782297656
 20
3238.313470214266
 10
-997.1661670215466
 20
3238.313470214266
 10
-997.1661670215477
 20
3250.313470214266
 10
-1011.217174078303
 20
3250.313470214268
 10
-1011.217174078303
 20
3204.653732981182
 10
-1015.217174078303
 20
3204.653732981183
 10
-1015.217174078303
 20
3162.603088094274
 10
-1025.217174078303
 20
3162.603088094274
 10
-1025.217174078303
 20
3086.408534952408
 10
-1015.217174078303
 20
3086.408534952408
 10
-1015.217174078303
 20
3117.737744984176
 10
-1011.217174078303
 20
3117.737744984176
 10
-1011.217174078303
 20
3086.408534952408
 10
-899.2171740783028
 20
3086.408534952408
 10
-899.2171740783028
 20
3117.737744984176
 10
-895.2171740783027
 20
3117.737744984176
 10
-895.2171740783027
 20
3086.408534952408
 10
-885.2171740783028
 20
3086.408534952408
 10
-885.2171740783028
 20
3162.603088094274
 10
-895.2171740783027
 20
3162.603088094274
 10
-895.2171740783027
 20
3204.653732981183
 10
-899.2171740783028
 20
3204.653732981182
 10
-899.2171740783028
 20
3250.313470214268
 10
-913.2681811350584
 20
3250.313470214266
 10
-913.2681811350584
 20
3238.313470214266
 10
-918.4563699268393
 20
3238.313470214266
 10
-918.4563699268393
 20
3250.313470214266
 10
-932.3268375113292
 20
3250.313470214266
 10
-932.3268375113288
 20
3261.05968920912
 10
-929.1219064656559
 20
3260.980584449535
 42
0.761882905491513
 10
-927.8933594022369
 20
3265.047782093123
 10
-939.8444196984906
 20
3272.57413791018
 10
-939.8444196984904
 20
3278.573262793254
 10
-947.703619431394
 20
3278.573262793254
 10
-955.2171740783029
 20
3284.342390798344
 10
-962.730728725212
 20
3278.573262793254
 10
-970.5899284581157
 20
3278.573262793252
 10
-970.5899284581153
 20
3272.57413791018
  0
LWPOLYLINE
  5
3386
330
1A
100
AcDbEntity
  8
0
 62
     2
100
AcDbPolyline
 90
        9
 70
     1
 43
0.0
 10
-979.9317551053269
 20
3193.157648954795
 10
-979.9317551053265
 20
3154.468534952407
 10
-986.4535353127079
 20
3154.468534952407
 10
-986.4535353127079
 20
3150.468534952407
 10
-923.980812843898
 20
3150.468534952407
 10
-923.9808128438978
 20
3154.468534952407
 10
-930.5025930512794
 20
3154.468534952407
 10
-930.5025930512792
 20
3193.157648954795
 42
0.3658238867209414
 10
-955.217174078303
 20
3213.282584229403
 42
0.3658238867209416
  0
LWPOLYLINE
  5
3387
330
1A
100
AcDbEntity
  8
0
 62
     4
100
AcDbPolyline
 90
        4
 70
     1
 43
0.0
 10
-930.217174078303
 20
3242.313470214265
 10
-930.217174078303
 20
3238.313470214265
 10
-980.2171740783029
 20
3238.313470214266
 10
-980.2171740783029
 20
3242.313470214265
  0
LWPOLYLINE
  5
3388
330
1A
100
AcDbEntity
  8
0
 62
     1
100
AcDbPolyline
 90
        4
 70
     1
 43
0.0
 10
-939.217174078303
 20
3262.313470214266
 10
-939.217174078303
 20
3250.313470214268
 10
-947.217174078303
 20
3250.313470214268
 10
-947.217174078303
 20
3262.313470214266
  0
LWPOLYLINE
  5
3389
330
1A
100
AcDbEntity
  8
0
 62
     1
100
AcDbPolyline
 90
        4
 70
     1
 43
0.0
 10
-951.2171740783029
 20
3262.313470214266
 10
-951.2171740783029
 20
3250.313470214268
 10
-959.217174078303
 20
3250.313470214268
 10
-959.217174078303
 20
3262.313470214266
  0
LWPOLYLINE
  5
338A
330
1A
100
AcDbEntity
  8
0
 62
     1
100
AcDbPolyline
 90
        4
 70
     1
 43
0.0
 10
-963.217174078303
 20
3262.313470214266
 10
-963.217174078303
 20
3250.313470214268
 10
-971.2171740783031
 20
3250.313470214268
 10
-971.2171740783031
 20
3262.313470214266
  0
LWPOLYLINE
  5
33DE
330
1A
100
AcDbEntity
  8
0
 62
     4
100
AcDbPolyline
 90
       18
 70
     1
 43
0.0
 10
-840.6271710793165
 20
3250.313470214268
 10
-866.6271710793166
 20
3250.313470214267
 10
-866.6271710793163
 20
3204.653732981183
 10
-862.6271710793163
 20
3204.653732981183
 10
-862.6271710793163
 20
3117.737744984176
 10
-866.6271710793164
 20
3117.737744984176
 10
-866.6271710793164
 20
3162.603088094274
 10
-868.6271710793164
 20
3162.603088094274
 42
0.4142135623730951
 10
-876.6271710793164
 20
3154.603088094274
 10
-876.6271710793162
 20
3086.408534952408
 10
-830.6271710793165
 20
3086.408534952408
 10
-830.6271710793165
 20
3154.603088094274
 42
0.4142135623730951
 10
-838.6271710793163
 20
3162.603088094274
 10
-840.6271710793165
 20
3162.603088094274
 10
-840.6271710793165
 20
3117.737744984176
 10
-844.6271710793164
 20
3117.737744984175
 10
-844.6271710793164
 20
3204.653732981183
 10
-840.6271710793163
 20
3204.653732981183
  0
LWPOLYLINE
  5
33FB
330
1A
100
AcDbEntity
  8
0
 62
     1
100
AcDbPolyline
 90
       14
 70
     1
 43
0.0
 10
-998.2251613636099
 20
3161.455592767826
 10
-998.2251613636099
 20
3231.438126084772
 10
-990.8785740466344
 20
3231.438126084773
 10
-990.8785740466342
 20
3224.382273339107
 10
-983.9641383686128
 20
3224.382273339107
 10
-983.9641383686128
 20
3231.438126084773
 10
-977.0497026905914
 20
3231.438126084773
 10
-977.0497026905914
 20
3224.382273339106
 10
-969.9912175167799
 20
3224.382273339106
 10
-969.9912175167801
 20
3231.438126084772
 10
-962.6446301998042
 20
3231.438126084773
 10
-962.6446301998042
 20
3220.782348845413
 42
0.3665826089905198
 10
-989.870218121352
 20
3188.527025579878
 10
-989.8702181213513
 20
3161.455592767826
  0
LWPOLYLINE
  5
33FC
330
1A
100
AcDbEntity
  8
0
 62
     1
100
AcDbPolyline
 90
       14
 70
     1
 43
0.0
 10
-912.2091867929961
 20
3161.455592767826
 10
-912.209186792996
 20
3231.438126084773
 10
-919.5557741099717
 20
3231.438126084773
 10
-919.5557741099717
 20
3224.382273339107
 10
-926.4702097879929
 20
3224.382273339107
 10
-926.4702097879929
 20
3231.438126084773
 10
-933.3846454660145
 20
3231.438126084773
 10
-933.3846454660145
 20
3224.382273339107
 10
-940.443130639826
 20
3224.382273339106
 10
-940.4431306398258
 20
3231.438126084773
 10
-947.7897179568017
 20
3231.438126084773
 10
-947.7897179568017
 20
3220.782348845413
 42
-0.3665826089905182
 10
-920.5641300352541
 20
3188.527025579878
 10
-920.5641300352548
 20
3161.455592767826
  0
LWPOLYLINE
  5
33FD
330
1A
100
AcDbEntity
  8
0
 62
     1
100
AcDbPolyline
 90
       14
 70
     1
 43
0.0
 10
-1147.421277119027
 20
3161.455592767826
 10
-1147.421277119027
 20
3231.438126084772
 10
-1140.074689802052
 20
3231.438126084773
 10
-1140.074689802052
 20
3224.382273339107
 10
-1133.160254124031
 20
3224.382273339107
 10
-1133.160254124031
 20
3231.438126084773
 10
-1126.245818446009
 20
3231.438126084773
 10
-1126.245818446009
 20
3224.382273339106
 10
-1119.187333272198
 20
3224.382273339106
 10
-1119.187333272198
 20
3231.438126084772
 10
-1111.840745955222
 20
3231.438126084773
 10
-1111.840745955222
 20
3220.782348845413
 42
0.3665826089905198
 10
-1139.06633387677
 20
3188.527025579878
 10
-1139.066333876769
 20
3161.455592767826
  0
LWPOLYLINE
  5
33FE
330
1A
100
AcDbEntity
  8
0
 62
     2
100
AcDbPolyline
 90
        9
 70
     1
 43
0.0
 10
-1129.127870860744
 20
3193.157648954795
 10
-1129.127870860744
 20
3154.468534952407
 10
-1135.649651068126
 20
3154.468534952407
 10
-1135.649651068126
 20
3150.468534952407
 10
-1073.176928599316
 20
3150.468534952407
 10
-1073.176928599316
 20
3154.468534952407
 10
-1079.698708806697
 20
3154.468534952407
 10
-1079.698708806697
 20
3193.157648954795
 42
0.3658238867209414
 10
-1104.413289833721
 20
3213.282584229403
 42
0.3658238867209416
  0
LWPOLYLINE
  5
3400
330
1A
100
AcDbEntity
  8
0
 62
     1
100
AcDbPolyline
 90
       14
 70
     1
 43
0.0
 10
-1061.405302548414
 20
3161.455592767826
 10
-1061.405302548414
 20
3231.438126084773
 10
-1068.751889865389
 20
3231.438126084773
 10
-1068.75188986539
 20
3224.382273339107
 10
-1075.666325543411
 20
3224.382273339107
 10
-1075.666325543411
 20
3231.438126084773
 10
-1082.580761221432
 20
3231.438126084773
 10
-1082.580761221432
 20
3224.382273339107
 10
-1089.639246395244
 20
3224.382273339106
 10
-1089.639246395244
 20
3231.438126084773
 10
-1096.985833712219
 20
3231.438126084773
 10
-1096.985833712219
 20
3220.782348845413
 42
-0.3665826089905182
 10
-1069.760245790672
 20
3188.527025579878
 10
-1069.760245790672
 20
3161.455592767826
  0
LWPOLYLINE
  5
3401
330
1A
100
AcDbEntity
  8
0
 62
     4
100
AcDbPolyline
 90
        4
 70
     1
 43
0.0
 10
-1079.413289833721
 20
3242.313470214265
 10
-1079.413289833721
 20
3238.313470214265
 10
-1129.413289833721
 20
3238.313470214266
 10
-1129.413289833721
 20
3242.313470214265
  0
LWPOLYLINE
  5
3402
330
1A
100
AcDbEntity
  8
0
 62
     1
100
AcDbPolyline
 90
        4
 70
     1
 43
0.0
 10
-1100.413289833721
 20
3262.313470214266
 10
-1100.413289833721
 20
3250.313470214268
 10
-1108.413289833721
 20
3250.313470214268
 10
-1108.413289833721
 20
3262.313470214266
  0
LWPOLYLINE
  5
3403
330
1A
100
AcDbEntity
  8
0
 62
     1
100
AcDbPolyline
 90
        4
 70
     1
 43
0.0
 10
-1112.413289833721
 20
3262.313470214266
 10
-1112.413289833721
 20
3250.313470214268
 10
-1120.413289833721
 20
3250.313470214268
 10
-1120.413289833721
 20
3262.313470214266
  0
LWPOLYLINE
  5
3404
330
1A
100
AcDbEntity
  8
0
 62
     1
100
AcDbPolyline
 90
        4
 70
     1
 43
0.0
 10
-1088.413289833721
 20
3262.313470214266
 10
-1088.413289833721
 20
3250.313470214268
 10
-1096.413289833721
 20
3250.313470214268
 10
-1096.413289833721
 20
3262.313470214266
  0
LWPOLYLINE
  5
3430
330
1A
100
AcDbEntity
  8
0
 62
     4
100
AcDbPolyline
 90
       35
 70
     1
 43
0.0
 10
-1034.413289833721
 20
3086.408534952408
 10
-1034.413289833721
 20
3162.603088094274
 10
-1044.413289833721
 20
3162.603088094274
 10
-1044.413289833721
 20
3204.653732981183
 10
-1048.41328983372
 20
3204.653732981182
 10
-1048.41328983372
 20
3250.313470214266
 10
-1081.522953266747
 20
3250.313470214266
 10
-1081.522953266746
 20
3261.05968920912
 10
-1078.318022221074
 20
3260.980584449535
 42
0.7618829054914929
 10
-1077.089475157654
 20
3265.047782093123
 10
-1089.040535453908
 20
3272.57413791018
 10
-1089.040535453908
 20
3278.573262793254
 10
-1096.899735186812
 20
3278.573262793254
 10
-1104.41328983372
 20
3284.342390798344
 10
-1111.92684448063
 20
3278.573262793254
 10
-1119.786044213534
 20
3278.573262793252
 10
-1119.786044213533
 20
3272.57413791018
 10
-1131.737104509786
 20
3265.047782093122
 42
0.7618829054915308
 10
-1130.508557446368
 20
3260.980584449534
 10
-1127.303626400694
 20
3261.059689209119
 10
-1127.303626400694
 20
3250.313470214266
 10
-1160.413289833721
 20
3250.313470214266
 10
-1160.413289833721
 20
3204.653732981182
 10
-1164.413289833721
 20
3204.653732981183
 10
-1164.413289833721
 20
3162.603088094274
 10
-1174.413289833721
 20
3162.603088094274
 10
-1174.413289833721
 20
3086.408534952408
 10
-1164.413289833721
 20
3086.408534952408
 10
-1164.413289833721
 20
3117.737744984176
 10
-1160.413289833721
 20
3117.737744984176
 10
-1160.413289833721
 20
3086.408534952408
 10
-1048.41328983372
 20
3086.408534952408
 10
-1048.41328983372
 20
3117.737744984176
 10
-1044.413289833721
 20
3117.737744984176
 10
-1044.413289833721
 20
3086.408534952408
  0
LWPOLYLINE
  5
3431
330
1A
100
AcDbEntity
  8
0
 62
     4
100
AcDbPolyline
 90
       18
 70
     1
 43
0.0
 10
-1191.959953192222
 20
3250.313470214268
 10
-1217.959953192222
 20
3250.313470214267
 10
-1217.959953192221
 20
3204.653732981183
 10
-1213.959953192222
 20
3204.653732981183
 10
-1213.959953192222
 20
3117.737744984176
 10
-1217.959953192222
 20
3117.737744984176
 10
-1217.959953192222
 20
3162.603088094274
 10
-1219.959953192222
 20
3162.603088094274
 42
0.4142135623730951
 10
-1227.959953192222
 20
3154.603088094274
 10
-1227.959953192221
 20
3086.408534952408
 10
-1181.959953192222
 20
3086.408534952408
 10
-1181.959953192222
 20
3154.603088094274
 42
0.4142135623730951
 10
-1189.959953192222
 20
3162.603088094274
 10
-1191.959953192222
 20
3162.603088094274
 10
-1191.959953192222
 20
3117.737744984176
 10
-1195.959953192221
 20
3117.737744984175
 10
-1195.959953192221
 20
3204.653732981183
 10
-1191.959953192221
 20
3204.653732981183
  0
LINE
  5
344F
330
1A
100
AcDbEntity
  8
0
 62
     4
100
AcDbLine
 10
-1234.765358168802
 20
2891.325195683569
 30
0.0
 11
-1834.765358168803
 21
2891.325195683569
 31
0.0
  0
LWPOLYLINE
  5
415D
330
1A
100
AcDbEntity
  8
0
 62
     4
100
AcDbPolyline
 90
        6
 70
     1
 43
0.0
 10
-788.0520576111314
 20
3089.983558680789
 10
-802.40700085339
 20
3089.983558680789
 10
-802.40700085339
 20
3165.966091997735
 10
-760.8264696895842
 20
3165.966091997735
 10
-760.8264696895842
 20
3149.665088752179
 42
0.3909146438620498
 10
-788.0520576111323
 20
3120.057607578984
  0
LWPOLYLINE
  5
415E
330
1A
100
AcDbEntity
  8
0
 62
     4
100
AcDbPolyline
 90
        6
 70
     1
 43
0.0
 10
-724.7459695250342
 20
3120.057607578866
 42
0.3909146438631949
 10
-751.9715574465818
 20
3149.665088752179
 10
-751.9715574465817
 20
3165.966091997735
 10
-710.391026282776
 20
3165.966091997735
 10
-710.3910262827762
 20
3089.983558680788
 10
-724.745969525035
 20
3089.983558680789
  0
LINE
  5
41CD
330
1A
100
AcDbEntity
  8
0
 62
     4
100
AcDbLine
 10
-1234.765358168802
 20
2891.325195683569
 30
0.0
 11
-1834.765358168803
 21
2891.325195683569
 31
0.0
  0
LINE
  5
41CE
330
1A
100
AcDbEntity
  8
0
 62
     4
100
AcDbLine
 10
-1234.765358168802
 20
2891.325195683569
 30
0.0
 11
-1834.765358168803
 21
2891.325195683569
 31
0.0
  0
LINE
  5
41D0
330
1A
100
AcDbEntity
  8
0
 62
     4
100
AcDbLine
 10
-1234.765358168802
 20
3291.325195683569
 30
0.0
 11
-1834.765358168803
 21
3291.325195683569
 31
0.0
  0
LINE
  5
41D1
330
1A
100
AcDbEntity
  8
0
 62
     4
100
AcDbLine
 10
-1834.765358168803
 20
3291.325195683569
 30
0.0
 11
-1834.765358168803
 21
2891.325195683569
 31
0.0
  0
LINE
  5
41D2
330
1A
100
AcDbEntity
  8
0
 62
     4
100
AcDbLine
 10
-1234.765358168802
 20
3291.325195683569
 30
0.0
 11
-1234.765358168802
 21
2891.325195683569
 31
0.0
  0
LINE
  5
41D3
330
1A
100
AcDbEntity
  8
0
 62
     4
100
AcDbLine
 10
-634.7653581688025
 20
3291.325195683569
 30
0.0
 11
-634.7653581688025
 21
2891.325195683569
 31
0.0
  0
LINE
  5
41D4
330
1A
100
AcDbEntity
  8
0
 62
     4
100
AcDbLine
 10
-1234.765358168802
 20
3291.325195683569
 30
0.0
 11
-634.7653581688025
 21
3291.325195683569
 31
0.0
  0
LINE
  5
41D5
330
1A
100
AcDbEntity
  8
0
 62
     4
100
AcDbLine
 10
-1234.765358168802
 20
2891.325195683569
 30
0.0
 11
-634.7653581688025
 21
2891.325195683569
 31
0.0
  0
LWPOLYLINE
  5
41DD
330
1A
100
AcDbEntity
  8
0
 62
     4
100
AcDbPolyline
 90
       80
 70
     1
 43
0.0
 10
-1331.40368522769
 20
3257.802322820612
 10
-1331.40368522769
 20
3200.546049871419
 10
-1335.40368522769
 20
3200.546049871419
 10
-1335.40368522769
 20
3185.546049871418
 10
-1331.40368522769
 20
3185.546049871418
 10
-1331.40368522769
 20
3174.038009168061
 10
-1325.40368522769
 20
3174.038009168061
 10
-1325.40368522769
 20
3170.038009168062
 10
-1331.40368522769
 20
3170.038009168062
 10
-1331.40368522769
 20
3139.155674040988
 10
-1325.40368522769
 20
3139.155674040988
 10
-1325.40368522769
 20
3135.155674040988
 10
-1331.40368522769
 20
3135.155674040988
 10
-1331.40368522769
 20
3104.772126953657
 10
-1325.40368522769
 20
3104.772126953657
 10
-1325.40368522769
 20
3100.772126953657
 10
-1331.40368522769
 20
3100.772126953657
 10
-1331.40368522769
 20
3093.28744338608
 10
-1335.40368522769
 20
3093.28744338608
 10
-1335.40368522769
 20
3078.28744338608
 10
-1331.40368522769
 20
3078.28744338608
 10
-1331.40368522769
 20
3070.802759818503
 10
-1325.40368522769
 20
3070.802759818503
 10
-1325.40368522769
 20
3066.802759818503
 10
-1331.40368522769
 20
3066.802759818503
 10
-1331.40368522769
 20
3036.843180810564
 10
-1325.40368522769
 20
3036.843180810564
 10
-1325.40368522769
 20
3032.843180810564
 10
-1331.40368522769
 20
3032.843180810564
 10
-1331.40368522769
 20
3002.464760675371
 10
-1325.40368522769
 20
3002.464760675371
 10
-1325.40368522769
 20
2998.464760675371
 10
-1331.40368522769
 20
2998.464760675371
 10
-1331.40368522769
 20
2985.667361048769
 10
-1335.40368522769
 20
2985.667361048769
 10
-1335.40368522769
 20
2970.667361048769
 10
-1331.40368522769
 20
2970.667361048769
 10
-1331.40368522769
 20
2957.869961422167
 10
-1326.025003643078
 20
2957.869961422167
 10
-1326.025003643078
 20
2921.869961422168
 10
-1264.516470052178
 20
2921.869961422168
 10
-1264.516470052178
 20
2957.869961422167
 10
-1259.137788467566
 20
2957.869961422167
 10
-1259.137788467566
 20
2970.667361048769
 10
-1255.137788467566
 20
2970.667361048769
 10
-1255.137788467566
 20
2985.667361048769
 10
-1259.137788467566
 20
2985.667361048769
 10
-1259.137788467565
 20
2998.464760675371
 10
-1265.137788467565
 20
2998.464760675371
 10
-1265.137788467565
 20
3002.464760675371
 10
-1259.137788467565
 20
3002.464760675371
 10
-1259.137788467566
 20
3032.843180810564
 10
-1265.137788467566
 20
3032.843180810564
 10
-1265.137788467566
 20
3036.843180810564
 10
-1259.137788467566
 20
3036.843180810564
 10
-1259.137788467566
 20
3066.802759818503
 10
-1265.137788467566
 20
3066.802759818503
 10
-1265.137788467566
 20
3070.802759818503
 10
-1259.137788467566
 20
3070.802759818503
 10
-1259.137788467566
 20
3078.28744338608
 10
-1255.137788467566
 20
3078.28744338608
 10
-1255.137788467566
 20
3093.28744338608
 10
-1259.137788467566
 20
3093.28744338608
 10
-1259.137788467566
 20
3100.772126953657
 10
-1265.137788467566
 20
3100.772126953657
 10
-1265.137788467566
 20
3104.772126953657
 10
-1259.137788467566
 20
3104.772126953657
 10
-1259.137788467566
 20
3135.155674040988
 10
-1265.137788467566
 20
3135.155674040988
 10
-1265.137788467566
 20
3139.155674040988
 10
-1259.137788467566
 20
3139.155674040988
 10
-1259.137788467566
 20
3170.038009168062
 10
-1265.137788467566
 20
3170.038009168062
 10
-1265.137788467566
 20
3174.038009168061
 10
-1259.137788467566
 20
3174.038009168061
 10
-1259.137788467566
 20
3185.546049871418
 10
-1255.137788467566
 20
3185.546049871418
 10
-1255.137788467566
 20
3200.546049871419
 10
-1259.137788467566
 20
3200.546049871419
 10
-1259.137788467566
 20
3257.802322820612
  0
LWPOLYLINE
  5
41DE
330
1A
100
AcDbEntity
  8
0
 62
     4
100
AcDbPolyline
 90
       80
 70
     1
 43
0.0
 10
-1416.851537080978
 20
3257.802322820612
 10
-1416.851537080978
 20
3200.546049871419
 10
-1420.851537080977
 20
3200.546049871419
 10
-1420.851537080977
 20
3185.546049871418
 10
-1416.851537080978
 20
3185.546049871418
 10
-1416.851537080978
 20
3174.038009168061
 10
-1410.851537080978
 20
3174.038009168061
 10
-1410.851537080978
 20
3170.038009168062
 10
-1416.851537080978
 20
3170.038009168062
 10
-1416.851537080978
 20
3139.155674040988
 10
-1410.851537080978
 20
3139.155674040988
 10
-1410.851537080978
 20
3135.155674040988
 10
-1416.851537080978
 20
3135.155674040988
 10
-1416.851537080978
 20
3104.772126953657
 10
-1410.851537080978
 20
3104.772126953657
 10
-1410.851537080978
 20
3100.772126953657
 10
-1416.851537080978
 20
3100.772126953657
 10
-1416.851537080978
 20
3093.28744338608
 10
-1420.851537080978
 20
3093.28744338608
 10
-1420.851537080978
 20
3078.28744338608
 10
-1416.851537080978
 20
3078.28744338608
 10
-1416.851537080978
 20
3070.802759818503
 10
-1410.851537080978
 20
3070.802759818503
 10
-1410.851537080978
 20
3066.802759818503
 10
-1416.851537080978
 20
3066.802759818503
 10
-1416.851537080978
 20
3036.843180810564
 10
-1410.851537080978
 20
3036.843180810564
 10
-1410.851537080978
 20
3032.843180810564
 10
-1416.851537080978
 20
3032.843180810564
 10
-1416.851537080978
 20
3002.464760675371
 10
-1410.851537080978
 20
3002.464760675371
 10
-1410.851537080978
 20
2998.464760675371
 10
-1416.851537080978
 20
2998.464760675371
 10
-1416.851537080978
 20
2985.667361048769
 10
-1420.851537080978
 20
2985.667361048769
 10
-1420.851537080978
 20
2970.667361048769
 10
-1416.851537080978
 20
2970.667361048769
 10
-1416.851537080978
 20
2957.869961422167
 10
-1411.472855496366
 20
2957.869961422167
 10
-1411.472855496366
 20
2921.869961422168
 10
-1349.964321905466
 20
2921.869961422168
 10
-1349.964321905466
 20
2957.869961422167
 10
-1344.585640320854
 20
2957.869961422167
 10
-1344.585640320854
 20
2970.667361048769
 10
-1340.585640320854
 20
2970.667361048769
 10
-1340.585640320854
 20
2985.667361048769
 10
-1344.585640320853
 20
2985.667361048769
 10
-1344.585640320853
 20
2998.464760675371
 10
-1350.585640320853
 20
2998.464760675371
 10
-1350.585640320853
 20
3002.464760675371
 10
-1344.585640320853
 20
3002.464760675371
 10
-1344.585640320853
 20
3032.843180810564
 10
-1350.585640320854
 20
3032.843180810564
 10
-1350.585640320854
 20
3036.843180810564
 10
-1344.585640320853
 20
3036.843180810564
 10
-1344.585640320853
 20
3066.802759818503
 10
-1350.585640320854
 20
3066.802759818503
 10
-1350.585640320854
 20
3070.802759818503
 10
-1344.585640320853
 20
3070.802759818503
 10
-1344.585640320853
 20
3078.28744338608
 10
-1340.585640320854
 20
3078.28744338608
 10
-1340.585640320854
 20
3093.28744338608
 10
-1344.585640320853
 20
3093.28744338608
 10
-1344.585640320854
 20
3100.772126953657
 10
-1350.585640320854
 20
3100.772126953657
 10
-1350.585640320854
 20
3104.772126953657
 10
-1344.585640320854
 20
3104.772126953657
 10
-1344.585640320854
 20
3135.155674040988
 10
-1350.585640320854
 20
3135.155674040988
 10
-1350.585640320854
 20
3139.155674040988
 10
-1344.585640320854
 20
3139.155674040988
 10
-1344.585640320854
 20
3170.038009168062
 10
-1350.585640320854
 20
3170.038009168062
 10
-1350.585640320854
 20
3174.038009168061
 10
-1344.585640320854
 20
3174.038009168061
 10
-1344.585640320854
 20
3185.546049871418
 10
-1340.585640320854
 20
3185.546049871418
 10
-1340.585640320854
 20
3200.546049871419
 10
-1344.585640320854
 20
3200.546049871419
 10
-1344.585640320854
 20
3257.802322820612
  0
LWPOLYLINE
  5
41E3
330
1A
100
AcDbEntity
  8
0
 62
     1
100
AcDbPolyline
 90
        4
 70
     1
 43
0.0
 10
-1801.15985535186
 20
3047.87376129484
 10
-1801.15985535186
 20
3051.873761294841
 10
-1786.159855351861
 20
3051.873761294841
 10
-1786.159855351861
 20
3047.87376129484
  0
LWPOLYLINE
  5
41E4
330
1A
100
AcDbEntity
  8
0
 62
     1
100
AcDbPolyline
 90
        4
 70
     1
 43
0.0
 10
-1693.901248866522
 20
3047.87376129484
 10
-1693.901248866522
 20
3051.87376129484
 10
-1678.901248866522
 20
3051.87376129484
 10
-1678.901248866522
 20
3047.87376129484
  0
LWPOLYLINE
  5
41E5
330
1A
100
AcDbEntity
  8
0
 62
     1
100
AcDbPolyline
 90
        4
 70
     1
 43
0.0
 10
-1586.281166529211
 20
3047.87376129484
 10
-1586.281166529211
 20
3051.87376129484
 10
-1571.281166529211
 20
3051.87376129484
 10
-1571.281166529211
 20
3047.87376129484
  0
LWPOLYLINE
  5
41E6
330
1A
100
AcDbEntity
  8
0
 62
     4
100
AcDbPolyline
 90
        4
 70
     1
 43
0.0
 10
-1807.916128301054
 20
3039.97376129484
 10
-1807.916128301054
 20
3059.77376129484
 10
-1558.483766902609
 20
3059.77376129484
 10
-1558.483766902609
 20
3039.973761294838
  0
LWPOLYLINE
  5
41E7
330
1A
100
AcDbEntity
  8
0
 62
     1
100
AcDbPolyline
 90
        4
 70
     1
 43
0.0
 10
-1801.15985535186
 20
3010.477073038107
 10
-1801.15985535186
 20
3014.477073038108
 10
-1786.159855351861
 20
3014.477073038108
 10
-1786.159855351861
 20
3010.477073038107
  0
LWPOLYLINE
  5
41E8
330
1A
100
AcDbEntity
  8
0
 62
     1
100
AcDbPolyline
 90
        4
 70
     1
 43
0.0
 10
-1693.901248866522
 20
3010.477073038107
 10
-1693.901248866522
 20
3014.477073038106
 10
-1678.901248866522
 20
3014.477073038106
 10
-1678.901248866522
 20
3010.477073038107
  0
LWPOLYLINE
  5
41E9
330
1A
100
AcDbEntity
  8
0
 62
     1
100
AcDbPolyline
 90
        4
 70
     1
 43
0.0
 10
-1586.281166529211
 20
3010.477073038107
 10
-1586.281166529211
 20
3014.477073038106
 10
-1571.281166529211
 20
3014.477073038106
 10
-1571.281166529211
 20
3010.477073038107
  0
LWPOLYLINE
  5
41EA
330
1A
100
AcDbEntity
  8
0
 62
     4
100
AcDbPolyline
 90
        4
 70
     1
 43
0.0
 10
-1807.916128301054
 20
3002.577073038107
 10
-1807.916128301054
 20
3022.377073038107
 10
-1558.483766902609
 20
3022.377073038107
 10
-1558.483766902609
 20
3002.577073038105
  0
LWPOLYLINE
  5
41EB
330
1A
100
AcDbEntity
  8
0
 62
     1
100
AcDbPolyline
 90
        3
 70
     1
 43
0.0
 10
-1011.415137299825
 20
3041.121137919473
 10
-1036.367889250876
 20
3053.83325927816
 10
-1036.313385011077
 20
3041.968247420794
 42
-0.0167091180578355
  0
CIRCLE
  5
41EC
330
1A
100
AcDbEntity
  8
0
 62
     1
100
AcDbCircle
 10
-1072.178326245738
 20
3071.698664131855
 30
0.0
 40
3.5
  0
LWPOLYLINE
  5
41ED
330
1A
100
AcDbEntity
  8
0
 62
     1
100
AcDbPolyline
 90
        4
 70
     1
 43
0.0
 10
-1104.702975762693
 20
3058.412795131128
 42
-0.02758215275713
 10
-1105.049144246527
 20
3057.67153809593
 10
-1088.797578952608
 20
3042.071693746941
 10
-1085.425229972359
 20
3052.500713473286
  0
LWPOLYLINE
  5
41EE
330
1A
100
AcDbEntity
  8
0
 62
     1
100
AcDbPolyline
 90
        4
 70
     1
 43
0.0
 10
-1065.243473834378
 20
3074.33989684478
 42
-0.0478604242127195
 10
-1040.451559903388
 20
3072.038311561303
 10
-1040.397984720111
 20
3060.375545743345
 10
-1064.844212231092
 20
3072.829619405892
 42
0.0527743590683348
  0
LWPOLYLINE
  5
41EF
330
1A
100
AcDbEntity
  8
0
 62
     1
100
AcDbPolyline
 90
        3
 70
     1
 43
0.0
 10
-1003.898384650364
 20
3059.216953992373
 10
-1002.119835700182
 20
3042.312362995588
 10
-1030.763090298725
 20
3069.806964611158
 42
-0.0555513036741681
  0
LWPOLYLINE
  5
41F0
330
1A
100
AcDbEntity
  8
0
 62
     1
100
AcDbPolyline
 90
        3
 70
     1
 43
0.0
 10
-1036.388559470998
 20
3058.332953389392
 10
-1036.440833308782
 20
3069.712429691322
 10
-1011.237507164382
 20
3045.519808376465
  0
LWPOLYLINE
  5
41F1
330
1A
100
AcDbEntity
  8
0
 62
     1
100
AcDbPolyline
 90
        4
 70
     1
 43
0.0
 10
-1065.420008557026
 20
3068.63379378719
 42
-0.0165753529409206
 10
-1065.63789258559
 20
3068.192809635601
 10
-1040.322266144982
 20
3043.89239149567
 10
-1040.377314499988
 20
3055.875851632113
  0
LWPOLYLINE
  5
41F2
330
1A
100
AcDbEntity
  8
0
 62
     1
100
AcDbPolyline
 90
        3
 70
     1
 43
0.0
 10
-1085.678967295264
 20
3038.715344096007
 42
-0.0238490568273265
 10
-1050.258074695395
 20
3041.715682073216
 10
-1081.600586007909
 20
3051.327775118568
  0
LWPOLYLINE
  5
41F3
330
1A
100
AcDbEntity
  8
0
 62
     1
100
AcDbPolyline
 90
        4
 70
     1
 43
0.0
 10
-1068.407866657232
 20
3065.307113247825
 10
-1047.218350524143
 20
3044.967339968861
 10
-1080.369739822631
 20
3055.134178080283
 10
-1076.872038463711
 20
3065.950851171557
 42
0.3142067114987432
  0
LWPOLYLINE
  5
41F4
330
1A
100
AcDbEntity
  8
0
 62
     1
100
AcDbPolyline
 90
        4
 70
     1
 43
0.0
 10
-1093.021588118313
 20
3040.581722677626
 10
-1120.25206155018
 20
3045.650438916236
 10
-1117.079417264702
 20
3056.18440230231
 42
0.3553491155418374
 10
-1107.819118318188
 20
3054.785841708185
  0
LWPOLYLINE
  5
41F5
330
1A
100
AcDbEntity
  8
0
 62
     1
100
AcDbPolyline
 90
        3
 70
     1
 43
0.0
 10
-1096.368512216848
 20
3037.136016445521
 10
-1121.412431271512
 20
3041.797724568534
 10
-1124.533544953296
 20
3031.4348555264
 42
-0.0192754168586237
  0
LWPOLYLINE
  5
41F6
330
1A
100
AcDbEntity
  8
0
 62
     1
100
AcDbPolyline
 90
        4
 70
     1
 43
0.0
 10
-980.3153515534031
 20
3035.672858370169
 42
0.056448494076886
 10
-997.8475668717505
 20
3039.934369786684
 10
-999.6278022446231
 20
3056.854989741131
 42
-0.0554898835898014
 10
-976.4019707012215
 20
3039.749730101478
  0
LWPOLYLINE
  5
41F7
330
1A
100
AcDbEntity
  8
0
 62
     1
100
AcDbPolyline
 90
        3
 70
     1
 43
0.0
 10
-1201.409611849004
 20
2951.185397898843
 42
0.0347421832361762
 10
-1203.816787845369
 20
2920.149512050964
 10
-1209.334657505824
 20
2942.929264435726
  0
LWPOLYLINE
  5
41F8
330
1A
100
AcDbEntity
  8
0
 62
     1
100
AcDbPolyline
 90
        4
 70
     1
 43
0.0
 10
-1214.909243994189
 20
2937.121786215077
 10
-1212.621028348597
 20
2939.5055975621
 10
-1206.390990183631
 20
2913.785757210918
 10
-1207.383623421446
 20
2914.738583829493
 42
-0.067359800109936
  0
CIRCLE
  5
41F9
330
1A
100
AcDbEntity
  8
0
 62
     1
100
AcDbCircle
 10
-1144.20590970124
 20
3044.825084994562
 30
0.0
 40
3.5
  0
CIRCLE
  5
41FA
330
1A
100
AcDbEntity
  8
0
 62
     1
100
AcDbCircle
 10
-1196.207481232188
 20
3000.58176809962
 30
0.0
 40
3.5
  0
ARC
  5
41FB
330
1A
100
AcDbEntity
  8
0
 62
     1
100
AcDbCircle
 10
-1172.690692898217
 20
3025.081026718028
 30
0.0
 40
7.420801049158243
100
AcDbArc
 50
212.7361972022221
 51
243.1409388769647
  0
ARC
  5
41FC
330
1A
100
AcDbEntity
  8
0
 62
     1
100
AcDbCircle
 10
-1196.207481232188
 20
3000.58176809962
 30
0.0
 40
7.420801049158243
100
AcDbArc
 50
32.85585800937173
 51
58.48193869017524
  0
ARC
  5
41FD
330
1A
100
AcDbEntity
  8
0
 62
     1
100
AcDbCircle
 10
-1036.535082409582
 20
2669.123835864104
 30
0.0
 40
372.8444774685424
100
AcDbArc
 50
111.9987950755992
 51
112.9010738421565
  0
ARC
  5
41FE
330
1A
100
AcDbEntity
  8
0
 62
     1
100
AcDbCircle
 10
-979.5527726709153
 20
2918.366653294253
 30
0.0
 40
224.2711017663973
100
AcDbArc
 50
155.8792753418121
 51
157.2981411115911
  0
ARC
  5
41FF
330
1A
100
AcDbEntity
  8
0
 62
     1
100
AcDbCircle
 10
-1000.986166211961
 20
2839.318438964123
 30
0.0
 40
254.3579109632557
100
AcDbArc
 50
134.3942531445316
 51
138.7860760787601
  0
ARC
  5
4200
330
1A
100
AcDbEntity
  8
0
 62
     1
100
AcDbCircle
 10
-1179.678529304057
 20
3007.974117279472
 30
0.0
 40
5.0
100
AcDbArc
 50
112.9010738421549
 51
155.879275341812
  0
ARC
  5
4201
330
1A
100
AcDbEntity
  8
0
 62
     1
100
AcDbCircle
 10
-1176.94698620804
 20
3016.676536271333
 30
0.0
 40
2.0
100
AcDbArc
 50
291.9987950755981
 51
63.14093887696579
  0
ARC
  5
4202
330
1A
100
AcDbEntity
  8
0
 62
     1
100
AcDbCircle
 10
-1188.293649517821
 20
3005.692811046465
 30
0.0
 40
2.0
100
AcDbArc
 50
212.8558580093709
 51
337.2981411115941
  0
LWPOLYLINE
  5
4203
330
1A
100
AcDbEntity
  8
0
 62
     1
100
AcDbPolyline
 90
        3
 70
     1
 43
0.0
 10
-1194.61975924041
 20
2993.33280768532
 10
-1199.551283234842
 20
2989.109699718629
 10
-1199.804670370176
 20
2994.091119556
 42
0.1824068446767464
  0
CIRCLE
  5
4204
330
1A
100
AcDbEntity
  8
0
 62
     1
100
AcDbCircle
 10
-1172.690692898217
 20
3025.081026718028
 30
0.0
 40
3.5
  0
CIRCLE
  5
4205
330
1A
100
AcDbEntity
  8
0
 62
     1
100
AcDbCircle
 10
-1212.94336850967
 20
2968.992960939473
 30
0.0
 40
3.5
  0
LWPOLYLINE
  5
4206
330
1A
100
AcDbEntity
  8
0
 62
     1
100
AcDbPolyline
 90
        3
 70
     1
 43
0.0
 10
-1203.742352101713
 20
2992.764317337674
 10
-1203.389273896706
 20
2985.823038443431
 10
-1209.933546818056
 20
2980.218853785391
 42
-0.0343047661043256
  0
LWPOLYLINE
  5
4207
330
1A
100
AcDbEntity
  8
0
 62
     1
100
AcDbPolyline
 90
        3
 70
     1
 43
0.0
 10
-1191.959745286456
 20
2990.34446287342
 10
-1199.294589428712
 20
2984.063272968113
 10
-1198.4379203194
 20
2967.221737230472
 42
-0.0267871042267499
  0
LWPOLYLINE
  5
4208
330
1A
100
AcDbEntity
  8
0
 62
     1
100
AcDbPolyline
 90
        4
 70
     1
 43
0.0
 10
-1206.402934849547
 20
2965.487106443244
 42
0.4092210886797659
 10
-1209.326349956598
 20
2975.47258014109
 10
-1203.132580090575
 20
2980.776611692917
 10
-1202.147057225583
 20
2961.401898200131
  0
LWPOLYLINE
  5
4209
330
1A
100
AcDbEntity
  8
0
 62
     1
100
AcDbPolyline
 90
        3
 70
     1
 43
0.0
 10
-1213.738257332474
 20
2944.117921008626
 10
-1215.713353905427
 20
2942.060310035141
 42
-0.0380381986104121
 10
-1216.474691208687
 20
2955.41490516252
  0
LWPOLYLINE
  5
420A
330
1A
100
AcDbEntity
  8
0
 62
     1
100
AcDbPolyline
 90
        4
 70
     1
 43
0.0
 10
-1138.045577512028
 20
3048.962547445067
 10
-1124.207778318612
 20
3046.386761252668
 10
-1119.426246623616
 20
3062.262628596192
 10
-1140.547178454419
 20
3051.281242820568
 42
-0.1164694563945044
  0
LWPOLYLINE
  5
420B
330
1A
100
AcDbEntity
  8
0
 62
     1
100
AcDbPolyline
 90
        9
 70
     1
 43
0.0
 10
-1168.159737499581
 20
3030.957992890022
 42
-0.33287666350939
 10
-1165.775700915266
 20
3022.388226300822
 42
0.6440987892566611
 10
-1163.232397332365
 20
3019.781496225527
 42
-0.0224026317326203
 10
-1131.348868573703
 20
3029.711343040955
 10
-1140.43545011278
 20
3038.433534110576
 42
-0.5358880444135677
 10
-1151.558199699542
 20
3043.819043249876
 10
-1156.096256896016
 20
3040.510811382781
 10
-1159.784664327718
 20
3037.794489777007
 10
-1163.834048938376
 20
3034.468433062955
  0
LWPOLYLINE
  5
420C
330
1A
100
AcDbEntity
  8
0
 62
     1
100
AcDbPolyline
 90
        4
 70
     1
 43
0.0
 10
-1128.409866460952
 20
3032.434789757131
 10
-1125.368148039944
 20
3042.534046904966
 10
-1136.786954973482
 20
3044.659558687725
 42
-0.1179791618992571
 10
-1137.665476041114
 20
3041.31923049834
  0
LWPOLYLINE
  5
420D
330
1A
100
AcDbEntity
  8
0
 62
     1
100
AcDbPolyline
 90
        5
 70
     1
 43
0.0
 10
-1079.464163338899
 20
3073.107516878991
 42
0.0810337864808515
 10
-1079.534162961412
 20
3070.718891492887
 10
-1084.194383787081
 20
3056.307116435002
 10
-1104.281780116834
 20
3062.467500988596
 42
0.1713773995147714
 10
-1106.712369449112
 20
3066.770345825731
 42
-0.0892792141356635
  0
CIRCLE
  5
420E
330
1A
100
AcDbEntity
  8
0
 62
     1
100
AcDbCircle
 10
-1111.589577906676
 20
3061.177392592185
 30
0.0
 40
3.5
  0
LWPOLYLINE
  5
420F
330
1A
100
AcDbEntity
  8
0
 62
     1
100
AcDbPolyline
 90
        4
 70
     1
 43
0.0
 10
-1209.17290892119
 20
2962.601410055467
 10
-1202.314947571677
 20
2956.018466956207
 10
-1210.451886489702
 20
2947.541587882252
 10
-1213.864366627863
 20
2961.629534381304
 42
0.1658461263998225
  0
LWPOLYLINE
  5
4210
330
1A
100
AcDbEntity
  8
0
 62
     4
100
AcDbPolyline
 90
       28
 70
     1
 43
0.0
 10
-961.9506637534723
 20
3036.999756479762
 10
-949.6668359024962
 20
3025.208535202344
 10
-957.4888154264295
 20
3017.059773707225
 10
-963.0197143221167
 20
3021.604660655069
 10
-967.2200603325107
 20
3024.795710228528
 42
0.1193275631441673
 10
-1001.17666806553
 20
3036.26962583604
 42
0.1248364457534768
 10
-1180.42998001056
 20
3008.742014122345
 42
0.1240119148828439
 10
-1199.272747202394
 20
2902.794528671413
 10
-1204.812695345678
 20
2897.02313589586
 10
-1217.447518360847
 20
2909.151276714849
 10
-1214.677544289205
 20
2912.036973102626
 10
-1208.906151513651
 20
2906.497024959341
 10
-1206.136177442008
 20
2909.382721347118
 10
-1211.907570217562
 20
2914.922669490403
 42
-0.126463086369095
 10
-1220.278727387899
 20
2959.977687432269
 42
-0.6688138297289774
 10
-1214.110943203292
 20
2980.556672091906
 42
-0.0395878979125892
 10
-1206.711294961351
 20
2995.606575296809
 42
-0.6358856556977472
 10
-1193.304914686154
 20
3011.836000802383
 42
-0.0133149192628563
 10
-1183.848902139083
 20
3021.828794743035
 42
-0.6188390469809863
 10
-1168.572225679653
 20
3035.949369464359
 42
-0.0305400576070602
 10
-1155.314448207467
 20
3046.030797897973
 42
-0.5231829517304739
 10
-1140.468750763822
 20
3055.830369605083
 10
-1122.068616879185
 20
3065.397133521034
 42
-0.4784517343152514
 10
-1106.324135101929
 20
3071.262707127571
 42
-0.0735093159770991
 10
-1082.723465372887
 20
3076.891433427779
 42
-0.5326118938259308
 10
-1062.849024774414
 20
3078.325726357528
 42
-0.1905909593615612
 10
-971.4895668902393
 20
3040.611541283216
 10
-964.7206378251148
 20
3034.114060091985
  0
LWPOLYLINE
  5
4211
330
1A
100
AcDbEntity
  8
0
 62
     4
100
AcDbPolyline
 90
        6
 70
     1
 43
0.0
 10
-1785.030482476544
 20
2981.261440727633
 10
-1785.030482476544
 20
2987.006003374059
 10
-1795.030482476544
 20
2987.006003374058
 10
-1795.030482476544
 20
2926.606410092779
 10
-1789.030482476544
 20
2926.606410092779
 10
-1789.030482476544
 20
2981.261440727633
  0
LWPOLYLINE
  5
4212
330
1A
100
AcDbEntity
  8
0
 62
     4
100
AcDbPolyline
 90
        6
 70
     1
 43
0.0
 10
-1772.676548042337
 20
2969.05510003134
 10
-1772.676548042337
 20
2974.799662677766
 10
-1782.676548042337
 20
2974.799662677766
 10
-1782.676548042337
 20
2926.60641009278
 10
-1776.676548042336
 20
2926.60641009278
 10
-1776.676548042337
 20
2969.055100031341
  0
LWPOLYLINE
  5
4213
330
1A
100
AcDbEntity
  8
0
 62
     4
100
AcDbPolyline
 90
        6
 70
     1
 43
0.0
 10
-1758.093247131591
 20
2962.178123410557
 10
-1758.093247131591
 20
2967.922686056983
 10
-1768.093247131591
 20
2967.922686056983
 10
-1768.093247131591
 20
2926.60641009278
 10
-1762.093247131591
 20
2926.606410092781
 10
-1762.093247131591
 20
2962.178123410558
  0
LWPOLYLINE
  5
4214
330
1A
100
AcDbEntity
  8
0
 62
     4
100
AcDbPolyline
 90
        6
 70
     1
 43
0.0
 10
-1729.849144562316
 20
2971.97949524177
 10
-1729.849144562316
 20
2977.724057888196
 10
-1739.849144562316
 20
2977.724057888195
 10
-1739.849144562316
 20
2926.606410092781
 10
-1733.849144562316
 20
2926.606410092781
 10
-1733.849144562316
 20
2971.97949524177
  0
LWPOLYLINE
  5
4215
330
1A
100
AcDbEntity
  8
0
 62
     4
100
AcDbPolyline
 90
        6
 70
     1
 43
0.0
 10
-1661.128963119796
 20
2962.178123410557
 10
-1661.128963119796
 20
2967.922686056983
 10
-1671.128963119796
 20
2967.922686056983
 10
-1671.128963119796
 20
2926.60641009278
 10
-1665.128963119796
 20
2926.60641009278
 10
-1665.128963119796
 20
2962.178123410558
  0
LWPOLYLINE
  5
4216
330
1A
100
AcDbEntity
  8
0
 62
     4
100
AcDbPolyline
 90
        6
 70
     1
 43
0.0
 10
-1647.458377878707
 20
2971.97949524177
 10
-1647.458377878707
 20
2977.724057888196
 10
-1657.458377878707
 20
2977.724057888195
 10
-1657.458377878707
 20
2926.606410092781
 10
-1651.458377878707
 20
2926.606410092781
 10
-1651.458377878707
 20
2971.97949524177
  0
LWPOLYLINE
  5
4217
330
1A
100
AcDbEntity
  8
0
 62
     4
100
AcDbPolyline
 90
        6
 70
     1
 43
0.0
 10
-1675.702480447982
 20
2962.178123410557
 10
-1675.702480447982
 20
2967.922686056983
 10
-1685.702480447982
 20
2967.922686056983
 10
-1685.702480447982
 20
2926.60641009278
 10
-1679.702480447982
 20
2926.606410092781
 10
-1679.702480447982
 20
2962.178123410558
  0
LWPOLYLINE
  5
4218
330
1A
100
AcDbEntity
  8
0
 62
     4
100
AcDbPolyline
 90
        6
 70
     1
 43
0.0
 10
-1690.285781358728
 20
2969.05510003134
 10
-1690.285781358728
 20
2974.799662677766
 10
-1700.285781358728
 20
2974.799662677766
 10
-1700.285781358729
 20
2926.60641009278
 10
-1694.285781358728
 20
2926.60641009278
 10
-1694.285781358728
 20
2969.055100031341
  0
LWPOLYLINE
  5
4219
330
1A
100
AcDbEntity
  8
0
 62
     4
100
AcDbPolyline
 90
        6
 70
     1
 43
0.0
 10
-1702.639715792936
 20
2981.261440727633
 10
-1702.639715792936
 20
2987.006003374059
 10
-1712.639715792936
 20
2987.006003374058
 10
-1712.639715792936
 20
2926.606410092779
 10
-1706.639715792936
 20
2926.606410092779
 10
-1706.639715792936
 20
2981.261440727633
  0
LWPOLYLINE
  5
421A
330
1A
100
AcDbEntity
  8
0
 62
     4
100
AcDbPolyline
 90
        6
 70
     1
 43
0.0
 10
-1743.519729803404
 20
2962.178123410557
 10
-1743.519729803404
 20
2967.922686056983
 10
-1753.519729803404
 20
2967.922686056983
 10
-1753.519729803404
 20
2926.60641009278
 10
-1747.519729803405
 20
2926.60641009278
 10
-1747.519729803405
 20
2962.178123410558
  0
LWPOLYLINE
  5
421B
330
1A
100
AcDbEntity
  8
0
 62
     4
100
AcDbPolyline
 90
        6
 70
     1
 43
0.0
 10
-1797.002013718361
 20
2988.152317671593
 10
-1797.002013718361
 20
2982.407755025167
 10
-1801.002013718361
 20
2982.407755025168
 10
-1801.002013718361
 20
2906.606410092854
 10
-1807.002013718361
 20
2906.606410092854
 10
-1807.002013718361
 20
2988.152317671593
  0
LWPOLYLINE
  5
421C
330
1A
100
AcDbEntity
  8
0
 62
     4
100
AcDbPolyline
 90
        6
 70
     1
 43
0.0
 10
-1714.611247034753
 20
2988.152317671593
 10
-1714.611247034753
 20
2982.407755025167
 10
-1718.611247034753
 20
2982.407755025168
 10
-1718.611247034753
 20
2906.606410092854
 10
-1724.611247034753
 20
2906.606410092854
 10
-1724.611247034753
 20
2988.152317671593
  0
LWPOLYLINE
  5
421D
330
1A
100
AcDbEntity
  8
0
 62
     4
100
AcDbPolyline
 90
        6
 70
     1
 43
0.0
 10
-1450.171129419634
 20
2970.572101146553
 10
-1455.915692066059
 20
2970.572101146553
 10
-1455.915692066059
 20
2974.572101146553
 10
-1531.717036998373
 20
2974.572101146553
 10
-1531.717036998373
 20
2980.572101146553
 10
-1450.171129419634
 20
2980.572101146553
  0
LWPOLYLINE
  5
421E
330
1A
100
AcDbEntity
  8
0
 62
     4
100
AcDbPolyline
 90
        6
 70
     1
 43
0.0
 10
-1450.171129419634
 20
3052.962867830161
 10
-1455.915692066059
 20
3052.962867830161
 10
-1455.915692066059
 20
3056.962867830161
 10
-1531.717036998373
 20
3056.962867830161
 10
-1531.717036998373
 20
3062.962867830161
 10
-1450.171129419634
 20
3062.962867830161
  0
LWPOLYLINE
  5
421F
330
1A
100
AcDbEntity
  8
0
 62
     4
100
AcDbPolyline
 90
        6
 70
     1
 43
0.0
 10
-1476.145323680669
 20
2999.480583915204
 10
-1470.400761034244
 20
2999.480583915204
 10
-1470.400761034244
 20
3009.480583915204
 10
-1511.717036998447
 20
3009.480583915204
 10
-1511.717036998447
 20
3003.480583915204
 10
-1476.145323680669
 20
3003.480583915204
  0
LWPOLYLINE
  5
4220
330
1A
100
AcDbEntity
  8
0
 62
     4
100
AcDbPolyline
 90
        6
 70
     1
 43
0.0
 10
-1457.062006363594
 20
2958.600569904735
 10
-1451.317443717168
 20
2958.600569904735
 10
-1451.317443717168
 20
2968.600569904736
 10
-1511.717036998447
 20
2968.600569904736
 10
-1511.717036998447
 20
2962.600569904735
 10
-1457.062006363593
 20
2962.600569904735
  0
LWPOLYLINE
  5
4221
330
1A
100
AcDbEntity
  8
0
 62
     4
100
AcDbPolyline
 90
        6
 70
     1
 43
0.0
 10
-1469.268347059886
 20
2946.246635470528
 10
-1463.52378441346
 20
2946.246635470528
 10
-1463.52378441346
 20
2956.246635470528
 10
-1511.717036998447
 20
2956.246635470529
 10
-1511.717036998447
 20
2950.246635470528
 10
-1469.268347059886
 20
2950.246635470528
  0
LWPOLYLINE
  5
4222
330
1A
100
AcDbEntity
  8
0
 62
     4
100
AcDbPolyline
 90
        6
 70
     1
 43
0.0
 10
-1476.145323680669
 20
2931.663334559782
 10
-1470.400761034244
 20
2931.663334559782
 10
-1470.400761034244
 20
2941.663334559782
 10
-1511.717036998447
 20
2941.663334559782
 10
-1511.717036998447
 20
2935.663334559782
 10
-1476.145323680669
 20
2935.663334559782
  0
LWPOLYLINE
  5
4223
330
1A
100
AcDbEntity
  8
0
 62
     4
100
AcDbPolyline
 90
        6
 70
     1
 43
0.0
 10
-1466.343951849457
 20
2903.419231990507
 10
-1460.599389203031
 20
2903.419231990507
 10
-1460.599389203031
 20
2913.419231990507
 10
-1511.717036998447
 20
2913.419231990507
 10
-1511.717036998447
 20
2907.419231990507
 10
-1466.343951849457
 20
2907.419231990507
  0
LWPOLYLINE
  5
4224
330
1A
100
AcDbEntity
  8
0
 62
     4
100
AcDbPolyline
 90
        6
 70
     1
 43
0.0
 10
-1476.145323680669
 20
2917.089817231596
 10
-1470.400761034244
 20
2917.089817231596
 10
-1470.400761034244
 20
2927.089817231596
 10
-1511.717036998447
 20
2927.089817231595
 10
-1511.717036998447
 20
2921.089817231596
 10
-1476.145323680669
 20
2921.089817231596
  0
LWPOLYLINE
  5
4225
330
1A
100
AcDbEntity
  8
0
 62
     4
100
AcDbPolyline
 90
        6
 70
     1
 43
0.0
 10
-1466.343951849457
 20
2985.809998674115
 10
-1460.599389203031
 20
2985.809998674115
 10
-1460.599389203031
 20
2995.809998674115
 10
-1511.717036998447
 20
2995.809998674115
 10
-1511.717036998447
 20
2989.809998674116
 10
-1466.343951849457
 20
2989.809998674116
  0
LWPOLYLINE
  5
4226
330
1A
100
AcDbEntity
  8
0
 62
     4
100
AcDbPolyline
 90
        6
 70
     1
 43
0.0
 10
-1476.145323680669
 20
3014.054101243391
 10
-1470.400761034244
 20
3014.054101243391
 10
-1470.400761034244
 20
3024.054101243391
 10
-1511.717036998447
 20
3024.054101243391
 10
-1511.717036998447
 20
3018.054101243391
 10
-1476.145323680669
 20
3018.054101243391
  0
LWPOLYLINE
  5
4227
330
1A
100
AcDbEntity
  8
0
 62
     4
100
AcDbPolyline
 90
        6
 70
     1
 43
0.0
 10
-1469.268347059886
 20
3028.637402154137
 10
-1463.52378441346
 20
3028.637402154137
 10
-1463.52378441346
 20
3038.637402154137
 10
-1511.717036998447
 20
3038.637402154137
 10
-1511.717036998447
 20
3032.637402154136
 10
-1469.268347059886
 20
3032.637402154137
  0
LWPOLYLINE
  5
4228
330
1A
100
AcDbEntity
  8
0
 62
     4
100
AcDbPolyline
 90
        6
 70
     1
 43
0.0
 10
-1457.062006363594
 20
3040.991336588344
 10
-1451.317443717168
 20
3040.991336588344
 10
-1451.317443717168
 20
3050.991336588344
 10
-1511.717036998447
 20
3050.991336588344
 10
-1511.717036998447
 20
3044.991336588344
 10
-1457.062006363593
 20
3044.991336588344
  0
LWPOLYLINE
  5
4229
330
1A
100
AcDbEntity
  8
0
 62
     4
100
AcDbPolyline
 90
       28
 70
     1
 43
0.0
 10
-651.4402364966171
 20
3036.999756479762
 10
-639.156408645641
 20
3025.208535202344
 10
-646.9783881695743
 20
3017.059773707225
 10
-652.5092870652616
 20
3021.604660655069
 10
-656.7096330756556
 20
3024.795710228528
 42
0.1193275631441673
 10
-690.6662408086754
 20
3036.26962583604
 42
0.1248364457534768
 10
-869.9195527537051
 20
3008.742014122345
 42
0.1240119148828439
 10
-888.7623199455388
 20
2902.794528671413
 10
-894.3022680888233
 20
2897.02313589586
 10
-906.9370911039921
 20
2909.151276714849
 10
-904.1671170323498
 20
2912.036973102626
 10
-898.3957242567958
 20
2906.497024959341
 10
-895.6257501851535
 20
2909.382721347118
 10
-901.3971429607073
 20
2914.922669490403
 42
-0.126463086369095
 10
-909.7683001310443
 20
2959.977687432269
 42
-0.6688138297289774
 10
-903.6005159464371
 20
2980.556672091906
 42
-0.0395878979125892
 10
-896.2008677044961
 20
2995.606575296809
 42
-0.6358856556977472
 10
-882.7944874292988
 20
3011.836000802383
 42
-0.0133149192628563
 10
-873.3384748822281
 20
3021.828794743035
 42
-0.6188390469809863
 10
-858.0617984227982
 20
3035.949369464359
 42
-0.0305400576070602
 10
-844.8040209506123
 20
3046.030797897973
 42
-0.5231829517304739
 10
-829.9583235069672
 20
3055.830369605083
 10
-811.5581896223304
 20
3065.397133521034
 42
-0.4784517343152514
 10
-795.813707845074
 20
3071.262707127571
 42
-0.0735093159770991
 10
-772.2130381160325
 20
3076.891433427779
 42
-0.5326118938259308
 10
-752.3385975175592
 20
3078.325726357528
 42
-0.1905909593615612
 10
-660.9791396333841
 20
3040.611541283216
 10
-654.2102105682596
 20
3034.114060091985
  0
LWPOLYLINE
  5
422A
330
1A
100
AcDbEntity
  8
0
 62
     1
100
AcDbPolyline
 90
        4
 70
     1
 43
0.0
 10
-898.6624816643351
 20
2962.601410055467
 10
-891.8045203148224
 20
2956.018466956207
 10
-899.9414592328465
 20
2947.541587882252
 10
-903.353939371008
 20
2961.629534381304
 42
0.1658461263998225
  0
CIRCLE
  5
422B
330
1A
100
AcDbEntity
  8
0
 62
     1
100
AcDbCircle
 10
-801.0791506498209
 20
3061.177392592185
 30
0.0
 40
3.5
  0
LWPOLYLINE
  5
422C
330
1A
100
AcDbEntity
  8
0
 62
     1
100
AcDbPolyline
 90
        5
 70
     1
 43
0.0
 10
-768.9537360820446
 20
3073.107516878991
 42
0.0810337864808515
 10
-769.0237357045568
 20
3070.718891492887
 10
-773.6839565302257
 20
3056.307116435002
 10
-793.7713528599788
 20
3062.467500988596
 42
0.1713773995147714
 10
-796.2019421922568
 20
3066.770345825731
 42
-0.0892792141356635
  0
LWPOLYLINE
  5
422D
330
1A
100
AcDbEntity
  8
0
 62
     1
100
AcDbPolyline
 90
        4
 70
     1
 43
0.0
 10
-817.8994392040968
 20
3032.434789757131
 10
-814.8577207830889
 20
3042.534046904966
 10
-826.2765277166268
 20
3044.659558687725
 42
-0.1179791618992571
 10
-827.1550487842587
 20
3041.31923049834
  0
LWPOLYLINE
  5
422E
330
1A
100
AcDbEntity
  8
0
 62
     1
100
AcDbPolyline
 90
        9
 70
     1
 43
0.0
 10
-857.6493102427257
 20
3030.957992890022
 42
-0.33287666350939
 10
-855.2652736584109
 20
3022.388226300822
 42
0.6440987892566611
 10
-852.7219700755102
 20
3019.781496225527
 42
-0.0224026317326203
 10
-820.8384413168483
 20
3029.711343040955
 10
-829.9250228559248
 20
3038.433534110576
 42
-0.5358880444135677
 10
-841.047772442687
 20
3043.819043249876
 10
-845.5858296391607
 20
3040.510811382781
 10
-849.2742370708633
 20
3037.794489777007
 10
-853.3236216815211
 20
3034.468433062955
  0
LWPOLYLINE
  5
422F
330
1A
100
AcDbEntity
  8
0
 62
     1
100
AcDbPolyline
 90
        4
 70
     1
 43
0.0
 10
-827.5351502551732
 20
3048.962547445067
 10
-813.6973510617572
 20
3046.386761252668
 10
-808.9158193667609
 20
3062.262628596192
 10
-830.0367511975641
 20
3051.281242820568
 42
-0.1164694563945044
  0
LWPOLYLINE
  5
4230
330
1A
100
AcDbEntity
  8
0
 62
     1
100
AcDbPolyline
 90
        3
 70
     1
 43
0.0
 10
-903.2278300756193
 20
2944.117921008626
 10
-905.2029266485719
 20
2942.060310035141
 42
-0.0380381986104121
 10
-905.9642639518322
 20
2955.41490516252
  0
LWPOLYLINE
  5
4231
330
1A
100
AcDbEntity
  8
0
 62
     1
100
AcDbPolyline
 90
        4
 70
     1
 43
0.0
 10
-895.8925075926925
 20
2965.487106443244
 42
0.4092210886797659
 10
-898.8159226997426
 20
2975.47258014109
 10
-892.6221528337201
 20
2980.776611692917
 10
-891.6366299687277
 20
2961.401898200131
  0
LWPOLYLINE
  5
4232
330
1A
100
AcDbEntity
  8
0
 62
     1
100
AcDbPolyline
 90
        3
 70
     1
 43
0.0
 10
-881.4493180296009
 20
2990.34446287342
 10
-888.7841621718571
 20
2984.063272968113
 10
-887.9274930625452
 20
2967.221737230472
 42
-0.0267871042267499
  0
LWPOLYLINE
  5
4233
330
1A
100
AcDbEntity
  8
0
 62
     1
100
AcDbPolyline
 90
        3
 70
     1
 43
0.0
 10
-893.231924844858
 20
2992.764317337674
 10
-892.8788466398504
 20
2985.823038443431
 10
-899.4231195612007
 20
2980.218853785391
 42
-0.0343047661043256
  0
CIRCLE
  5
4234
330
1A
100
AcDbEntity
  8
0
 62
     1
100
AcDbCircle
 10
-902.432941252815
 20
2968.992960939473
 30
0.0
 40
3.5
  0
CIRCLE
  5
4235
330
1A
100
AcDbEntity
  8
0
 62
     1
100
AcDbCircle
 10
-862.1802656413624
 20
3025.081026718028
 30
0.0
 40
3.5
  0
LWPOLYLINE
  5
4236
330
1A
100
AcDbEntity
  8
0
 62
     1
100
AcDbPolyline
 90
        3
 70
     1
 43
0.0
 10
-884.1093319835554
 20
2993.33280768532
 10
-889.0408559779871
 20
2989.109699718629
 10
-889.2942431133212
 20
2994.091119556
 42
0.1824068446767464
  0
ARC
  5
4237
330
1A
100
AcDbEntity
  8
0
 62
     1
100
AcDbCircle
 10
-877.783222260966
 20
3005.692811046465
 30
0.0
 40
2.0
100
AcDbArc
 50
212.8558580093709
 51
337.2981411115941
  0
ARC
  5
4238
330
1A
100
AcDbEntity
  8
0
 62
     1
100
AcDbCircle
 10
-866.436558951185
 20
3016.676536271333
 30
0.0
 40
2.0
100
AcDbArc
 50
291.9987950755981
 51
63.14093887696579
  0
ARC
  5
4239
330
1A
100
AcDbEntity
  8
0
 62
     1
100
AcDbCircle
 10
-869.1681020472021
 20
3007.974117279472
 30
0.0
 40
5.0
100
AcDbArc
 50
112.9010738421549
 51
155.879275341812
  0
ARC
  5
423A
330
1A
100
AcDbEntity
  8
0
 62
     1
100
AcDbCircle
 10
-690.4757389551059
 20
2839.318438964123
 30
0.0
 40
254.3579109632557
100
AcDbArc
 50
134.3942531445316
 51
138.7860760787601
  0
ARC
  5
423B
330
1A
100
AcDbEntity
  8
0
 62
     1
100
AcDbCircle
 10
-669.0423454140602
 20
2918.366653294253
 30
0.0
 40
224.2711017663973
100
AcDbArc
 50
155.8792753418121
 51
157.2981411115911
  0
ARC
  5
423C
330
1A
100
AcDbEntity
  8
0
 62
     1
100
AcDbCircle
 10
-726.0246551527266
 20
2669.123835864104
 30
0.0
 40
372.8444774685424
100
AcDbArc
 50
111.9987950755992
 51
112.9010738421565
  0
ARC
  5
423D
330
1A
100
AcDbEntity
  8
0
 62
     1
100
AcDbCircle
 10
-885.6970539753332
 20
3000.58176809962
 30
0.0
 40
7.420801049158243
100
AcDbArc
 50
32.85585800937173
 51
58.48193869017524
  0
ARC
  5
423E
330
1A
100
AcDbEntity
  8
0
 62
     1
100
AcDbCircle
 10
-862.1802656413624
 20
3025.081026718028
 30
0.0
 40
7.420801049158243
100
AcDbArc
 50
212.7361972022221
 51
243.1409388769647
  0
CIRCLE
  5
423F
330
1A
100
AcDbEntity
  8
0
 62
     1
100
AcDbCircle
 10
-885.6970539753332
 20
3000.58176809962
 30
0.0
 40
3.5
  0
CIRCLE
  5
4240
330
1A
100
AcDbEntity
  8
0
 62
     1
100
AcDbCircle
 10
-833.6954824443846
 20
3044.825084994562
 30
0.0
 40
3.5
  0
LWPOLYLINE
  5
4241
330
1A
100
AcDbEntity
  8
0
 62
     1
100
AcDbPolyline
 90
        4
 70
     1
 43
0.0
 10
-904.3988167373345
 20
2937.121786215077
 10
-902.1106010917421
 20
2939.5055975621
 10
-895.8805629267763
 20
2913.785757210918
 10
-896.8731961645911
 20
2914.738583829493
 42
-0.067359800109936
  0
LWPOLYLINE
  5
4242
330
1A
100
AcDbEntity
  8
0
 62
     1
100
AcDbPolyline
 90
        3
 70
     1
 43
0.0
 10
-890.8991845921493
 20
2951.185397898843
 42
0.0347421832361762
 10
-893.306360588514
 20
2920.149512050964
 10
-898.8242302489693
 20
2942.929264435726
  0
LWPOLYLINE
  5
4243
330
1A
100
AcDbEntity
  8
0
 62
     1
100
AcDbPolyline
 90
        4
 70
     1
 43
0.0
 10
-669.8049242965479
 20
3035.672858370169
 42
0.056448494076886
 10
-687.3371396148954
 20
3039.934369786684
 10
-689.117374987768
 20
3056.854989741131
 42
-0.0554898835898014
 10
-665.8915434443663
 20
3039.749730101478
  0
LWPOLYLINE
  5
4244
330
1A
100
AcDbEntity
  8
0
 62
     1
100
AcDbPolyline
 90
        3
 70
     1
 43
0.0
 10
-785.8580849599929
 20
3037.136016445521
 10
-810.9020040146569
 20
3041.797724568534
 10
-814.0231176964407
 20
3031.4348555264
 42
-0.0192754168586237
  0
LWPOLYLINE
  5
4245
330
1A
100
AcDbEntity
  8
0
 62
     1
100
AcDbPolyline
 90
        4
 70
     1
 43
0.0
 10
-782.5111608614581
 20
3040.581722677626
 10
-809.7416342933252
 20
3045.650438916236
 10
-806.5689900078469
 20
3056.18440230231
 42
0.3553491155418374
 10
-797.3086910613326
 20
3054.785841708185
  0
LWPOLYLINE
  5
4246
330
1A
100
AcDbEntity
  8
0
 62
     1
100
AcDbPolyline
 90
        4
 70
     1
 43
0.0
 10
-757.8974394003774
 20
3065.307113247825
 10
-736.7079232672879
 20
3044.967339968861
 10
-769.8593125657764
 20
3055.134178080283
 10
-766.3616112068561
 20
3065.950851171557
 42
0.3142067114987432
  0
LWPOLYLINE
  5
4247
330
1A
100
AcDbEntity
  8
0
 62
     1
100
AcDbPolyline
 90
        3
 70
     1
 43
0.0
 10
-775.1685400384094
 20
3038.715344096007
 42
-0.0238490568273265
 10
-739.74764743854
 20
3041.715682073216
 10
-771.0901587510545
 20
3051.327775118568
  0
LWPOLYLINE
  5
4248
330
1A
100
AcDbEntity
  8
0
 62
     1
100
AcDbPolyline
 90
        4
 70
     1
 43
0.0
 10
-754.9095813001706
 20
3068.63379378719
 42
-0.0165753529409206
 10
-755.127465328735
 20
3068.192809635601
 10
-729.8118388881269
 20
3043.89239149567
 10
-729.866887243133
 20
3055.875851632113
  0
LWPOLYLINE
  5
4249
330
1A
100
AcDbEntity
  8
0
 62
     1
100
AcDbPolyline
 90
        3
 70
     1
 43
0.0
 10
-725.8781322141433
 20
3058.332953389392
 10
-725.930406051927
 20
3069.712429691322
 10
-700.7270799075269
 20
3045.519808376465
  0
LWPOLYLINE
  5
424A
330
1A
100
AcDbEntity
  8
0
 62
     1
100
AcDbPolyline
 90
        3
 70
     1
 43
0.0
 10
-693.3879573935095
 20
3059.216953992373
 10
-691.6094084433272
 20
3042.312362995588
 10
-720.2526630418701
 20
3069.806964611158
 42
-0.0555513036741681
  0
LWPOLYLINE
  5
424B
330
1A
100
AcDbEntity
  8
0
 62
     1
100
AcDbPolyline
 90
        4
 70
     1
 43
0.0
 10
-754.733046577523
 20
3074.33989684478
 42
-0.0478604242127195
 10
-729.9411326465333
 20
3072.038311561303
 10
-729.8875574632561
 20
3060.375545743345
 10
-754.3337849742374
 20
3072.829619405892
 42
0.0527743590683348
  0
LWPOLYLINE
  5
424C
330
1A
100
AcDbEntity
  8
0
 62
     1
100
AcDbPolyline
 90
        4
 70
     1
 43
0.0
 10
-794.1925485058384
 20
3058.412795131128
 42
-0.02758215275713
 10
-794.5387169896721
 20
3057.67153809593
 10
-778.2871516957525
 20
3042.071693746941
 10
-774.9148027155038
 20
3052.500713473286
  0
CIRCLE
  5
424D
330
1A
100
AcDbEntity
  8
0
 62
     1
100
AcDbCircle
 10
-761.6678989888832
 20
3071.698664131855
 30
0.0
 40
3.5
  0
LWPOLYLINE
  5
424E
330
1A
100
AcDbEntity
  8
0
 62
     1
100
AcDbPolyline
 90
        3
 70
     1
 43
0.0
 10
-700.9047100429698
 20
3041.121137919473
 10
-725.8574619940207
 20
3053.83325927816
 10
-725.8029577542224
 20
3041.968247420794
 42
-0.0167091180578355
  0
VIEWPORT
  5
22
102
{ACAD_XDICTIONARY
360
4256
102
}
330
17
100
AcDbEntity
 67
     1
  8
0
100
AcDbViewport
 10
261.5176991150442
 20
148.5
 30
0.0
 40
523.0353982300885
 41
297.0
 68
     1
 69
     1
 12
261.5176991150442
 22
148.5
 13
0.0
 23
0.0
 14
1.0
 24
1.0
 15
10.0
 25
10.0
 16
0.0
 26
0.0
 36
1.0
 17
0.0
 27
0.0
 37
0.0
 42
50.0
 43
0.0
 44
0.0
 45
297.0
 50
0.0
 51
0.0
 72
   100
 90
    32800
  1

281
     0
 71
     1
 74
     0
110
0.0
120
0.0
130
0.0
111
1.0
121
0.0
131
0.0
112
0.0
122
1.0
132
0.0
 79
     0
146
0.0
  0
ENDSEC
  0
SECTION
  2
OBJECTS
  0
DICTIONARY
  5
C
330
0
100
AcDbDictionary
281
     1
  3
ACAD_COLOR
350
41C6
  3
ACAD_GROUP
350
D
  3
ACAD_IMAGE_DICT
350
7E
  3
ACAD_IMAGE_VARS
350
7D
  3
ACAD_LAYOUT
350
41C7
  3
ACAD_MATERIAL
350
41C5
  3
ACAD_MLINESTYLE
350
E
  3
ACAD_PLOTSETTINGS
350
41C8
  3
ACAD_PLOTSTYLENAME
350
41C3
  3
ACDBHEADERROUNDTRIPXREC
350
4253
  3
ACDBVARIABLEDICTIONARY
350
5D
  3
AVE_ACITABLE
350
2326
  0
DICTIONARY
  5
4256
330
22
100
AcDbDictionary
280
     1
281
     1
  3
ACAD_XREC_ROUNDTRIP
360
4257
  0
DICTIONARY
  5
41C6
102
{ACAD_REACTORS
330
C
102
}
330
C
100
AcDbDictionary
281
     1
  0
DICTIONARY
  5
D
102
{ACAD_REACTORS
330
C
102
}
330
C
100
AcDbDictionary
281
     1
  0
DICTIONARY
  5
7E
102
{ACAD_REACTORS
330
C
102
}
330
C
100
AcDbDictionary
281
     1
  3
02B
350
7F
  0
RASTERVARIABLES
  5
7D
102
{ACAD_REACTORS
330
C
102
}
330
C
100
AcDbRasterVariables
 90
        0
 70
     1
 71
     1
 72
     0
  0
DICTIONARY
  5
41C7
102
{ACAD_REACTORS
330
C
102
}
330
C
100
AcDbDictionary
281
     1
  3
Layout1
350
41CA
  3
Model
350
41C9
  0
DICTIONARY
  5
41C5
102
{ACAD_REACTORS
330
C
102
}
330
C
100
AcDbDictionary
281
     1
  0
DICTIONARY
  5
E
102
{ACAD_REACTORS
330
C
102
}
330
C
100
AcDbDictionary
281
     1
  3
STANDARD
350
13
  0
DICTIONARY
  5
41C8
102
{ACAD_REACTORS
330
C
102
}
330
C
100
AcDbDictionary
281
     1
  0
ACDBDICTIONARYWDFLT
  5
41C3
102
{ACAD_REACTORS
330
C
102
}
330
C
100
AcDbDictionary
281
     1
  3
Normal
350
41C4
100
AcDbDictionaryWithDefault
340
41C4
  0
DICTIONARY
  5
4253
102
{ACAD_REACTORS
330
C
102
}
330
C
100
AcDbDictionary
281
     1
  3
COLORDICT
350
4255
  3
MATERIALDICT
350
4254
  0
DICTIONARY
  5
5D
102
{ACAD_REACTORS
330
C
102
}
330
C
100
AcDbDictionary
281
     1
  3
DIMADEC
350
5E
  3
DIMASSOC
350
4250
  3
PROJECTNAME
350
4251
  0
DICTIONARY
  5
2326
102
{ACAD_REACTORS
330
C
102
}
330
C
100
AcDbDictionary
281
     1
  0
XRECORD
  5
4257
102
{ACAD_REACTORS
330
4256
102
}
330
4256
100
AcDbXrecord
280
     1
102
SHADEPLOT
 70
     0
  0
IMAGEDEF
  5
7F
102
{ACAD_REACTORS
330
7E
102
}
330
7E
100
AcDbRasterImageDef
 90
        0
  1
C:\Privat\Fräsvorlagen\Tower Bridge\02b.jpg
 10
15717.0
 20
25034.0
 11
0.0000636253737991
 21
0.0000636253737991
280
     1
281
     0
  0
LAYOUT
  5
41CA
102
{ACAD_XDICTIONARY
360
425A
102
}
102
{ACAD_REACTORS
330
41C7
102
}
330
41C7
100
AcDbPlotSettings
  1

  2
HP DeskJet 950C/952C/959C
  4

  6

 40
0.0
 41
0.0
 42
0.0
 43
0.0
 44
0.0
 45
0.0
 46
0.0
 47
0.0
 48
0.0
 49
0.0
140
0.0
141
0.0
142
1.0
143
1.0
 70
   688
 72
     0
 73
     0
 74
     5
  7

 75
    16
147
1.0
148
0.0
149
0.0
100
AcDbLayout
  1
Layout1
 70
     1
 71
     1
 10
0.0
 20
0.0
 11
420.0
 21
297.0
 12
0.0
 22
0.0
 32
0.0
 14
1.000000000000000E+20
 24
1.000000000000000E+20
 34
1.000000000000000E+20
 15
-1.000000000000000E+20
 25
-1.000000000000000E+20
 35
-1.000000000000000E+20
146
0.0
 13
0.0
 23
0.0
 33
0.0
 16
1.0
 26
0.0
 36
0.0
 17
0.0
 27
1.0
 37
0.0
 76
     0
330
17
331
22
  0
LAYOUT
  5
41C9
102
{ACAD_XDICTIONARY
360
4258
102
}
102
{ACAD_REACTORS
330
41C7
102
}
330
41C7
100
AcDbPlotSettings
  1

  2
HP DeskJet 950C/952C/959C
  4

  6

 40
0.0
 41
0.0
 42
0.0
 43
0.0
 44
0.0
 45
0.0
 46
0.0
 47
0.0
 48
0.0
 49
0.0
140
0.0
141
0.0
142
1.0
143
1.0
 70
  1712
 72
     0
 73
     0
 74
     0
  7

 75
     0
147
1.0
148
0.0
149
0.0
100
AcDbLayout
  1
Model
 70
     1
 71
     0
 10
0.0
 20
0.0
 11
12.0
 21
9.0
 12
0.0
 22
0.0
 32
0.0
 14
0.0
 24
0.0
 34
0.0
 15
0.0
 25
0.0
 35
0.0
146
0.0
 13
0.0
 23
0.0
 33
0.0
 16
1.0
 26
0.0
 36
0.0
 17
0.0
 27
1.0
 37
0.0
 76
     0
330
1A
  0
MLINESTYLE
  5
13
102
{ACAD_REACTORS
330
E
102
}
330
E
100
AcDbMlineStyle
  2
STANDARD
 70
     0
  3

 62
     0
 51
90.0
 52
90.0
 71
     2
 49
0.5
 62
   256
  6
BYLAYER
 49
-0.5
 62
   256
  6
BYLAYER
  0
ACDBPLACEHOLDER
  5
41C4
102
{ACAD_REACTORS
330
41C3
102
}
330
41C3
  0
XRECORD
  5
4255
102
{ACAD_REACTORS
330
4253
102
}
330
4253
100
AcDbXrecord
280
     1
340
41C6
  0
XRECORD
  5
4254
102
{ACAD_REACTORS
330
4253
102
}
330
4253
100
AcDbXrecord
280
     1
340
41C5
  0
DICTIONARYVAR
  5
5E
102
{ACAD_REACTORS
330
5D
102
}
330
5D
100
DictionaryVariables
280
     0
  1
0
  0
DICTIONARYVAR
  5
4250
102
{ACAD_REACTORS
330
5D
102
}
330
5D
100
DictionaryVariables
280
     0
  1
1
  0
DICTIONARYVAR
  5
4251
102
{ACAD_REACTORS
330
5D
102
}
330
5D
100
DictionaryVariables
280
     0
  1

  0
DICTIONARY
  5
425A
330
41CA
100
AcDbDictionary
280
     1
281
     1
  3
ACAD_XREC_ROUNDTRIP
360
425B
  0
DICTIONARY
  5
4258
330
41C9
100
AcDbDictionary
280
     1
281
     1
  3
ACAD_XREC_ROUNDTRIP
360
4259
  0
XRECORD
  5
425B
102
{ACAD_REACTORS
330
425A
102
}
330
425A
100
AcDbXrecord
280
     1
102
SHADEPLOT
 70
     0
102
SHADEPLOTRESLEVEL
 70
     2
102
SHADEPLOTCUSTOMDPI
 70
   300
  0
XRECORD
  5
4259
102
{ACAD_REACTORS
330
4258
102
}
330
4258
100
AcDbXrecord
280
     1
102
SHADEPLOT
 70
     0
102
SHADEPLOTRESLEVEL
 70
     2
102
SHADEPLOTCUSTOMDPI
 70
   300
  0
ENDSEC
  0
EOF
