  0
SECTION
  2
HEADER
  9
$ACADVER
  1
AC1015
  9
$ACADMAINTVER
 70
    13
  9
$DWGCODEPAGE
  3
ANSI_1252
  9
$INSBASE
 10
0.0
 20
0.0
 30
0.0
  9
$EXTMIN
 10
0.0
 20
0.0
 30
0.0
  9
$EXTMAX
 10
709.676
 20
548.3859999999999
 30
0.0
  9
$LIMMIN
 10
0.0
 20
0.0
  9
$LIMMAX
 10
18025.7704
 20
13929.00439999999
  9
$ORTHOMODE
 70
     0
  9
$REGENMODE
 70
     1
  9
$FILLMODE
 70
     1
  9
$QTEXTMODE
 70
     0
  9
$MIRRTEXT
 70
     1
  9
$LTSCALE
 40
0.4
  9
$ATTMODE
 70
     1
  9
$TEXTSIZE
 40
0.2
  9
$TRACEWID
 40
0.05
  9
$TEXTSTYLE
  7
Standard
  9
$CLAYER
  8
0
  9
$CELTYPE
  6
ByLayer
  9
$CECOLOR
 62
   256
  9
$CELTSCALE
 40
1.0
  9
$DISPSILH
 70
     0
  9
$DIMSCALE
 40
1.0
  9
$DIMASZ
 40
1.799999999999999
  9
$DIMEXO
 40
0.0625
  9
$DIMDLI
 40
0.38
  9
$DIMRND
 40
0.0
  9
$DIMDLE
 40
0.0
  9
$DIMEXE
 40
0.18
  9
$DIMTP
 40
0.0
  9
$DIMTM
 40
0.0
  9
$DIMTXT
 40
0.3499999940395355
  9
$DIMCEN
 40
0.09
  9
$DIMTSZ
 40
0.0
  9
$DIMTOL
 70
     0
  9
$DIMLIM
 70
     0
  9
$DIMTIH
 70
     1
  9
$DIMTOH
 70
     1
  9
$DIMSE1
 70
     0
  9
$DIMSE2
 70
     0
  9
$DIMTAD
 70
     0
  9
$DIMZIN
 70
     0
  9
$DIMBLK
  1

  9
$DIMASO
 70
     1
  9
$DIMSHO
 70
     1
  9
$DIMPOST
  1

  9
$DIMAPOST
  1

  9
$DIMALT
 70
     0
  9
$DIMALTD
 70
     2
  9
$DIMALTF
 40
25.4
  9
$DIMLFAC
 40
1.0
  9
$DIMTOFL
 70
     0
  9
$DIMTVP
 40
0.0
  9
$DIMTIX
 70
     0
  9
$DIMSOXD
 70
     0
  9
$DIMSAH
 70
     0
  9
$DIMBLK1
  1

  9
$DIMBLK2
  1

  9
$DIMSTYLE
  2
2dTranslatorDimStyle
  9
$DIMCLRD
 70
     0
  9
$DIMCLRE
 70
     0
  9
$DIMCLRT
 70
     0
  9
$DIMTFAC
 40
1.0
  9
$DIMGAP
 40
0.09
  9
$DIMJUST
 70
     0
  9
$DIMSD1
 70
     0
  9
$DIMSD2
 70
     0
  9
$DIMTOLJ
 70
     1
  9
$DIMTZIN
 70
     0
  9
$DIMALTZ
 70
     0
  9
$DIMALTTZ
 70
     0
  9
$DIMUPT
 70
     0
  9
$DIMDEC
 70
     4
  9
$DIMTDEC
 70
     4
  9
$DIMALTU
 70
     2
  9
$DIMALTTD
 70
     2
  9
$DIMTXSTY
  7
Standard
  9
$DIMAUNIT
 70
     0
  9
$DIMADEC
 70
     0
  9
$DIMALTRND
 40
0.0
  9
$DIMAZIN
 70
     0
  9
$DIMDSEP
 70
    46
  9
$DIMATFIT
 70
     3
  9
$DIMFRAC
 70
     0
  9
$DIMLDRBLK
  1

  9
$DIMLUNIT
 70
     2
  9
$DIMLWD
 70
    -2
  9
$DIMLWE
 70
    -2
  9
$DIMTMOVE
 70
     0
  9
$LUNITS
 70
     2
  9
$LUPREC
 70
     4
  9
$SKETCHINC
 40
0.1
  9
$FILLETRAD
 40
0.0
  9
$AUNITS
 70
     0
  9
$AUPREC
 70
     0
  9
$MENU
  1
.
  9
$ELEVATION
 40
0.0
  9
$PELEVATION
 40
0.0
  9
$THICKNESS
 40
0.0
  9
$LIMCHECK
 70
     0
  9
$CHAMFERA
 40
0.0
  9
$CHAMFERB
 40
0.0
  9
$CHAMFERC
 40
0.0
  9
$CHAMFERD
 40
0.0
  9
$SKPOLY
 70
     0
  9
$TDCREATE
 40
2454185.001013772
  9
$TDUCREATE
 40
2454185.209347106
  9
$TDUPDATE
 40
2454185.001013772
  9
$TDUUPDATE
 40
2454185.209347106
  9
$TDINDWG
 40
0.0000417245
  9
$TDUSRTIMER
 40
0.0000417245
  9
$USRTIMER
 70
     1
  9
$ANGBASE
 50
0.0
  9
$ANGDIR
 70
     0
  9
$PDMODE
 70
     0
  9
$PDSIZE
 40
0.0
  9
$PLINEWID
 40
0.0
  9
$SPLFRAME
 70
     0
  9
$SPLINETYPE
 70
     6
  9
$SPLINESEGS
 70
     8
  9
$HANDSEED
  5
3B4
  9
$SURFTAB1
 70
     6
  9
$SURFTAB2
 70
     6
  9
$SURFTYPE
 70
     6
  9
$SURFU
 70
     6
  9
$SURFV
 70
     6
  9
$UCSBASE
  2

  9
$UCSNAME
  2

  9
$UCSORG
 10
0.0
 20
0.0
 30
0.0
  9
$UCSXDIR
 10
1.0
 20
0.0
 30
0.0
  9
$UCSYDIR
 10
0.0
 20
1.0
 30
0.0
  9
$UCSORTHOREF
  2

  9
$UCSORTHOVIEW
 70
     0
  9
$UCSORGTOP
 10
0.0
 20
0.0
 30
0.0
  9
$UCSORGBOTTOM
 10
0.0
 20
0.0
 30
0.0
  9
$UCSORGLEFT
 10
0.0
 20
0.0
 30
0.0
  9
$UCSORGRIGHT
 10
0.0
 20
0.0
 30
0.0
  9
$UCSORGFRONT
 10
0.0
 20
0.0
 30
0.0
  9
$UCSORGBACK
 10
0.0
 20
0.0
 30
0.0
  9
$PUCSBASE
  2

  9
$PUCSNAME
  2

  9
$PUCSORG
 10
0.0
 20
0.0
 30
0.0
  9
$PUCSXDIR
 10
1.0
 20
0.0
 30
0.0
  9
$PUCSYDIR
 10
0.0
 20
1.0
 30
0.0
  9
$PUCSORTHOREF
  2

  9
$PUCSORTHOVIEW
 70
     0
  9
$PUCSORGTOP
 10
0.0
 20
0.0
 30
0.0
  9
$PUCSORGBOTTOM
 10
0.0
 20
0.0
 30
0.0
  9
$PUCSORGLEFT
 10
0.0
 20
0.0
 30
0.0
  9
$PUCSORGRIGHT
 10
0.0
 20
0.0
 30
0.0
  9
$PUCSORGFRONT
 10
0.0
 20
0.0
 30
0.0
  9
$PUCSORGBACK
 10
0.0
 20
0.0
 30
0.0
  9
$USERI1
 70
     0
  9
$USERI2
 70
     0
  9
$USERI3
 70
     0
  9
$USERI4
 70
     0
  9
$USERI5
 70
     0
  9
$USERR1
 40
0.0
  9
$USERR2
 40
0.0
  9
$USERR3
 40
0.0
  9
$USERR4
 40
0.0
  9
$USERR5
 40
0.0
  9
$WORLDVIEW
 70
     1
  9
$SHADEDGE
 70
     3
  9
$SHADEDIF
 70
    70
  9
$TILEMODE
 70
     0
  9
$MAXACTVP
 70
    64
  9
$PINSBASE
 10
0.0
 20
0.0
 30
0.0
  9
$PLIMCHECK
 70
     0
  9
$PEXTMIN
 10
0.0
 20
0.0
 30
0.0
  9
$PEXTMAX
 10
709.676
 20
548.3859999999999
 30
0.0
  9
$PLIMMIN
 10
0.0
 20
0.0
  9
$PLIMMAX
 10
709.676
 20
548.3859999999999
  9
$UNITMODE
 70
     0
  9
$VISRETAIN
 70
     1
  9
$PLINEGEN
 70
     0
  9
$PSLTSCALE
 70
     1
  9
$TREEDEPTH
 70
  3020
  9
$CMLSTYLE
  2
Standard
  9
$CMLJUST
 70
     0
  9
$CMLSCALE
 40
1.0
  9
$PROXYGRAPHICS
 70
     1
  9
$MEASUREMENT
 70
     1
  9
$CELWEIGHT
370
    -1
  9
$ENDCAPS
280
     0
  9
$JOINSTYLE
280
     0
  9
$LWDISPLAY
290
     1
  9
$INSUNITS
 70
     0
  9
$HYPERLINKBASE
  1

  9
$STYLESHEET
  1

  9
$XEDIT
290
     1
  9
$CEPSNTYPE
380
     0
  9
$PSTYLEMODE
290
     1
  9
$FINGERPRINTGUID
  2
{BB31DEEA-CD5C-47C9-A162-E9D29A219B2B}
  9
$VERSIONGUID
  2
{28C5D5B4-17A6-4EF0-923F-AB7EDD884927}
  9
$EXTNAMES
290
     1
  9
$PSVPSCALE
 40
0.0
  9
$OLESTARTUP
290
     0
  0
ENDSEC
  0
SECTION
  2
CLASSES
  0
CLASS
  1
ACDBDICTIONARYWDFLT
  2
AcDbDictionaryWithDefault
  3
AutoCAD 2000
 90
        0
280
     0
281
     0
  0
CLASS
  1
ACDBPLACEHOLDER
  2
AcDbPlaceHolder
  3
AutoCAD 2000
 90
        0
280
     0
281
     0
  0
CLASS
  1
LAYOUT
  2
AcDbLayout
  3
AutoCAD 2000
 90
        0
280
     0
281
     0
  0
CLASS
  1
DICTIONARYVAR
  2
AcDbDictionaryVar
  3
AutoCAD 2000
 90
        0
280
     0
281
     0
  0
ENDSEC
  0
SECTION
  2
TABLES
  0
TABLE
  2
VPORT
  5
8
330
0
100
AcDbSymbolTable
 70
     1
  0
VPORT
  5
13
330
8
100
AcDbSymbolTableRecord
100
AcDbViewportTableRecord
  2
*Active
 70
     0
 10
0.0
 20
0.0
 11
1.0
 21
1.0
 12
500.0
 22
500.0
 13
0.0
 23
0.0
 14
1.0
 24
1.0
 15
0.0
 25
0.0
 16
0.0
 26
0.0
 36
1.0
 17
0.0
 27
0.0
 37
0.0
 40
12.0
 41
1.0
 42
50.0
 43
0.0
 44
0.0
 50
0.0
 51
0.0
 71
     0
 72
   100
 73
     1
 74
     1
 75
     0
 76
     0
 77
     0
 78
     0
281
     0
 65
     1
110
0.0
120
0.0
130
0.0
111
1.0
121
0.0
131
0.0
112
0.0
122
1.0
132
0.0
 79
     0
146
0.0
  0
ENDTAB
  0
TABLE
  2
LTYPE
  5
5
330
0
100
AcDbSymbolTable
 70
    46
  0
LTYPE
  5
14
330
5
100
AcDbSymbolTableRecord
100
AcDbLinetypeTableRecord
  2
ByBlock
 70
     0
  3

 72
    65
 73
     0
 40
0.0
  0
LTYPE
  5
15
330
5
100
AcDbSymbolTableRecord
100
AcDbLinetypeTableRecord
  2
ByLayer
 70
     0
  3

 72
    65
 73
     0
 40
0.0
  0
LTYPE
  5
16
330
5
100
AcDbSymbolTableRecord
100
AcDbLinetypeTableRecord
  2
Continuous
 70
     0
  3
Solid line
 72
    65
 73
     0
 40
0.0
  0
LTYPE
  5
28
330
5
100
AcDbSymbolTableRecord
100
AcDbLinetypeTableRecord
  2
BORDER
 70
     0
  3
Border __ __ . __ __ . __ __ . __ __ . __ __ .
 72
    65
 73
     6
 40
1.75
 49
0.5
 74
     0
 49
-0.25
 74
     0
 49
0.5
 74
     0
 49
-0.25
 74
     0
 49
0.0
 74
     0
 49
-0.25
 74
     0
  0
LTYPE
  5
29
330
5
100
AcDbSymbolTableRecord
100
AcDbLinetypeTableRecord
  2
BORDER2
 70
     0
  3
Border (.5x) __.__.__.__.__.__.__.__.__.__.__.
 72
    65
 73
     6
 40
0.875
 49
0.25
 74
     0
 49
-0.125
 74
     0
 49
0.25
 74
     0
 49
-0.125
 74
     0
 49
0.0
 74
     0
 49
-0.125
 74
     0
  0
LTYPE
  5
2A
330
5
100
AcDbSymbolTableRecord
100
AcDbLinetypeTableRecord
  2
BORDERX2
 70
     0
  3
Border (2x) ____  ____  .  ____  ____  .  ___
 72
    65
 73
     6
 40
3.5
 49
1.0
 74
     0
 49
-0.5
 74
     0
 49
1.0
 74
     0
 49
-0.5
 74
     0
 49
0.0
 74
     0
 49
-0.5
 74
     0
  0
LTYPE
  5
2B
330
5
100
AcDbSymbolTableRecord
100
AcDbLinetypeTableRecord
  2
CENTER
 70
     0
  3
Center ____ _ ____ _ ____ _ ____ _ ____ _ ____
 72
    65
 73
     4
 40
2.0
 49
1.25
 74
     0
 49
-0.25
 74
     0
 49
0.25
 74
     0
 49
-0.25
 74
     0
  0
LTYPE
  5
2C
330
5
100
AcDbSymbolTableRecord
100
AcDbLinetypeTableRecord
  2
CENTER2
 70
     0
  3
Center (.5x) ___ _ ___ _ ___ _ ___ _ ___ _ ___
 72
    65
 73
     4
 40
1.125
 49
0.75
 74
     0
 49
-0.125
 74
     0
 49
0.125
 74
     0
 49
-0.125
 74
     0
  0
LTYPE
  5
2D
330
5
100
AcDbSymbolTableRecord
100
AcDbLinetypeTableRecord
  2
CENTERX2
 70
     0
  3
Center (2x) ________  __  ________  __  _____
 72
    65
 73
     4
 40
4.0
 49
2.5
 74
     0
 49
-0.5
 74
     0
 49
0.5
 74
     0
 49
-0.5
 74
     0
  0
LTYPE
  5
2E
330
5
100
AcDbSymbolTableRecord
100
AcDbLinetypeTableRecord
  2
DASHDOT
 70
     0
  3
Dash dot __ . __ . __ . __ . __ . __ . __ . __
 72
    65
 73
     4
 40
1.0
 49
0.5
 74
     0
 49
-0.25
 74
     0
 49
0.0
 74
     0
 49
-0.25
 74
     0
  0
LTYPE
  5
2F
330
5
100
AcDbSymbolTableRecord
100
AcDbLinetypeTableRecord
  2
DASHDOT2
 70
     0
  3
Dash dot (.5x) _._._._._._._._._._._._._._._.
 72
    65
 73
     4
 40
0.5
 49
0.25
 74
     0
 49
-0.125
 74
     0
 49
0.0
 74
     0
 49
-0.125
 74
     0
  0
LTYPE
  5
30
330
5
100
AcDbSymbolTableRecord
100
AcDbLinetypeTableRecord
  2
DASHDOTX2
 70
     0
  3
Dash dot (2x) ____  .  ____  .  ____  .  ___
 72
    65
 73
     4
 40
2.0
 49
1.0
 74
     0
 49
-0.5
 74
     0
 49
0.0
 74
     0
 49
-0.5
 74
     0
  0
LTYPE
  5
31
330
5
100
AcDbSymbolTableRecord
100
AcDbLinetypeTableRecord
  2
DASHED
 70
     0
  3
Dashed __ __ __ __ __ __ __ __ __ __ __ __ __ _
 72
    65
 73
     2
 40
0.75
 49
0.5
 74
     0
 49
-0.25
 74
     0
  0
LTYPE
  5
32
330
5
100
AcDbSymbolTableRecord
100
AcDbLinetypeTableRecord
  2
DASHED2
 70
     0
  3
Dashed (.5x) _ _ _ _ _ _ _ _ _ _ _ _ _ _ _ _ _
 72
    65
 73
     2
 40
0.375
 49
0.25
 74
     0
 49
-0.125
 74
     0
  0
LTYPE
  5
33
330
5
100
AcDbSymbolTableRecord
100
AcDbLinetypeTableRecord
  2
DASHEDX2
 70
     0
  3
Dashed (2x) ____  ____  ____  ____  ____  ___
 72
    65
 73
     2
 40
1.5
 49
1.0
 74
     0
 49
-0.5
 74
     0
  0
LTYPE
  5
34
330
5
100
AcDbSymbolTableRecord
100
AcDbLinetypeTableRecord
  2
DIVIDE
 70
     0
  3
Divide ____ . . ____ . . ____ . . ____ . . ____
 72
    65
 73
     6
 40
1.25
 49
0.5
 74
     0
 49
-0.25
 74
     0
 49
0.0
 74
     0
 49
-0.25
 74
     0
 49
0.0
 74
     0
 49
-0.25
 74
     0
  0
LTYPE
  5
35
330
5
100
AcDbSymbolTableRecord
100
AcDbLinetypeTableRecord
  2
DIVIDE2
 70
     0
  3
Divide (.5x) __..__..__..__..__..__..__..__.._
 72
    65
 73
     6
 40
0.625
 49
0.25
 74
     0
 49
-0.125
 74
     0
 49
0.0
 74
     0
 49
-0.125
 74
     0
 49
0.0
 74
     0
 49
-0.125
 74
     0
  0
LTYPE
  5
36
330
5
100
AcDbSymbolTableRecord
100
AcDbLinetypeTableRecord
  2
DIVIDEX2
 70
     0
  3
Divide (2x) ________  .  .  ________  .  .  _
 72
    65
 73
     6
 40
2.5
 49
1.0
 74
     0
 49
-0.5
 74
     0
 49
0.0
 74
     0
 49
-0.5
 74
     0
 49
0.0
 74
     0
 49
-0.5
 74
     0
  0
LTYPE
  5
37
330
5
100
AcDbSymbolTableRecord
100
AcDbLinetypeTableRecord
  2
DOT
 70
     0
  3
Dot . . . . . . . . . . . . . . . . . . . . . .
 72
    65
 73
     2
 40
0.25
 49
0.0
 74
     0
 49
-0.25
 74
     0
  0
LTYPE
  5
38
330
5
100
AcDbSymbolTableRecord
100
AcDbLinetypeTableRecord
  2
DOT2
 70
     0
  3
Dot (.5x) .....................................
 72
    65
 73
     2
 40
0.125
 49
0.0
 74
     0
 49
-0.125
 74
     0
  0
LTYPE
  5
39
330
5
100
AcDbSymbolTableRecord
100
AcDbLinetypeTableRecord
  2
DOTX2
 70
     0
  3
Dot (2x) .  .  .  .  .  .  .  .  .  .  .  .  . 
 72
    65
 73
     2
 40
0.5
 49
0.0
 74
     0
 49
-0.5
 74
     0
  0
LTYPE
  5
3A
330
5
100
AcDbSymbolTableRecord
100
AcDbLinetypeTableRecord
  2
HIDDEN
 70
     0
  3
Hidden __ __ __ __ __ __ __ __ __ __ __ __ __ _
 72
    65
 73
     2
 40
0.375
 49
0.25
 74
     0
 49
-0.125
 74
     0
  0
LTYPE
  5
3B
330
5
100
AcDbSymbolTableRecord
100
AcDbLinetypeTableRecord
  2
HIDDEN2
 70
     0
  3
Hidden (.5x) _ _ _ _ _ _ _ _ _ _ _ _ _ _ _ _ _
 72
    65
 73
     2
 40
0.1875
 49
0.125
 74
     0
 49
-0.0625
 74
     0
  0
LTYPE
  5
3C
330
5
100
AcDbSymbolTableRecord
100
AcDbLinetypeTableRecord
  2
HIDDENX2
 70
     0
  3
Hidden (2x) ____ ____ ____ ____ ____ ____ ____
 72
    65
 73
     2
 40
0.75
 49
0.5
 74
     0
 49
-0.25
 74
     0
  0
LTYPE
  5
3D
330
5
100
AcDbSymbolTableRecord
100
AcDbLinetypeTableRecord
  2
PHANTOM
 70
     0
  3
Phantom ______  __  __  ______  __  __  ______
 72
    65
 73
     6
 40
2.5
 49
1.25
 74
     0
 49
-0.25
 74
     0
 49
0.25
 74
     0
 49
-0.25
 74
     0
 49
0.25
 74
     0
 49
-0.25
 74
     0
  0
LTYPE
  5
3E
330
5
100
AcDbSymbolTableRecord
100
AcDbLinetypeTableRecord
  2
PHANTOM2
 70
     0
  3
Phantom (.5x) ___ _ _ ___ _ _ ___ _ _ ___ _ _
 72
    65
 73
     6
 40
1.25
 49
0.625
 74
     0
 49
-0.125
 74
     0
 49
0.125
 74
     0
 49
-0.125
 74
     0
 49
0.125
 74
     0
 49
-0.125
 74
     0
  0
LTYPE
  5
3F
330
5
100
AcDbSymbolTableRecord
100
AcDbLinetypeTableRecord
  2
PHANTOMX2
 70
     0
  3
Phantom (2x) ____________    ____    ____   _
 72
    65
 73
     6
 40
5.0
 49
2.5
 74
     0
 49
-0.5
 74
     0
 49
0.5
 74
     0
 49
-0.5
 74
     0
 49
0.5
 74
     0
 49
-0.5
 74
     0
  0
LTYPE
  5
40
330
5
100
AcDbSymbolTableRecord
100
AcDbLinetypeTableRecord
  2
ACAD_ISO02W100
 70
     0
  3
ISO dash __ __ __ __ __ __ __ __ __ __ __ __ __
 72
    65
 73
     2
 40
15.0
 49
12.0
 74
     0
 49
-3.0
 74
     0
  0
LTYPE
  5
41
330
5
100
AcDbSymbolTableRecord
100
AcDbLinetypeTableRecord
  2
ACAD_ISO03W100
 70
     0
  3
ISO dash space __    __    __    __    __    __
 72
    65
 73
     2
 40
30.0
 49
12.0
 74
     0
 49
-18.0
 74
     0
  0
LTYPE
  5
42
330
5
100
AcDbSymbolTableRecord
100
AcDbLinetypeTableRecord
  2
ACAD_ISO04W100
 70
     0
  3
ISO long-dash dot ____ . ____ . ____ . ____ . _
 72
    65
 73
     4
 40
30.0
 49
24.0
 74
     0
 49
-3.0
 74
     0
 49
0.0
 74
     0
 49
-3.0
 74
     0
  0
LTYPE
  5
43
330
5
100
AcDbSymbolTableRecord
100
AcDbLinetypeTableRecord
  2
ACAD_ISO05W100
 70
     0
  3
ISO long-dash double-dot ____ .. ____ .. ____ .
 72
    65
 73
     6
 40
33.0
 49
24.0
 74
     0
 49
-3.0
 74
     0
 49
0.0
 74
     0
 49
-3.0
 74
     0
 49
0.0
 74
     0
 49
-3.0
 74
     0
  0
LTYPE
  5
44
330
5
100
AcDbSymbolTableRecord
100
AcDbLinetypeTableRecord
  2
ACAD_ISO06W100
 70
     0
  3
ISO long-dash triple-dot ____ ... ____ ... ____
 72
    65
 73
     8
 40
36.0
 49
24.0
 74
     0
 49
-3.0
 74
     0
 49
0.0
 74
     0
 49
-3.0
 74
     0
 49
0.0
 74
     0
 49
-3.0
 74
     0
 49
0.0
 74
     0
 49
-3.0
 74
     0
  0
LTYPE
  5
45
330
5
100
AcDbSymbolTableRecord
100
AcDbLinetypeTableRecord
  2
ACAD_ISO07W100
 70
     0
  3
ISO dot . . . . . . . . . . . . . . . . . . . .
 72
    65
 73
     2
 40
3.0
 49
0.0
 74
     0
 49
-3.0
 74
     0
  0
LTYPE
  5
46
330
5
100
AcDbSymbolTableRecord
100
AcDbLinetypeTableRecord
  2
ACAD_ISO08W100
 70
     0
  3
ISO long-dash short-dash ____ __ ____ __ ____ _
 72
    65
 73
     4
 40
36.0
 49
24.0
 74
     0
 49
-3.0
 74
     0
 49
6.0
 74
     0
 49
-3.0
 74
     0
  0
LTYPE
  5
47
330
5
100
AcDbSymbolTableRecord
100
AcDbLinetypeTableRecord
  2
ACAD_ISO09W100
 70
     0
  3
ISO long-dash double-short-dash ____ __ __ ____
 72
    65
 73
     6
 40
45.0
 49
24.0
 74
     0
 49
-3.0
 74
     0
 49
6.0
 74
     0
 49
-3.0
 74
     0
 49
6.0
 74
     0
 49
-3.0
 74
     0
  0
LTYPE
  5
48
330
5
100
AcDbSymbolTableRecord
100
AcDbLinetypeTableRecord
  2
ACAD_ISO10W100
 70
     0
  3
ISO dash dot __ . __ . __ . __ . __ . __ . __ .
 72
    65
 73
     4
 40
18.0
 49
12.0
 74
     0
 49
-3.0
 74
     0
 49
0.0
 74
     0
 49
-3.0
 74
     0
  0
LTYPE
  5
49
330
5
100
AcDbSymbolTableRecord
100
AcDbLinetypeTableRecord
  2
ACAD_ISO11W100
 70
     0
  3
ISO double-dash dot __ __ . __ __ . __ __ . __ 
 72
    65
 73
     6
 40
33.0
 49
12.0
 74
     0
 49
-3.0
 74
     0
 49
12.0
 74
     0
 49
-3.0
 74
     0
 49
0.0
 74
     0
 49
-3.0
 74
     0
  0
LTYPE
  5
4A
330
5
100
AcDbSymbolTableRecord
100
AcDbLinetypeTableRecord
  2
ACAD_ISO12W100
 70
     0
  3
ISO dash double-dot __ . . __ . . __ . . __ . .
 72
    65
 73
     6
 40
21.0
 49
12.0
 74
     0
 49
-3.0
 74
     0
 49
0.0
 74
     0
 49
-3.0
 74
     0
 49
0.0
 74
     0
 49
-3.0
 74
     0
  0
LTYPE
  5
4B
330
5
100
AcDbSymbolTableRecord
100
AcDbLinetypeTableRecord
  2
ACAD_ISO13W100
 70
     0
  3
ISO double-dash double-dot __ __ . . __ __ . . 
 72
    65
 73
     8
 40
36.0
 49
12.0
 74
     0
 49
-3.0
 74
     0
 49
12.0
 74
     0
 49
-3.0
 74
     0
 49
0.0
 74
     0
 49
-3.0
 74
     0
 49
0.0
 74
     0
 49
-3.0
 74
     0
  0
LTYPE
  5
4C
330
5
100
AcDbSymbolTableRecord
100
AcDbLinetypeTableRecord
  2
ACAD_ISO14W100
 70
     0
  3
ISO dash triple-dot __ . . . __ . . . __ . . . 
 72
    65
 73
     8
 40
24.0
 49
12.0
 74
     0
 49
-3.0
 74
     0
 49
0.0
 74
     0
 49
-3.0
 74
     0
 49
0.0
 74
     0
 49
-3.0
 74
     0
 49
0.0
 74
     0
 49
-3.0
 74
     0
  0
LTYPE
  5
4D
330
5
100
AcDbSymbolTableRecord
100
AcDbLinetypeTableRecord
  2
ACAD_ISO15W100
 70
     0
  3
ISO double-dash triple-dot __ __ . . . __ __ . 
 72
    65
 73
    10
 40
39.0
 49
12.0
 74
     0
 49
-3.0
 74
     0
 49
12.0
 74
     0
 49
-3.0
 74
     0
 49
0.0
 74
     0
 49
-3.0
 74
     0
 49
0.0
 74
     0
 49
-3.0
 74
     0
 49
0.0
 74
     0
 49
-3.0
 74
     0
  0
LTYPE
  5
50
330
5
100
AcDbSymbolTableRecord
100
AcDbLinetypeTableRecord
  2
FENCELINE1
 70
     0
  3
Fenceline circle ----0-----0----0-----0----0---
 72
    65
 73
     4
 40
1.45
 49
0.25
 74
     0
 49
-0.1
 74
     4
 75
   133
340
4F
 46
0.1
 50
0.0
 44
-0.1
 45
0.0
 49
-0.1
 74
     0
 49
1.0
 74
     0
  0
LTYPE
  5
51
330
5
100
AcDbSymbolTableRecord
100
AcDbLinetypeTableRecord
  2
FENCELINE2
 70
     0
  3
Fenceline square ----[]-----[]----[]-----[]----
 72
    65
 73
     4
 40
1.45
 49
0.25
 74
     0
 49
-0.1
 74
     4
 75
   132
340
4F
 46
0.1
 50
0.0
 44
-0.1
 45
0.0
 49
-0.1
 74
     0
 49
1.0
 74
     0
  0
LTYPE
  5
52
330
5
100
AcDbSymbolTableRecord
100
AcDbLinetypeTableRecord
  2
TRACKS
 70
     0
  3
Tracks -|-|-|-|-|-|-|-|-|-|-|-|-|-|-|-|-|-|-|-|
 72
    65
 73
     2
 40
0.3
 49
0.15
 74
     4
 75
   130
340
4F
 46
0.25
 50
0.0
 44
0.0
 45
0.0
 49
0.15
 74
     0
  0
LTYPE
  5
53
330
5
100
AcDbSymbolTableRecord
100
AcDbLinetypeTableRecord
  2
BATTING
 70
     0
  3
Batting SSSSSSSSSSSSSSSSSSSSSSSSSSSSSSSSSSSSSSS
 72
    65
 73
     4
 40
0.4001000000000001
 49
0.0001
 74
     0
 49
-0.1
 74
     4
 75
   134
340
4F
 46
0.1
 50
0.0
 44
-0.1
 45
0.0
 49
-0.2
 74
     4
 75
   134
340
4F
 46
0.1
 50
180.0
 44
0.1
 45
0.0
 49
-0.1
 74
     0
  0
LTYPE
  5
54
330
5
100
AcDbSymbolTableRecord
100
AcDbLinetypeTableRecord
  2
HOT_WATER_SUPPLY
 70
     0
  3
Hot water supply ---- HW ---- HW ---- HW ----
 72
    65
 73
     3
 40
0.9
 49
0.5
 74
     0
 49
-0.2
 74
     2
 75
     0
340
11
 46
0.1
 50
0.0
 44
-0.1
 45
-0.05
  9
HW
 49
-0.2
 74
     0
  0
LTYPE
  5
55
330
5
100
AcDbSymbolTableRecord
100
AcDbLinetypeTableRecord
  2
GAS_LINE
 70
     0
  3
Gas line ----GAS----GAS----GAS----GAS----GAS---
 72
    65
 73
     3
 40
0.95
 49
0.5
 74
     0
 49
-0.2
 74
     2
 75
     0
340
11
 46
0.1
 50
0.0
 44
-0.1
 45
-0.05
  9
GAS
 49
-0.25
 74
     0
  0
LTYPE
  5
56
330
5
100
AcDbSymbolTableRecord
100
AcDbLinetypeTableRecord
  2
ZIGZAG
 70
     0
  3
Zig zag /\/\/\/\/\/\/\/\/\/\/\/\/\/\/\/\/\/\/\/
 72
    65
 73
     4
 40
0.8001000000000001
 49
0.0001
 74
     0
 49
-0.2
 74
     4
 75
   131
340
4F
 46
0.2
 50
0.0
 44
-0.2
 45
0.0
 49
-0.4
 74
     4
 75
   131
340
4F
 46
0.2
 50
180.0
 44
0.2
 45
0.0
 49
-0.2
 74
     0
  0
ENDTAB
  0
TABLE
  2
LAYER
  5
2
330
0
100
AcDbSymbolTable
 70
    31
  0
LAYER
  5
10
330
2
100
AcDbSymbolTableRecord
100
AcDbLayerTableRecord
  2
0
 70
     0
 62
     7
  6
Continuous
370
    -3
390
F
  0
LAYER
  5
67
330
2
100
AcDbSymbolTableRecord
100
AcDbLayerTableRecord
  2
Visible Edges
 70
     0
 62
     7
  6
Continuous
370
    50
390
F
  0
LAYER
  5
68
330
2
100
AcDbSymbolTableRecord
100
AcDbLayerTableRecord
  2
Hidden Edges
 70
     0
 62
     7
  6
ACAD_ISO02W100
370
    35
390
F
  0
LAYER
  5
6A
330
2
100
AcDbSymbolTableRecord
100
AcDbLayerTableRecord
  2
Tangent Edges
 70
     0
 62
     7
  6
Continuous
370
    50
390
F
  0
LAYER
  5
6B
330
2
100
AcDbSymbolTableRecord
100
AcDbLayerTableRecord
  2
Section View Lines
 70
     0
 62
     7
  6
ACAD_ISO04W100
370
    70
390
F
  0
LAYER
  5
6D
330
2
100
AcDbSymbolTableRecord
100
AcDbLayerTableRecord
  2
Detail Circle Lines
 70
     0
 62
     7
  6
Continuous
370
    25
390
F
  0
LAYER
  5
6E
330
2
100
AcDbSymbolTableRecord
100
AcDbLayerTableRecord
  2
Dimensions
 70
     0
 62
     7
  6
Continuous
370
    25
390
F
  0
LAYER
  5
6F
330
2
100
AcDbSymbolTableRecord
100
AcDbLayerTableRecord
  2
Center Mark
 70
     0
 62
     7
  6
Continuous
370
    25
390
F
  0
LAYER
  5
70
330
2
100
AcDbSymbolTableRecord
100
AcDbLayerTableRecord
  2
Symbols
 70
     0
 62
     7
  6
Continuous
370
    25
390
F
  0
LAYER
  5
71
330
2
100
AcDbSymbolTableRecord
100
AcDbLayerTableRecord
  2
Leader Lines
 70
     0
 62
     7
  6
Continuous
370
    25
390
F
  0
LAYER
  5
72
330
2
100
AcDbSymbolTableRecord
100
AcDbLayerTableRecord
  2
Sketch Lines
 70
     0
 62
     7
  6
Continuous
370
    25
390
F
  0
LAYER
  5
73
330
2
100
AcDbSymbolTableRecord
100
AcDbLayerTableRecord
  2
Phantom Lines
 70
     0
 62
     7
  6
ACAD_ISO09W100
370
    70
390
F
  0
LAYER
  5
75
330
2
100
AcDbSymbolTableRecord
100
AcDbLayerTableRecord
  2
Symmetry Lines
 70
     0
 62
     7
  6
ACAD_ISO04W100
370
    25
390
F
  0
LAYER
  5
77
330
2
100
AcDbSymbolTableRecord
100
AcDbLayerTableRecord
  2
Break Lines
 70
     0
 62
     7
  6
Continuous
370
    50
390
F
  0
LAYER
  5
78
330
2
100
AcDbSymbolTableRecord
100
AcDbLayerTableRecord
  2
Stitch 1 Lines
 70
     0
 62
     7
  6
ACAD_ISO03W100
370
    25
390
F
  0
LAYER
  5
7A
330
2
100
AcDbSymbolTableRecord
100
AcDbLayerTableRecord
  2
Stitch 2 Lines
 70
     0
 62
     7
  6
ACAD_ISO07W100
370
    25
390
F
  0
LAYER
  5
7C
330
2
100
AcDbSymbolTableRecord
100
AcDbLayerTableRecord
  2
Center Line
 70
     0
 62
     7
  6
Continuous
370
    25
390
F
  0
LAYER
  5
7D
330
2
100
AcDbSymbolTableRecord
100
AcDbLayerTableRecord
  2
Sketch Only Lines
 70
     0
 62
     7
  6
Continuous
370
    50
390
F
  0
LAYER
  5
7E
330
2
100
AcDbSymbolTableRecord
100
AcDbLayerTableRecord
  2
05 Lines
 70
     0
 62
     7
  6
ACAD_ISO04W100
370
    25
390
F
  0
LAYER
  5
80
330
2
100
AcDbSymbolTableRecord
100
AcDbLayerTableRecord
  2
06 Lines
 70
     0
 62
     7
  6
ACAD_ISO05W100
370
    25
390
F
  0
LAYER
  5
82
330
2
100
AcDbSymbolTableRecord
100
AcDbLayerTableRecord
  2
07 Lines
 70
     0
 62
     7
  6
ACAD_ISO06W100
370
    25
390
F
  0
LAYER
  5
84
330
2
100
AcDbSymbolTableRecord
100
AcDbLayerTableRecord
  2
08 Lines
 70
     0
 62
     7
  6
ACAD_ISO08W100
370
    25
390
F
  0
LAYER
  5
86
330
2
100
AcDbSymbolTableRecord
100
AcDbLayerTableRecord
  2
09 Lines
 70
     0
 62
     7
  6
ACAD_ISO09W100
370
    25
390
F
  0
LAYER
  5
88
330
2
100
AcDbSymbolTableRecord
100
AcDbLayerTableRecord
  2
10 Lines
 70
     0
 62
     7
  6
ACAD_ISO10W100
370
    25
390
F
  0
LAYER
  5
8A
330
2
100
AcDbSymbolTableRecord
100
AcDbLayerTableRecord
  2
11 Lines
 70
     0
 62
     7
  6
ACAD_ISO11W100
370
    25
390
F
  0
LAYER
  5
8C
330
2
100
AcDbSymbolTableRecord
100
AcDbLayerTableRecord
  2
12 Lines
 70
     0
 62
     7
  6
ACAD_ISO12W100
370
    25
390
F
  0
LAYER
  5
8E
330
2
100
AcDbSymbolTableRecord
100
AcDbLayerTableRecord
  2
13 Lines
 70
     0
 62
     7
  6
ACAD_ISO13W100
370
    25
390
F
  0
LAYER
  5
90
330
2
100
AcDbSymbolTableRecord
100
AcDbLayerTableRecord
  2
14 Lines
 70
     0
 62
     7
  6
ACAD_ISO14W100
370
    25
390
F
  0
LAYER
  5
92
330
2
100
AcDbSymbolTableRecord
100
AcDbLayerTableRecord
  2
15 Lines
 70
     0
 62
     7
  6
ACAD_ISO15W100
370
    25
390
F
  0
LAYER
  5
94
330
2
100
AcDbSymbolTableRecord
100
AcDbLayerTableRecord
  2
Hatch
 70
     0
 62
     7
  6
Continuous
370
    25
390
F
  0
LAYER
  5
95
330
2
100
AcDbSymbolTableRecord
100
AcDbLayerTableRecord
  2
Text
 70
     0
 62
     7
  6
Continuous
370
    25
390
F
  0
ENDTAB
  0
TABLE
  2
STYLE
  5
3
330
0
100
AcDbSymbolTable
 70
    19
  0
STYLE
  5
11
330
3
100
AcDbSymbolTableRecord
100
AcDbTextStyleTableRecord
  2
Standard
 70
     0
 40
0.0
 41
1.0
 50
0.0
 71
     0
 42
0.2
  3
ARIAL.TTF
  4

1001
ACAD
1000
Arial
1071
      256
  0
STYLE
  5
4F
330
3
100
AcDbSymbolTableRecord
100
AcDbTextStyleTableRecord
  2

 70
     1
 40
0.0
 41
1.0
 50
0.0
 71
     0
 42
0.2
  3
ltypeshp.shx
  4

  0
STYLE
  5
58
330
3
100
AcDbSymbolTableRecord
100
AcDbTextStyleTableRecord
  2
TextStyle1
 70
     0
 40
0.0
 41
0.9399999976158142
 50
0.0
 71
     0
 42
0.2
  3
ARIAL.TTF
  4

1001
ACAD
1000
Arial
1071
      256
  0
STYLE
  5
59
330
3
100
AcDbSymbolTableRecord
100
AcDbTextStyleTableRecord
  2
TextStyle2
 70
     0
 40
0.0
 41
0.9399999976158142
 50
0.0
 71
     0
 42
0.2
  3
Aigdt___.ttf
  4

1001
ACAD
1000
AIGDT
1071
      514
  0
STYLE
  5
5A
330
3
100
AcDbSymbolTableRecord
100
AcDbTextStyleTableRecord
  2
TextStyle3
 70
     0
 40
0.0
 41
0.9399999976158142
 50
0.0
 71
     0
 42
0.2
  3
TIMES.TTF
  4

1001
ACAD
1000
Times New Roman
1071
      256
  0
STYLE
  5
5B
330
3
100
AcDbSymbolTableRecord
100
AcDbTextStyleTableRecord
  2
TextStyle4
 70
     0
 40
0.0
 41
0.9399999976158142
 50
0.0
 71
     0
 42
0.2
  3
TIMES.TTF
  4

1001
ACAD
1000
Times New Roman
1071
      256
  0
STYLE
  5
5C
330
3
100
AcDbSymbolTableRecord
100
AcDbTextStyleTableRecord
  2
TextStyle5
 70
     0
 40
0.0
 41
0.9399999976158142
 50
0.0
 71
     0
 42
0.2
  3
ARIAL.TTF
  4

1001
ACAD
1000
Arial
1071
      256
  0
STYLE
  5
5D
330
3
100
AcDbSymbolTableRecord
100
AcDbTextStyleTableRecord
  2
TextStyle6
 70
     0
 40
0.0
 41
0.9399999976158142
 50
0.0
 71
     0
 42
0.2
  3
ARIAL.TTF
  4

1001
ACAD
1000
Arial
1071
      256
  0
STYLE
  5
5E
330
3
100
AcDbSymbolTableRecord
100
AcDbTextStyleTableRecord
  2
TextStyle7
 70
     0
 40
0.0
 41
0.9399999976158142
 50
0.0
 71
     0
 42
0.2
  3
ARIAL.TTF
  4

1001
ACAD
1000
Arial
1071
      256
  0
STYLE
  5
5F
330
3
100
AcDbSymbolTableRecord
100
AcDbTextStyleTableRecord
  2
TextStyle8
 70
     0
 40
0.0
 41
0.9399999976158142
 50
0.0
 71
     0
 42
0.2
  3
ARIAL.TTF
  4

1001
ACAD
1000
Arial
1071
      256
  0
STYLE
  5
60
330
3
100
AcDbSymbolTableRecord
100
AcDbTextStyleTableRecord
  2
TextStyle9
 70
     0
 40
0.0
 41
0.9399999976158142
 50
0.0
 71
     0
 42
0.2
  3
ARIAL.TTF
  4

1001
ACAD
1000
Arial
1071
      256
  0
STYLE
  5
61
330
3
100
AcDbSymbolTableRecord
100
AcDbTextStyleTableRecord
  2
TextStyle10
 70
     0
 40
0.0
 41
0.9399999976158142
 50
0.0
 71
     0
 42
0.2
  3
ARIAL.TTF
  4

1001
ACAD
1000
Arial
1071
      256
  0
STYLE
  5
62
330
3
100
AcDbSymbolTableRecord
100
AcDbTextStyleTableRecord
  2
TextStyle11
 70
     0
 40
0.0
 41
0.9399999976158142
 50
0.0
 71
     0
 42
0.2
  3
Aigdt___.ttf
  4

1001
ACAD
1000
AIGDT
1071
      514
  0
STYLE
  5
63
330
3
100
AcDbSymbolTableRecord
100
AcDbTextStyleTableRecord
  2
TextStyle12
 70
     0
 40
0.0
 41
0.9399999976158142
 50
0.0
 71
     0
 42
0.2
  3
ARIAL.TTF
  4

1001
ACAD
1000
Arial
1071
      256
  0
STYLE
  5
64
330
3
100
AcDbSymbolTableRecord
100
AcDbTextStyleTableRecord
  2
TextStyle13
 70
     0
 40
0.0
 41
0.9399999976158142
 50
0.0
 71
     0
 42
0.2
  3
ARIAL.TTF
  4

1001
ACAD
1000
Arial
1071
      256
  0
STYLE
  5
65
330
3
100
AcDbSymbolTableRecord
100
AcDbTextStyleTableRecord
  2
TextStyle14
 70
     0
 40
0.0
 41
0.9399999976158142
 50
0.0
 71
     0
 42
0.2
  3
ARIAL.TTF
  4

1001
ACAD
1000
Arial
1071
      256
  0
STYLE
  5
66
330
3
100
AcDbSymbolTableRecord
100
AcDbTextStyleTableRecord
  2
TextStyle15
 70
     0
 40
0.0
 41
0.9399999976158142
 50
0.0
 71
     0
 42
0.2
  3
Aigdt___.ttf
  4

1001
ACAD
1000
AIGDT
1071
      514
  0
STYLE
  5
96
330
3
100
AcDbSymbolTableRecord
100
AcDbTextStyleTableRecord
  2
Current-ISO
 70
     0
 40
0.0
 41
0.9399999976158142
 50
0.0
 71
     0
 42
0.2
  3
ARIAL.TTF
  4

1001
ACAD
1000
Arial
1071
      256
  0
STYLE
  5
97
330
3
100
AcDbSymbolTableRecord
100
AcDbTextStyleTableRecord
  2
DEFAULT-ISO
 70
     0
 40
0.0
 41
0.9399999976158142
 50
0.0
 71
     0
 42
0.2
  3
ARIAL.TTF
  4

1001
ACAD
1000
Arial
1071
      256
  0
ENDTAB
  0
TABLE
  2
VIEW
  5
6
330
0
100
AcDbSymbolTable
 70
     0
  0
ENDTAB
  0
TABLE
  2
UCS
  5
7
330
0
100
AcDbSymbolTable
 70
     0
  0
ENDTAB
  0
TABLE
  2
APPID
  5
9
330
0
100
AcDbSymbolTable
 70
     1
  0
APPID
  5
12
330
9
100
AcDbSymbolTableRecord
100
AcDbRegAppTableRecord
  2
ACAD
 70
     0
  0
ENDTAB
  0
TABLE
  2
DIMSTYLE
  5
A
330
0
100
AcDbSymbolTable
 70
    13
100
AcDbDimStyleTable
 71
     1
340
57
  0
DIMSTYLE
105
27
330
A
100
AcDbSymbolTableRecord
100
AcDbDimStyleTableRecord
  2
Standard
 70
     0
340
11
  0
DIMSTYLE
105
57
330
A
100
AcDbSymbolTableRecord
100
AcDbDimStyleTableRecord
  2
2dTranslatorDimStyle
 70
     0
 41
1.799999999999999
140
1.799999999999999
340
11
  0
DIMSTYLE
105
98
330
A
100
AcDbSymbolTableRecord
100
AcDbDimStyleTableRecord
  2
DEFAULT-ISO
 70
     0
 41
2.5
 42
0.0
 43
4.799999999999999
 44
3.174999999999999
 45
0.00000001
 46
10.0
 73
     0
 74
     0
 77
     1
140
3.5
147
0.762
176
    47
177
    47
178
    47
179
     2
271
     2
272
     2
278
    44
340
60
344
99
371
    25
372
    25
  0
DIMSTYLE
105
A0
330
A
100
AcDbSymbolTableRecord
100
AcDbDimStyleTableRecord
  2
DEFAULT-ISO-Method 1b
 70
     0
 41
2.5
 42
0.0
 43
4.799999999999999
 44
3.174999999999999
 45
0.00000001
 46
10.0
 73
     0
 77
     1
140
3.5
147
0.762
176
    47
177
    47
178
    47
179
     2
271
     2
272
     2
278
    44
284
     8
340
60
344
99
371
    25
372
    25
  0
DIMSTYLE
105
A1
330
A
100
AcDbSymbolTableRecord
100
AcDbDimStyleTableRecord
  2
DEFAULT-ISO-Method 2a
 70
     0
 41
2.5
 42
0.0
 43
4.799999999999999
 44
3.174999999999999
 45
0.00000001
 46
10.0
140
3.5
147
0.762
176
    47
177
    47
178
    47
179
     2
271
     2
272
     2
278
    44
284
     8
340
60
344
99
371
    25
372
    25
  0
DIMSTYLE
105
A2
330
A
100
AcDbSymbolTableRecord
100
AcDbDimStyleTableRecord
  2
DEFAULT-ISO-Method 2b
 70
     0
 41
2.5
 42
0.0
 43
4.799999999999999
 44
3.174999999999999
 45
0.00000001
 46
10.0
140
3.5
147
0.762
176
    47
177
    47
178
    47
179
     2
271
     2
272
     2
278
    44
284
     8
340
60
344
99
371
    25
372
    25
  0
DIMSTYLE
105
A3
330
A
100
AcDbSymbolTableRecord
100
AcDbDimStyleTableRecord
  2
X.X big gap & text
 70
     0
 41
5.0
 42
2.0
 43
4.799999999999999
 44
3.174999999999999
 45
0.00000001
 46
10.0
 73
     0
 74
     0
 77
     1
 78
     4
 79
     1
140
5.0
146
0.7
147
0.762
176
   114
177
   114
178
    11
179
     1
271
     1
272
     1
278
    44
284
     8
340
65
344
99
371
    25
372
    25
  0
DIMSTYLE
105
A4
330
A
100
AcDbSymbolTableRecord
100
AcDbDimStyleTableRecord
  2
X.XXX
 70
     0
 41
2.5
 42
0.0
 43
4.799999999999999
 44
3.174999999999999
 45
0.00000001
 46
10.0
 73
     0
 74
     0
 77
     1
 78
     4
 79
     1
140
3.5
147
0.762
176
    47
177
    47
178
    47
179
     3
271
     3
272
     2
275
     1
278
    44
284
     8
340
60
344
99
371
    25
372
    25
  0
DIMSTYLE
105
A5
330
A
100
AcDbSymbolTableRecord
100
AcDbDimStyleTableRecord
  2
X.XXX + - tolerance
 70
     0
 41
2.5
 42
0.0
 43
4.799999999999999
 44
3.174999999999999
 45
0.00000001
 46
10.0
 71
     1
 73
     0
 74
     0
 77
     1
 78
     4
 79
     1
140
3.5
147
0.762
176
    47
177
    47
178
    47
179
     3
271
     3
272
     3
275
     1
278
    44
284
     8
340
60
344
99
371
    25
372
    25
  0
DIMSTYLE
105
A6
330
A
100
AcDbSymbolTableRecord
100
AcDbDimStyleTableRecord
  2
X.XXX +tolerance -tolerance
 70
     0
 41
2.5
 42
0.0
 43
4.799999999999999
 44
3.174999999999999
 45
0.00000001
 46
10.0
 48
0.000000001
 71
     1
 73
     0
 74
     0
 77
     1
 78
     4
 79
     1
140
3.5
147
0.762
176
    47
177
    47
178
    47
179
     3
271
     3
272
     3
275
     1
278
    44
284
     8
340
60
344
99
371
    25
372
    25
  0
DIMSTYLE
105
A7
330
A
100
AcDbSymbolTableRecord
100
AcDbDimStyleTableRecord
  2
X.XXX mm[inch]
 70
     0
 41
2.5
 42
0.0
 43
4.799999999999999
 44
3.174999999999999
 45
0.00000001
 46
10.0
 73
     0
 74
     0
 77
     1
 78
     4
 79
     1
140
3.5
147
0.762
176
    47
177
    47
178
    47
179
     3
271
     3
272
     2
275
     1
278
    44
284
     8
340
60
344
99
371
    25
372
    25
  0
DIMSTYLE
105
A8
330
A
100
AcDbSymbolTableRecord
100
AcDbDimStyleTableRecord
  2
X.XXX radial
 70
     0
 41
2.5
 42
0.0
 43
4.799999999999999
 44
3.174999999999999
 45
0.00000001
 46
10.0
 73
     0
 74
     0
 77
     1
 78
     4
 79
     1
140
3.5
147
0.762
176
    47
177
    47
178
    47
179
     3
271
     3
272
     2
275
     1
284
     8
340
60
344
99
371
    25
372
    25
  0
DIMSTYLE
105
A9
330
A
100
AcDbSymbolTableRecord
100
AcDbDimStyleTableRecord
  2
X.XXX small tolerance
 70
     0
 41
2.5
 42
0.0
 43
4.799999999999999
 44
3.174999999999999
 45
0.00000001
 46
10.0
 71
     1
 73
     0
 74
     0
 77
     1
 78
     4
 79
     1
140
3.5
146
0.7142857142857144
147
0.762
176
    47
177
    47
178
    47
179
     3
271
     3
272
     3
275
     1
278
    44
284
     8
340
60
344
99
371
    25
372
    25
  0
ENDTAB
  0
TABLE
  2
BLOCK_RECORD
  5
1
330
0
100
AcDbSymbolTable
 70
     3
  0
BLOCK_RECORD
  5
1F
330
1
100
AcDbSymbolTableRecord
100
AcDbBlockTableRecord
  2
*Model_Space
340
22
  0
BLOCK_RECORD
  5
1B
330
1
100
AcDbSymbolTableRecord
100
AcDbBlockTableRecord
  2
*Paper_Space
340
1E
  0
BLOCK_RECORD
  5
23
330
1
100
AcDbSymbolTableRecord
100
AcDbBlockTableRecord
  2
*Paper_Space0
340
26
  0
BLOCK_RECORD
  5
99
330
1
100
AcDbSymbolTableRecord
100
AcDbBlockTableRecord
  2
_Closed
340
0
  0
BLOCK_RECORD
  5
AA
330
1
100
AcDbSymbolTableRecord
100
AcDbBlockTableRecord
  2
2dTransTitleBlock1
340
0
102
{BLKREFS
331
CE
102
}
  0
ENDTAB
  0
ENDSEC
  0
SECTION
  2
BLOCKS
  0
BLOCK
  5
20
330
1F
100
AcDbEntity
  8
0
100
AcDbBlockBegin
  2
*Model_Space
 70
     0
 10
0.0
 20
0.0
 30
0.0
  3
*Model_Space
  1

  0
ENDBLK
  5
21
330
1F
100
AcDbEntity
  8
0
100
AcDbBlockEnd
  0
BLOCK
  5
1C
330
1B
100
AcDbEntity
 67
     1
  8
0
100
AcDbBlockBegin
  2
*Paper_Space
 70
     0
 10
0.0
 20
0.0
 30
0.0
  3
*Paper_Space
  1

  0
ENDBLK
  5
1D
330
1B
100
AcDbEntity
 67
     1
  8
0
100
AcDbBlockEnd
  0
BLOCK
  5
24
330
23
100
AcDbEntity
  8
0
100
AcDbBlockBegin
  2
*Paper_Space0
 70
     0
 10
0.0
 20
0.0
 30
0.0
  3
*Paper_Space0
  1

  0
ENDBLK
  5
25
330
23
100
AcDbEntity
  8
0
100
AcDbBlockEnd
  0
BLOCK
  5
9E
330
99
100
AcDbEntity
  8
0
100
AcDbBlockBegin
  2
_Closed
 70
     0
 10
0.0
 20
0.0
 30
0.0
  3
_Closed
  1

  0
LINE
  5
9A
330
99
100
AcDbEntity
  8
0
  6
ByBlock
 62
     0
370
    -2
100
AcDbLine
 10
-1.0
 20
0.1666666666666666
 30
0.0
 11
0.0
 21
0.0
 31
0.0
  0
LINE
  5
9B
330
99
100
AcDbEntity
  8
0
  6
ByBlock
 62
     0
370
    -2
100
AcDbLine
 10
0.0
 20
0.0
 30
0.0
 11
-1.0
 21
-0.1666666666666666
 31
0.0
  0
LINE
  5
9C
330
99
100
AcDbEntity
  8
0
  6
ByBlock
 62
     0
370
    -2
100
AcDbLine
 10
-1.0
 20
0.1666666666666666
 30
0.0
 11
-1.0
 21
-0.1666666666666666
 31
0.0
  0
LINE
  5
9D
330
99
100
AcDbEntity
  8
0
  6
ByBlock
 62
     0
370
    -2
100
AcDbLine
 10
0.0
 20
0.0
 30
0.0
 11
-1.0
 21
0.0
 31
0.0
  0
ENDBLK
  5
9F
330
99
100
AcDbEntity
  8
0
100
AcDbBlockEnd
  0
BLOCK
  5
AB
330
AA
100
AcDbEntity
  8
0
100
AcDbBlockBegin
  2
2dTransTitleBlock1
 70
     0
 10
0.0
 20
0.0
 30
0.0
  3
2dTransTitleBlock1
  1

  0
LINE
  5
AD
330
AA
100
AcDbEntity
  8
Sketch Lines
  6
Continuous
 62
     7
370
    50
100
AcDbLine
 10
361.7599999999999
 20
4.0
 30
0.0
 11
361.7599999999999
 21
4.872604584236999
 31
0.0
  0
LINE
  5
AE
330
AA
100
AcDbEntity
  8
Sketch Lines
  6
Continuous
 62
     7
370
    50
100
AcDbLine
 10
361.7599999999999
 20
2.0
 30
0.0
 11
361.7599999999999
 21
3.0
 31
0.0
  0
LINE
  5
AF
330
AA
100
AcDbEntity
  8
Sketch Lines
  6
Continuous
 62
     7
370
    50
100
AcDbLine
 10
360.2599999999999
 20
2.0
 30
0.0
 11
360.2599999999999
 21
3.0
 31
0.0
  0
LINE
  5
B0
330
AA
100
AcDbEntity
  8
Sketch Lines
  6
Continuous
 62
     7
370
    50
100
AcDbLine
 10
363.7599999999999
 20
3.0
 30
0.0
 11
354.26
 21
3.0
 31
0.0
  0
LINE
  5
B1
330
AA
100
AcDbEntity
  8
Sketch Lines
  6
Continuous
 62
     7
370
    50
100
AcDbLine
 10
358.76
 20
4.0
 30
0.0
 11
358.76
 21
4.872604584236999
 31
0.0
  0
LINE
  5
B2
330
AA
100
AcDbEntity
  8
Sketch Lines
  6
Continuous
 62
     7
370
    50
100
AcDbLine
 10
356.2599999999999
 20
4.0
 30
0.0
 11
356.2599999999999
 21
4.872604584236999
 31
0.0
  0
LINE
  5
B3
330
AA
100
AcDbEntity
  8
Sketch Lines
  6
Continuous
 62
     7
370
    50
100
AcDbLine
 10
354.26
 20
4.0
 30
0.0
 11
354.26
 21
2.0
 31
0.0
  0
LINE
  5
B4
330
AA
100
AcDbEntity
  8
Sketch Lines
  6
Continuous
 62
     7
370
    50
100
AcDbLine
 10
352.4599999999999
 20
4.0
 30
0.0
 11
352.4599999999999
 21
4.872604584236999
 31
0.0
  0
LINE
  5
B5
330
AA
100
AcDbEntity
  8
Sketch Lines
  6
Continuous
 62
     7
370
    50
100
AcDbLine
 10
349.96
 20
4.0
 30
0.0
 11
349.96
 21
4.872604584236999
 31
0.0
  0
LINE
  5
B6
330
AA
100
AcDbEntity
  8
Sketch Lines
  6
Continuous
 62
     7
370
    50
100
AcDbLine
 10
346.76
 20
4.0
 30
0.0
 11
363.7599999999999
 21
4.0
 31
0.0
  0
LINE
  5
B7
330
AA
100
AcDbEntity
  8
Sketch Lines
  6
Continuous
 62
     7
370
    50
100
AcDbLine
 10
346.76
 20
4.872604584236999
 30
0.0
 11
346.76
 21
2.0
 31
0.0
  0
LINE
  5
B8
330
AA
100
AcDbEntity
  8
Sketch Lines
  6
Continuous
 62
     7
370
    50
100
AcDbLine
 10
363.7599999999999
 20
4.872604584236999
 30
0.0
 11
346.76
 21
4.872604584236999
 31
0.0
  0
LINE
  5
B9
330
AA
100
AcDbEntity
  8
Sketch Lines
  6
Continuous
 62
     7
370
    50
100
AcDbLine
 10
363.7599999999999
 20
2.0
 30
0.0
 11
363.7599999999999
 21
4.872604584236999
 31
0.0
  0
LINE
  5
BA
330
AA
100
AcDbEntity
  8
Sketch Lines
  6
Continuous
 62
     7
370
    50
100
AcDbLine
 10
346.76
 20
2.0
 30
0.0
 11
363.7599999999999
 21
2.0
 31
0.0
  0
ENDBLK
  5
AC
330
AA
100
AcDbEntity
  8
0
100
AcDbBlockEnd
  0
ENDSEC
  0
SECTION
  2
ENTITIES
  0
LINE
  5
CF
330
1F
100
AcDbEntity
  8
Visible Edges
  6
Continuous
 62
     7
370
    50
100
AcDbLine
 10
198.2539602591224
 20
63.16597788926003
 30
0.0
 11
198.2539602591224
 21
110.79097788926
 31
0.0
  0
LINE
  5
D1
330
1F
100
AcDbEntity
  8
Visible Edges
  6
Continuous
 62
     7
370
    50
100
AcDbLine
 10
198.2539602591224
 20
63.16597788926003
 30
0.0
 11
198.2539602591224
 21
110.79097788926
 31
0.0
  0
LINE
  5
D3
330
1F
100
AcDbEntity
  8
Visible Edges
  6
Continuous
 62
     7
370
    50
100
AcDbLine
 10
198.2539602591224
 20
110.79097788926
 30
0.0
 11
217.3039602591225
 21
110.79097788926
 31
0.0
  0
LINE
  5
D5
330
1F
100
AcDbEntity
  8
Visible Edges
  6
Continuous
 62
     7
370
    50
100
AcDbLine
 10
217.3039602591225
 20
110.79097788926
 30
0.0
 11
217.3039602591225
 21
63.16597788926003
 31
0.0
  0
LINE
  5
D7
330
1F
100
AcDbEntity
  8
Visible Edges
  6
Continuous
 62
     7
370
    50
100
AcDbLine
 10
198.2539602591224
 20
63.16597788926003
 30
0.0
 11
179.2039602591225
 21
63.16597788926003
 31
0.0
  0
LINE
  5
D9
330
1F
100
AcDbEntity
  8
Visible Edges
  6
Continuous
 62
     7
370
    50
100
AcDbLine
 10
315.7289602591224
 20
63.16597788926003
 30
0.0
 11
217.3039602591225
 21
63.16597788926003
 31
0.0
  0
LINE
  5
DB
330
1F
100
AcDbEntity
  8
Visible Edges
  6
Continuous
 62
     7
370
    50
100
AcDbLine
 10
315.7289602591224
 20
539.41597788926
 30
0.0
 11
315.7289602591224
 21
63.16597788926003
 31
0.0
  0
LINE
  5
DD
330
1F
100
AcDbEntity
  8
Visible Edges
  6
Continuous
 62
     7
370
    50
100
AcDbLine
 10
296.6789602591224
 20
539.41597788926
 30
0.0
 11
315.7289602591225
 21
539.41597788926
 31
0.0
  0
LINE
  5
DF
330
1F
100
AcDbEntity
  8
Visible Edges
  6
Continuous
 62
     7
370
    50
100
AcDbLine
 10
296.6789602591224
 20
520.3659778892599
 30
0.0
 11
296.6789602591224
 21
539.41597788926
 31
0.0
  0
LINE
  5
E1
330
1F
100
AcDbEntity
  8
Visible Edges
  6
Continuous
 62
     7
370
    50
100
AcDbLine
 10
277.6289602591224
 20
520.3659778892599
 30
0.0
 11
296.6789602591224
 21
520.3659778892599
 31
0.0
  0
LINE
  5
E3
330
1F
100
AcDbEntity
  8
Visible Edges
  6
Continuous
 62
     7
370
    50
100
AcDbLine
 10
277.6289602591224
 20
539.41597788926
 30
0.0
 11
277.6289602591224
 21
520.3659778892599
 31
0.0
  0
LINE
  5
E5
330
1F
100
AcDbEntity
  8
Visible Edges
  6
Continuous
 62
     7
370
    50
100
AcDbLine
 10
258.5789602591223
 20
539.41597788926
 30
0.0
 11
277.6289602591224
 21
539.41597788926
 31
0.0
  0
LINE
  5
E7
330
1F
100
AcDbEntity
  8
Visible Edges
  6
Continuous
 62
     7
370
    50
100
AcDbLine
 10
258.5789602591223
 20
520.3659778892599
 30
0.0
 11
258.5789602591223
 21
539.41597788926
 31
0.0
  0
LINE
  5
E9
330
1F
100
AcDbEntity
  8
Visible Edges
  6
Continuous
 62
     7
370
    50
100
AcDbLine
 10
217.3039602591225
 20
520.3659778892599
 30
0.0
 11
258.5789602591223
 21
520.3659778892599
 31
0.0
  0
LINE
  5
EB
330
1F
100
AcDbEntity
  8
Visible Edges
  6
Continuous
 62
     7
370
    50
100
AcDbLine
 10
217.3039602591225
 20
520.3659778892599
 30
0.0
 11
217.3039602591225
 21
472.7409778892599
 31
0.0
  0
LINE
  5
ED
330
1F
100
AcDbEntity
  8
Visible Edges
  6
Continuous
 62
     7
370
    50
100
AcDbLine
 10
217.3039602591225
 20
472.7409778892599
 30
0.0
 11
198.2539602591224
 21
472.7409778892599
 31
0.0
  0
LINE
  5
EF
330
1F
100
AcDbEntity
  8
Visible Edges
  6
Continuous
 62
     7
370
    50
100
AcDbLine
 10
198.2539602591224
 20
472.7409778892599
 30
0.0
 11
198.2539602591224
 21
520.3659778892599
 31
0.0
  0
LINE
  5
F1
330
1F
100
AcDbEntity
  8
Visible Edges
  6
Continuous
 62
     7
370
    50
100
AcDbLine
 10
179.2039602591224
 20
520.3659778892599
 30
0.0
 11
198.2539602591224
 21
520.3659778892599
 31
0.0
  0
LINE
  5
F3
330
1F
100
AcDbEntity
  8
Visible Edges
  6
Continuous
 62
     7
370
    50
100
AcDbLine
 10
179.2039602591224
 20
520.3659778892599
 30
0.0
 11
179.2039602591224
 21
472.7409778892599
 31
0.0
  0
LINE
  5
F5
330
1F
100
AcDbEntity
  8
Visible Edges
  6
Continuous
 62
     7
370
    50
100
AcDbLine
 10
179.2039602591224
 20
472.7409778892599
 30
0.0
 11
160.1539602591224
 21
472.7409778892599
 31
0.0
  0
LINE
  5
F7
330
1F
100
AcDbEntity
  8
Visible Edges
  6
Continuous
 62
     7
370
    50
100
AcDbLine
 10
160.1539602591224
 20
472.7409778892599
 30
0.0
 11
160.1539602591224
 21
520.3659778892599
 31
0.0
  0
LINE
  5
F9
330
1F
100
AcDbEntity
  8
Visible Edges
  6
Continuous
 62
     7
370
    50
100
AcDbLine
 10
118.8789602591225
 20
520.3659778892599
 30
0.0
 11
160.1539602591224
 21
520.3659778892599
 31
0.0
  0
LINE
  5
FB
330
1F
100
AcDbEntity
  8
Visible Edges
  6
Continuous
 62
     7
370
    50
100
AcDbLine
 10
118.8789602591225
 20
539.41597788926
 30
0.0
 11
118.8789602591225
 21
520.3659778892599
 31
0.0
  0
LINE
  5
FD
330
1F
100
AcDbEntity
  8
Visible Edges
  6
Continuous
 62
     7
370
    50
100
AcDbLine
 10
99.82896025912253
 20
539.41597788926
 30
0.0
 11
118.8789602591225
 21
539.41597788926
 31
0.0
  0
LINE
  5
FF
330
1F
100
AcDbEntity
  8
Visible Edges
  6
Continuous
 62
     7
370
    50
100
AcDbLine
 10
99.82896025912252
 20
520.3659778892599
 30
0.0
 11
99.82896025912252
 21
539.41597788926
 31
0.0
  0
LINE
  5
101
330
1F
100
AcDbEntity
  8
Visible Edges
  6
Continuous
 62
     7
370
    50
100
AcDbLine
 10
80.7789602591225
 20
520.3659778892599
 30
0.0
 11
99.82896025912252
 21
520.3659778892599
 31
0.0
  0
LINE
  5
103
330
1F
100
AcDbEntity
  8
Visible Edges
  6
Continuous
 62
     7
370
    50
100
AcDbLine
 10
80.7789602591225
 20
539.41597788926
 30
0.0
 11
80.7789602591225
 21
520.3659778892599
 31
0.0
  0
LINE
  5
105
330
1F
100
AcDbEntity
  8
Visible Edges
  6
Continuous
 62
     7
370
    50
100
AcDbLine
 10
61.72896025912246
 20
539.41597788926
 30
0.0
 11
80.7789602591225
 21
539.41597788926
 31
0.0
  0
LINE
  5
107
330
1F
100
AcDbEntity
  8
Visible Edges
  6
Continuous
 62
     7
370
    50
100
AcDbLine
 10
61.7289602591228
 20
63.16597788926003
 30
0.0
 11
61.72896025912246
 21
539.41597788926
 31
0.0
  0
LINE
  5
109
330
1F
100
AcDbEntity
  8
Visible Edges
  6
Continuous
 62
     7
370
    50
100
AcDbLine
 10
160.1539602591224
 20
63.16597788926003
 30
0.0
 11
61.72896025912246
 21
63.16597788926003
 31
0.0
  0
LINE
  5
10B
330
1F
100
AcDbEntity
  8
Visible Edges
  6
Continuous
 62
     7
370
    50
100
AcDbLine
 10
160.1539602591224
 20
63.16597788926003
 30
0.0
 11
160.1539602591224
 21
110.79097788926
 31
0.0
  0
LINE
  5
10D
330
1F
100
AcDbEntity
  8
Visible Edges
  6
Continuous
 62
     7
370
    50
100
AcDbLine
 10
160.1539602591224
 20
110.79097788926
 30
0.0
 11
179.2039602591225
 21
110.79097788926
 31
0.0
  0
LINE
  5
10F
330
1F
100
AcDbEntity
  8
Visible Edges
  6
Continuous
 62
     7
370
    50
100
AcDbLine
 10
179.2039602591225
 20
110.79097788926
 30
0.0
 11
179.2039602591225
 21
63.16597788926003
 31
0.0
  0
LINE
  5
111
330
1F
100
AcDbEntity
  8
Visible Edges
  6
Continuous
 62
     7
370
    50
100
AcDbLine
 10
502.4948100654049
 20
473.8176747939827
 30
0.0
 11
483.4448100654049
 21
473.8176747939827
 31
0.0
  0
LINE
  5
113
330
1F
100
AcDbEntity
  8
Visible Edges
  6
Continuous
 62
     7
370
    50
100
AcDbLine
 10
502.4948100654049
 20
473.8176747939827
 30
0.0
 11
483.4448100654049
 21
473.8176747939827
 31
0.0
  0
LINE
  5
115
330
1F
100
AcDbEntity
  8
Visible Edges
  6
Continuous
 62
     7
370
    50
100
AcDbLine
 10
483.4448100654049
 20
473.8176747939827
 30
0.0
 11
483.4448100654049
 21
492.8676747939826
 31
0.0
  0
LINE
  5
117
330
1F
100
AcDbEntity
  8
Visible Edges
  6
Continuous
 62
     7
370
    50
100
AcDbLine
 10
483.4448100654049
 20
492.8676747939826
 30
0.0
 11
502.4948100654049
 21
492.8676747939826
 31
0.0
  0
LINE
  5
119
330
1F
100
AcDbEntity
  8
Visible Edges
  6
Continuous
 62
     7
370
    50
100
AcDbLine
 10
502.4948100654049
 20
492.8676747939826
 30
0.0
 11
502.4948100654049
 21
473.8176747939827
 31
0.0
  0
LINE
  5
11B
330
1F
100
AcDbEntity
  8
Visible Edges
  6
Continuous
 62
     7
370
    50
100
AcDbLine
 10
464.3948100654049
 20
473.8176747939827
 30
0.0
 11
445.3448100654049
 21
473.8176747939827
 31
0.0
  0
LINE
  5
11D
330
1F
100
AcDbEntity
  8
Visible Edges
  6
Continuous
 62
     7
370
    50
100
AcDbLine
 10
445.3448100654049
 20
473.8176747939827
 30
0.0
 11
445.3448100654049
 21
492.8676747939826
 31
0.0
  0
LINE
  5
11F
330
1F
100
AcDbEntity
  8
Visible Edges
  6
Continuous
 62
     7
370
    50
100
AcDbLine
 10
445.3448100654049
 20
492.8676747939826
 30
0.0
 11
464.3948100654049
 21
492.8676747939826
 31
0.0
  0
LINE
  5
121
330
1F
100
AcDbEntity
  8
Visible Edges
  6
Continuous
 62
     7
370
    50
100
AcDbLine
 10
464.3948100654049
 20
492.8676747939826
 30
0.0
 11
464.3948100654049
 21
473.8176747939827
 31
0.0
  0
LINE
  5
123
330
1F
100
AcDbEntity
  8
Visible Edges
  6
Continuous
 62
     7
370
    50
100
AcDbLine
 10
502.4948100654049
 20
435.7176747939827
 30
0.0
 11
483.4448100654049
 21
435.7176747939827
 31
0.0
  0
LINE
  5
125
330
1F
100
AcDbEntity
  8
Visible Edges
  6
Continuous
 62
     7
370
    50
100
AcDbLine
 10
483.4448100654049
 20
435.7176747939827
 30
0.0
 11
483.4448100654049
 21
454.7676747939826
 31
0.0
  0
LINE
  5
127
330
1F
100
AcDbEntity
  8
Visible Edges
  6
Continuous
 62
     7
370
    50
100
AcDbLine
 10
483.4448100654049
 20
454.7676747939826
 30
0.0
 11
502.4948100654049
 21
454.7676747939826
 31
0.0
  0
LINE
  5
129
330
1F
100
AcDbEntity
  8
Visible Edges
  6
Continuous
 62
     7
370
    50
100
AcDbLine
 10
502.4948100654049
 20
454.7676747939826
 30
0.0
 11
502.4948100654049
 21
435.7176747939827
 31
0.0
  0
LINE
  5
12B
330
1F
100
AcDbEntity
  8
Visible Edges
  6
Continuous
 62
     7
370
    50
100
AcDbLine
 10
464.3948100654049
 20
435.7176747939827
 30
0.0
 11
445.3448100654049
 21
435.7176747939827
 31
0.0
  0
LINE
  5
12D
330
1F
100
AcDbEntity
  8
Visible Edges
  6
Continuous
 62
     7
370
    50
100
AcDbLine
 10
445.3448100654049
 20
435.7176747939827
 30
0.0
 11
445.3448100654049
 21
454.7676747939826
 31
0.0
  0
LINE
  5
12F
330
1F
100
AcDbEntity
  8
Visible Edges
  6
Continuous
 62
     7
370
    50
100
AcDbLine
 10
445.3448100654049
 20
454.7676747939826
 30
0.0
 11
464.3948100654049
 21
454.7676747939826
 31
0.0
  0
LINE
  5
131
330
1F
100
AcDbEntity
  8
Visible Edges
  6
Continuous
 62
     7
370
    50
100
AcDbLine
 10
464.3948100654049
 20
454.7676747939826
 30
0.0
 11
464.3948100654049
 21
435.7176747939827
 31
0.0
  0
LINE
  5
133
330
1F
100
AcDbEntity
  8
Visible Edges
  6
Continuous
 62
     7
370
    50
100
AcDbLine
 10
502.4948100654049
 20
276.9676747939827
 30
0.0
 11
483.4448100654049
 21
276.9676747939827
 31
0.0
  0
LINE
  5
135
330
1F
100
AcDbEntity
  8
Visible Edges
  6
Continuous
 62
     7
370
    50
100
AcDbLine
 10
483.4448100654049
 20
276.9676747939827
 30
0.0
 11
483.4448100654049
 21
296.0176747939826
 31
0.0
  0
LINE
  5
137
330
1F
100
AcDbEntity
  8
Visible Edges
  6
Continuous
 62
     7
370
    50
100
AcDbLine
 10
483.4448100654049
 20
296.0176747939826
 30
0.0
 11
502.4948100654049
 21
296.0176747939826
 31
0.0
  0
LINE
  5
139
330
1F
100
AcDbEntity
  8
Visible Edges
  6
Continuous
 62
     7
370
    50
100
AcDbLine
 10
502.4948100654052
 20
296.0176747939826
 30
0.0
 11
502.4948100654052
 21
276.9676747939827
 31
0.0
  0
LINE
  5
13B
330
1F
100
AcDbEntity
  8
Visible Edges
  6
Continuous
 62
     7
370
    50
100
AcDbLine
 10
464.3948100654049
 20
276.9676747939827
 30
0.0
 11
445.3448100654049
 21
276.9676747939827
 31
0.0
  0
LINE
  5
13D
330
1F
100
AcDbEntity
  8
Visible Edges
  6
Continuous
 62
     7
370
    50
100
AcDbLine
 10
445.3448100654049
 20
276.9676747939827
 30
0.0
 11
445.3448100654049
 21
296.0176747939826
 31
0.0
  0
LINE
  5
13F
330
1F
100
AcDbEntity
  8
Visible Edges
  6
Continuous
 62
     7
370
    50
100
AcDbLine
 10
445.3448100654049
 20
296.0176747939826
 30
0.0
 11
464.3948100654049
 21
296.0176747939826
 31
0.0
  0
LINE
  5
141
330
1F
100
AcDbEntity
  8
Visible Edges
  6
Continuous
 62
     7
370
    50
100
AcDbLine
 10
464.3948100654049
 20
296.0176747939826
 30
0.0
 11
464.3948100654049
 21
276.9676747939827
 31
0.0
  0
LINE
  5
143
330
1F
100
AcDbEntity
  8
Visible Edges
  6
Continuous
 62
     7
370
    50
100
AcDbLine
 10
502.4948100654049
 20
238.8676747939827
 30
0.0
 11
483.4448100654049
 21
238.8676747939827
 31
0.0
  0
LINE
  5
145
330
1F
100
AcDbEntity
  8
Visible Edges
  6
Continuous
 62
     7
370
    50
100
AcDbLine
 10
483.4448100654049
 20
238.8676747939827
 30
0.0
 11
483.4448100654049
 21
257.9176747939827
 31
0.0
  0
LINE
  5
147
330
1F
100
AcDbEntity
  8
Visible Edges
  6
Continuous
 62
     7
370
    50
100
AcDbLine
 10
483.4448100654049
 20
257.9176747939827
 30
0.0
 11
502.4948100654049
 21
257.9176747939827
 31
0.0
  0
LINE
  5
149
330
1F
100
AcDbEntity
  8
Visible Edges
  6
Continuous
 62
     7
370
    50
100
AcDbLine
 10
502.4948100654052
 20
257.9176747939827
 30
0.0
 11
502.4948100654052
 21
238.8676747939827
 31
0.0
  0
LINE
  5
14B
330
1F
100
AcDbEntity
  8
Visible Edges
  6
Continuous
 62
     7
370
    50
100
AcDbLine
 10
464.3948100654049
 20
238.8676747939827
 30
0.0
 11
445.3448100654049
 21
238.8676747939827
 31
0.0
  0
LINE
  5
14D
330
1F
100
AcDbEntity
  8
Visible Edges
  6
Continuous
 62
     7
370
    50
100
AcDbLine
 10
445.3448100654049
 20
238.8676747939827
 30
0.0
 11
445.3448100654049
 21
257.9176747939827
 31
0.0
  0
LINE
  5
14F
330
1F
100
AcDbEntity
  8
Visible Edges
  6
Continuous
 62
     7
370
    50
100
AcDbLine
 10
445.3448100654049
 20
257.9176747939827
 30
0.0
 11
464.3948100654049
 21
257.9176747939827
 31
0.0
  0
LINE
  5
151
330
1F
100
AcDbEntity
  8
Visible Edges
  6
Continuous
 62
     7
370
    50
100
AcDbLine
 10
464.3948100654049
 20
257.9176747939827
 30
0.0
 11
464.3948100654049
 21
238.8676747939827
 31
0.0
  0
LINE
  5
153
330
1F
100
AcDbEntity
  8
Visible Edges
  6
Continuous
 62
     7
370
    50
100
AcDbLine
 10
1867.744810065404
 20
473.8176747939828
 30
0.0
 11
1848.694810065404
 21
473.8176747939828
 31
0.0
  0
LINE
  5
155
330
1F
100
AcDbEntity
  8
Visible Edges
  6
Continuous
 62
     7
370
    50
100
AcDbLine
 10
1848.694810065404
 20
473.8176747939828
 30
0.0
 11
1848.694810065404
 21
492.8676747939828
 31
0.0
  0
LINE
  5
157
330
1F
100
AcDbEntity
  8
Visible Edges
  6
Continuous
 62
     7
370
    50
100
AcDbLine
 10
1848.694810065404
 20
492.8676747939828
 30
0.0
 11
1867.744810065404
 21
492.8676747939828
 31
0.0
  0
LINE
  5
159
330
1F
100
AcDbEntity
  8
Visible Edges
  6
Continuous
 62
     7
370
    50
100
AcDbLine
 10
1867.744810065404
 20
492.8676747939828
 30
0.0
 11
1867.744810065404
 21
473.8176747939828
 31
0.0
  0
LINE
  5
15B
330
1F
100
AcDbEntity
  8
Visible Edges
  6
Continuous
 62
     7
370
    50
100
AcDbLine
 10
1829.644810065404
 20
473.8176747939828
 30
0.0
 11
1810.594810065404
 21
473.8176747939828
 31
0.0
  0
LINE
  5
15D
330
1F
100
AcDbEntity
  8
Visible Edges
  6
Continuous
 62
     7
370
    50
100
AcDbLine
 10
1810.594810065404
 20
473.8176747939828
 30
0.0
 11
1810.594810065404
 21
492.8676747939828
 31
0.0
  0
LINE
  5
15F
330
1F
100
AcDbEntity
  8
Visible Edges
  6
Continuous
 62
     7
370
    50
100
AcDbLine
 10
1810.594810065404
 20
492.8676747939828
 30
0.0
 11
1829.644810065404
 21
492.8676747939828
 31
0.0
  0
LINE
  5
161
330
1F
100
AcDbEntity
  8
Visible Edges
  6
Continuous
 62
     7
370
    50
100
AcDbLine
 10
1829.644810065404
 20
492.8676747939828
 30
0.0
 11
1829.644810065404
 21
473.8176747939828
 31
0.0
  0
LINE
  5
163
330
1F
100
AcDbEntity
  8
Visible Edges
  6
Continuous
 62
     7
370
    50
100
AcDbLine
 10
1867.744810065404
 20
435.7176747939828
 30
0.0
 11
1848.694810065404
 21
435.7176747939828
 31
0.0
  0
LINE
  5
165
330
1F
100
AcDbEntity
  8
Visible Edges
  6
Continuous
 62
     7
370
    50
100
AcDbLine
 10
1848.694810065404
 20
435.7176747939828
 30
0.0
 11
1848.694810065404
 21
454.7676747939828
 31
0.0
  0
LINE
  5
167
330
1F
100
AcDbEntity
  8
Visible Edges
  6
Continuous
 62
     7
370
    50
100
AcDbLine
 10
1848.694810065404
 20
454.7676747939828
 30
0.0
 11
1867.744810065404
 21
454.7676747939828
 31
0.0
  0
LINE
  5
169
330
1F
100
AcDbEntity
  8
Visible Edges
  6
Continuous
 62
     7
370
    50
100
AcDbLine
 10
1867.744810065404
 20
454.7676747939828
 30
0.0
 11
1867.744810065404
 21
435.7176747939828
 31
0.0
  0
LINE
  5
16B
330
1F
100
AcDbEntity
  8
Visible Edges
  6
Continuous
 62
     7
370
    50
100
AcDbLine
 10
1829.644810065404
 20
435.7176747939828
 30
0.0
 11
1810.594810065404
 21
435.7176747939828
 31
0.0
  0
LINE
  5
16D
330
1F
100
AcDbEntity
  8
Visible Edges
  6
Continuous
 62
     7
370
    50
100
AcDbLine
 10
1810.594810065404
 20
435.7176747939828
 30
0.0
 11
1810.594810065404
 21
454.7676747939828
 31
0.0
  0
LINE
  5
16F
330
1F
100
AcDbEntity
  8
Visible Edges
  6
Continuous
 62
     7
370
    50
100
AcDbLine
 10
1810.594810065404
 20
454.7676747939828
 30
0.0
 11
1829.644810065404
 21
454.7676747939828
 31
0.0
  0
LINE
  5
171
330
1F
100
AcDbEntity
  8
Visible Edges
  6
Continuous
 62
     7
370
    50
100
AcDbLine
 10
1829.644810065404
 20
454.7676747939828
 30
0.0
 11
1829.644810065404
 21
435.7176747939828
 31
0.0
  0
LINE
  5
173
330
1F
100
AcDbEntity
  8
Visible Edges
  6
Continuous
 62
     7
370
    50
100
AcDbLine
 10
1867.744810065404
 20
276.9676747939828
 30
0.0
 11
1848.694810065404
 21
276.9676747939828
 31
0.0
  0
LINE
  5
175
330
1F
100
AcDbEntity
  8
Visible Edges
  6
Continuous
 62
     7
370
    50
100
AcDbLine
 10
1848.694810065404
 20
276.9676747939828
 30
0.0
 11
1848.694810065404
 21
296.0176747939827
 31
0.0
  0
LINE
  5
177
330
1F
100
AcDbEntity
  8
Visible Edges
  6
Continuous
 62
     7
370
    50
100
AcDbLine
 10
1848.694810065404
 20
296.0176747939827
 30
0.0
 11
1867.744810065404
 21
296.0176747939827
 31
0.0
  0
LINE
  5
179
330
1F
100
AcDbEntity
  8
Visible Edges
  6
Continuous
 62
     7
370
    50
100
AcDbLine
 10
1867.744810065404
 20
296.0176747939827
 30
0.0
 11
1867.744810065404
 21
276.9676747939828
 31
0.0
  0
LINE
  5
17B
330
1F
100
AcDbEntity
  8
Visible Edges
  6
Continuous
 62
     7
370
    50
100
AcDbLine
 10
1829.644810065404
 20
276.9676747939828
 30
0.0
 11
1810.594810065404
 21
276.9676747939828
 31
0.0
  0
LINE
  5
17D
330
1F
100
AcDbEntity
  8
Visible Edges
  6
Continuous
 62
     7
370
    50
100
AcDbLine
 10
1810.594810065404
 20
276.9676747939828
 30
0.0
 11
1810.594810065404
 21
296.0176747939827
 31
0.0
  0
LINE
  5
17F
330
1F
100
AcDbEntity
  8
Visible Edges
  6
Continuous
 62
     7
370
    50
100
AcDbLine
 10
1810.594810065404
 20
296.0176747939827
 30
0.0
 11
1829.644810065404
 21
296.0176747939827
 31
0.0
  0
LINE
  5
181
330
1F
100
AcDbEntity
  8
Visible Edges
  6
Continuous
 62
     7
370
    50
100
AcDbLine
 10
1829.644810065404
 20
296.0176747939827
 30
0.0
 11
1829.644810065404
 21
276.9676747939828
 31
0.0
  0
LINE
  5
183
330
1F
100
AcDbEntity
  8
Visible Edges
  6
Continuous
 62
     7
370
    50
100
AcDbLine
 10
1867.744810065404
 20
238.8676747939828
 30
0.0
 11
1848.694810065404
 21
238.8676747939828
 31
0.0
  0
LINE
  5
185
330
1F
100
AcDbEntity
  8
Visible Edges
  6
Continuous
 62
     7
370
    50
100
AcDbLine
 10
1848.694810065404
 20
238.8676747939828
 30
0.0
 11
1848.694810065404
 21
257.9176747939828
 31
0.0
  0
LINE
  5
187
330
1F
100
AcDbEntity
  8
Visible Edges
  6
Continuous
 62
     7
370
    50
100
AcDbLine
 10
1848.694810065404
 20
257.9176747939828
 30
0.0
 11
1867.744810065404
 21
257.9176747939828
 31
0.0
  0
LINE
  5
189
330
1F
100
AcDbEntity
  8
Visible Edges
  6
Continuous
 62
     7
370
    50
100
AcDbLine
 10
1867.744810065404
 20
257.9176747939828
 30
0.0
 11
1867.744810065404
 21
238.8676747939828
 31
0.0
  0
LINE
  5
18B
330
1F
100
AcDbEntity
  8
Visible Edges
  6
Continuous
 62
     7
370
    50
100
AcDbLine
 10
1829.644810065404
 20
238.8676747939828
 30
0.0
 11
1810.594810065404
 21
238.8676747939828
 31
0.0
  0
LINE
  5
18D
330
1F
100
AcDbEntity
  8
Visible Edges
  6
Continuous
 62
     7
370
    50
100
AcDbLine
 10
1810.594810065404
 20
238.8676747939828
 30
0.0
 11
1810.594810065404
 21
257.9176747939828
 31
0.0
  0
LINE
  5
18F
330
1F
100
AcDbEntity
  8
Visible Edges
  6
Continuous
 62
     7
370
    50
100
AcDbLine
 10
1810.594810065404
 20
257.9176747939828
 30
0.0
 11
1829.644810065404
 21
257.9176747939828
 31
0.0
  0
LINE
  5
191
330
1F
100
AcDbEntity
  8
Visible Edges
  6
Continuous
 62
     7
370
    50
100
AcDbLine
 10
1829.644810065404
 20
257.9176747939828
 30
0.0
 11
1829.644810065404
 21
238.8676747939828
 31
0.0
  0
LINE
  5
193
330
1F
100
AcDbEntity
  8
Visible Edges
  6
Continuous
 62
     7
370
    50
100
AcDbLine
 10
343.7448100654046
 20
513.8864247939827
 30
0.0
 11
343.7448100654046
 21
217.8489247939827
 31
0.0
  0
LINE
  5
195
330
1F
100
AcDbEntity
  8
Visible Edges
  6
Continuous
 62
     7
370
    50
100
AcDbLine
 10
1969.344810065404
 20
217.8489247939828
 30
0.0
 11
1969.344810065404
 21
513.8864247939828
 31
0.0
  0
LINE
  5
197
330
1F
100
AcDbEntity
  8
Visible Edges
  6
Continuous
 62
     7
370
    50
100
AcDbLine
 10
343.7448100654046
 20
215.8489247939827
 30
0.0
 11
343.7448100654046
 21
217.8489247939827
 31
0.0
  0
LINE
  5
199
330
1F
100
AcDbEntity
  8
Visible Edges
  6
Continuous
 62
     7
370
    50
100
AcDbLine
 10
1969.344810065404
 20
215.8489247939828
 30
0.0
 11
343.7448100654046
 21
215.8489247939827
 31
0.0
  0
LINE
  5
19B
330
1F
100
AcDbEntity
  8
Visible Edges
  6
Continuous
 62
     7
370
    50
100
AcDbLine
 10
1969.344810065404
 20
217.8489247939828
 30
0.0
 11
1969.344810065404
 21
215.8489247939828
 31
0.0
  0
LINE
  5
19D
330
1F
100
AcDbEntity
  8
Visible Edges
  6
Continuous
 62
     7
370
    50
100
AcDbLine
 10
1969.344810065404
 20
515.8864247939828
 30
0.0
 11
343.7448100654046
 21
515.8864247939828
 31
0.0
  0
LINE
  5
19F
330
1F
100
AcDbEntity
  8
Visible Edges
  6
Continuous
 62
     7
370
    50
100
AcDbLine
 10
343.7448100654046
 20
513.8864247939827
 30
0.0
 11
343.7448100654046
 21
515.8864247939828
 31
0.0
  0
LINE
  5
1A1
330
1F
100
AcDbEntity
  8
Visible Edges
  6
Continuous
 62
     7
370
    50
100
AcDbLine
 10
1969.344810065404
 20
515.8864247939828
 30
0.0
 11
1969.344810065404
 21
513.8864247939827
 31
0.0
  0
LINE
  5
1A3
330
1F
100
AcDbEntity
  8
Visible Edges
  6
Continuous
 62
     7
370
    50
100
AcDbLine
 10
1749.993721210595
 20
76.10337132133793
 30
0.0
 11
1749.993721210595
 21
123.7283713213379
 31
0.0
  0
LINE
  5
1A5
330
1F
100
AcDbEntity
  8
Visible Edges
  6
Continuous
 62
     7
370
    50
100
AcDbLine
 10
1749.993721210595
 20
76.10337132133793
 30
0.0
 11
1749.993721210595
 21
123.7283713213379
 31
0.0
  0
LINE
  5
1A7
330
1F
100
AcDbEntity
  8
Visible Edges
  6
Continuous
 62
     7
370
    50
100
AcDbLine
 10
1769.043721210595
 20
76.10337132133793
 30
0.0
 11
1749.993721210595
 21
76.10337132133793
 31
0.0
  0
LINE
  5
1A9
330
1F
100
AcDbEntity
  8
Visible Edges
  6
Continuous
 62
     7
370
    50
100
AcDbLine
 10
1769.043721210595
 20
123.7283713213379
 30
0.0
 11
1769.043721210595
 21
76.10337132133792
 31
0.0
  0
LINE
  5
1AB
330
1F
100
AcDbEntity
  8
Visible Edges
  6
Continuous
 62
     7
370
    50
100
AcDbLine
 10
1788.093721210595
 20
123.7283713213379
 30
0.0
 11
1769.043721210595
 21
123.7283713213379
 31
0.0
  0
LINE
  5
1AD
330
1F
100
AcDbEntity
  8
Visible Edges
  6
Continuous
 62
     7
370
    50
100
AcDbLine
 10
1788.093721210595
 20
76.10337132133793
 30
0.0
 11
1788.093721210595
 21
123.7283713213379
 31
0.0
  0
LINE
  5
1AF
330
1F
100
AcDbEntity
  8
Visible Edges
  6
Continuous
 62
     7
370
    50
100
AcDbLine
 10
1807.143721210595
 20
76.10337132133793
 30
0.0
 11
1788.093721210595
 21
76.10337132133793
 31
0.0
  0
LINE
  5
1B1
330
1F
100
AcDbEntity
  8
Visible Edges
  6
Continuous
 62
     7
370
    50
100
AcDbLine
 10
1807.143721210594
 20
171.3533713213379
 30
0.0
 11
1807.143721210595
 21
76.10337132133792
 31
0.0
  0
LINE
  5
1B3
330
1F
100
AcDbEntity
  8
Visible Edges
  6
Continuous
 62
     7
370
    50
100
AcDbLine
 10
346.6437212105945
 20
171.3533713213379
 30
0.0
 11
1807.143721210594
 21
171.3533713213379
 31
0.0
  0
LINE
  5
1B5
330
1F
100
AcDbEntity
  8
Visible Edges
  6
Continuous
 62
     7
370
    50
100
AcDbLine
 10
346.6437212105947
 20
76.10337132133793
 30
0.0
 11
346.6437212105945
 21
171.3533713213379
 31
0.0
  0
LINE
  5
1B7
330
1F
100
AcDbEntity
  8
Visible Edges
  6
Continuous
 62
     7
370
    50
100
AcDbLine
 10
365.6937212105948
 20
76.10337132133793
 30
0.0
 11
346.6437212105947
 21
76.10337132133793
 31
0.0
  0
LINE
  5
1B9
330
1F
100
AcDbEntity
  8
Visible Edges
  6
Continuous
 62
     7
370
    50
100
AcDbLine
 10
365.6937212105946
 20
123.7283713213379
 30
0.0
 11
365.6937212105948
 21
76.10337132133792
 31
0.0
  0
LINE
  5
1BB
330
1F
100
AcDbEntity
  8
Visible Edges
  6
Continuous
 62
     7
370
    50
100
AcDbLine
 10
384.7437212105946
 20
123.7283713213379
 30
0.0
 11
365.6937212105946
 21
123.7283713213379
 31
0.0
  0
LINE
  5
1BD
330
1F
100
AcDbEntity
  8
Visible Edges
  6
Continuous
 62
     7
370
    50
100
AcDbLine
 10
384.7437212105946
 20
76.10337132133793
 30
0.0
 11
384.7437212105946
 21
123.7283713213379
 31
0.0
  0
LINE
  5
1BF
330
1F
100
AcDbEntity
  8
Visible Edges
  6
Continuous
 62
     7
370
    50
100
AcDbLine
 10
403.7937212105946
 20
76.10337132133793
 30
0.0
 11
384.7437212105946
 21
76.10337132133793
 31
0.0
  0
LINE
  5
1C1
330
1F
100
AcDbEntity
  8
Visible Edges
  6
Continuous
 62
     7
370
    50
100
AcDbLine
 10
403.7937212105946
 20
123.7283713213379
 30
0.0
 11
403.7937212105946
 21
76.10337132133792
 31
0.0
  0
LINE
  5
1C3
330
1F
100
AcDbEntity
  8
Visible Edges
  6
Continuous
 62
     7
370
    50
100
AcDbLine
 10
422.8437212105945
 20
123.7283713213379
 30
0.0
 11
403.7937212105946
 21
123.7283713213379
 31
0.0
  0
LINE
  5
1C5
330
1F
100
AcDbEntity
  8
Visible Edges
  6
Continuous
 62
     7
370
    50
100
AcDbLine
 10
422.8437212105945
 20
76.10337132133794
 30
0.0
 11
422.8437212105945
 21
123.7283713213379
 31
0.0
  0
LINE
  5
1C7
330
1F
100
AcDbEntity
  8
Visible Edges
  6
Continuous
 62
     7
370
    50
100
AcDbLine
 10
1730.943721210595
 20
76.10337132133794
 30
0.0
 11
422.8437212105944
 21
76.10337132133794
 31
0.0
  0
LINE
  5
1C9
330
1F
100
AcDbEntity
  8
Visible Edges
  6
Continuous
 62
     7
370
    50
100
AcDbLine
 10
1730.943721210595
 20
123.7283713213379
 30
0.0
 11
1730.943721210595
 21
76.10337132133794
 31
0.0
  0
LINE
  5
1CB
330
1F
100
AcDbEntity
  8
Visible Edges
  6
Continuous
 62
     7
370
    50
100
AcDbLine
 10
1749.993721210595
 20
123.7283713213379
 30
0.0
 11
1730.943721210595
 21
123.7283713213379
 31
0.0
  0
LINE
  5
1CD
330
1F
100
AcDbEntity
  8
Visible Edges
  6
Continuous
 62
     7
370
    50
100
AcDbLine
 10
114.675437181914
 20
569.9401086668633
 30
0.0
 11
114.675437181914
 21
615.9709703825477
 31
0.0
  0
LINE
  5
1CF
330
1F
100
AcDbEntity
  8
Visible Edges
  6
Continuous
 62
     7
370
    50
100
AcDbLine
 10
114.675437181914
 20
569.9401086668633
 30
0.0
 11
114.675437181914
 21
615.9709703825477
 31
0.0
  0
LINE
  5
1D1
330
1F
100
AcDbEntity
  8
Visible Edges
  6
Continuous
 62
     7
370
    50
100
AcDbLine
 10
114.675437181914
 20
615.9709703825477
 30
0.0
 11
133.725437181914
 21
615.9709703825477
 31
0.0
  0
LINE
  5
1D3
330
1F
100
AcDbEntity
  8
Visible Edges
  6
Continuous
 62
     7
370
    50
100
AcDbLine
 10
133.725437181914
 20
615.9709703825477
 30
0.0
 11
133.725437181914
 21
569.9401086668632
 31
0.0
  0
LINE
  5
1D5
330
1F
100
AcDbEntity
  8
Visible Edges
  6
Continuous
 62
     7
370
    50
100
AcDbLine
 10
114.675437181914
 20
569.9401086668633
 30
0.0
 11
95.62543718191406
 21
569.9401086668633
 31
0.0
  0
LINE
  5
1D7
330
1F
100
AcDbEntity
  8
Visible Edges
  6
Continuous
 62
     7
370
    50
100
AcDbLine
 10
152.775437181914
 20
569.9401086668633
 30
0.0
 11
133.725437181914
 21
569.9401086668633
 31
0.0
  0
LINE
  5
1D9
330
1F
100
AcDbEntity
  8
Visible Edges
  6
Continuous
 62
     7
370
    50
100
AcDbLine
 10
76.57543718191407
 20
617.5651086668633
 30
0.0
 11
95.62543718191406
 21
617.5651086668633
 31
0.0
  0
LINE
  5
1DB
330
1F
100
AcDbEntity
  8
Visible Edges
  6
Continuous
 62
     7
370
    50
100
AcDbLine
 10
95.62543718191406
 20
617.5651086668633
 30
0.0
 11
95.62543718191406
 21
569.9401086668633
 31
0.0
  0
LINE
  5
1DD
330
1F
100
AcDbEntity
  8
Visible Edges
  6
Continuous
 62
     7
370
    50
100
AcDbLine
 10
76.57543718191407
 20
569.9401086668633
 30
0.0
 11
76.57543718191407
 21
617.5651086668632
 31
0.0
  0
LINE
  5
1DF
330
1F
100
AcDbEntity
  8
Visible Edges
  6
Continuous
 62
     7
370
    50
100
AcDbLine
 10
152.775437181914
 20
665.1901086668633
 30
0.0
 11
152.775437181914
 21
569.9401086668633
 31
0.0
  0
LINE
  5
1E1
330
1F
100
AcDbEntity
  8
Visible Edges
  6
Continuous
 62
     7
370
    50
100
AcDbLine
 10
57.52543718191406
 20
665.1901086668633
 30
0.0
 11
152.775437181914
 21
665.1901086668633
 31
0.0
  0
LINE
  5
1E3
330
1F
100
AcDbEntity
  8
Visible Edges
  6
Continuous
 62
     7
370
    50
100
AcDbLine
 10
57.52543718191406
 20
569.9401086668633
 30
0.0
 11
57.52543718191406
 21
665.1901086668633
 31
0.0
  0
LINE
  5
1E5
330
1F
100
AcDbEntity
  8
Visible Edges
  6
Continuous
 62
     7
370
    50
100
AcDbLine
 10
76.57543718191407
 20
569.9401086668633
 30
0.0
 11
57.52543718191406
 21
569.9401086668633
 31
0.0
  0
LINE
  5
1E7
330
1F
100
AcDbEntity
  8
Visible Edges
  6
Continuous
 62
     7
370
    50
100
AcDbLine
 10
3456.967648180046
 20
1071.575186127129
 30
0.0
 11
3456.967648180046
 21
1120.794324411444
 31
0.0
  0
LINE
  5
1E9
330
1F
100
AcDbEntity
  8
Visible Edges
  6
Continuous
 62
     7
370
    50
100
AcDbLine
 10
3456.967648180046
 20
1071.575186127129
 30
0.0
 11
3456.967648180046
 21
1120.794324411444
 31
0.0
  0
LINE
  5
1EB
330
1F
100
AcDbEntity
  8
Visible Edges
  6
Continuous
 62
     7
370
    50
100
AcDbLine
 10
3476.017648180045
 20
1120.794324411444
 30
0.0
 11
3476.017648180045
 21
1071.575186127129
 31
0.0
  0
LINE
  5
1ED
330
1F
100
AcDbEntity
  8
Visible Edges
  6
Continuous
 62
     7
370
    50
100
AcDbLine
 10
3476.017648180045
 20
1071.575186127129
 30
0.0
 11
3456.967648180046
 21
1071.575186127129
 31
0.0
  0
LINE
  5
1EF
330
1F
100
AcDbEntity
  8
Visible Edges
  6
Continuous
 62
     7
370
    50
100
AcDbLine
 10
3437.917648180046
 20
1120.794324411444
 30
0.0
 11
3456.967648180045
 21
1120.794324411444
 31
0.0
  0
LINE
  5
1F1
330
1F
100
AcDbEntity
  8
Visible Edges
  6
Continuous
 62
     7
370
    50
100
AcDbLine
 10
3476.017648180045
 20
1120.794324411444
 30
0.0
 11
3533.167648180045
 21
1120.794324411444
 31
0.0
  0
LINE
  5
1F3
330
1F
100
AcDbEntity
  8
Visible Edges
  6
Continuous
 62
     7
370
    50
100
AcDbLine
 10
3437.917648180046
 20
1025.544324411445
 30
0.0
 11
3437.917648180046
 21
1120.794324411445
 31
0.0
  0
LINE
  5
1F5
330
1F
100
AcDbEntity
  8
Visible Edges
  6
Continuous
 62
     7
370
    50
100
AcDbLine
 10
3495.067648180046
 20
1025.544324411445
 30
0.0
 11
3437.917648180046
 21
1025.544324411445
 31
0.0
  0
LINE
  5
1F7
330
1F
100
AcDbEntity
  8
Visible Edges
  6
Continuous
 62
     7
370
    50
100
AcDbLine
 10
3495.067648180046
 20
1025.544324411445
 30
0.0
 11
3495.067648180046
 21
1073.169324411445
 31
0.0
  0
LINE
  5
1F9
330
1F
100
AcDbEntity
  8
Visible Edges
  6
Continuous
 62
     7
370
    50
100
AcDbLine
 10
3495.067648180046
 20
1073.169324411444
 30
0.0
 11
3514.117648180045
 21
1073.169324411444
 31
0.0
  0
LINE
  5
1FB
330
1F
100
AcDbEntity
  8
Visible Edges
  6
Continuous
 62
     7
370
    50
100
AcDbLine
 10
3514.117648180045
 20
1073.169324411444
 30
0.0
 11
3514.117648180045
 21
1025.544324411444
 31
0.0
  0
LINE
  5
1FD
330
1F
100
AcDbEntity
  8
Visible Edges
  6
Continuous
 62
     7
370
    50
100
AcDbLine
 10
3533.167648180046
 20
1025.544324411445
 30
0.0
 11
3514.117648180045
 21
1025.544324411445
 31
0.0
  0
LINE
  5
1FF
330
1F
100
AcDbEntity
  8
Visible Edges
  6
Continuous
 62
     7
370
    50
100
AcDbLine
 10
3533.167648180046
 20
1120.794324411444
 30
0.0
 11
3533.167648180046
 21
1025.544324411444
 31
0.0
  0
LINE
  5
201
330
1F
100
AcDbEntity
  8
Visible Edges
  6
Continuous
 62
     7
370
    50
100
AcDbLine
 10
3264.667548846684
 20
1133.538498278426
 30
0.0
 11
3264.667548846684
 21
1085.913498278425
 31
0.0
  0
LINE
  5
203
330
1F
100
AcDbEntity
  8
Visible Edges
  6
Continuous
 62
     7
370
    50
100
AcDbLine
 10
3264.667548846684
 20
1133.538498278426
 30
0.0
 11
3264.667548846684
 21
1085.913498278425
 31
0.0
  0
LINE
  5
205
330
1F
100
AcDbEntity
  8
Visible Edges
  6
Continuous
 62
     7
370
    50
100
AcDbLine
 10
3264.667548846684
 20
1085.913498278425
 30
0.0
 11
3245.617548846685
 21
1085.913498278425
 31
0.0
  0
LINE
  5
207
330
1F
100
AcDbEntity
  8
Visible Edges
  6
Continuous
 62
     7
370
    50
100
AcDbLine
 10
3245.617548846684
 20
1085.913498278425
 30
0.0
 11
3245.617548846684
 21
1133.538498278426
 31
0.0
  0
LINE
  5
209
330
1F
100
AcDbEntity
  8
Visible Edges
  6
Continuous
 62
     7
370
    50
100
AcDbLine
 10
2686.817548846684
 20
1133.538498278426
 30
0.0
 11
3245.617548846684
 21
1133.538498278426
 31
0.0
  0
LINE
  5
20B
330
1F
100
AcDbEntity
  8
Visible Edges
  6
Continuous
 62
     7
370
    50
100
AcDbLine
 10
2686.817548846684
 20
1133.538498278426
 30
0.0
 11
2686.817548846684
 21
1085.913498278425
 31
0.0
  0
LINE
  5
20D
330
1F
100
AcDbEntity
  8
Visible Edges
  6
Continuous
 62
     7
370
    50
100
AcDbLine
 10
2686.817548846684
 20
1085.913498278425
 30
0.0
 11
2667.767548846684
 21
1085.913498278425
 31
0.0
  0
LINE
  5
20F
330
1F
100
AcDbEntity
  8
Visible Edges
  6
Continuous
 62
     7
370
    50
100
AcDbLine
 10
2667.767548846684
 20
1085.913498278425
 30
0.0
 11
2667.767548846684
 21
1133.538498278426
 31
0.0
  0
LINE
  5
211
330
1F
100
AcDbEntity
  8
Visible Edges
  6
Continuous
 62
     7
370
    50
100
AcDbLine
 10
2610.617548846684
 20
1133.538498278426
 30
0.0
 11
2667.767548846684
 21
1133.538498278426
 31
0.0
  0
LINE
  5
213
330
1F
100
AcDbEntity
  8
Visible Edges
  6
Continuous
 62
     7
370
    50
100
AcDbLine
 10
2610.617548846684
 20
1038.288498278425
 30
0.0
 11
2610.617548846684
 21
1133.538498278426
 31
0.0
  0
LINE
  5
215
330
1F
100
AcDbEntity
  8
Visible Edges
  6
Continuous
 62
     7
370
    50
100
AcDbLine
 10
3321.817548846684
 20
1038.288498278425
 30
0.0
 11
2610.617548846684
 21
1038.288498278425
 31
0.0
  0
LINE
  5
217
330
1F
100
AcDbEntity
  8
Visible Edges
  6
Continuous
 62
     7
370
    50
100
AcDbLine
 10
3321.817548846684
 20
1133.538498278426
 30
0.0
 11
3321.817548846684
 21
1038.288498278425
 31
0.0
  0
LINE
  5
219
330
1F
100
AcDbEntity
  8
Visible Edges
  6
Continuous
 62
     7
370
    50
100
AcDbLine
 10
3264.667548846684
 20
1133.538498278426
 30
0.0
 11
3321.817548846684
 21
1133.538498278426
 31
0.0
  0
LINE
  5
21B
330
1F
100
AcDbEntity
  8
Visible Edges
  6
Continuous
 62
     7
370
    50
100
AcDbLine
 10
2959.878592400878
 20
990.1665422748864
 30
0.0
 11
2959.878592400878
 21
942.5415422748864
 31
0.0
  0
LINE
  5
21D
330
1F
100
AcDbEntity
  8
Visible Edges
  6
Continuous
 62
     7
370
    50
100
AcDbLine
 10
2959.878592400878
 20
990.1665422748864
 30
0.0
 11
2959.878592400878
 21
942.5415422748864
 31
0.0
  0
LINE
  5
21F
330
1F
100
AcDbEntity
  8
Visible Edges
  6
Continuous
 62
     7
370
    50
100
AcDbLine
 10
2959.878592400878
 20
942.5415422748864
 30
0.0
 11
2940.828592400876
 21
942.5415422748864
 31
0.0
  0
LINE
  5
221
330
1F
100
AcDbEntity
  8
Visible Edges
  6
Continuous
 62
     7
370
    50
100
AcDbLine
 10
2940.828592400876
 20
942.5415422748864
 30
0.0
 11
2940.828592400876
 21
990.1665422748864
 31
0.0
  0
LINE
  5
223
330
1F
100
AcDbEntity
  8
Visible Edges
  6
Continuous
 62
     7
370
    50
100
AcDbLine
 10
2959.878592400878
 20
990.1665422748864
 30
0.0
 11
2978.928592400878
 21
990.1665422748864
 31
0.0
  0
LINE
  5
225
330
1F
100
AcDbEntity
  8
Visible Edges
  6
Continuous
 62
     7
370
    50
100
AcDbLine
 10
2997.978592400878
 20
990.1665422748864
 30
0.0
 11
2997.978592400878
 21
942.5415422748864
 31
0.0
  0
LINE
  5
227
330
1F
100
AcDbEntity
  8
Visible Edges
  6
Continuous
 62
     7
370
    50
100
AcDbLine
 10
2997.978592400878
 20
942.5415422748864
 30
0.0
 11
2978.928592400878
 21
942.5415422748864
 31
0.0
  0
LINE
  5
229
330
1F
100
AcDbEntity
  8
Visible Edges
  6
Continuous
 62
     7
370
    50
100
AcDbLine
 10
2978.928592400877
 20
942.5415422748864
 30
0.0
 11
2978.928592400877
 21
990.1665422748864
 31
0.0
  0
LINE
  5
22B
330
1F
100
AcDbEntity
  8
Visible Edges
  6
Continuous
 62
     7
370
    50
100
AcDbLine
 10
2997.978592400878
 20
990.1665422748864
 30
0.0
 11
3248.803592400877
 21
990.1665422748864
 31
0.0
  0
LINE
  5
22D
330
1F
100
AcDbEntity
  8
Visible Edges
  6
Continuous
 62
     7
370
    50
100
AcDbLine
 10
2690.003592400877
 20
990.1665422748864
 30
0.0
 11
2940.828592400876
 21
990.1665422748864
 31
0.0
  0
LINE
  5
22F
330
1F
100
AcDbEntity
  8
Visible Edges
  6
Continuous
 62
     7
370
    50
100
AcDbLine
 10
2690.003592400877
 20
990.1665422748864
 30
0.0
 11
2690.003592400877
 21
942.5415422748864
 31
0.0
  0
LINE
  5
231
330
1F
100
AcDbEntity
  8
Visible Edges
  6
Continuous
 62
     7
370
    50
100
AcDbLine
 10
2690.003592400877
 20
942.5415422748864
 30
0.0
 11
2670.953592400878
 21
942.5415422748864
 31
0.0
  0
LINE
  5
233
330
1F
100
AcDbEntity
  8
Visible Edges
  6
Continuous
 62
     7
370
    50
100
AcDbLine
 10
2670.953592400878
 20
942.5415422748864
 30
0.0
 11
2670.953592400878
 21
990.1665422748864
 31
0.0
  0
LINE
  5
235
330
1F
100
AcDbEntity
  8
Visible Edges
  6
Continuous
 62
     7
370
    50
100
AcDbLine
 10
2613.803592400877
 20
990.1665422748864
 30
0.0
 11
2670.953592400878
 21
990.1665422748864
 31
0.0
  0
LINE
  5
237
330
1F
100
AcDbEntity
  8
Visible Edges
  6
Continuous
 62
     7
370
    50
100
AcDbLine
 10
2613.803592400877
 20
894.9165422748865
 30
0.0
 11
2613.803592400877
 21
990.1665422748864
 31
0.0
  0
LINE
  5
239
330
1F
100
AcDbEntity
  8
Visible Edges
  6
Continuous
 62
     7
370
    50
100
AcDbLine
 10
2632.853592400877
 20
894.9165422748865
 30
0.0
 11
2613.803592400878
 21
894.9165422748865
 31
0.0
  0
LINE
  5
23B
330
1F
100
AcDbEntity
  8
Visible Edges
  6
Continuous
 62
     7
370
    50
100
AcDbLine
 10
2632.853592400877
 20
894.9165422748865
 30
0.0
 11
2632.853592400877
 21
942.5415422748866
 31
0.0
  0
LINE
  5
23D
330
1F
100
AcDbEntity
  8
Visible Edges
  6
Continuous
 62
     7
370
    50
100
AcDbLine
 10
2632.853592400877
 20
942.5415422748864
 30
0.0
 11
2651.903592400877
 21
942.5415422748864
 31
0.0
  0
LINE
  5
23F
330
1F
100
AcDbEntity
  8
Visible Edges
  6
Continuous
 62
     7
370
    50
100
AcDbLine
 10
2651.903592400877
 20
942.5415422748864
 30
0.0
 11
2651.903592400877
 21
894.9165422748864
 31
0.0
  0
LINE
  5
241
330
1F
100
AcDbEntity
  8
Visible Edges
  6
Continuous
 62
     7
370
    50
100
AcDbLine
 10
3286.903592400877
 20
894.9165422748865
 30
0.0
 11
2651.903592400877
 21
894.9165422748865
 31
0.0
  0
LINE
  5
243
330
1F
100
AcDbEntity
  8
Visible Edges
  6
Continuous
 62
     7
370
    50
100
AcDbLine
 10
3286.903592400877
 20
894.9165422748865
 30
0.0
 11
3286.903592400877
 21
942.5415422748866
 31
0.0
  0
LINE
  5
245
330
1F
100
AcDbEntity
  8
Visible Edges
  6
Continuous
 62
     7
370
    50
100
AcDbLine
 10
3286.903592400877
 20
942.5415422748864
 30
0.0
 11
3305.953592400877
 21
942.5415422748864
 31
0.0
  0
LINE
  5
247
330
1F
100
AcDbEntity
  8
Visible Edges
  6
Continuous
 62
     7
370
    50
100
AcDbLine
 10
3305.953592400877
 20
942.5415422748864
 30
0.0
 11
3305.953592400877
 21
894.9165422748864
 31
0.0
  0
LINE
  5
249
330
1F
100
AcDbEntity
  8
Visible Edges
  6
Continuous
 62
     7
370
    50
100
AcDbLine
 10
3325.003592400877
 20
894.9165422748865
 30
0.0
 11
3305.953592400877
 21
894.9165422748865
 31
0.0
  0
LINE
  5
24B
330
1F
100
AcDbEntity
  8
Visible Edges
  6
Continuous
 62
     7
370
    50
100
AcDbLine
 10
3325.003592400877
 20
990.1665422748864
 30
0.0
 11
3325.003592400877
 21
894.9165422748864
 31
0.0
  0
LINE
  5
24D
330
1F
100
AcDbEntity
  8
Visible Edges
  6
Continuous
 62
     7
370
    50
100
AcDbLine
 10
3267.853592400877
 20
990.1665422748864
 30
0.0
 11
3325.003592400877
 21
990.1665422748864
 31
0.0
  0
LINE
  5
24F
330
1F
100
AcDbEntity
  8
Visible Edges
  6
Continuous
 62
     7
370
    50
100
AcDbLine
 10
3267.853592400877
 20
990.1665422748864
 30
0.0
 11
3267.853592400877
 21
942.5415422748864
 31
0.0
  0
LINE
  5
251
330
1F
100
AcDbEntity
  8
Visible Edges
  6
Continuous
 62
     7
370
    50
100
AcDbLine
 10
3267.853592400877
 20
942.5415422748864
 30
0.0
 11
3248.803592400877
 21
942.5415422748864
 31
0.0
  0
LINE
  5
253
330
1F
100
AcDbEntity
  8
Visible Edges
  6
Continuous
 62
     7
370
    50
100
AcDbLine
 10
3248.803592400877
 20
942.5415422748864
 30
0.0
 11
3248.803592400877
 21
990.1665422748864
 31
0.0
  0
LINE
  5
255
330
1F
100
AcDbEntity
  8
Visible Edges
  6
Continuous
 62
     7
370
    50
100
AcDbLine
 10
3495.214338124777
 20
891.7846332394088
 30
0.0
 11
3399.737219560483
 21
891.7846332394088
 31
0.0
  0
LINE
  5
257
330
1F
100
AcDbEntity
  8
Visible Edges
  6
Continuous
 62
     7
370
    50
100
AcDbLine
 10
3495.214338124777
 20
891.7846332394088
 30
0.0
 11
3399.737219560483
 21
891.7846332394088
 31
0.0
  0
LINE
  5
259
330
1F
100
AcDbEntity
  8
Visible Edges
  6
Continuous
 62
     7
370
    50
100
AcDbLine
 10
3399.737219560483
 20
891.7846332394088
 30
0.0
 11
3399.737219560483
 21
987.0346332394088
 31
0.0
  0
LINE
  5
25B
330
1F
100
AcDbEntity
  8
Visible Edges
  6
Continuous
 62
     7
370
    50
100
AcDbLine
 10
3399.737219560483
 20
987.0346332394088
 30
0.0
 11
3514.264338124773
 21
987.0346332394088
 31
0.0
  0
LINE
  5
25D
330
1F
100
AcDbEntity
  8
Visible Edges
  6
Continuous
 62
     7
370
    50
100
AcDbLine
 10
3514.264338124772
 20
987.0346332394088
 30
0.0
 11
3514.264338124772
 21
939.4096332394088
 31
0.0
  0
LINE
  5
25F
330
1F
100
AcDbEntity
  8
Visible Edges
  6
Continuous
 62
     7
370
    50
100
AcDbLine
 10
3514.264338124772
 20
939.4096332394088
 30
0.0
 11
3533.314338124772
 21
939.4096332394088
 31
0.0
  0
LINE
  5
261
330
1F
100
AcDbEntity
  8
Visible Edges
  6
Continuous
 62
     7
370
    50
100
AcDbLine
 10
3533.314338124773
 20
939.4096332394088
 30
0.0
 11
3533.314338124773
 21
987.0346332394088
 31
0.0
  0
LINE
  5
263
330
1F
100
AcDbEntity
  8
Visible Edges
  6
Continuous
 62
     7
370
    50
100
AcDbLine
 10
3533.314338124773
 20
987.0346332394088
 30
0.0
 11
3590.464338124763
 21
987.0346332394088
 31
0.0
  0
LINE
  5
265
330
1F
100
AcDbEntity
  8
Visible Edges
  6
Continuous
 62
     7
370
    50
100
AcDbLine
 10
3590.464338124763
 20
987.0346332394088
 30
0.0
 11
3590.464338124763
 21
872.5601696193674
 31
0.0
  0
LINE
  5
267
330
1F
100
AcDbEntity
  8
Visible Edges
  6
Continuous
 62
     7
370
    50
100
AcDbLine
 10
3590.464338124763
 20
872.5601696193674
 30
0.0
 11
3571.414338124768
 21
872.5601564107741
 31
0.0
  0
LINE
  5
269
330
1F
100
AcDbEntity
  8
Visible Edges
  6
Continuous
 62
     7
370
    50
100
AcDbLine
 10
3571.414338124768
 20
872.5601564107741
 30
0.0
 11
3571.414338124768
 21
891.6101564107741
 31
0.0
  0
LINE
  5
26B
330
1F
100
AcDbEntity
  8
Visible Edges
  6
Continuous
 62
     7
370
    50
100
AcDbLine
 10
3571.414338124768
 20
891.6101564107741
 30
0.0
 11
3552.364338124768
 21
891.6101564107741
 31
0.0
  0
LINE
  5
26D
330
1F
100
AcDbEntity
  8
Visible Edges
  6
Continuous
 62
     7
370
    50
100
AcDbLine
 10
3552.364338124767
 20
891.6101564107741
 30
0.0
 11
3552.364338124767
 21
872.5601432021807
 31
0.0
  0
LINE
  5
26F
330
1F
100
AcDbEntity
  8
Visible Edges
  6
Continuous
 62
     7
370
    50
100
AcDbLine
 10
3552.364338124767
 20
872.5601432021807
 30
0.0
 11
3533.314338124773
 21
872.5601299935876
 31
0.0
  0
LINE
  5
271
330
1F
100
AcDbEntity
  8
Visible Edges
  6
Continuous
 62
     7
370
    50
100
AcDbLine
 10
3533.314338124773
 20
872.5601299935876
 30
0.0
 11
3533.314338124773
 21
891.6101167849943
 31
0.0
  0
LINE
  5
273
330
1F
100
AcDbEntity
  8
Visible Edges
  6
Continuous
 62
     7
370
    50
100
AcDbLine
 10
3533.314338124773
 20
891.6101167849944
 30
0.0
 11
3514.264338124773
 21
891.6101167849944
 31
0.0
  0
LINE
  5
275
330
1F
100
AcDbEntity
  8
Visible Edges
  6
Continuous
 62
     7
370
    50
100
AcDbLine
 10
3514.264338124772
 20
891.6101167849944
 30
0.0
 11
3514.264338124772
 21
872.5601167849944
 31
0.0
  0
LINE
  5
277
330
1F
100
AcDbEntity
  8
Visible Edges
  6
Continuous
 62
     7
370
    50
100
AcDbLine
 10
3514.264338124772
 20
872.5601167849944
 30
0.0
 11
3495.214338124777
 21
872.5601035764011
 31
0.0
  0
LINE
  5
279
330
1F
100
AcDbEntity
  8
Visible Edges
  6
Continuous
 62
     7
370
    50
100
AcDbLine
 10
3495.214338124777
 20
872.5601035764011
 30
0.0
 11
3495.214338124777
 21
891.7846332394088
 31
0.0
  0
LINE
  5
27B
330
1F
100
AcDbEntity
  8
Visible Edges
  6
Continuous
 62
     7
370
    50
100
AcDbLine
 10
566.9224686175661
 20
703.5551518687508
 30
0.0
 11
547.8724686175661
 21
703.5551518687508
 31
0.0
  0
LINE
  5
27D
330
1F
100
AcDbEntity
  8
Visible Edges
  6
Continuous
 62
     7
370
    50
100
AcDbLine
 10
566.9224686175661
 20
703.5551518687508
 30
0.0
 11
547.8724686175661
 21
703.5551518687508
 31
0.0
  0
LINE
  5
27F
330
1F
100
AcDbEntity
  8
Visible Edges
  6
Continuous
 62
     7
370
    50
100
AcDbLine
 10
547.8724686175661
 20
703.5551518687508
 30
0.0
 11
547.8724686175661
 21
722.6051518687508
 31
0.0
  0
LINE
  5
281
330
1F
100
AcDbEntity
  8
Visible Edges
  6
Continuous
 62
     7
370
    50
100
AcDbLine
 10
547.8724686175661
 20
722.6051518687508
 30
0.0
 11
566.9224686175661
 21
722.6051518687508
 31
0.0
  0
LINE
  5
283
330
1F
100
AcDbEntity
  8
Visible Edges
  6
Continuous
 62
     7
370
    50
100
AcDbLine
 10
566.9224686175661
 20
722.6051518687508
 30
0.0
 11
566.9224686175661
 21
703.5551518687508
 31
0.0
  0
LINE
  5
285
330
1F
100
AcDbEntity
  8
Visible Edges
  6
Continuous
 62
     7
370
    50
100
AcDbLine
 10
528.822468617566
 20
703.5551518687508
 30
0.0
 11
509.7724686175661
 21
703.5551518687508
 31
0.0
  0
LINE
  5
287
330
1F
100
AcDbEntity
  8
Visible Edges
  6
Continuous
 62
     7
370
    50
100
AcDbLine
 10
509.7724686175661
 20
703.5551518687508
 30
0.0
 11
509.7724686175661
 21
722.6051518687508
 31
0.0
  0
LINE
  5
289
330
1F
100
AcDbEntity
  8
Visible Edges
  6
Continuous
 62
     7
370
    50
100
AcDbLine
 10
509.7724686175661
 20
722.6051518687508
 30
0.0
 11
528.822468617566
 21
722.6051518687508
 31
0.0
  0
LINE
  5
28B
330
1F
100
AcDbEntity
  8
Visible Edges
  6
Continuous
 62
     7
370
    50
100
AcDbLine
 10
528.822468617566
 20
722.6051518687508
 30
0.0
 11
528.822468617566
 21
703.5551518687508
 31
0.0
  0
LINE
  5
28D
330
1F
100
AcDbEntity
  8
Visible Edges
  6
Continuous
 62
     7
370
    50
100
AcDbLine
 10
605.0224686175661
 20
703.5551518687508
 30
0.0
 11
585.9724686175662
 21
703.5551518687508
 31
0.0
  0
LINE
  5
28F
330
1F
100
AcDbEntity
  8
Visible Edges
  6
Continuous
 62
     7
370
    50
100
AcDbLine
 10
585.9724686175662
 20
703.5551518687508
 30
0.0
 11
585.9724686175662
 21
722.6051518687508
 31
0.0
  0
LINE
  5
291
330
1F
100
AcDbEntity
  8
Visible Edges
  6
Continuous
 62
     7
370
    50
100
AcDbLine
 10
585.9724686175662
 20
722.6051518687508
 30
0.0
 11
605.0224686175661
 21
722.6051518687508
 31
0.0
  0
LINE
  5
293
330
1F
100
AcDbEntity
  8
Visible Edges
  6
Continuous
 62
     7
370
    50
100
AcDbLine
 10
605.0224686175661
 20
722.6051518687508
 30
0.0
 11
605.0224686175661
 21
703.5551518687508
 31
0.0
  0
LINE
  5
295
330
1F
100
AcDbEntity
  8
Visible Edges
  6
Continuous
 62
     7
370
    50
100
AcDbLine
 10
566.9224686175661
 20
665.4551518687508
 30
0.0
 11
547.8724686175661
 21
665.4551518687508
 31
0.0
  0
LINE
  5
297
330
1F
100
AcDbEntity
  8
Visible Edges
  6
Continuous
 62
     7
370
    50
100
AcDbLine
 10
547.8724686175661
 20
665.4551518687508
 30
0.0
 11
547.8724686175661
 21
684.5051518687507
 31
0.0
  0
LINE
  5
299
330
1F
100
AcDbEntity
  8
Visible Edges
  6
Continuous
 62
     7
370
    50
100
AcDbLine
 10
547.8724686175661
 20
684.5051518687507
 30
0.0
 11
566.9224686175661
 21
684.5051518687507
 31
0.0
  0
LINE
  5
29B
330
1F
100
AcDbEntity
  8
Visible Edges
  6
Continuous
 62
     7
370
    50
100
AcDbLine
 10
566.9224686175661
 20
684.5051518687507
 30
0.0
 11
566.9224686175661
 21
665.4551518687508
 31
0.0
  0
LINE
  5
29D
330
1F
100
AcDbEntity
  8
Visible Edges
  6
Continuous
 62
     7
370
    50
100
AcDbLine
 10
528.822468617566
 20
665.4551518687508
 30
0.0
 11
509.7724686175661
 21
665.4551518687508
 31
0.0
  0
LINE
  5
29F
330
1F
100
AcDbEntity
  8
Visible Edges
  6
Continuous
 62
     7
370
    50
100
AcDbLine
 10
509.7724686175661
 20
665.4551518687508
 30
0.0
 11
509.7724686175661
 21
684.5051518687507
 31
0.0
  0
LINE
  5
2A1
330
1F
100
AcDbEntity
  8
Visible Edges
  6
Continuous
 62
     7
370
    50
100
AcDbLine
 10
509.7724686175661
 20
684.5051518687507
 30
0.0
 11
528.822468617566
 21
684.5051518687507
 31
0.0
  0
LINE
  5
2A3
330
1F
100
AcDbEntity
  8
Visible Edges
  6
Continuous
 62
     7
370
    50
100
AcDbLine
 10
528.822468617566
 20
684.5051518687507
 30
0.0
 11
528.822468617566
 21
665.4551518687508
 31
0.0
  0
LINE
  5
2A5
330
1F
100
AcDbEntity
  8
Visible Edges
  6
Continuous
 62
     7
370
    50
100
AcDbLine
 10
605.0224686175661
 20
665.4551518687508
 30
0.0
 11
585.9724686175662
 21
665.4551518687508
 31
0.0
  0
LINE
  5
2A7
330
1F
100
AcDbEntity
  8
Visible Edges
  6
Continuous
 62
     7
370
    50
100
AcDbLine
 10
585.9724686175662
 20
665.4551518687508
 30
0.0
 11
585.9724686175662
 21
684.5051518687507
 31
0.0
  0
LINE
  5
2A9
330
1F
100
AcDbEntity
  8
Visible Edges
  6
Continuous
 62
     7
370
    50
100
AcDbLine
 10
585.9724686175662
 20
684.5051518687507
 30
0.0
 11
605.0224686175661
 21
684.5051518687507
 31
0.0
  0
LINE
  5
2AB
330
1F
100
AcDbEntity
  8
Visible Edges
  6
Continuous
 62
     7
370
    50
100
AcDbLine
 10
605.0224686175661
 20
684.5051518687507
 30
0.0
 11
605.0224686175661
 21
665.4551518687508
 31
0.0
  0
LINE
  5
2AD
330
1F
100
AcDbEntity
  8
Visible Edges
  6
Continuous
 62
     7
370
    50
100
AcDbLine
 10
2300.472468617566
 20
703.5551518687509
 30
0.0
 11
2281.422468617566
 21
703.5551518687509
 31
0.0
  0
LINE
  5
2AF
330
1F
100
AcDbEntity
  8
Visible Edges
  6
Continuous
 62
     7
370
    50
100
AcDbLine
 10
2281.422468617566
 20
703.5551518687509
 30
0.0
 11
2281.422468617566
 21
722.6051518687508
 31
0.0
  0
LINE
  5
2B1
330
1F
100
AcDbEntity
  8
Visible Edges
  6
Continuous
 62
     7
370
    50
100
AcDbLine
 10
2281.422468617566
 20
722.6051518687508
 30
0.0
 11
2300.472468617566
 21
722.6051518687508
 31
0.0
  0
LINE
  5
2B3
330
1F
100
AcDbEntity
  8
Visible Edges
  6
Continuous
 62
     7
370
    50
100
AcDbLine
 10
2300.472468617566
 20
722.6051518687508
 30
0.0
 11
2300.472468617566
 21
703.5551518687509
 31
0.0
  0
LINE
  5
2B5
330
1F
100
AcDbEntity
  8
Visible Edges
  6
Continuous
 62
     7
370
    50
100
AcDbLine
 10
2262.372468617566
 20
703.5551518687509
 30
0.0
 11
2243.322468617566
 21
703.5551518687509
 31
0.0
  0
LINE
  5
2B7
330
1F
100
AcDbEntity
  8
Visible Edges
  6
Continuous
 62
     7
370
    50
100
AcDbLine
 10
2243.322468617566
 20
703.5551518687509
 30
0.0
 11
2243.322468617566
 21
722.6051518687508
 31
0.0
  0
LINE
  5
2B9
330
1F
100
AcDbEntity
  8
Visible Edges
  6
Continuous
 62
     7
370
    50
100
AcDbLine
 10
2243.322468617566
 20
722.6051518687508
 30
0.0
 11
2262.372468617566
 21
722.6051518687508
 31
0.0
  0
LINE
  5
2BB
330
1F
100
AcDbEntity
  8
Visible Edges
  6
Continuous
 62
     7
370
    50
100
AcDbLine
 10
2262.372468617566
 20
722.6051518687508
 30
0.0
 11
2262.372468617566
 21
703.5551518687509
 31
0.0
  0
LINE
  5
2BD
330
1F
100
AcDbEntity
  8
Visible Edges
  6
Continuous
 62
     7
370
    50
100
AcDbLine
 10
2338.572468617566
 20
703.5551518687509
 30
0.0
 11
2319.522468617566
 21
703.5551518687509
 31
0.0
  0
LINE
  5
2BF
330
1F
100
AcDbEntity
  8
Visible Edges
  6
Continuous
 62
     7
370
    50
100
AcDbLine
 10
2319.522468617566
 20
703.5551518687509
 30
0.0
 11
2319.522468617566
 21
722.6051518687508
 31
0.0
  0
LINE
  5
2C1
330
1F
100
AcDbEntity
  8
Visible Edges
  6
Continuous
 62
     7
370
    50
100
AcDbLine
 10
2319.522468617566
 20
722.6051518687508
 30
0.0
 11
2338.572468617566
 21
722.6051518687508
 31
0.0
  0
LINE
  5
2C3
330
1F
100
AcDbEntity
  8
Visible Edges
  6
Continuous
 62
     7
370
    50
100
AcDbLine
 10
2338.572468617566
 20
722.6051518687508
 30
0.0
 11
2338.572468617566
 21
703.5551518687509
 31
0.0
  0
LINE
  5
2C5
330
1F
100
AcDbEntity
  8
Visible Edges
  6
Continuous
 62
     7
370
    50
100
AcDbLine
 10
2300.472468617566
 20
665.4551518687509
 30
0.0
 11
2281.422468617566
 21
665.4551518687509
 31
0.0
  0
LINE
  5
2C7
330
1F
100
AcDbEntity
  8
Visible Edges
  6
Continuous
 62
     7
370
    50
100
AcDbLine
 10
2281.422468617566
 20
665.4551518687509
 30
0.0
 11
2281.422468617566
 21
684.505151868751
 31
0.0
  0
LINE
  5
2C9
330
1F
100
AcDbEntity
  8
Visible Edges
  6
Continuous
 62
     7
370
    50
100
AcDbLine
 10
2281.422468617566
 20
684.505151868751
 30
0.0
 11
2300.472468617566
 21
684.505151868751
 31
0.0
  0
LINE
  5
2CB
330
1F
100
AcDbEntity
  8
Visible Edges
  6
Continuous
 62
     7
370
    50
100
AcDbLine
 10
2300.472468617566
 20
684.505151868751
 30
0.0
 11
2300.472468617566
 21
665.4551518687509
 31
0.0
  0
LINE
  5
2CD
330
1F
100
AcDbEntity
  8
Visible Edges
  6
Continuous
 62
     7
370
    50
100
AcDbLine
 10
2262.372468617566
 20
665.4551518687509
 30
0.0
 11
2243.322468617566
 21
665.4551518687509
 31
0.0
  0
LINE
  5
2CF
330
1F
100
AcDbEntity
  8
Visible Edges
  6
Continuous
 62
     7
370
    50
100
AcDbLine
 10
2243.322468617566
 20
665.4551518687509
 30
0.0
 11
2243.322468617566
 21
684.505151868751
 31
0.0
  0
LINE
  5
2D1
330
1F
100
AcDbEntity
  8
Visible Edges
  6
Continuous
 62
     7
370
    50
100
AcDbLine
 10
2243.322468617566
 20
684.505151868751
 30
0.0
 11
2262.372468617566
 21
684.505151868751
 31
0.0
  0
LINE
  5
2D3
330
1F
100
AcDbEntity
  8
Visible Edges
  6
Continuous
 62
     7
370
    50
100
AcDbLine
 10
2262.372468617566
 20
684.505151868751
 30
0.0
 11
2262.372468617566
 21
665.4551518687509
 31
0.0
  0
LINE
  5
2D5
330
1F
100
AcDbEntity
  8
Visible Edges
  6
Continuous
 62
     7
370
    50
100
AcDbLine
 10
2338.572468617566
 20
665.4551518687509
 30
0.0
 11
2319.522468617566
 21
665.4551518687509
 31
0.0
  0
LINE
  5
2D7
330
1F
100
AcDbEntity
  8
Visible Edges
  6
Continuous
 62
     7
370
    50
100
AcDbLine
 10
2319.522468617566
 20
665.4551518687509
 30
0.0
 11
2319.522468617566
 21
684.505151868751
 31
0.0
  0
LINE
  5
2D9
330
1F
100
AcDbEntity
  8
Visible Edges
  6
Continuous
 62
     7
370
    50
100
AcDbLine
 10
2319.522468617566
 20
684.505151868751
 30
0.0
 11
2338.572468617566
 21
684.505151868751
 31
0.0
  0
LINE
  5
2DB
330
1F
100
AcDbEntity
  8
Visible Edges
  6
Continuous
 62
     7
370
    50
100
AcDbLine
 10
2338.572468617566
 20
684.505151868751
 30
0.0
 11
2338.572468617566
 21
665.4551518687509
 31
0.0
  0
LINE
  5
2DD
330
1F
100
AcDbEntity
  8
Visible Edges
  6
Continuous
 62
     7
370
    50
100
AcDbLine
 10
408.1724686175661
 20
842.0489018687508
 30
0.0
 11
408.1724686175661
 21
546.0114018687508
 31
0.0
  0
LINE
  5
2DF
330
1F
100
AcDbEntity
  8
Visible Edges
  6
Continuous
 62
     7
370
    50
100
AcDbLine
 10
2440.172468617566
 20
546.011401868751
 30
0.0
 11
2440.172468617566
 21
842.048901868751
 31
0.0
  0
LINE
  5
2E1
330
1F
100
AcDbEntity
  8
Visible Edges
  6
Continuous
 62
     7
370
    50
100
AcDbLine
 10
408.1724686175661
 20
544.0114018687507
 30
0.0
 11
408.1724686175661
 21
546.0114018687509
 31
0.0
  0
LINE
  5
2E3
330
1F
100
AcDbEntity
  8
Visible Edges
  6
Continuous
 62
     7
370
    50
100
AcDbLine
 10
2440.172468617566
 20
544.0114018687508
 30
0.0
 11
408.1724686175661
 21
544.0114018687507
 31
0.0
  0
LINE
  5
2E5
330
1F
100
AcDbEntity
  8
Visible Edges
  6
Continuous
 62
     7
370
    50
100
AcDbLine
 10
2440.172468617566
 20
546.011401868751
 30
0.0
 11
2440.172468617566
 21
544.0114018687508
 31
0.0
  0
LINE
  5
2E7
330
1F
100
AcDbEntity
  8
Visible Edges
  6
Continuous
 62
     7
370
    50
100
AcDbLine
 10
2440.172468617566
 20
844.0489018687509
 30
0.0
 11
408.1724686175661
 21
844.0489018687507
 31
0.0
  0
LINE
  5
2E9
330
1F
100
AcDbEntity
  8
Visible Edges
  6
Continuous
 62
     7
370
    50
100
AcDbLine
 10
408.1724686175661
 20
842.0489018687508
 30
0.0
 11
408.1724686175661
 21
844.0489018687507
 31
0.0
  0
LINE
  5
2EB
330
1F
100
AcDbEntity
  8
Visible Edges
  6
Continuous
 62
     7
370
    50
100
AcDbLine
 10
2440.172468617566
 20
844.0489018687509
 30
0.0
 11
2440.172468617566
 21
842.048901868751
 31
0.0
  0
LINE
  5
2ED
330
1F
100
AcDbEntity
  8
Visible Edges
  6
Continuous
 62
     7
370
    50
100
AcDbLine
 10
293.1215069324829
 20
1055.519085476774
 30
0.0
 11
312.1715069324829
 21
1055.519085476774
 31
0.0
  0
LINE
  5
2EF
330
1F
100
AcDbEntity
  8
Visible Edges
  6
Continuous
 62
     7
370
    50
100
AcDbLine
 10
293.1215069324829
 20
1036.469085476774
 30
0.0
 11
293.1215069324829
 21
1055.519085476774
 31
0.0
  0
LINE
  5
2F1
330
1F
100
AcDbEntity
  8
Visible Edges
  6
Continuous
 62
     7
370
    50
100
AcDbLine
 10
312.1715069324829
 20
1036.469085476774
 30
0.0
 11
293.1215069324829
 21
1036.469085476774
 31
0.0
  0
LINE
  5
2F3
330
1F
100
AcDbEntity
  8
Visible Edges
  6
Continuous
 62
     7
370
    50
100
AcDbLine
 10
312.1715069324829
 20
1055.519085476774
 30
0.0
 11
312.1715069324829
 21
1036.469085476774
 31
0.0
  0
LINE
  5
2F5
330
1F
100
AcDbEntity
  8
Visible Edges
  6
Continuous
 62
     7
370
    50
100
AcDbLine
 10
2083.821506932483
 20
1036.469085476774
 30
0.0
 11
2064.771506932483
 21
1036.469085476774
 31
0.0
  0
LINE
  5
2F7
330
1F
100
AcDbEntity
  8
Visible Edges
  6
Continuous
 62
     7
370
    50
100
AcDbLine
 10
2083.821506932483
 20
1055.519085476774
 30
0.0
 11
2083.821506932483
 21
1036.469085476774
 31
0.0
  0
LINE
  5
2F9
330
1F
100
AcDbEntity
  8
Visible Edges
  6
Continuous
 62
     7
370
    50
100
AcDbLine
 10
2064.771506932483
 20
1055.519085476774
 30
0.0
 11
2083.821506932483
 21
1055.519085476774
 31
0.0
  0
LINE
  5
2FB
330
1F
100
AcDbEntity
  8
Visible Edges
  6
Continuous
 62
     7
370
    50
100
AcDbLine
 10
2064.771506932483
 20
1036.469085476774
 30
0.0
 11
2064.771506932483
 21
1055.519085476774
 31
0.0
  0
LINE
  5
2FD
330
1F
100
AcDbEntity
  8
Visible Edges
  6
Continuous
 62
     7
370
    50
100
AcDbLine
 10
2045.721506932483
 20
1036.469085476774
 30
0.0
 11
2026.671506932482
 21
1036.469085476774
 31
0.0
  0
LINE
  5
2FF
330
1F
100
AcDbEntity
  8
Visible Edges
  6
Continuous
 62
     7
370
    50
100
AcDbLine
 10
2045.721506932483
 20
1055.519085476774
 30
0.0
 11
2045.721506932483
 21
1036.469085476774
 31
0.0
  0
LINE
  5
301
330
1F
100
AcDbEntity
  8
Visible Edges
  6
Continuous
 62
     7
370
    50
100
AcDbLine
 10
2026.671506932482
 20
1055.519085476774
 30
0.0
 11
2045.721506932483
 21
1055.519085476774
 31
0.0
  0
LINE
  5
303
330
1F
100
AcDbEntity
  8
Visible Edges
  6
Continuous
 62
     7
370
    50
100
AcDbLine
 10
2026.671506932482
 20
1036.469085476774
 30
0.0
 11
2026.671506932482
 21
1055.519085476774
 31
0.0
  0
LINE
  5
305
330
1F
100
AcDbEntity
  8
Visible Edges
  6
Continuous
 62
     7
370
    50
100
AcDbLine
 10
2121.921506932483
 20
1036.469085476774
 30
0.0
 11
2102.871506932483
 21
1036.469085476774
 31
0.0
  0
LINE
  5
307
330
1F
100
AcDbEntity
  8
Visible Edges
  6
Continuous
 62
     7
370
    50
100
AcDbLine
 10
2121.921506932483
 20
1055.519085476774
 30
0.0
 11
2121.921506932483
 21
1036.469085476774
 31
0.0
  0
LINE
  5
309
330
1F
100
AcDbEntity
  8
Visible Edges
  6
Continuous
 62
     7
370
    50
100
AcDbLine
 10
2102.871506932483
 20
1055.519085476774
 30
0.0
 11
2121.921506932483
 21
1055.519085476774
 31
0.0
  0
LINE
  5
30B
330
1F
100
AcDbEntity
  8
Visible Edges
  6
Continuous
 62
     7
370
    50
100
AcDbLine
 10
2102.871506932483
 20
1036.469085476774
 30
0.0
 11
2102.871506932483
 21
1055.519085476774
 31
0.0
  0
LINE
  5
30D
330
1F
100
AcDbEntity
  8
Visible Edges
  6
Continuous
 62
     7
370
    50
100
AcDbLine
 10
369.321506932483
 20
1055.519085476774
 30
0.0
 11
388.371506932483
 21
1055.519085476774
 31
0.0
  0
LINE
  5
30F
330
1F
100
AcDbEntity
  8
Visible Edges
  6
Continuous
 62
     7
370
    50
100
AcDbLine
 10
369.321506932483
 20
1036.469085476774
 30
0.0
 11
369.321506932483
 21
1055.519085476774
 31
0.0
  0
LINE
  5
311
330
1F
100
AcDbEntity
  8
Visible Edges
  6
Continuous
 62
     7
370
    50
100
AcDbLine
 10
388.371506932483
 20
1036.469085476774
 30
0.0
 11
369.321506932483
 21
1036.469085476774
 31
0.0
  0
LINE
  5
313
330
1F
100
AcDbEntity
  8
Visible Edges
  6
Continuous
 62
     7
370
    50
100
AcDbLine
 10
388.371506932483
 20
1055.519085476774
 30
0.0
 11
388.371506932483
 21
1036.469085476774
 31
0.0
  0
LINE
  5
315
330
1F
100
AcDbEntity
  8
Visible Edges
  6
Continuous
 62
     7
370
    50
100
AcDbLine
 10
331.221506932483
 20
1055.519085476774
 30
0.0
 11
350.271506932483
 21
1055.519085476774
 31
0.0
  0
LINE
  5
317
330
1F
100
AcDbEntity
  8
Visible Edges
  6
Continuous
 62
     7
370
    50
100
AcDbLine
 10
331.221506932483
 20
1036.469085476774
 30
0.0
 11
331.221506932483
 21
1055.519085476774
 31
0.0
  0
LINE
  5
319
330
1F
100
AcDbEntity
  8
Visible Edges
  6
Continuous
 62
     7
370
    50
100
AcDbLine
 10
350.271506932483
 20
1036.469085476774
 30
0.0
 11
331.221506932483
 21
1036.469085476774
 31
0.0
  0
LINE
  5
31B
330
1F
100
AcDbEntity
  8
Visible Edges
  6
Continuous
 62
     7
370
    50
100
AcDbLine
 10
350.271506932483
 20
1055.519085476774
 30
0.0
 11
350.271506932483
 21
1036.469085476774
 31
0.0
  0
LINE
  5
31D
330
1F
100
AcDbEntity
  8
Visible Edges
  6
Continuous
 62
     7
370
    50
100
AcDbLine
 10
191.521506932483
 20
1167.025335476773
 30
0.0
 11
191.521506932483
 21
870.987835476774
 31
0.0
  0
LINE
  5
31F
330
1F
100
AcDbEntity
  8
Visible Edges
  6
Continuous
 62
     7
370
    50
100
AcDbLine
 10
2223.521506932482
 20
870.9878354767743
 30
0.0
 11
2223.521506932482
 21
1167.025335476774
 31
0.0
  0
LINE
  5
321
330
1F
100
AcDbEntity
  8
Visible Edges
  6
Continuous
 62
     7
370
    50
100
AcDbLine
 10
191.521506932483
 20
868.987835476774
 30
0.0
 11
191.521506932483
 21
870.987835476774
 31
0.0
  0
LINE
  5
323
330
1F
100
AcDbEntity
  8
Visible Edges
  6
Continuous
 62
     7
370
    50
100
AcDbLine
 10
2223.521506932482
 20
868.9878354767742
 30
0.0
 11
191.521506932483
 21
868.987835476774
 31
0.0
  0
LINE
  5
325
330
1F
100
AcDbEntity
  8
Visible Edges
  6
Continuous
 62
     7
370
    50
100
AcDbLine
 10
2223.521506932482
 20
870.9878354767743
 30
0.0
 11
2223.521506932482
 21
868.9878354767742
 31
0.0
  0
LINE
  5
327
330
1F
100
AcDbEntity
  8
Visible Edges
  6
Continuous
 62
     7
370
    50
100
AcDbLine
 10
2223.521506932482
 20
1169.025335476774
 30
0.0
 11
191.521506932483
 21
1169.025335476774
 31
0.0
  0
LINE
  5
329
330
1F
100
AcDbEntity
  8
Visible Edges
  6
Continuous
 62
     7
370
    50
100
AcDbLine
 10
191.521506932483
 20
1167.025335476773
 30
0.0
 11
191.521506932483
 21
1169.025335476774
 31
0.0
  0
LINE
  5
32B
330
1F
100
AcDbEntity
  8
Visible Edges
  6
Continuous
 62
     7
370
    50
100
AcDbLine
 10
2223.521506932482
 20
1169.025335476774
 30
0.0
 11
2223.521506932482
 21
1167.025335476774
 31
0.0
  0
LINE
  5
32D
330
1F
100
AcDbEntity
  8
Visible Edges
  6
Continuous
 62
     7
370
    50
100
AcDbLine
 10
2724.11136939064
 20
161.795240921102
 30
0.0
 11
2724.11136939064
 21
114.170240921102
 31
0.0
  0
LINE
  5
32F
330
1F
100
AcDbEntity
  8
Visible Edges
  6
Continuous
 62
     7
370
    50
100
AcDbLine
 10
2724.11136939064
 20
161.795240921102
 30
0.0
 11
2724.11136939064
 21
114.170240921102
 31
0.0
  0
LINE
  5
331
330
1F
100
AcDbEntity
  8
Visible Edges
  6
Continuous
 62
     7
370
    50
100
AcDbLine
 10
2724.11136939064
 20
114.170240921102
 30
0.0
 11
2705.06136939064
 21
114.170240921102
 31
0.0
  0
LINE
  5
333
330
1F
100
AcDbEntity
  8
Visible Edges
  6
Continuous
 62
     7
370
    50
100
AcDbLine
 10
2705.06136939064
 20
114.170240921102
 30
0.0
 11
2705.06136939064
 21
161.795240921102
 31
0.0
  0
LINE
  5
335
330
1F
100
AcDbEntity
  8
Visible Edges
  6
Continuous
 62
     7
370
    50
100
AcDbLine
 10
1819.23636939064
 20
161.795240921102
 30
0.0
 11
2705.06136939064
 21
161.795240921102
 31
0.0
  0
LINE
  5
337
330
1F
100
AcDbEntity
  8
Visible Edges
  6
Continuous
 62
     7
370
    50
100
AcDbLine
 10
2762.21136939064
 20
161.795240921102
 30
0.0
 11
2762.21136939064
 21
114.170240921102
 31
0.0
  0
LINE
  5
339
330
1F
100
AcDbEntity
  8
Visible Edges
  6
Continuous
 62
     7
370
    50
100
AcDbLine
 10
2762.21136939064
 20
114.170240921102
 30
0.0
 11
2743.16136939064
 21
114.170240921102
 31
0.0
  0
LINE
  5
33B
330
1F
100
AcDbEntity
  8
Visible Edges
  6
Continuous
 62
     7
370
    50
100
AcDbLine
 10
2743.16136939064
 20
114.170240921102
 30
0.0
 11
2743.16136939064
 21
161.795240921102
 31
0.0
  0
LINE
  5
33D
330
1F
100
AcDbEntity
  8
Visible Edges
  6
Continuous
 62
     7
370
    50
100
AcDbLine
 10
2724.11136939064
 20
161.795240921102
 30
0.0
 11
2743.16136939064
 21
161.795240921102
 31
0.0
  0
LINE
  5
33F
330
1F
100
AcDbEntity
  8
Visible Edges
  6
Continuous
 62
     7
370
    50
100
AcDbLine
 10
3590.88636939064
 20
66.54524092110207
 30
0.0
 11
3590.88636939064
 21
114.170240921102
 31
0.0
  0
LINE
  5
341
330
1F
100
AcDbEntity
  8
Visible Edges
  6
Continuous
 62
     7
370
    50
100
AcDbLine
 10
3609.93636939064
 20
66.54524092110207
 30
0.0
 11
3590.88636939064
 21
66.54524092110207
 31
0.0
  0
LINE
  5
343
330
1F
100
AcDbEntity
  8
Visible Edges
  6
Continuous
 62
     7
370
    50
100
AcDbLine
 10
3609.93636939064
 20
114.170240921102
 30
0.0
 11
3609.93636939064
 21
66.54524092110206
 31
0.0
  0
LINE
  5
345
330
1F
100
AcDbEntity
  8
Visible Edges
  6
Continuous
 62
     7
370
    50
100
AcDbLine
 10
3628.98636939064
 20
114.170240921102
 30
0.0
 11
3609.93636939064
 21
114.170240921102
 31
0.0
  0
LINE
  5
347
330
1F
100
AcDbEntity
  8
Visible Edges
  6
Continuous
 62
     7
370
    50
100
AcDbLine
 10
3628.98636939064
 20
66.54524092110207
 30
0.0
 11
3628.98636939064
 21
114.170240921102
 31
0.0
  0
LINE
  5
349
330
1F
100
AcDbEntity
  8
Visible Edges
  6
Continuous
 62
     7
370
    50
100
AcDbLine
 10
3648.03636939064
 20
66.54524092110207
 30
0.0
 11
3628.98636939064
 21
66.54524092110207
 31
0.0
  0
LINE
  5
34B
330
1F
100
AcDbEntity
  8
Visible Edges
  6
Continuous
 62
     7
370
    50
100
AcDbLine
 10
3648.03636939064
 20
161.795240921102
 30
0.0
 11
3648.03636939064
 21
66.54524092110206
 31
0.0
  0
LINE
  5
34D
330
1F
100
AcDbEntity
  8
Visible Edges
  6
Continuous
 62
     7
370
    50
100
AcDbLine
 10
2762.211369390639
 20
161.795240921102
 30
0.0
 11
3648.036369390639
 21
161.795240921102
 31
0.0
  0
LINE
  5
34F
330
1F
100
AcDbEntity
  8
Visible Edges
  6
Continuous
 62
     7
370
    50
100
AcDbLine
 10
1819.23636939064
 20
66.54524092110207
 30
0.0
 11
1819.23636939064
 21
161.795240921102
 31
0.0
  0
LINE
  5
351
330
1F
100
AcDbEntity
  8
Visible Edges
  6
Continuous
 62
     7
370
    50
100
AcDbLine
 10
1838.286369390639
 20
66.54524092110207
 30
0.0
 11
1819.236369390639
 21
66.54524092110207
 31
0.0
  0
LINE
  5
353
330
1F
100
AcDbEntity
  8
Visible Edges
  6
Continuous
 62
     7
370
    50
100
AcDbLine
 10
1838.286369390639
 20
114.170240921102
 30
0.0
 11
1838.286369390639
 21
66.54524092110206
 31
0.0
  0
LINE
  5
355
330
1F
100
AcDbEntity
  8
Visible Edges
  6
Continuous
 62
     7
370
    50
100
AcDbLine
 10
1857.33636939064
 20
114.170240921102
 30
0.0
 11
1838.28636939064
 21
114.170240921102
 31
0.0
  0
LINE
  5
357
330
1F
100
AcDbEntity
  8
Visible Edges
  6
Continuous
 62
     7
370
    50
100
AcDbLine
 10
1857.33636939064
 20
66.54524092110207
 30
0.0
 11
1857.33636939064
 21
114.170240921102
 31
0.0
  0
LINE
  5
359
330
1F
100
AcDbEntity
  8
Visible Edges
  6
Continuous
 62
     7
370
    50
100
AcDbLine
 10
1876.386369390639
 20
66.54524092110207
 30
0.0
 11
1857.336369390639
 21
66.54524092110207
 31
0.0
  0
LINE
  5
35B
330
1F
100
AcDbEntity
  8
Visible Edges
  6
Continuous
 62
     7
370
    50
100
AcDbLine
 10
1876.386369390639
 20
114.170240921102
 30
0.0
 11
1876.386369390639
 21
66.54524092110206
 31
0.0
  0
LINE
  5
35D
330
1F
100
AcDbEntity
  8
Visible Edges
  6
Continuous
 62
     7
370
    50
100
AcDbLine
 10
1895.43636939064
 20
114.170240921102
 30
0.0
 11
1876.38636939064
 21
114.170240921102
 31
0.0
  0
LINE
  5
35F
330
1F
100
AcDbEntity
  8
Visible Edges
  6
Continuous
 62
     7
370
    50
100
AcDbLine
 10
1895.43636939064
 20
66.54524092110209
 30
0.0
 11
1895.43636939064
 21
114.170240921102
 31
0.0
  0
LINE
  5
361
330
1F
100
AcDbEntity
  8
Visible Edges
  6
Continuous
 62
     7
370
    50
100
AcDbLine
 10
3571.83636939064
 20
66.54524092110209
 30
0.0
 11
1895.436369390639
 21
66.54524092110209
 31
0.0
  0
LINE
  5
363
330
1F
100
AcDbEntity
  8
Visible Edges
  6
Continuous
 62
     7
370
    50
100
AcDbLine
 10
3571.83636939064
 20
114.170240921102
 30
0.0
 11
3571.83636939064
 21
66.54524092110209
 31
0.0
  0
LINE
  5
365
330
1F
100
AcDbEntity
  8
Visible Edges
  6
Continuous
 62
     7
370
    50
100
AcDbLine
 10
3590.88636939064
 20
114.170240921102
 30
0.0
 11
3571.83636939064
 21
114.170240921102
 31
0.0
  0
LINE
  5
367
330
1F
100
AcDbEntity
  8
Visible Edges
  6
Continuous
 62
     7
370
    50
100
AcDbLine
 10
3579.79872830273
 20
776.8341516038936
 30
0.0
 11
3189.27372830273
 21
776.8341516038936
 31
0.0
  0
LINE
  5
369
330
1F
100
AcDbEntity
  8
Visible Edges
  6
Continuous
 62
     7
370
    50
100
AcDbLine
 10
3579.79872830273
 20
776.8341516038936
 30
0.0
 11
3189.27372830273
 21
776.8341516038936
 31
0.0
  0
LINE
  5
36B
330
1F
100
AcDbEntity
  8
Visible Edges
  6
Continuous
 62
     7
370
    50
100
AcDbLine
 10
3189.27372830273
 20
776.8341516038936
 30
0.0
 11
3189.27372830273
 21
795.8841516038935
 31
0.0
  0
LINE
  5
36D
330
1F
100
AcDbEntity
  8
Visible Edges
  6
Continuous
 62
     7
370
    50
100
AcDbLine
 10
3189.27372830273
 20
795.8841516038935
 30
0.0
 11
3579.79872830273
 21
795.8841516038935
 31
0.0
  0
LINE
  5
36F
330
1F
100
AcDbEntity
  8
Visible Edges
  6
Continuous
 62
     7
370
    50
100
AcDbLine
 10
3579.79872830273
 20
814.9341516038935
 30
0.0
 11
3579.79872830273
 21
795.8841516038935
 31
0.0
  0
LINE
  5
371
330
1F
100
AcDbEntity
  8
Visible Edges
  6
Continuous
 62
     7
370
    50
100
AcDbLine
 10
2817.79872830273
 20
814.9341516038935
 30
0.0
 11
3579.79872830273
 21
814.9341516038935
 31
0.0
  0
LINE
  5
373
330
1F
100
AcDbEntity
  8
Visible Edges
  6
Continuous
 62
     7
370
    50
100
AcDbLine
 10
2817.79872830273
 20
757.7841516038936
 30
0.0
 11
2817.79872830273
 21
814.9341516038935
 31
0.0
  0
LINE
  5
375
330
1F
100
AcDbEntity
  8
Visible Edges
  6
Continuous
 62
     7
370
    50
100
AcDbLine
 10
2817.79872830273
 20
757.7841516038936
 30
0.0
 11
2865.423728302729
 21
757.7841516038936
 31
0.0
  0
LINE
  5
377
330
1F
100
AcDbEntity
  8
Visible Edges
  6
Continuous
 62
     7
370
    50
100
AcDbLine
 10
2865.423728302729
 20
757.7841516038936
 30
0.0
 11
2865.423728302729
 21
738.7341516038936
 31
0.0
  0
LINE
  5
379
330
1F
100
AcDbEntity
  8
Visible Edges
  6
Continuous
 62
     7
370
    50
100
AcDbLine
 10
2865.423728302729
 20
738.7341516038936
 30
0.0
 11
2817.79872830273
 21
738.7341516038936
 31
0.0
  0
LINE
  5
37B
330
1F
100
AcDbEntity
  8
Visible Edges
  6
Continuous
 62
     7
370
    50
100
AcDbLine
 10
2817.79872830273
 20
719.6841516038935
 30
0.0
 11
2817.79872830273
 21
738.7341516038936
 31
0.0
  0
LINE
  5
37D
330
1F
100
AcDbEntity
  8
Visible Edges
  6
Continuous
 62
     7
370
    50
100
AcDbLine
 10
3579.79872830273
 20
719.6841516038936
 30
0.0
 11
2817.79872830273
 21
719.6841516038935
 31
0.0
  0
LINE
  5
37F
330
1F
100
AcDbEntity
  8
Visible Edges
  6
Continuous
 62
     7
370
    50
100
AcDbLine
 10
3579.79872830273
 20
738.7341516038936
 30
0.0
 11
3579.79872830273
 21
719.6841516038936
 31
0.0
  0
LINE
  5
381
330
1F
100
AcDbEntity
  8
Visible Edges
  6
Continuous
 62
     7
370
    50
100
AcDbLine
 10
3579.79872830273
 20
738.7341516038936
 30
0.0
 11
3513.123728302729
 21
738.7341516038936
 31
0.0
  0
LINE
  5
383
330
1F
100
AcDbEntity
  8
Visible Edges
  6
Continuous
 62
     7
370
    50
100
AcDbLine
 10
3513.123728302729
 20
738.7341516038936
 30
0.0
 11
3513.123728302729
 21
757.7841516038936
 31
0.0
  0
LINE
  5
385
330
1F
100
AcDbEntity
  8
Visible Edges
  6
Continuous
 62
     7
370
    50
100
AcDbLine
 10
3513.123728302729
 20
757.7841516038936
 30
0.0
 11
3579.79872830273
 21
757.7841516038936
 31
0.0
  0
LINE
  5
387
330
1F
100
AcDbEntity
  8
Visible Edges
  6
Continuous
 62
     7
370
    50
100
AcDbLine
 10
3579.79872830273
 20
776.8341516038936
 30
0.0
 11
3579.79872830273
 21
757.7841516038936
 31
0.0
  0
LINE
  5
389
330
1F
100
AcDbEntity
  8
Visible Edges
  6
Continuous
 62
     7
370
    50
100
AcDbLine
 10
3547.971423423383
 20
643.02032600059
 30
0.0
 11
3176.496423423383
 21
643.02032600059
 31
0.0
  0
LINE
  5
38B
330
1F
100
AcDbEntity
  8
Visible Edges
  6
Continuous
 62
     7
370
    50
100
AcDbLine
 10
3547.971423423383
 20
643.02032600059
 30
0.0
 11
3176.496423423383
 21
643.02032600059
 31
0.0
  0
LINE
  5
38D
330
1F
100
AcDbEntity
  8
Visible Edges
  6
Continuous
 62
     7
370
    50
100
AcDbLine
 10
3176.496423423383
 20
643.02032600059
 30
0.0
 11
3176.496423423383
 21
662.0703260005901
 31
0.0
  0
LINE
  5
38F
330
1F
100
AcDbEntity
  8
Visible Edges
  6
Continuous
 62
     7
370
    50
100
AcDbLine
 10
3176.496423423383
 20
662.0703260005901
 30
0.0
 11
3547.971423423383
 21
662.0703260005901
 31
0.0
  0
LINE
  5
391
330
1F
100
AcDbEntity
  8
Visible Edges
  6
Continuous
 62
     7
370
    50
100
AcDbLine
 10
3547.971423423383
 20
681.1203260005901
 30
0.0
 11
3547.971423423383
 21
662.0703260005901
 31
0.0
  0
LINE
  5
393
330
1F
100
AcDbEntity
  8
Visible Edges
  6
Continuous
 62
     7
370
    50
100
AcDbLine
 10
2805.021423423383
 20
681.1203260005901
 30
0.0
 11
3547.971423423383
 21
681.1203260005901
 31
0.0
  0
LINE
  5
395
330
1F
100
AcDbEntity
  8
Visible Edges
  6
Continuous
 62
     7
370
    50
100
AcDbLine
 10
2805.021423423383
 20
623.97032600059
 30
0.0
 11
2805.021423423383
 21
681.1203260005901
 31
0.0
  0
LINE
  5
397
330
1F
100
AcDbEntity
  8
Visible Edges
  6
Continuous
 62
     7
370
    50
100
AcDbLine
 10
2805.021423423383
 20
623.97032600059
 30
0.0
 11
2852.646423423383
 21
623.97032600059
 31
0.0
  0
LINE
  5
399
330
1F
100
AcDbEntity
  8
Visible Edges
  6
Continuous
 62
     7
370
    50
100
AcDbLine
 10
2852.646423423383
 20
623.97032600059
 30
0.0
 11
2852.646423423383
 21
604.92032600059
 31
0.0
  0
LINE
  5
39B
330
1F
100
AcDbEntity
  8
Visible Edges
  6
Continuous
 62
     7
370
    50
100
AcDbLine
 10
2852.646423423383
 20
604.92032600059
 30
0.0
 11
2805.021423423383
 21
604.92032600059
 31
0.0
  0
LINE
  5
39D
330
1F
100
AcDbEntity
  8
Visible Edges
  6
Continuous
 62
     7
370
    50
100
AcDbLine
 10
2805.021423423383
 20
585.87032600059
 30
0.0
 11
2805.021423423383
 21
604.92032600059
 31
0.0
  0
LINE
  5
39F
330
1F
100
AcDbEntity
  8
Visible Edges
  6
Continuous
 62
     7
370
    50
100
AcDbLine
 10
3547.971423423383
 20
585.8703260005902
 30
0.0
 11
2805.021423423383
 21
585.87032600059
 31
0.0
  0
LINE
  5
3A1
330
1F
100
AcDbEntity
  8
Visible Edges
  6
Continuous
 62
     7
370
    50
100
AcDbLine
 10
3547.971423423383
 20
604.92032600059
 30
0.0
 11
3547.971423423383
 21
585.8703260005902
 31
0.0
  0
LINE
  5
3A3
330
1F
100
AcDbEntity
  8
Visible Edges
  6
Continuous
 62
     7
370
    50
100
AcDbLine
 10
3547.971423423383
 20
604.92032600059
 30
0.0
 11
3500.346423423383
 21
604.92032600059
 31
0.0
  0
LINE
  5
3A5
330
1F
100
AcDbEntity
  8
Visible Edges
  6
Continuous
 62
     7
370
    50
100
AcDbLine
 10
3500.346423423383
 20
604.92032600059
 30
0.0
 11
3500.346423423383
 21
623.97032600059
 31
0.0
  0
LINE
  5
3A7
330
1F
100
AcDbEntity
  8
Visible Edges
  6
Continuous
 62
     7
370
    50
100
AcDbLine
 10
3500.346423423383
 20
623.97032600059
 30
0.0
 11
3547.971423423383
 21
623.97032600059
 31
0.0
  0
LINE
  5
3A9
330
1F
100
AcDbEntity
  8
Visible Edges
  6
Continuous
 62
     7
370
    50
100
AcDbLine
 10
3547.971423423383
 20
643.02032600059
 30
0.0
 11
3547.971423423383
 21
623.97032600059
 31
0.0
  0
MTEXT
  5
BB
330
1B
100
AcDbEntity
 67
     1
  8
Sketch Lines
  6
Continuous
 62
     7
370
    50
100
AcDbMText
 10
3468.099999999999
 20
46.32245921648056
 30
0.0
 40
2.006599903106689
 41
0.0
 71
     7
 72
     1
  1
Designed by
  7
TextStyle6
 73
     1
 44
1.0
  0
MTEXT
  5
BD
330
1B
100
AcDbEntity
 67
     1
  8
Sketch Lines
  6
Continuous
 62
     7
370
    50
100
AcDbMText
 10
3500.099999999999
 20
46.28728254045192
 30
0.0
 40
2.006599903106689
 41
0.0
 71
     7
 72
     1
  1
Checked by
  7
TextStyle6
 73
     1
 44
1.0
  0
MTEXT
  5
BE
330
1B
100
AcDbEntity
 67
     1
  8
Sketch Lines
  6
Continuous
 62
     7
370
    50
100
AcDbMText
 10
3525.1
 20
46.32245921648056
 30
0.0
 40
2.006599903106689
 41
0.0
 71
     7
 72
     1
  1
Approved by - date
  7
TextStyle6
 73
     1
 44
1.0
  0
MTEXT
  5
BF
330
1B
100
AcDbEntity
 67
     1
  8
Sketch Lines
  6
Continuous
 62
     7
370
    50
100
AcDbMText
 10
3588.1
 20
46.32245921648056
 30
0.0
 40
2.006599903106689
 41
0.0
 71
     7
 72
     1
  1
Date
  7
TextStyle6
 73
     1
 44
1.0
  0
MTEXT
  5
C0
330
1B
100
AcDbEntity
 67
     1
  8
Sketch Lines
  6
Continuous
 62
     7
370
    50
100
AcDbMText
 10
3605.692690985569
 20
27.49340004567056
 30
0.0
 40
2.006599903106689
 41
0.0
 71
     7
 72
     1
  1
Edition
  7
TextStyle6
 73
     1
 44
1.0
  0
MTEXT
  5
C1
330
1B
100
AcDbEntity
 67
     1
  8
Sketch Lines
  6
Continuous
 62
     7
370
    50
100
AcDbMText
 10
3623.937802112102
 20
27.45822336964192
 30
0.0
 40
2.006599903106689
 41
0.0
 71
     7
 72
     1
  1
Sheet
  7
TextStyle6
 73
     1
 44
1.0
  0
MTEXT
  5
C2
330
1B
100
AcDbEntity
 67
     1
  8
Sketch Lines
  6
Continuous
 62
     7
370
    50
100
AcDbMText
 10
3627.250249674887
 20
22.59870348774139
 30
0.0
 40
2.489199936389923
 41
0.0
 71
     7
 72
     1
  1
/
  7
TextStyle7
 73
     1
 44
1.0
  0
MTEXT
  5
C3
330
1B
100
AcDbEntity
 67
     1
  8
Sketch Lines
  6
Continuous
 62
     7
370
    50
100
AcDbMText
 10
3589.129369577765
 20
32.40503706205005
 30
0.0
 40
5.003799796104431
 41
0.0
 71
     7
 72
     1
  1
 
  7
TextStyle8
 73
     1
 44
1.0
  0
MTEXT
  5
C4
330
1B
100
AcDbEntity
 67
     1
  8
Sketch Lines
  6
Continuous
 62
     7
370
    50
100
AcDbMText
 10
3559.720998501777
 20
23.73551825701724
 30
0.0
 40
3.499999940395355
 41
0.0
 71
     7
 72
     1
  1
allparts
  7
TextStyle9
 73
     1
 44
1.0
  0
MTEXT
  5
C5
330
1B
100
AcDbEntity
 67
     1
  8
Sketch Lines
  6
Continuous
 62
     7
370
    50
100
AcDbMText
 10
3504.087861386721
 20
27.29131447524974
 30
0.0
 40
5.003799796104431
 41
0.0
 71
     7
 72
     1
  1
 
  7
TextStyle8
 73
     1
 44
1.0
  0
MTEXT
  5
C6
330
1B
100
AcDbEntity
 67
     1
  8
Sketch Lines
  6
Continuous
 62
     7
370
    50
100
AcDbMText
 10
3468.099999999999
 20
40.53984237613622
 30
0.0
 40
2.489199936389923
 41
0.0
 71
     7
 72
     1
  1
Administrator
  7
TextStyle7
 73
     1
 44
1.0
  0
MTEXT
  5
C7
330
1B
100
AcDbEntity
 67
     1
  8
Sketch Lines
  6
Continuous
 62
     7
370
    50
100
AcDbMText
 10
3499.92373013915
 20
40.14746027853248
 30
0.0
 40
2.489199936389923
 41
0.0
 71
     7
 72
     1
  1
 
  7
TextStyle7
 73
     1
 44
1.0
  0
MTEXT
  5
C8
330
1B
100
AcDbEntity
 67
     1
  8
Sketch Lines
  6
Continuous
 62
     7
370
    50
100
AcDbMText
 10
3525.1
 20
40.32373013926626
 30
0.0
 40
2.489199936389923
 41
0.0
 71
     7
 72
     1
  1
 
  7
TextStyle7
 73
     1
 44
1.0
  0
MTEXT
  5
C9
330
1B
100
AcDbEntity
 67
     1
  8
Sketch Lines
  6
Continuous
 62
     7
370
    50
100
AcDbMText
 10
3561.084402948835
 20
40.27684522792387
 30
0.0
 40
2.489199936389923
 41
0.0
 71
     7
 72
     1
  1
 
  7
TextStyle7
 73
     1
 44
1.0
  0
MTEXT
  5
CA
330
1B
100
AcDbEntity
 67
     1
  8
Sketch Lines
  6
Continuous
 62
     7
370
    50
100
AcDbMText
 10
3588.334279324995
 20
40.30746030960102
 30
0.0
 40
2.489199936389923
 41
0.0
 71
     7
 72
     1
  1
3/24/2007
  7
TextStyle7
 73
     1
 44
1.0
  0
MTEXT
  5
CB
330
1B
100
AcDbEntity
 67
     1
  8
Sketch Lines
  6
Continuous
 62
     7
370
    50
100
AcDbMText
 10
3609.267605952166
 20
21.95823446647771
 30
0.0
 40
3.499999940395355
 41
0.0
 71
     7
 72
     1
  1
 
  7
TextStyle9
 73
     1
 44
1.0
  0
MTEXT
  5
CC
330
1B
100
AcDbEntity
 67
     1
  8
Sketch Lines
  6
Continuous
 62
     7
370
    50
100
AcDbMText
 10
3621.327452879024
 20
22.53218128015573
 30
0.0
 40
2.489199936389923
 41
0.0
 71
     7
 72
     1
  1
1 
  7
TextStyle7
 73
     1
 44
1.0
  0
MTEXT
  5
CD
330
1B
100
AcDbEntity
 67
     1
  8
Sketch Lines
  6
Continuous
 62
     7
370
    50
100
AcDbMText
 10
3631.275806272192
 20
22.5888878402759
 30
0.0
 40
2.489199936389923
 41
0.0
 71
     7
 72
     1
  1
1 
  7
TextStyle7
 73
     1
 44
1.0
  0
INSERT
  5
CE
330
1B
100
AcDbEntity
 67
     1
  8
Sketch Lines
100
AcDbBlockReference
  2
2dTransTitleBlock1
 10
0.0
 20
0.0
 30
0.0
 41
10.0
 42
10.0
 43
10.0
  0
LINE
  5
D0
330
1B
100
AcDbEntity
 67
     1
  8
Visible Edges
  6
Continuous
 62
     7
370
    50
100
AcDbLine
 10
198.2539602591224
 20
63.16597788926003
 30
0.0
 11
198.2539602591224
 21
110.79097788926
 31
0.0
  0
LINE
  5
D2
330
1B
100
AcDbEntity
 67
     1
  8
Visible Edges
  6
Continuous
 62
     7
370
    50
100
AcDbLine
 10
198.2539602591224
 20
63.16597788926003
 30
0.0
 11
198.2539602591224
 21
110.79097788926
 31
0.0
  0
LINE
  5
D4
330
1B
100
AcDbEntity
 67
     1
  8
Visible Edges
  6
Continuous
 62
     7
370
    50
100
AcDbLine
 10
198.2539602591224
 20
110.79097788926
 30
0.0
 11
217.3039602591225
 21
110.79097788926
 31
0.0
  0
LINE
  5
D6
330
1B
100
AcDbEntity
 67
     1
  8
Visible Edges
  6
Continuous
 62
     7
370
    50
100
AcDbLine
 10
217.3039602591225
 20
110.79097788926
 30
0.0
 11
217.3039602591225
 21
63.16597788926003
 31
0.0
  0
LINE
  5
D8
330
1B
100
AcDbEntity
 67
     1
  8
Visible Edges
  6
Continuous
 62
     7
370
    50
100
AcDbLine
 10
198.2539602591224
 20
63.16597788926003
 30
0.0
 11
179.2039602591225
 21
63.16597788926003
 31
0.0
  0
LINE
  5
DA
330
1B
100
AcDbEntity
 67
     1
  8
Visible Edges
  6
Continuous
 62
     7
370
    50
100
AcDbLine
 10
315.7289602591224
 20
63.16597788926003
 30
0.0
 11
217.3039602591225
 21
63.16597788926003
 31
0.0
  0
LINE
  5
DC
330
1B
100
AcDbEntity
 67
     1
  8
Visible Edges
  6
Continuous
 62
     7
370
    50
100
AcDbLine
 10
315.7289602591224
 20
539.41597788926
 30
0.0
 11
315.7289602591224
 21
63.16597788926003
 31
0.0
  0
LINE
  5
DE
330
1B
100
AcDbEntity
 67
     1
  8
Visible Edges
  6
Continuous
 62
     7
370
    50
100
AcDbLine
 10
296.6789602591224
 20
539.41597788926
 30
0.0
 11
315.7289602591225
 21
539.41597788926
 31
0.0
  0
LINE
  5
E0
330
1B
100
AcDbEntity
 67
     1
  8
Visible Edges
  6
Continuous
 62
     7
370
    50
100
AcDbLine
 10
296.6789602591224
 20
520.3659778892599
 30
0.0
 11
296.6789602591224
 21
539.41597788926
 31
0.0
  0
LINE
  5
E2
330
1B
100
AcDbEntity
 67
     1
  8
Visible Edges
  6
Continuous
 62
     7
370
    50
100
AcDbLine
 10
277.6289602591224
 20
520.3659778892599
 30
0.0
 11
296.6789602591224
 21
520.3659778892599
 31
0.0
  0
LINE
  5
E4
330
1B
100
AcDbEntity
 67
     1
  8
Visible Edges
  6
Continuous
 62
     7
370
    50
100
AcDbLine
 10
277.6289602591224
 20
539.41597788926
 30
0.0
 11
277.6289602591224
 21
520.3659778892599
 31
0.0
  0
LINE
  5
E6
330
1B
100
AcDbEntity
 67
     1
  8
Visible Edges
  6
Continuous
 62
     7
370
    50
100
AcDbLine
 10
258.5789602591223
 20
539.41597788926
 30
0.0
 11
277.6289602591224
 21
539.41597788926
 31
0.0
  0
LINE
  5
E8
330
1B
100
AcDbEntity
 67
     1
  8
Visible Edges
  6
Continuous
 62
     7
370
    50
100
AcDbLine
 10
258.5789602591223
 20
520.3659778892599
 30
0.0
 11
258.5789602591223
 21
539.41597788926
 31
0.0
  0
LINE
  5
EA
330
1B
100
AcDbEntity
 67
     1
  8
Visible Edges
  6
Continuous
 62
     7
370
    50
100
AcDbLine
 10
217.3039602591225
 20
520.3659778892599
 30
0.0
 11
258.5789602591223
 21
520.3659778892599
 31
0.0
  0
LINE
  5
EC
330
1B
100
AcDbEntity
 67
     1
  8
Visible Edges
  6
Continuous
 62
     7
370
    50
100
AcDbLine
 10
217.3039602591225
 20
520.3659778892599
 30
0.0
 11
217.3039602591225
 21
472.7409778892599
 31
0.0
  0
LINE
  5
EE
330
1B
100
AcDbEntity
 67
     1
  8
Visible Edges
  6
Continuous
 62
     7
370
    50
100
AcDbLine
 10
217.3039602591225
 20
472.7409778892599
 30
0.0
 11
198.2539602591224
 21
472.7409778892599
 31
0.0
  0
LINE
  5
F0
330
1B
100
AcDbEntity
 67
     1
  8
Visible Edges
  6
Continuous
 62
     7
370
    50
100
AcDbLine
 10
198.2539602591224
 20
472.7409778892599
 30
0.0
 11
198.2539602591224
 21
520.3659778892599
 31
0.0
  0
LINE
  5
F2
330
1B
100
AcDbEntity
 67
     1
  8
Visible Edges
  6
Continuous
 62
     7
370
    50
100
AcDbLine
 10
179.2039602591224
 20
520.3659778892599
 30
0.0
 11
198.2539602591224
 21
520.3659778892599
 31
0.0
  0
LINE
  5
F4
330
1B
100
AcDbEntity
 67
     1
  8
Visible Edges
  6
Continuous
 62
     7
370
    50
100
AcDbLine
 10
179.2039602591224
 20
520.3659778892599
 30
0.0
 11
179.2039602591224
 21
472.7409778892599
 31
0.0
  0
LINE
  5
F6
330
1B
100
AcDbEntity
 67
     1
  8
Visible Edges
  6
Continuous
 62
     7
370
    50
100
AcDbLine
 10
179.2039602591224
 20
472.7409778892599
 30
0.0
 11
160.1539602591224
 21
472.7409778892599
 31
0.0
  0
LINE
  5
F8
330
1B
100
AcDbEntity
 67
     1
  8
Visible Edges
  6
Continuous
 62
     7
370
    50
100
AcDbLine
 10
160.1539602591224
 20
472.7409778892599
 30
0.0
 11
160.1539602591224
 21
520.3659778892599
 31
0.0
  0
LINE
  5
FA
330
1B
100
AcDbEntity
 67
     1
  8
Visible Edges
  6
Continuous
 62
     7
370
    50
100
AcDbLine
 10
118.8789602591225
 20
520.3659778892599
 30
0.0
 11
160.1539602591224
 21
520.3659778892599
 31
0.0
  0
LINE
  5
FC
330
1B
100
AcDbEntity
 67
     1
  8
Visible Edges
  6
Continuous
 62
     7
370
    50
100
AcDbLine
 10
118.8789602591225
 20
539.41597788926
 30
0.0
 11
118.8789602591225
 21
520.3659778892599
 31
0.0
  0
LINE
  5
FE
330
1B
100
AcDbEntity
 67
     1
  8
Visible Edges
  6
Continuous
 62
     7
370
    50
100
AcDbLine
 10
99.82896025912253
 20
539.41597788926
 30
0.0
 11
118.8789602591225
 21
539.41597788926
 31
0.0
  0
LINE
  5
100
330
1B
100
AcDbEntity
 67
     1
  8
Visible Edges
  6
Continuous
 62
     7
370
    50
100
AcDbLine
 10
99.82896025912252
 20
520.3659778892599
 30
0.0
 11
99.82896025912252
 21
539.41597788926
 31
0.0
  0
LINE
  5
102
330
1B
100
AcDbEntity
 67
     1
  8
Visible Edges
  6
Continuous
 62
     7
370
    50
100
AcDbLine
 10
80.7789602591225
 20
520.3659778892599
 30
0.0
 11
99.82896025912252
 21
520.3659778892599
 31
0.0
  0
LINE
  5
104
330
1B
100
AcDbEntity
 67
     1
  8
Visible Edges
  6
Continuous
 62
     7
370
    50
100
AcDbLine
 10
80.7789602591225
 20
539.41597788926
 30
0.0
 11
80.7789602591225
 21
520.3659778892599
 31
0.0
  0
LINE
  5
106
330
1B
100
AcDbEntity
 67
     1
  8
Visible Edges
  6
Continuous
 62
     7
370
    50
100
AcDbLine
 10
61.72896025912246
 20
539.41597788926
 30
0.0
 11
80.7789602591225
 21
539.41597788926
 31
0.0
  0
LINE
  5
108
330
1B
100
AcDbEntity
 67
     1
  8
Visible Edges
  6
Continuous
 62
     7
370
    50
100
AcDbLine
 10
61.7289602591228
 20
63.16597788926003
 30
0.0
 11
61.72896025912246
 21
539.41597788926
 31
0.0
  0
LINE
  5
10A
330
1B
100
AcDbEntity
 67
     1
  8
Visible Edges
  6
Continuous
 62
     7
370
    50
100
AcDbLine
 10
160.1539602591224
 20
63.16597788926003
 30
0.0
 11
61.72896025912246
 21
63.16597788926003
 31
0.0
  0
LINE
  5
10C
330
1B
100
AcDbEntity
 67
     1
  8
Visible Edges
  6
Continuous
 62
     7
370
    50
100
AcDbLine
 10
160.1539602591224
 20
63.16597788926003
 30
0.0
 11
160.1539602591224
 21
110.79097788926
 31
0.0
  0
LINE
  5
10E
330
1B
100
AcDbEntity
 67
     1
  8
Visible Edges
  6
Continuous
 62
     7
370
    50
100
AcDbLine
 10
160.1539602591224
 20
110.79097788926
 30
0.0
 11
179.2039602591225
 21
110.79097788926
 31
0.0
  0
LINE
  5
110
330
1B
100
AcDbEntity
 67
     1
  8
Visible Edges
  6
Continuous
 62
     7
370
    50
100
AcDbLine
 10
179.2039602591225
 20
110.79097788926
 30
0.0
 11
179.2039602591225
 21
63.16597788926003
 31
0.0
  0
LINE
  5
112
330
1B
100
AcDbEntity
 67
     1
  8
Visible Edges
  6
Continuous
 62
     7
370
    50
100
AcDbLine
 10
502.4948100654049
 20
473.8176747939827
 30
0.0
 11
483.4448100654049
 21
473.8176747939827
 31
0.0
  0
LINE
  5
114
330
1B
100
AcDbEntity
 67
     1
  8
Visible Edges
  6
Continuous
 62
     7
370
    50
100
AcDbLine
 10
502.4948100654049
 20
473.8176747939827
 30
0.0
 11
483.4448100654049
 21
473.8176747939827
 31
0.0
  0
LINE
  5
116
330
1B
100
AcDbEntity
 67
     1
  8
Visible Edges
  6
Continuous
 62
     7
370
    50
100
AcDbLine
 10
483.4448100654049
 20
473.8176747939827
 30
0.0
 11
483.4448100654049
 21
492.8676747939826
 31
0.0
  0
LINE
  5
118
330
1B
100
AcDbEntity
 67
     1
  8
Visible Edges
  6
Continuous
 62
     7
370
    50
100
AcDbLine
 10
483.4448100654049
 20
492.8676747939826
 30
0.0
 11
502.4948100654049
 21
492.8676747939826
 31
0.0
  0
LINE
  5
11A
330
1B
100
AcDbEntity
 67
     1
  8
Visible Edges
  6
Continuous
 62
     7
370
    50
100
AcDbLine
 10
502.4948100654049
 20
492.8676747939826
 30
0.0
 11
502.4948100654049
 21
473.8176747939827
 31
0.0
  0
LINE
  5
11C
330
1B
100
AcDbEntity
 67
     1
  8
Visible Edges
  6
Continuous
 62
     7
370
    50
100
AcDbLine
 10
464.3948100654049
 20
473.8176747939827
 30
0.0
 11
445.3448100654049
 21
473.8176747939827
 31
0.0
  0
LINE
  5
11E
330
1B
100
AcDbEntity
 67
     1
  8
Visible Edges
  6
Continuous
 62
     7
370
    50
100
AcDbLine
 10
445.3448100654049
 20
473.8176747939827
 30
0.0
 11
445.3448100654049
 21
492.8676747939826
 31
0.0
  0
LINE
  5
120
330
1B
100
AcDbEntity
 67
     1
  8
Visible Edges
  6
Continuous
 62
     7
370
    50
100
AcDbLine
 10
445.3448100654049
 20
492.8676747939826
 30
0.0
 11
464.3948100654049
 21
492.8676747939826
 31
0.0
  0
LINE
  5
122
330
1B
100
AcDbEntity
 67
     1
  8
Visible Edges
  6
Continuous
 62
     7
370
    50
100
AcDbLine
 10
464.3948100654049
 20
492.8676747939826
 30
0.0
 11
464.3948100654049
 21
473.8176747939827
 31
0.0
  0
LINE
  5
124
330
1B
100
AcDbEntity
 67
     1
  8
Visible Edges
  6
Continuous
 62
     7
370
    50
100
AcDbLine
 10
502.4948100654049
 20
435.7176747939827
 30
0.0
 11
483.4448100654049
 21
435.7176747939827
 31
0.0
  0
LINE
  5
126
330
1B
100
AcDbEntity
 67
     1
  8
Visible Edges
  6
Continuous
 62
     7
370
    50
100
AcDbLine
 10
483.4448100654049
 20
435.7176747939827
 30
0.0
 11
483.4448100654049
 21
454.7676747939826
 31
0.0
  0
LINE
  5
128
330
1B
100
AcDbEntity
 67
     1
  8
Visible Edges
  6
Continuous
 62
     7
370
    50
100
AcDbLine
 10
483.4448100654049
 20
454.7676747939826
 30
0.0
 11
502.4948100654049
 21
454.7676747939826
 31
0.0
  0
LINE
  5
12A
330
1B
100
AcDbEntity
 67
     1
  8
Visible Edges
  6
Continuous
 62
     7
370
    50
100
AcDbLine
 10
502.4948100654049
 20
454.7676747939826
 30
0.0
 11
502.4948100654049
 21
435.7176747939827
 31
0.0
  0
LINE
  5
12C
330
1B
100
AcDbEntity
 67
     1
  8
Visible Edges
  6
Continuous
 62
     7
370
    50
100
AcDbLine
 10
464.3948100654049
 20
435.7176747939827
 30
0.0
 11
445.3448100654049
 21
435.7176747939827
 31
0.0
  0
LINE
  5
12E
330
1B
100
AcDbEntity
 67
     1
  8
Visible Edges
  6
Continuous
 62
     7
370
    50
100
AcDbLine
 10
445.3448100654049
 20
435.7176747939827
 30
0.0
 11
445.3448100654049
 21
454.7676747939826
 31
0.0
  0
LINE
  5
130
330
1B
100
AcDbEntity
 67
     1
  8
Visible Edges
  6
Continuous
 62
     7
370
    50
100
AcDbLine
 10
445.3448100654049
 20
454.7676747939826
 30
0.0
 11
464.3948100654049
 21
454.7676747939826
 31
0.0
  0
LINE
  5
132
330
1B
100
AcDbEntity
 67
     1
  8
Visible Edges
  6
Continuous
 62
     7
370
    50
100
AcDbLine
 10
464.3948100654049
 20
454.7676747939826
 30
0.0
 11
464.3948100654049
 21
435.7176747939827
 31
0.0
  0
LINE
  5
134
330
1B
100
AcDbEntity
 67
     1
  8
Visible Edges
  6
Continuous
 62
     7
370
    50
100
AcDbLine
 10
502.4948100654049
 20
276.9676747939827
 30
0.0
 11
483.4448100654049
 21
276.9676747939827
 31
0.0
  0
LINE
  5
136
330
1B
100
AcDbEntity
 67
     1
  8
Visible Edges
  6
Continuous
 62
     7
370
    50
100
AcDbLine
 10
483.4448100654049
 20
276.9676747939827
 30
0.0
 11
483.4448100654049
 21
296.0176747939826
 31
0.0
  0
LINE
  5
138
330
1B
100
AcDbEntity
 67
     1
  8
Visible Edges
  6
Continuous
 62
     7
370
    50
100
AcDbLine
 10
483.4448100654049
 20
296.0176747939826
 30
0.0
 11
502.4948100654049
 21
296.0176747939826
 31
0.0
  0
LINE
  5
13A
330
1B
100
AcDbEntity
 67
     1
  8
Visible Edges
  6
Continuous
 62
     7
370
    50
100
AcDbLine
 10
502.4948100654052
 20
296.0176747939826
 30
0.0
 11
502.4948100654052
 21
276.9676747939827
 31
0.0
  0
LINE
  5
13C
330
1B
100
AcDbEntity
 67
     1
  8
Visible Edges
  6
Continuous
 62
     7
370
    50
100
AcDbLine
 10
464.3948100654049
 20
276.9676747939827
 30
0.0
 11
445.3448100654049
 21
276.9676747939827
 31
0.0
  0
LINE
  5
13E
330
1B
100
AcDbEntity
 67
     1
  8
Visible Edges
  6
Continuous
 62
     7
370
    50
100
AcDbLine
 10
445.3448100654049
 20
276.9676747939827
 30
0.0
 11
445.3448100654049
 21
296.0176747939826
 31
0.0
  0
LINE
  5
140
330
1B
100
AcDbEntity
 67
     1
  8
Visible Edges
  6
Continuous
 62
     7
370
    50
100
AcDbLine
 10
445.3448100654049
 20
296.0176747939826
 30
0.0
 11
464.3948100654049
 21
296.0176747939826
 31
0.0
  0
LINE
  5
142
330
1B
100
AcDbEntity
 67
     1
  8
Visible Edges
  6
Continuous
 62
     7
370
    50
100
AcDbLine
 10
464.3948100654049
 20
296.0176747939826
 30
0.0
 11
464.3948100654049
 21
276.9676747939827
 31
0.0
  0
LINE
  5
144
330
1B
100
AcDbEntity
 67
     1
  8
Visible Edges
  6
Continuous
 62
     7
370
    50
100
AcDbLine
 10
502.4948100654049
 20
238.8676747939827
 30
0.0
 11
483.4448100654049
 21
238.8676747939827
 31
0.0
  0
LINE
  5
146
330
1B
100
AcDbEntity
 67
     1
  8
Visible Edges
  6
Continuous
 62
     7
370
    50
100
AcDbLine
 10
483.4448100654049
 20
238.8676747939827
 30
0.0
 11
483.4448100654049
 21
257.9176747939827
 31
0.0
  0
LINE
  5
148
330
1B
100
AcDbEntity
 67
     1
  8
Visible Edges
  6
Continuous
 62
     7
370
    50
100
AcDbLine
 10
483.4448100654049
 20
257.9176747939827
 30
0.0
 11
502.4948100654049
 21
257.9176747939827
 31
0.0
  0
LINE
  5
14A
330
1B
100
AcDbEntity
 67
     1
  8
Visible Edges
  6
Continuous
 62
     7
370
    50
100
AcDbLine
 10
502.4948100654052
 20
257.9176747939827
 30
0.0
 11
502.4948100654052
 21
238.8676747939827
 31
0.0
  0
LINE
  5
14C
330
1B
100
AcDbEntity
 67
     1
  8
Visible Edges
  6
Continuous
 62
     7
370
    50
100
AcDbLine
 10
464.3948100654049
 20
238.8676747939827
 30
0.0
 11
445.3448100654049
 21
238.8676747939827
 31
0.0
  0
LINE
  5
14E
330
1B
100
AcDbEntity
 67
     1
  8
Visible Edges
  6
Continuous
 62
     7
370
    50
100
AcDbLine
 10
445.3448100654049
 20
238.8676747939827
 30
0.0
 11
445.3448100654049
 21
257.9176747939827
 31
0.0
  0
LINE
  5
150
330
1B
100
AcDbEntity
 67
     1
  8
Visible Edges
  6
Continuous
 62
     7
370
    50
100
AcDbLine
 10
445.3448100654049
 20
257.9176747939827
 30
0.0
 11
464.3948100654049
 21
257.9176747939827
 31
0.0
  0
LINE
  5
152
330
1B
100
AcDbEntity
 67
     1
  8
Visible Edges
  6
Continuous
 62
     7
370
    50
100
AcDbLine
 10
464.3948100654049
 20
257.9176747939827
 30
0.0
 11
464.3948100654049
 21
238.8676747939827
 31
0.0
  0
LINE
  5
154
330
1B
100
AcDbEntity
 67
     1
  8
Visible Edges
  6
Continuous
 62
     7
370
    50
100
AcDbLine
 10
1867.744810065404
 20
473.8176747939828
 30
0.0
 11
1848.694810065404
 21
473.8176747939828
 31
0.0
  0
LINE
  5
156
330
1B
100
AcDbEntity
 67
     1
  8
Visible Edges
  6
Continuous
 62
     7
370
    50
100
AcDbLine
 10
1848.694810065404
 20
473.8176747939828
 30
0.0
 11
1848.694810065404
 21
492.8676747939828
 31
0.0
  0
LINE
  5
158
330
1B
100
AcDbEntity
 67
     1
  8
Visible Edges
  6
Continuous
 62
     7
370
    50
100
AcDbLine
 10
1848.694810065404
 20
492.8676747939828
 30
0.0
 11
1867.744810065404
 21
492.8676747939828
 31
0.0
  0
LINE
  5
15A
330
1B
100
AcDbEntity
 67
     1
  8
Visible Edges
  6
Continuous
 62
     7
370
    50
100
AcDbLine
 10
1867.744810065404
 20
492.8676747939828
 30
0.0
 11
1867.744810065404
 21
473.8176747939828
 31
0.0
  0
LINE
  5
15C
330
1B
100
AcDbEntity
 67
     1
  8
Visible Edges
  6
Continuous
 62
     7
370
    50
100
AcDbLine
 10
1829.644810065404
 20
473.8176747939828
 30
0.0
 11
1810.594810065404
 21
473.8176747939828
 31
0.0
  0
LINE
  5
15E
330
1B
100
AcDbEntity
 67
     1
  8
Visible Edges
  6
Continuous
 62
     7
370
    50
100
AcDbLine
 10
1810.594810065404
 20
473.8176747939828
 30
0.0
 11
1810.594810065404
 21
492.8676747939828
 31
0.0
  0
LINE
  5
160
330
1B
100
AcDbEntity
 67
     1
  8
Visible Edges
  6
Continuous
 62
     7
370
    50
100
AcDbLine
 10
1810.594810065404
 20
492.8676747939828
 30
0.0
 11
1829.644810065404
 21
492.8676747939828
 31
0.0
  0
LINE
  5
162
330
1B
100
AcDbEntity
 67
     1
  8
Visible Edges
  6
Continuous
 62
     7
370
    50
100
AcDbLine
 10
1829.644810065404
 20
492.8676747939828
 30
0.0
 11
1829.644810065404
 21
473.8176747939828
 31
0.0
  0
LINE
  5
164
330
1B
100
AcDbEntity
 67
     1
  8
Visible Edges
  6
Continuous
 62
     7
370
    50
100
AcDbLine
 10
1867.744810065404
 20
435.7176747939828
 30
0.0
 11
1848.694810065404
 21
435.7176747939828
 31
0.0
  0
LINE
  5
166
330
1B
100
AcDbEntity
 67
     1
  8
Visible Edges
  6
Continuous
 62
     7
370
    50
100
AcDbLine
 10
1848.694810065404
 20
435.7176747939828
 30
0.0
 11
1848.694810065404
 21
454.7676747939828
 31
0.0
  0
LINE
  5
168
330
1B
100
AcDbEntity
 67
     1
  8
Visible Edges
  6
Continuous
 62
     7
370
    50
100
AcDbLine
 10
1848.694810065404
 20
454.7676747939828
 30
0.0
 11
1867.744810065404
 21
454.7676747939828
 31
0.0
  0
LINE
  5
16A
330
1B
100
AcDbEntity
 67
     1
  8
Visible Edges
  6
Continuous
 62
     7
370
    50
100
AcDbLine
 10
1867.744810065404
 20
454.7676747939828
 30
0.0
 11
1867.744810065404
 21
435.7176747939828
 31
0.0
  0
LINE
  5
16C
330
1B
100
AcDbEntity
 67
     1
  8
Visible Edges
  6
Continuous
 62
     7
370
    50
100
AcDbLine
 10
1829.644810065404
 20
435.7176747939828
 30
0.0
 11
1810.594810065404
 21
435.7176747939828
 31
0.0
  0
LINE
  5
16E
330
1B
100
AcDbEntity
 67
     1
  8
Visible Edges
  6
Continuous
 62
     7
370
    50
100
AcDbLine
 10
1810.594810065404
 20
435.7176747939828
 30
0.0
 11
1810.594810065404
 21
454.7676747939828
 31
0.0
  0
LINE
  5
170
330
1B
100
AcDbEntity
 67
     1
  8
Visible Edges
  6
Continuous
 62
     7
370
    50
100
AcDbLine
 10
1810.594810065404
 20
454.7676747939828
 30
0.0
 11
1829.644810065404
 21
454.7676747939828
 31
0.0
  0
LINE
  5
172
330
1B
100
AcDbEntity
 67
     1
  8
Visible Edges
  6
Continuous
 62
     7
370
    50
100
AcDbLine
 10
1829.644810065404
 20
454.7676747939828
 30
0.0
 11
1829.644810065404
 21
435.7176747939828
 31
0.0
  0
LINE
  5
174
330
1B
100
AcDbEntity
 67
     1
  8
Visible Edges
  6
Continuous
 62
     7
370
    50
100
AcDbLine
 10
1867.744810065404
 20
276.9676747939828
 30
0.0
 11
1848.694810065404
 21
276.9676747939828
 31
0.0
  0
LINE
  5
176
330
1B
100
AcDbEntity
 67
     1
  8
Visible Edges
  6
Continuous
 62
     7
370
    50
100
AcDbLine
 10
1848.694810065404
 20
276.9676747939828
 30
0.0
 11
1848.694810065404
 21
296.0176747939827
 31
0.0
  0
LINE
  5
178
330
1B
100
AcDbEntity
 67
     1
  8
Visible Edges
  6
Continuous
 62
     7
370
    50
100
AcDbLine
 10
1848.694810065404
 20
296.0176747939827
 30
0.0
 11
1867.744810065404
 21
296.0176747939827
 31
0.0
  0
LINE
  5
17A
330
1B
100
AcDbEntity
 67
     1
  8
Visible Edges
  6
Continuous
 62
     7
370
    50
100
AcDbLine
 10
1867.744810065404
 20
296.0176747939827
 30
0.0
 11
1867.744810065404
 21
276.9676747939828
 31
0.0
  0
LINE
  5
17C
330
1B
100
AcDbEntity
 67
     1
  8
Visible Edges
  6
Continuous
 62
     7
370
    50
100
AcDbLine
 10
1829.644810065404
 20
276.9676747939828
 30
0.0
 11
1810.594810065404
 21
276.9676747939828
 31
0.0
  0
LINE
  5
17E
330
1B
100
AcDbEntity
 67
     1
  8
Visible Edges
  6
Continuous
 62
     7
370
    50
100
AcDbLine
 10
1810.594810065404
 20
276.9676747939828
 30
0.0
 11
1810.594810065404
 21
296.0176747939827
 31
0.0
  0
LINE
  5
180
330
1B
100
AcDbEntity
 67
     1
  8
Visible Edges
  6
Continuous
 62
     7
370
    50
100
AcDbLine
 10
1810.594810065404
 20
296.0176747939827
 30
0.0
 11
1829.644810065404
 21
296.0176747939827
 31
0.0
  0
LINE
  5
182
330
1B
100
AcDbEntity
 67
     1
  8
Visible Edges
  6
Continuous
 62
     7
370
    50
100
AcDbLine
 10
1829.644810065404
 20
296.0176747939827
 30
0.0
 11
1829.644810065404
 21
276.9676747939828
 31
0.0
  0
LINE
  5
184
330
1B
100
AcDbEntity
 67
     1
  8
Visible Edges
  6
Continuous
 62
     7
370
    50
100
AcDbLine
 10
1867.744810065404
 20
238.8676747939828
 30
0.0
 11
1848.694810065404
 21
238.8676747939828
 31
0.0
  0
LINE
  5
186
330
1B
100
AcDbEntity
 67
     1
  8
Visible Edges
  6
Continuous
 62
     7
370
    50
100
AcDbLine
 10
1848.694810065404
 20
238.8676747939828
 30
0.0
 11
1848.694810065404
 21
257.9176747939828
 31
0.0
  0
LINE
  5
188
330
1B
100
AcDbEntity
 67
     1
  8
Visible Edges
  6
Continuous
 62
     7
370
    50
100
AcDbLine
 10
1848.694810065404
 20
257.9176747939828
 30
0.0
 11
1867.744810065404
 21
257.9176747939828
 31
0.0
  0
LINE
  5
18A
330
1B
100
AcDbEntity
 67
     1
  8
Visible Edges
  6
Continuous
 62
     7
370
    50
100
AcDbLine
 10
1867.744810065404
 20
257.9176747939828
 30
0.0
 11
1867.744810065404
 21
238.8676747939828
 31
0.0
  0
LINE
  5
18C
330
1B
100
AcDbEntity
 67
     1
  8
Visible Edges
  6
Continuous
 62
     7
370
    50
100
AcDbLine
 10
1829.644810065404
 20
238.8676747939828
 30
0.0
 11
1810.594810065404
 21
238.8676747939828
 31
0.0
  0
LINE
  5
18E
330
1B
100
AcDbEntity
 67
     1
  8
Visible Edges
  6
Continuous
 62
     7
370
    50
100
AcDbLine
 10
1810.594810065404
 20
238.8676747939828
 30
0.0
 11
1810.594810065404
 21
257.9176747939828
 31
0.0
  0
LINE
  5
190
330
1B
100
AcDbEntity
 67
     1
  8
Visible Edges
  6
Continuous
 62
     7
370
    50
100
AcDbLine
 10
1810.594810065404
 20
257.9176747939828
 30
0.0
 11
1829.644810065404
 21
257.9176747939828
 31
0.0
  0
LINE
  5
192
330
1B
100
AcDbEntity
 67
     1
  8
Visible Edges
  6
Continuous
 62
     7
370
    50
100
AcDbLine
 10
1829.644810065404
 20
257.9176747939828
 30
0.0
 11
1829.644810065404
 21
238.8676747939828
 31
0.0
  0
LINE
  5
194
330
1B
100
AcDbEntity
 67
     1
  8
Visible Edges
  6
Continuous
 62
     7
370
    50
100
AcDbLine
 10
343.7448100654046
 20
513.8864247939827
 30
0.0
 11
343.7448100654046
 21
217.8489247939827
 31
0.0
  0
LINE
  5
196
330
1B
100
AcDbEntity
 67
     1
  8
Visible Edges
  6
Continuous
 62
     7
370
    50
100
AcDbLine
 10
1969.344810065404
 20
217.8489247939828
 30
0.0
 11
1969.344810065404
 21
513.8864247939828
 31
0.0
  0
LINE
  5
198
330
1B
100
AcDbEntity
 67
     1
  8
Visible Edges
  6
Continuous
 62
     7
370
    50
100
AcDbLine
 10
343.7448100654046
 20
215.8489247939827
 30
0.0
 11
343.7448100654046
 21
217.8489247939827
 31
0.0
  0
LINE
  5
19A
330
1B
100
AcDbEntity
 67
     1
  8
Visible Edges
  6
Continuous
 62
     7
370
    50
100
AcDbLine
 10
1969.344810065404
 20
215.8489247939828
 30
0.0
 11
343.7448100654046
 21
215.8489247939827
 31
0.0
  0
LINE
  5
19C
330
1B
100
AcDbEntity
 67
     1
  8
Visible Edges
  6
Continuous
 62
     7
370
    50
100
AcDbLine
 10
1969.344810065404
 20
217.8489247939828
 30
0.0
 11
1969.344810065404
 21
215.8489247939828
 31
0.0
  0
LINE
  5
19E
330
1B
100
AcDbEntity
 67
     1
  8
Visible Edges
  6
Continuous
 62
     7
370
    50
100
AcDbLine
 10
1969.344810065404
 20
515.8864247939828
 30
0.0
 11
343.7448100654046
 21
515.8864247939828
 31
0.0
  0
LINE
  5
1A0
330
1B
100
AcDbEntity
 67
     1
  8
Visible Edges
  6
Continuous
 62
     7
370
    50
100
AcDbLine
 10
343.7448100654046
 20
513.8864247939827
 30
0.0
 11
343.7448100654046
 21
515.8864247939828
 31
0.0
  0
LINE
  5
1A2
330
1B
100
AcDbEntity
 67
     1
  8
Visible Edges
  6
Continuous
 62
     7
370
    50
100
AcDbLine
 10
1969.344810065404
 20
515.8864247939828
 30
0.0
 11
1969.344810065404
 21
513.8864247939827
 31
0.0
  0
LINE
  5
1A4
330
1B
100
AcDbEntity
 67
     1
  8
Visible Edges
  6
Continuous
 62
     7
370
    50
100
AcDbLine
 10
1749.993721210595
 20
76.10337132133793
 30
0.0
 11
1749.993721210595
 21
123.7283713213379
 31
0.0
  0
LINE
  5
1A6
330
1B
100
AcDbEntity
 67
     1
  8
Visible Edges
  6
Continuous
 62
     7
370
    50
100
AcDbLine
 10
1749.993721210595
 20
76.10337132133793
 30
0.0
 11
1749.993721210595
 21
123.7283713213379
 31
0.0
  0
LINE
  5
1A8
330
1B
100
AcDbEntity
 67
     1
  8
Visible Edges
  6
Continuous
 62
     7
370
    50
100
AcDbLine
 10
1769.043721210595
 20
76.10337132133793
 30
0.0
 11
1749.993721210595
 21
76.10337132133793
 31
0.0
  0
LINE
  5
1AA
330
1B
100
AcDbEntity
 67
     1
  8
Visible Edges
  6
Continuous
 62
     7
370
    50
100
AcDbLine
 10
1769.043721210595
 20
123.7283713213379
 30
0.0
 11
1769.043721210595
 21
76.10337132133792
 31
0.0
  0
LINE
  5
1AC
330
1B
100
AcDbEntity
 67
     1
  8
Visible Edges
  6
Continuous
 62
     7
370
    50
100
AcDbLine
 10
1788.093721210595
 20
123.7283713213379
 30
0.0
 11
1769.043721210595
 21
123.7283713213379
 31
0.0
  0
LINE
  5
1AE
330
1B
100
AcDbEntity
 67
     1
  8
Visible Edges
  6
Continuous
 62
     7
370
    50
100
AcDbLine
 10
1788.093721210595
 20
76.10337132133793
 30
0.0
 11
1788.093721210595
 21
123.7283713213379
 31
0.0
  0
LINE
  5
1B0
330
1B
100
AcDbEntity
 67
     1
  8
Visible Edges
  6
Continuous
 62
     7
370
    50
100
AcDbLine
 10
1807.143721210595
 20
76.10337132133793
 30
0.0
 11
1788.093721210595
 21
76.10337132133793
 31
0.0
  0
LINE
  5
1B2
330
1B
100
AcDbEntity
 67
     1
  8
Visible Edges
  6
Continuous
 62
     7
370
    50
100
AcDbLine
 10
1807.143721210594
 20
171.3533713213379
 30
0.0
 11
1807.143721210595
 21
76.10337132133792
 31
0.0
  0
LINE
  5
1B4
330
1B
100
AcDbEntity
 67
     1
  8
Visible Edges
  6
Continuous
 62
     7
370
    50
100
AcDbLine
 10
346.6437212105945
 20
171.3533713213379
 30
0.0
 11
1807.143721210594
 21
171.3533713213379
 31
0.0
  0
LINE
  5
1B6
330
1B
100
AcDbEntity
 67
     1
  8
Visible Edges
  6
Continuous
 62
     7
370
    50
100
AcDbLine
 10
346.6437212105947
 20
76.10337132133793
 30
0.0
 11
346.6437212105945
 21
171.3533713213379
 31
0.0
  0
LINE
  5
1B8
330
1B
100
AcDbEntity
 67
     1
  8
Visible Edges
  6
Continuous
 62
     7
370
    50
100
AcDbLine
 10
365.6937212105948
 20
76.10337132133793
 30
0.0
 11
346.6437212105947
 21
76.10337132133793
 31
0.0
  0
LINE
  5
1BA
330
1B
100
AcDbEntity
 67
     1
  8
Visible Edges
  6
Continuous
 62
     7
370
    50
100
AcDbLine
 10
365.6937212105946
 20
123.7283713213379
 30
0.0
 11
365.6937212105948
 21
76.10337132133792
 31
0.0
  0
LINE
  5
1BC
330
1B
100
AcDbEntity
 67
     1
  8
Visible Edges
  6
Continuous
 62
     7
370
    50
100
AcDbLine
 10
384.7437212105946
 20
123.7283713213379
 30
0.0
 11
365.6937212105946
 21
123.7283713213379
 31
0.0
  0
LINE
  5
1BE
330
1B
100
AcDbEntity
 67
     1
  8
Visible Edges
  6
Continuous
 62
     7
370
    50
100
AcDbLine
 10
384.7437212105946
 20
76.10337132133793
 30
0.0
 11
384.7437212105946
 21
123.7283713213379
 31
0.0
  0
LINE
  5
1C0
330
1B
100
AcDbEntity
 67
     1
  8
Visible Edges
  6
Continuous
 62
     7
370
    50
100
AcDbLine
 10
403.7937212105946
 20
76.10337132133793
 30
0.0
 11
384.7437212105946
 21
76.10337132133793
 31
0.0
  0
LINE
  5
1C2
330
1B
100
AcDbEntity
 67
     1
  8
Visible Edges
  6
Continuous
 62
     7
370
    50
100
AcDbLine
 10
403.7937212105946
 20
123.7283713213379
 30
0.0
 11
403.7937212105946
 21
76.10337132133792
 31
0.0
  0
LINE
  5
1C4
330
1B
100
AcDbEntity
 67
     1
  8
Visible Edges
  6
Continuous
 62
     7
370
    50
100
AcDbLine
 10
422.8437212105945
 20
123.7283713213379
 30
0.0
 11
403.7937212105946
 21
123.7283713213379
 31
0.0
  0
LINE
  5
1C6
330
1B
100
AcDbEntity
 67
     1
  8
Visible Edges
  6
Continuous
 62
     7
370
    50
100
AcDbLine
 10
422.8437212105945
 20
76.10337132133794
 30
0.0
 11
422.8437212105945
 21
123.7283713213379
 31
0.0
  0
LINE
  5
1C8
330
1B
100
AcDbEntity
 67
     1
  8
Visible Edges
  6
Continuous
 62
     7
370
    50
100
AcDbLine
 10
1730.943721210595
 20
76.10337132133794
 30
0.0
 11
422.8437212105944
 21
76.10337132133794
 31
0.0
  0
LINE
  5
1CA
330
1B
100
AcDbEntity
 67
     1
  8
Visible Edges
  6
Continuous
 62
     7
370
    50
100
AcDbLine
 10
1730.943721210595
 20
123.7283713213379
 30
0.0
 11
1730.943721210595
 21
76.10337132133794
 31
0.0
  0
LINE
  5
1CC
330
1B
100
AcDbEntity
 67
     1
  8
Visible Edges
  6
Continuous
 62
     7
370
    50
100
AcDbLine
 10
1749.993721210595
 20
123.7283713213379
 30
0.0
 11
1730.943721210595
 21
123.7283713213379
 31
0.0
  0
LINE
  5
1CE
330
1B
100
AcDbEntity
 67
     1
  8
Visible Edges
  6
Continuous
 62
     7
370
    50
100
AcDbLine
 10
114.675437181914
 20
569.9401086668633
 30
0.0
 11
114.675437181914
 21
615.9709703825477
 31
0.0
  0
LINE
  5
1D0
330
1B
100
AcDbEntity
 67
     1
  8
Visible Edges
  6
Continuous
 62
     7
370
    50
100
AcDbLine
 10
114.675437181914
 20
569.9401086668633
 30
0.0
 11
114.675437181914
 21
615.9709703825477
 31
0.0
  0
LINE
  5
1D2
330
1B
100
AcDbEntity
 67
     1
  8
Visible Edges
  6
Continuous
 62
     7
370
    50
100
AcDbLine
 10
114.675437181914
 20
615.9709703825477
 30
0.0
 11
133.725437181914
 21
615.9709703825477
 31
0.0
  0
LINE
  5
1D4
330
1B
100
AcDbEntity
 67
     1
  8
Visible Edges
  6
Continuous
 62
     7
370
    50
100
AcDbLine
 10
133.725437181914
 20
615.9709703825477
 30
0.0
 11
133.725437181914
 21
569.9401086668632
 31
0.0
  0
LINE
  5
1D6
330
1B
100
AcDbEntity
 67
     1
  8
Visible Edges
  6
Continuous
 62
     7
370
    50
100
AcDbLine
 10
114.675437181914
 20
569.9401086668633
 30
0.0
 11
95.62543718191406
 21
569.9401086668633
 31
0.0
  0
LINE
  5
1D8
330
1B
100
AcDbEntity
 67
     1
  8
Visible Edges
  6
Continuous
 62
     7
370
    50
100
AcDbLine
 10
152.775437181914
 20
569.9401086668633
 30
0.0
 11
133.725437181914
 21
569.9401086668633
 31
0.0
  0
LINE
  5
1DA
330
1B
100
AcDbEntity
 67
     1
  8
Visible Edges
  6
Continuous
 62
     7
370
    50
100
AcDbLine
 10
76.57543718191407
 20
617.5651086668633
 30
0.0
 11
95.62543718191406
 21
617.5651086668633
 31
0.0
  0
LINE
  5
1DC
330
1B
100
AcDbEntity
 67
     1
  8
Visible Edges
  6
Continuous
 62
     7
370
    50
100
AcDbLine
 10
95.62543718191406
 20
617.5651086668633
 30
0.0
 11
95.62543718191406
 21
569.9401086668633
 31
0.0
  0
LINE
  5
1DE
330
1B
100
AcDbEntity
 67
     1
  8
Visible Edges
  6
Continuous
 62
     7
370
    50
100
AcDbLine
 10
76.57543718191407
 20
569.9401086668633
 30
0.0
 11
76.57543718191407
 21
617.5651086668632
 31
0.0
  0
LINE
  5
1E0
330
1B
100
AcDbEntity
 67
     1
  8
Visible Edges
  6
Continuous
 62
     7
370
    50
100
AcDbLine
 10
152.775437181914
 20
665.1901086668633
 30
0.0
 11
152.775437181914
 21
569.9401086668633
 31
0.0
  0
LINE
  5
1E2
330
1B
100
AcDbEntity
 67
     1
  8
Visible Edges
  6
Continuous
 62
     7
370
    50
100
AcDbLine
 10
57.52543718191406
 20
665.1901086668633
 30
0.0
 11
152.775437181914
 21
665.1901086668633
 31
0.0
  0
LINE
  5
1E4
330
1B
100
AcDbEntity
 67
     1
  8
Visible Edges
  6
Continuous
 62
     7
370
    50
100
AcDbLine
 10
57.52543718191406
 20
569.9401086668633
 30
0.0
 11
57.52543718191406
 21
665.1901086668633
 31
0.0
  0
LINE
  5
1E6
330
1B
100
AcDbEntity
 67
     1
  8
Visible Edges
  6
Continuous
 62
     7
370
    50
100
AcDbLine
 10
76.57543718191407
 20
569.9401086668633
 30
0.0
 11
57.52543718191406
 21
569.9401086668633
 31
0.0
  0
LINE
  5
1E8
330
1B
100
AcDbEntity
 67
     1
  8
Visible Edges
  6
Continuous
 62
     7
370
    50
100
AcDbLine
 10
3456.967648180046
 20
1071.575186127129
 30
0.0
 11
3456.967648180046
 21
1120.794324411444
 31
0.0
  0
LINE
  5
1EA
330
1B
100
AcDbEntity
 67
     1
  8
Visible Edges
  6
Continuous
 62
     7
370
    50
100
AcDbLine
 10
3456.967648180046
 20
1071.575186127129
 30
0.0
 11
3456.967648180046
 21
1120.794324411444
 31
0.0
  0
LINE
  5
1EC
330
1B
100
AcDbEntity
 67
     1
  8
Visible Edges
  6
Continuous
 62
     7
370
    50
100
AcDbLine
 10
3476.017648180045
 20
1120.794324411444
 30
0.0
 11
3476.017648180045
 21
1071.575186127129
 31
0.0
  0
LINE
  5
1EE
330
1B
100
AcDbEntity
 67
     1
  8
Visible Edges
  6
Continuous
 62
     7
370
    50
100
AcDbLine
 10
3476.017648180045
 20
1071.575186127129
 30
0.0
 11
3456.967648180046
 21
1071.575186127129
 31
0.0
  0
LINE
  5
1F0
330
1B
100
AcDbEntity
 67
     1
  8
Visible Edges
  6
Continuous
 62
     7
370
    50
100
AcDbLine
 10
3437.917648180046
 20
1120.794324411444
 30
0.0
 11
3456.967648180045
 21
1120.794324411444
 31
0.0
  0
LINE
  5
1F2
330
1B
100
AcDbEntity
 67
     1
  8
Visible Edges
  6
Continuous
 62
     7
370
    50
100
AcDbLine
 10
3476.017648180045
 20
1120.794324411444
 30
0.0
 11
3533.167648180045
 21
1120.794324411444
 31
0.0
  0
LINE
  5
1F4
330
1B
100
AcDbEntity
 67
     1
  8
Visible Edges
  6
Continuous
 62
     7
370
    50
100
AcDbLine
 10
3437.917648180046
 20
1025.544324411445
 30
0.0
 11
3437.917648180046
 21
1120.794324411445
 31
0.0
  0
LINE
  5
1F6
330
1B
100
AcDbEntity
 67
     1
  8
Visible Edges
  6
Continuous
 62
     7
370
    50
100
AcDbLine
 10
3495.067648180046
 20
1025.544324411445
 30
0.0
 11
3437.917648180046
 21
1025.544324411445
 31
0.0
  0
LINE
  5
1F8
330
1B
100
AcDbEntity
 67
     1
  8
Visible Edges
  6
Continuous
 62
     7
370
    50
100
AcDbLine
 10
3495.067648180046
 20
1025.544324411445
 30
0.0
 11
3495.067648180046
 21
1073.169324411445
 31
0.0
  0
LINE
  5
1FA
330
1B
100
AcDbEntity
 67
     1
  8
Visible Edges
  6
Continuous
 62
     7
370
    50
100
AcDbLine
 10
3495.067648180046
 20
1073.169324411444
 30
0.0
 11
3514.117648180045
 21
1073.169324411444
 31
0.0
  0
LINE
  5
1FC
330
1B
100
AcDbEntity
 67
     1
  8
Visible Edges
  6
Continuous
 62
     7
370
    50
100
AcDbLine
 10
3514.117648180045
 20
1073.169324411444
 30
0.0
 11
3514.117648180045
 21
1025.544324411444
 31
0.0
  0
LINE
  5
1FE
330
1B
100
AcDbEntity
 67
     1
  8
Visible Edges
  6
Continuous
 62
     7
370
    50
100
AcDbLine
 10
3533.167648180046
 20
1025.544324411445
 30
0.0
 11
3514.117648180045
 21
1025.544324411445
 31
0.0
  0
LINE
  5
200
330
1B
100
AcDbEntity
 67
     1
  8
Visible Edges
  6
Continuous
 62
     7
370
    50
100
AcDbLine
 10
3533.167648180046
 20
1120.794324411444
 30
0.0
 11
3533.167648180046
 21
1025.544324411444
 31
0.0
  0
LINE
  5
202
330
1B
100
AcDbEntity
 67
     1
  8
Visible Edges
  6
Continuous
 62
     7
370
    50
100
AcDbLine
 10
3264.667548846684
 20
1133.538498278426
 30
0.0
 11
3264.667548846684
 21
1085.913498278425
 31
0.0
  0
LINE
  5
204
330
1B
100
AcDbEntity
 67
     1
  8
Visible Edges
  6
Continuous
 62
     7
370
    50
100
AcDbLine
 10
3264.667548846684
 20
1133.538498278426
 30
0.0
 11
3264.667548846684
 21
1085.913498278425
 31
0.0
  0
LINE
  5
206
330
1B
100
AcDbEntity
 67
     1
  8
Visible Edges
  6
Continuous
 62
     7
370
    50
100
AcDbLine
 10
3264.667548846684
 20
1085.913498278425
 30
0.0
 11
3245.617548846685
 21
1085.913498278425
 31
0.0
  0
LINE
  5
208
330
1B
100
AcDbEntity
 67
     1
  8
Visible Edges
  6
Continuous
 62
     7
370
    50
100
AcDbLine
 10
3245.617548846684
 20
1085.913498278425
 30
0.0
 11
3245.617548846684
 21
1133.538498278426
 31
0.0
  0
LINE
  5
20A
330
1B
100
AcDbEntity
 67
     1
  8
Visible Edges
  6
Continuous
 62
     7
370
    50
100
AcDbLine
 10
2686.817548846684
 20
1133.538498278426
 30
0.0
 11
3245.617548846684
 21
1133.538498278426
 31
0.0
  0
LINE
  5
20C
330
1B
100
AcDbEntity
 67
     1
  8
Visible Edges
  6
Continuous
 62
     7
370
    50
100
AcDbLine
 10
2686.817548846684
 20
1133.538498278426
 30
0.0
 11
2686.817548846684
 21
1085.913498278425
 31
0.0
  0
LINE
  5
20E
330
1B
100
AcDbEntity
 67
     1
  8
Visible Edges
  6
Continuous
 62
     7
370
    50
100
AcDbLine
 10
2686.817548846684
 20
1085.913498278425
 30
0.0
 11
2667.767548846684
 21
1085.913498278425
 31
0.0
  0
LINE
  5
210
330
1B
100
AcDbEntity
 67
     1
  8
Visible Edges
  6
Continuous
 62
     7
370
    50
100
AcDbLine
 10
2667.767548846684
 20
1085.913498278425
 30
0.0
 11
2667.767548846684
 21
1133.538498278426
 31
0.0
  0
LINE
  5
212
330
1B
100
AcDbEntity
 67
     1
  8
Visible Edges
  6
Continuous
 62
     7
370
    50
100
AcDbLine
 10
2610.617548846684
 20
1133.538498278426
 30
0.0
 11
2667.767548846684
 21
1133.538498278426
 31
0.0
  0
LINE
  5
214
330
1B
100
AcDbEntity
 67
     1
  8
Visible Edges
  6
Continuous
 62
     7
370
    50
100
AcDbLine
 10
2610.617548846684
 20
1038.288498278425
 30
0.0
 11
2610.617548846684
 21
1133.538498278426
 31
0.0
  0
LINE
  5
216
330
1B
100
AcDbEntity
 67
     1
  8
Visible Edges
  6
Continuous
 62
     7
370
    50
100
AcDbLine
 10
3321.817548846684
 20
1038.288498278425
 30
0.0
 11
2610.617548846684
 21
1038.288498278425
 31
0.0
  0
LINE
  5
218
330
1B
100
AcDbEntity
 67
     1
  8
Visible Edges
  6
Continuous
 62
     7
370
    50
100
AcDbLine
 10
3321.817548846684
 20
1133.538498278426
 30
0.0
 11
3321.817548846684
 21
1038.288498278425
 31
0.0
  0
LINE
  5
21A
330
1B
100
AcDbEntity
 67
     1
  8
Visible Edges
  6
Continuous
 62
     7
370
    50
100
AcDbLine
 10
3264.667548846684
 20
1133.538498278426
 30
0.0
 11
3321.817548846684
 21
1133.538498278426
 31
0.0
  0
LINE
  5
21C
330
1B
100
AcDbEntity
 67
     1
  8
Visible Edges
  6
Continuous
 62
     7
370
    50
100
AcDbLine
 10
2959.878592400878
 20
990.1665422748864
 30
0.0
 11
2959.878592400878
 21
942.5415422748864
 31
0.0
  0
LINE
  5
21E
330
1B
100
AcDbEntity
 67
     1
  8
Visible Edges
  6
Continuous
 62
     7
370
    50
100
AcDbLine
 10
2959.878592400878
 20
990.1665422748864
 30
0.0
 11
2959.878592400878
 21
942.5415422748864
 31
0.0
  0
LINE
  5
220
330
1B
100
AcDbEntity
 67
     1
  8
Visible Edges
  6
Continuous
 62
     7
370
    50
100
AcDbLine
 10
2959.878592400878
 20
942.5415422748864
 30
0.0
 11
2940.828592400876
 21
942.5415422748864
 31
0.0
  0
LINE
  5
222
330
1B
100
AcDbEntity
 67
     1
  8
Visible Edges
  6
Continuous
 62
     7
370
    50
100
AcDbLine
 10
2940.828592400876
 20
942.5415422748864
 30
0.0
 11
2940.828592400876
 21
990.1665422748864
 31
0.0
  0
LINE
  5
224
330
1B
100
AcDbEntity
 67
     1
  8
Visible Edges
  6
Continuous
 62
     7
370
    50
100
AcDbLine
 10
2959.878592400878
 20
990.1665422748864
 30
0.0
 11
2978.928592400878
 21
990.1665422748864
 31
0.0
  0
LINE
  5
226
330
1B
100
AcDbEntity
 67
     1
  8
Visible Edges
  6
Continuous
 62
     7
370
    50
100
AcDbLine
 10
2997.978592400878
 20
990.1665422748864
 30
0.0
 11
2997.978592400878
 21
942.5415422748864
 31
0.0
  0
LINE
  5
228
330
1B
100
AcDbEntity
 67
     1
  8
Visible Edges
  6
Continuous
 62
     7
370
    50
100
AcDbLine
 10
2997.978592400878
 20
942.5415422748864
 30
0.0
 11
2978.928592400878
 21
942.5415422748864
 31
0.0
  0
LINE
  5
22A
330
1B
100
AcDbEntity
 67
     1
  8
Visible Edges
  6
Continuous
 62
     7
370
    50
100
AcDbLine
 10
2978.928592400877
 20
942.5415422748864
 30
0.0
 11
2978.928592400877
 21
990.1665422748864
 31
0.0
  0
LINE
  5
22C
330
1B
100
AcDbEntity
 67
     1
  8
Visible Edges
  6
Continuous
 62
     7
370
    50
100
AcDbLine
 10
2997.978592400878
 20
990.1665422748864
 30
0.0
 11
3248.803592400877
 21
990.1665422748864
 31
0.0
  0
LINE
  5
22E
330
1B
100
AcDbEntity
 67
     1
  8
Visible Edges
  6
Continuous
 62
     7
370
    50
100
AcDbLine
 10
2690.003592400877
 20
990.1665422748864
 30
0.0
 11
2940.828592400876
 21
990.1665422748864
 31
0.0
  0
LINE
  5
230
330
1B
100
AcDbEntity
 67
     1
  8
Visible Edges
  6
Continuous
 62
     7
370
    50
100
AcDbLine
 10
2690.003592400877
 20
990.1665422748864
 30
0.0
 11
2690.003592400877
 21
942.5415422748864
 31
0.0
  0
LINE
  5
232
330
1B
100
AcDbEntity
 67
     1
  8
Visible Edges
  6
Continuous
 62
     7
370
    50
100
AcDbLine
 10
2690.003592400877
 20
942.5415422748864
 30
0.0
 11
2670.953592400878
 21
942.5415422748864
 31
0.0
  0
LINE
  5
234
330
1B
100
AcDbEntity
 67
     1
  8
Visible Edges
  6
Continuous
 62
     7
370
    50
100
AcDbLine
 10
2670.953592400878
 20
942.5415422748864
 30
0.0
 11
2670.953592400878
 21
990.1665422748864
 31
0.0
  0
LINE
  5
236
330
1B
100
AcDbEntity
 67
     1
  8
Visible Edges
  6
Continuous
 62
     7
370
    50
100
AcDbLine
 10
2613.803592400877
 20
990.1665422748864
 30
0.0
 11
2670.953592400878
 21
990.1665422748864
 31
0.0
  0
LINE
  5
238
330
1B
100
AcDbEntity
 67
     1
  8
Visible Edges
  6
Continuous
 62
     7
370
    50
100
AcDbLine
 10
2613.803592400877
 20
894.9165422748865
 30
0.0
 11
2613.803592400877
 21
990.1665422748864
 31
0.0
  0
LINE
  5
23A
330
1B
100
AcDbEntity
 67
     1
  8
Visible Edges
  6
Continuous
 62
     7
370
    50
100
AcDbLine
 10
2632.853592400877
 20
894.9165422748865
 30
0.0
 11
2613.803592400878
 21
894.9165422748865
 31
0.0
  0
LINE
  5
23C
330
1B
100
AcDbEntity
 67
     1
  8
Visible Edges
  6
Continuous
 62
     7
370
    50
100
AcDbLine
 10
2632.853592400877
 20
894.9165422748865
 30
0.0
 11
2632.853592400877
 21
942.5415422748866
 31
0.0
  0
LINE
  5
23E
330
1B
100
AcDbEntity
 67
     1
  8
Visible Edges
  6
Continuous
 62
     7
370
    50
100
AcDbLine
 10
2632.853592400877
 20
942.5415422748864
 30
0.0
 11
2651.903592400877
 21
942.5415422748864
 31
0.0
  0
LINE
  5
240
330
1B
100
AcDbEntity
 67
     1
  8
Visible Edges
  6
Continuous
 62
     7
370
    50
100
AcDbLine
 10
2651.903592400877
 20
942.5415422748864
 30
0.0
 11
2651.903592400877
 21
894.9165422748864
 31
0.0
  0
LINE
  5
242
330
1B
100
AcDbEntity
 67
     1
  8
Visible Edges
  6
Continuous
 62
     7
370
    50
100
AcDbLine
 10
3286.903592400877
 20
894.9165422748865
 30
0.0
 11
2651.903592400877
 21
894.9165422748865
 31
0.0
  0
LINE
  5
244
330
1B
100
AcDbEntity
 67
     1
  8
Visible Edges
  6
Continuous
 62
     7
370
    50
100
AcDbLine
 10
3286.903592400877
 20
894.9165422748865
 30
0.0
 11
3286.903592400877
 21
942.5415422748866
 31
0.0
  0
LINE
  5
246
330
1B
100
AcDbEntity
 67
     1
  8
Visible Edges
  6
Continuous
 62
     7
370
    50
100
AcDbLine
 10
3286.903592400877
 20
942.5415422748864
 30
0.0
 11
3305.953592400877
 21
942.5415422748864
 31
0.0
  0
LINE
  5
248
330
1B
100
AcDbEntity
 67
     1
  8
Visible Edges
  6
Continuous
 62
     7
370
    50
100
AcDbLine
 10
3305.953592400877
 20
942.5415422748864
 30
0.0
 11
3305.953592400877
 21
894.9165422748864
 31
0.0
  0
LINE
  5
24A
330
1B
100
AcDbEntity
 67
     1
  8
Visible Edges
  6
Continuous
 62
     7
370
    50
100
AcDbLine
 10
3325.003592400877
 20
894.9165422748865
 30
0.0
 11
3305.953592400877
 21
894.9165422748865
 31
0.0
  0
LINE
  5
24C
330
1B
100
AcDbEntity
 67
     1
  8
Visible Edges
  6
Continuous
 62
     7
370
    50
100
AcDbLine
 10
3325.003592400877
 20
990.1665422748864
 30
0.0
 11
3325.003592400877
 21
894.9165422748864
 31
0.0
  0
LINE
  5
24E
330
1B
100
AcDbEntity
 67
     1
  8
Visible Edges
  6
Continuous
 62
     7
370
    50
100
AcDbLine
 10
3267.853592400877
 20
990.1665422748864
 30
0.0
 11
3325.003592400877
 21
990.1665422748864
 31
0.0
  0
LINE
  5
250
330
1B
100
AcDbEntity
 67
     1
  8
Visible Edges
  6
Continuous
 62
     7
370
    50
100
AcDbLine
 10
3267.853592400877
 20
990.1665422748864
 30
0.0
 11
3267.853592400877
 21
942.5415422748864
 31
0.0
  0
LINE
  5
252
330
1B
100
AcDbEntity
 67
     1
  8
Visible Edges
  6
Continuous
 62
     7
370
    50
100
AcDbLine
 10
3267.853592400877
 20
942.5415422748864
 30
0.0
 11
3248.803592400877
 21
942.5415422748864
 31
0.0
  0
LINE
  5
254
330
1B
100
AcDbEntity
 67
     1
  8
Visible Edges
  6
Continuous
 62
     7
370
    50
100
AcDbLine
 10
3248.803592400877
 20
942.5415422748864
 30
0.0
 11
3248.803592400877
 21
990.1665422748864
 31
0.0
  0
LINE
  5
256
330
1B
100
AcDbEntity
 67
     1
  8
Visible Edges
  6
Continuous
 62
     7
370
    50
100
AcDbLine
 10
3495.214338124777
 20
891.7846332394088
 30
0.0
 11
3399.737219560483
 21
891.7846332394088
 31
0.0
  0
LINE
  5
258
330
1B
100
AcDbEntity
 67
     1
  8
Visible Edges
  6
Continuous
 62
     7
370
    50
100
AcDbLine
 10
3495.214338124777
 20
891.7846332394088
 30
0.0
 11
3399.737219560483
 21
891.7846332394088
 31
0.0
  0
LINE
  5
25A
330
1B
100
AcDbEntity
 67
     1
  8
Visible Edges
  6
Continuous
 62
     7
370
    50
100
AcDbLine
 10
3399.737219560483
 20
891.7846332394088
 30
0.0
 11
3399.737219560483
 21
987.0346332394088
 31
0.0
  0
LINE
  5
25C
330
1B
100
AcDbEntity
 67
     1
  8
Visible Edges
  6
Continuous
 62
     7
370
    50
100
AcDbLine
 10
3399.737219560483
 20
987.0346332394088
 30
0.0
 11
3514.264338124773
 21
987.0346332394088
 31
0.0
  0
LINE
  5
25E
330
1B
100
AcDbEntity
 67
     1
  8
Visible Edges
  6
Continuous
 62
     7
370
    50
100
AcDbLine
 10
3514.264338124772
 20
987.0346332394088
 30
0.0
 11
3514.264338124772
 21
939.4096332394088
 31
0.0
  0
LINE
  5
260
330
1B
100
AcDbEntity
 67
     1
  8
Visible Edges
  6
Continuous
 62
     7
370
    50
100
AcDbLine
 10
3514.264338124772
 20
939.4096332394088
 30
0.0
 11
3533.314338124772
 21
939.4096332394088
 31
0.0
  0
LINE
  5
262
330
1B
100
AcDbEntity
 67
     1
  8
Visible Edges
  6
Continuous
 62
     7
370
    50
100
AcDbLine
 10
3533.314338124773
 20
939.4096332394088
 30
0.0
 11
3533.314338124773
 21
987.0346332394088
 31
0.0
  0
LINE
  5
264
330
1B
100
AcDbEntity
 67
     1
  8
Visible Edges
  6
Continuous
 62
     7
370
    50
100
AcDbLine
 10
3533.314338124773
 20
987.0346332394088
 30
0.0
 11
3590.464338124763
 21
987.0346332394088
 31
0.0
  0
LINE
  5
266
330
1B
100
AcDbEntity
 67
     1
  8
Visible Edges
  6
Continuous
 62
     7
370
    50
100
AcDbLine
 10
3590.464338124763
 20
987.0346332394088
 30
0.0
 11
3590.464338124763
 21
872.5601696193674
 31
0.0
  0
LINE
  5
268
330
1B
100
AcDbEntity
 67
     1
  8
Visible Edges
  6
Continuous
 62
     7
370
    50
100
AcDbLine
 10
3590.464338124763
 20
872.5601696193674
 30
0.0
 11
3571.414338124768
 21
872.5601564107741
 31
0.0
  0
LINE
  5
26A
330
1B
100
AcDbEntity
 67
     1
  8
Visible Edges
  6
Continuous
 62
     7
370
    50
100
AcDbLine
 10
3571.414338124768
 20
872.5601564107741
 30
0.0
 11
3571.414338124768
 21
891.6101564107741
 31
0.0
  0
LINE
  5
26C
330
1B
100
AcDbEntity
 67
     1
  8
Visible Edges
  6
Continuous
 62
     7
370
    50
100
AcDbLine
 10
3571.414338124768
 20
891.6101564107741
 30
0.0
 11
3552.364338124768
 21
891.6101564107741
 31
0.0
  0
LINE
  5
26E
330
1B
100
AcDbEntity
 67
     1
  8
Visible Edges
  6
Continuous
 62
     7
370
    50
100
AcDbLine
 10
3552.364338124767
 20
891.6101564107741
 30
0.0
 11
3552.364338124767
 21
872.5601432021807
 31
0.0
  0
LINE
  5
270
330
1B
100
AcDbEntity
 67
     1
  8
Visible Edges
  6
Continuous
 62
     7
370
    50
100
AcDbLine
 10
3552.364338124767
 20
872.5601432021807
 30
0.0
 11
3533.314338124773
 21
872.5601299935876
 31
0.0
  0
LINE
  5
272
330
1B
100
AcDbEntity
 67
     1
  8
Visible Edges
  6
Continuous
 62
     7
370
    50
100
AcDbLine
 10
3533.314338124773
 20
872.5601299935876
 30
0.0
 11
3533.314338124773
 21
891.6101167849943
 31
0.0
  0
LINE
  5
274
330
1B
100
AcDbEntity
 67
     1
  8
Visible Edges
  6
Continuous
 62
     7
370
    50
100
AcDbLine
 10
3533.314338124773
 20
891.6101167849944
 30
0.0
 11
3514.264338124773
 21
891.6101167849944
 31
0.0
  0
LINE
  5
276
330
1B
100
AcDbEntity
 67
     1
  8
Visible Edges
  6
Continuous
 62
     7
370
    50
100
AcDbLine
 10
3514.264338124772
 20
891.6101167849944
 30
0.0
 11
3514.264338124772
 21
872.5601167849944
 31
0.0
  0
LINE
  5
278
330
1B
100
AcDbEntity
 67
     1
  8
Visible Edges
  6
Continuous
 62
     7
370
    50
100
AcDbLine
 10
3514.264338124772
 20
872.5601167849944
 30
0.0
 11
3495.214338124777
 21
872.5601035764011
 31
0.0
  0
LINE
  5
27A
330
1B
100
AcDbEntity
 67
     1
  8
Visible Edges
  6
Continuous
 62
     7
370
    50
100
AcDbLine
 10
3495.214338124777
 20
872.5601035764011
 30
0.0
 11
3495.214338124777
 21
891.7846332394088
 31
0.0
  0
LINE
  5
27C
330
1B
100
AcDbEntity
 67
     1
  8
Visible Edges
  6
Continuous
 62
     7
370
    50
100
AcDbLine
 10
566.9224686175661
 20
703.5551518687508
 30
0.0
 11
547.8724686175661
 21
703.5551518687508
 31
0.0
  0
LINE
  5
27E
330
1B
100
AcDbEntity
 67
     1
  8
Visible Edges
  6
Continuous
 62
     7
370
    50
100
AcDbLine
 10
566.9224686175661
 20
703.5551518687508
 30
0.0
 11
547.8724686175661
 21
703.5551518687508
 31
0.0
  0
LINE
  5
280
330
1B
100
AcDbEntity
 67
     1
  8
Visible Edges
  6
Continuous
 62
     7
370
    50
100
AcDbLine
 10
547.8724686175661
 20
703.5551518687508
 30
0.0
 11
547.8724686175661
 21
722.6051518687508
 31
0.0
  0
LINE
  5
282
330
1B
100
AcDbEntity
 67
     1
  8
Visible Edges
  6
Continuous
 62
     7
370
    50
100
AcDbLine
 10
547.8724686175661
 20
722.6051518687508
 30
0.0
 11
566.9224686175661
 21
722.6051518687508
 31
0.0
  0
LINE
  5
284
330
1B
100
AcDbEntity
 67
     1
  8
Visible Edges
  6
Continuous
 62
     7
370
    50
100
AcDbLine
 10
566.9224686175661
 20
722.6051518687508
 30
0.0
 11
566.9224686175661
 21
703.5551518687508
 31
0.0
  0
LINE
  5
286
330
1B
100
AcDbEntity
 67
     1
  8
Visible Edges
  6
Continuous
 62
     7
370
    50
100
AcDbLine
 10
528.822468617566
 20
703.5551518687508
 30
0.0
 11
509.7724686175661
 21
703.5551518687508
 31
0.0
  0
LINE
  5
288
330
1B
100
AcDbEntity
 67
     1
  8
Visible Edges
  6
Continuous
 62
     7
370
    50
100
AcDbLine
 10
509.7724686175661
 20
703.5551518687508
 30
0.0
 11
509.7724686175661
 21
722.6051518687508
 31
0.0
  0
LINE
  5
28A
330
1B
100
AcDbEntity
 67
     1
  8
Visible Edges
  6
Continuous
 62
     7
370
    50
100
AcDbLine
 10
509.7724686175661
 20
722.6051518687508
 30
0.0
 11
528.822468617566
 21
722.6051518687508
 31
0.0
  0
LINE
  5
28C
330
1B
100
AcDbEntity
 67
     1
  8
Visible Edges
  6
Continuous
 62
     7
370
    50
100
AcDbLine
 10
528.822468617566
 20
722.6051518687508
 30
0.0
 11
528.822468617566
 21
703.5551518687508
 31
0.0
  0
LINE
  5
28E
330
1B
100
AcDbEntity
 67
     1
  8
Visible Edges
  6
Continuous
 62
     7
370
    50
100
AcDbLine
 10
605.0224686175661
 20
703.5551518687508
 30
0.0
 11
585.9724686175662
 21
703.5551518687508
 31
0.0
  0
LINE
  5
290
330
1B
100
AcDbEntity
 67
     1
  8
Visible Edges
  6
Continuous
 62
     7
370
    50
100
AcDbLine
 10
585.9724686175662
 20
703.5551518687508
 30
0.0
 11
585.9724686175662
 21
722.6051518687508
 31
0.0
  0
LINE
  5
292
330
1B
100
AcDbEntity
 67
     1
  8
Visible Edges
  6
Continuous
 62
     7
370
    50
100
AcDbLine
 10
585.9724686175662
 20
722.6051518687508
 30
0.0
 11
605.0224686175661
 21
722.6051518687508
 31
0.0
  0
LINE
  5
294
330
1B
100
AcDbEntity
 67
     1
  8
Visible Edges
  6
Continuous
 62
     7
370
    50
100
AcDbLine
 10
605.0224686175661
 20
722.6051518687508
 30
0.0
 11
605.0224686175661
 21
703.5551518687508
 31
0.0
  0
LINE
  5
296
330
1B
100
AcDbEntity
 67
     1
  8
Visible Edges
  6
Continuous
 62
     7
370
    50
100
AcDbLine
 10
566.9224686175661
 20
665.4551518687508
 30
0.0
 11
547.8724686175661
 21
665.4551518687508
 31
0.0
  0
LINE
  5
298
330
1B
100
AcDbEntity
 67
     1
  8
Visible Edges
  6
Continuous
 62
     7
370
    50
100
AcDbLine
 10
547.8724686175661
 20
665.4551518687508
 30
0.0
 11
547.8724686175661
 21
684.5051518687507
 31
0.0
  0
LINE
  5
29A
330
1B
100
AcDbEntity
 67
     1
  8
Visible Edges
  6
Continuous
 62
     7
370
    50
100
AcDbLine
 10
547.8724686175661
 20
684.5051518687507
 30
0.0
 11
566.9224686175661
 21
684.5051518687507
 31
0.0
  0
LINE
  5
29C
330
1B
100
AcDbEntity
 67
     1
  8
Visible Edges
  6
Continuous
 62
     7
370
    50
100
AcDbLine
 10
566.9224686175661
 20
684.5051518687507
 30
0.0
 11
566.9224686175661
 21
665.4551518687508
 31
0.0
  0
LINE
  5
29E
330
1B
100
AcDbEntity
 67
     1
  8
Visible Edges
  6
Continuous
 62
     7
370
    50
100
AcDbLine
 10
528.822468617566
 20
665.4551518687508
 30
0.0
 11
509.7724686175661
 21
665.4551518687508
 31
0.0
  0
LINE
  5
2A0
330
1B
100
AcDbEntity
 67
     1
  8
Visible Edges
  6
Continuous
 62
     7
370
    50
100
AcDbLine
 10
509.7724686175661
 20
665.4551518687508
 30
0.0
 11
509.7724686175661
 21
684.5051518687507
 31
0.0
  0
LINE
  5
2A2
330
1B
100
AcDbEntity
 67
     1
  8
Visible Edges
  6
Continuous
 62
     7
370
    50
100
AcDbLine
 10
509.7724686175661
 20
684.5051518687507
 30
0.0
 11
528.822468617566
 21
684.5051518687507
 31
0.0
  0
LINE
  5
2A4
330
1B
100
AcDbEntity
 67
     1
  8
Visible Edges
  6
Continuous
 62
     7
370
    50
100
AcDbLine
 10
528.822468617566
 20
684.5051518687507
 30
0.0
 11
528.822468617566
 21
665.4551518687508
 31
0.0
  0
LINE
  5
2A6
330
1B
100
AcDbEntity
 67
     1
  8
Visible Edges
  6
Continuous
 62
     7
370
    50
100
AcDbLine
 10
605.0224686175661
 20
665.4551518687508
 30
0.0
 11
585.9724686175662
 21
665.4551518687508
 31
0.0
  0
LINE
  5
2A8
330
1B
100
AcDbEntity
 67
     1
  8
Visible Edges
  6
Continuous
 62
     7
370
    50
100
AcDbLine
 10
585.9724686175662
 20
665.4551518687508
 30
0.0
 11
585.9724686175662
 21
684.5051518687507
 31
0.0
  0
LINE
  5
2AA
330
1B
100
AcDbEntity
 67
     1
  8
Visible Edges
  6
Continuous
 62
     7
370
    50
100
AcDbLine
 10
585.9724686175662
 20
684.5051518687507
 30
0.0
 11
605.0224686175661
 21
684.5051518687507
 31
0.0
  0
LINE
  5
2AC
330
1B
100
AcDbEntity
 67
     1
  8
Visible Edges
  6
Continuous
 62
     7
370
    50
100
AcDbLine
 10
605.0224686175661
 20
684.5051518687507
 30
0.0
 11
605.0224686175661
 21
665.4551518687508
 31
0.0
  0
LINE
  5
2AE
330
1B
100
AcDbEntity
 67
     1
  8
Visible Edges
  6
Continuous
 62
     7
370
    50
100
AcDbLine
 10
2300.472468617566
 20
703.5551518687509
 30
0.0
 11
2281.422468617566
 21
703.5551518687509
 31
0.0
  0
LINE
  5
2B0
330
1B
100
AcDbEntity
 67
     1
  8
Visible Edges
  6
Continuous
 62
     7
370
    50
100
AcDbLine
 10
2281.422468617566
 20
703.5551518687509
 30
0.0
 11
2281.422468617566
 21
722.6051518687508
 31
0.0
  0
LINE
  5
2B2
330
1B
100
AcDbEntity
 67
     1
  8
Visible Edges
  6
Continuous
 62
     7
370
    50
100
AcDbLine
 10
2281.422468617566
 20
722.6051518687508
 30
0.0
 11
2300.472468617566
 21
722.6051518687508
 31
0.0
  0
LINE
  5
2B4
330
1B
100
AcDbEntity
 67
     1
  8
Visible Edges
  6
Continuous
 62
     7
370
    50
100
AcDbLine
 10
2300.472468617566
 20
722.6051518687508
 30
0.0
 11
2300.472468617566
 21
703.5551518687509
 31
0.0
  0
LINE
  5
2B6
330
1B
100
AcDbEntity
 67
     1
  8
Visible Edges
  6
Continuous
 62
     7
370
    50
100
AcDbLine
 10
2262.372468617566
 20
703.5551518687509
 30
0.0
 11
2243.322468617566
 21
703.5551518687509
 31
0.0
  0
LINE
  5
2B8
330
1B
100
AcDbEntity
 67
     1
  8
Visible Edges
  6
Continuous
 62
     7
370
    50
100
AcDbLine
 10
2243.322468617566
 20
703.5551518687509
 30
0.0
 11
2243.322468617566
 21
722.6051518687508
 31
0.0
  0
LINE
  5
2BA
330
1B
100
AcDbEntity
 67
     1
  8
Visible Edges
  6
Continuous
 62
     7
370
    50
100
AcDbLine
 10
2243.322468617566
 20
722.6051518687508
 30
0.0
 11
2262.372468617566
 21
722.6051518687508
 31
0.0
  0
LINE
  5
2BC
330
1B
100
AcDbEntity
 67
     1
  8
Visible Edges
  6
Continuous
 62
     7
370
    50
100
AcDbLine
 10
2262.372468617566
 20
722.6051518687508
 30
0.0
 11
2262.372468617566
 21
703.5551518687509
 31
0.0
  0
LINE
  5
2BE
330
1B
100
AcDbEntity
 67
     1
  8
Visible Edges
  6
Continuous
 62
     7
370
    50
100
AcDbLine
 10
2338.572468617566
 20
703.5551518687509
 30
0.0
 11
2319.522468617566
 21
703.5551518687509
 31
0.0
  0
LINE
  5
2C0
330
1B
100
AcDbEntity
 67
     1
  8
Visible Edges
  6
Continuous
 62
     7
370
    50
100
AcDbLine
 10
2319.522468617566
 20
703.5551518687509
 30
0.0
 11
2319.522468617566
 21
722.6051518687508
 31
0.0
  0
LINE
  5
2C2
330
1B
100
AcDbEntity
 67
     1
  8
Visible Edges
  6
Continuous
 62
     7
370
    50
100
AcDbLine
 10
2319.522468617566
 20
722.6051518687508
 30
0.0
 11
2338.572468617566
 21
722.6051518687508
 31
0.0
  0
LINE
  5
2C4
330
1B
100
AcDbEntity
 67
     1
  8
Visible Edges
  6
Continuous
 62
     7
370
    50
100
AcDbLine
 10
2338.572468617566
 20
722.6051518687508
 30
0.0
 11
2338.572468617566
 21
703.5551518687509
 31
0.0
  0
LINE
  5
2C6
330
1B
100
AcDbEntity
 67
     1
  8
Visible Edges
  6
Continuous
 62
     7
370
    50
100
AcDbLine
 10
2300.472468617566
 20
665.4551518687509
 30
0.0
 11
2281.422468617566
 21
665.4551518687509
 31
0.0
  0
LINE
  5
2C8
330
1B
100
AcDbEntity
 67
     1
  8
Visible Edges
  6
Continuous
 62
     7
370
    50
100
AcDbLine
 10
2281.422468617566
 20
665.4551518687509
 30
0.0
 11
2281.422468617566
 21
684.505151868751
 31
0.0
  0
LINE
  5
2CA
330
1B
100
AcDbEntity
 67
     1
  8
Visible Edges
  6
Continuous
 62
     7
370
    50
100
AcDbLine
 10
2281.422468617566
 20
684.505151868751
 30
0.0
 11
2300.472468617566
 21
684.505151868751
 31
0.0
  0
LINE
  5
2CC
330
1B
100
AcDbEntity
 67
     1
  8
Visible Edges
  6
Continuous
 62
     7
370
    50
100
AcDbLine
 10
2300.472468617566
 20
684.505151868751
 30
0.0
 11
2300.472468617566
 21
665.4551518687509
 31
0.0
  0
LINE
  5
2CE
330
1B
100
AcDbEntity
 67
     1
  8
Visible Edges
  6
Continuous
 62
     7
370
    50
100
AcDbLine
 10
2262.372468617566
 20
665.4551518687509
 30
0.0
 11
2243.322468617566
 21
665.4551518687509
 31
0.0
  0
LINE
  5
2D0
330
1B
100
AcDbEntity
 67
     1
  8
Visible Edges
  6
Continuous
 62
     7
370
    50
100
AcDbLine
 10
2243.322468617566
 20
665.4551518687509
 30
0.0
 11
2243.322468617566
 21
684.505151868751
 31
0.0
  0
LINE
  5
2D2
330
1B
100
AcDbEntity
 67
     1
  8
Visible Edges
  6
Continuous
 62
     7
370
    50
100
AcDbLine
 10
2243.322468617566
 20
684.505151868751
 30
0.0
 11
2262.372468617566
 21
684.505151868751
 31
0.0
  0
LINE
  5
2D4
330
1B
100
AcDbEntity
 67
     1
  8
Visible Edges
  6
Continuous
 62
     7
370
    50
100
AcDbLine
 10
2262.372468617566
 20
684.505151868751
 30
0.0
 11
2262.372468617566
 21
665.4551518687509
 31
0.0
  0
LINE
  5
2D6
330
1B
100
AcDbEntity
 67
     1
  8
Visible Edges
  6
Continuous
 62
     7
370
    50
100
AcDbLine
 10
2338.572468617566
 20
665.4551518687509
 30
0.0
 11
2319.522468617566
 21
665.4551518687509
 31
0.0
  0
LINE
  5
2D8
330
1B
100
AcDbEntity
 67
     1
  8
Visible Edges
  6
Continuous
 62
     7
370
    50
100
AcDbLine
 10
2319.522468617566
 20
665.4551518687509
 30
0.0
 11
2319.522468617566
 21
684.505151868751
 31
0.0
  0
LINE
  5
2DA
330
1B
100
AcDbEntity
 67
     1
  8
Visible Edges
  6
Continuous
 62
     7
370
    50
100
AcDbLine
 10
2319.522468617566
 20
684.505151868751
 30
0.0
 11
2338.572468617566
 21
684.505151868751
 31
0.0
  0
LINE
  5
2DC
330
1B
100
AcDbEntity
 67
     1
  8
Visible Edges
  6
Continuous
 62
     7
370
    50
100
AcDbLine
 10
2338.572468617566
 20
684.505151868751
 30
0.0
 11
2338.572468617566
 21
665.4551518687509
 31
0.0
  0
LINE
  5
2DE
330
1B
100
AcDbEntity
 67
     1
  8
Visible Edges
  6
Continuous
 62
     7
370
    50
100
AcDbLine
 10
408.1724686175661
 20
842.0489018687508
 30
0.0
 11
408.1724686175661
 21
546.0114018687508
 31
0.0
  0
LINE
  5
2E0
330
1B
100
AcDbEntity
 67
     1
  8
Visible Edges
  6
Continuous
 62
     7
370
    50
100
AcDbLine
 10
2440.172468617566
 20
546.011401868751
 30
0.0
 11
2440.172468617566
 21
842.048901868751
 31
0.0
  0
LINE
  5
2E2
330
1B
100
AcDbEntity
 67
     1
  8
Visible Edges
  6
Continuous
 62
     7
370
    50
100
AcDbLine
 10
408.1724686175661
 20
544.0114018687507
 30
0.0
 11
408.1724686175661
 21
546.0114018687509
 31
0.0
  0
LINE
  5
2E4
330
1B
100
AcDbEntity
 67
     1
  8
Visible Edges
  6
Continuous
 62
     7
370
    50
100
AcDbLine
 10
2440.172468617566
 20
544.0114018687508
 30
0.0
 11
408.1724686175661
 21
544.0114018687507
 31
0.0
  0
LINE
  5
2E6
330
1B
100
AcDbEntity
 67
     1
  8
Visible Edges
  6
Continuous
 62
     7
370
    50
100
AcDbLine
 10
2440.172468617566
 20
546.011401868751
 30
0.0
 11
2440.172468617566
 21
544.0114018687508
 31
0.0
  0
LINE
  5
2E8
330
1B
100
AcDbEntity
 67
     1
  8
Visible Edges
  6
Continuous
 62
     7
370
    50
100
AcDbLine
 10
2440.172468617566
 20
844.0489018687509
 30
0.0
 11
408.1724686175661
 21
844.0489018687507
 31
0.0
  0
LINE
  5
2EA
330
1B
100
AcDbEntity
 67
     1
  8
Visible Edges
  6
Continuous
 62
     7
370
    50
100
AcDbLine
 10
408.1724686175661
 20
842.0489018687508
 30
0.0
 11
408.1724686175661
 21
844.0489018687507
 31
0.0
  0
LINE
  5
2EC
330
1B
100
AcDbEntity
 67
     1
  8
Visible Edges
  6
Continuous
 62
     7
370
    50
100
AcDbLine
 10
2440.172468617566
 20
844.0489018687509
 30
0.0
 11
2440.172468617566
 21
842.048901868751
 31
0.0
  0
LINE
  5
2EE
330
1B
100
AcDbEntity
 67
     1
  8
Visible Edges
  6
Continuous
 62
     7
370
    50
100
AcDbLine
 10
293.1215069324829
 20
1055.519085476774
 30
0.0
 11
312.1715069324829
 21
1055.519085476774
 31
0.0
  0
LINE
  5
2F0
330
1B
100
AcDbEntity
 67
     1
  8
Visible Edges
  6
Continuous
 62
     7
370
    50
100
AcDbLine
 10
293.1215069324829
 20
1036.469085476774
 30
0.0
 11
293.1215069324829
 21
1055.519085476774
 31
0.0
  0
LINE
  5
2F2
330
1B
100
AcDbEntity
 67
     1
  8
Visible Edges
  6
Continuous
 62
     7
370
    50
100
AcDbLine
 10
312.1715069324829
 20
1036.469085476774
 30
0.0
 11
293.1215069324829
 21
1036.469085476774
 31
0.0
  0
LINE
  5
2F4
330
1B
100
AcDbEntity
 67
     1
  8
Visible Edges
  6
Continuous
 62
     7
370
    50
100
AcDbLine
 10
312.1715069324829
 20
1055.519085476774
 30
0.0
 11
312.1715069324829
 21
1036.469085476774
 31
0.0
  0
LINE
  5
2F6
330
1B
100
AcDbEntity
 67
     1
  8
Visible Edges
  6
Continuous
 62
     7
370
    50
100
AcDbLine
 10
2083.821506932483
 20
1036.469085476774
 30
0.0
 11
2064.771506932483
 21
1036.469085476774
 31
0.0
  0
LINE
  5
2F8
330
1B
100
AcDbEntity
 67
     1
  8
Visible Edges
  6
Continuous
 62
     7
370
    50
100
AcDbLine
 10
2083.821506932483
 20
1055.519085476774
 30
0.0
 11
2083.821506932483
 21
1036.469085476774
 31
0.0
  0
LINE
  5
2FA
330
1B
100
AcDbEntity
 67
     1
  8
Visible Edges
  6
Continuous
 62
     7
370
    50
100
AcDbLine
 10
2064.771506932483
 20
1055.519085476774
 30
0.0
 11
2083.821506932483
 21
1055.519085476774
 31
0.0
  0
LINE
  5
2FC
330
1B
100
AcDbEntity
 67
     1
  8
Visible Edges
  6
Continuous
 62
     7
370
    50
100
AcDbLine
 10
2064.771506932483
 20
1036.469085476774
 30
0.0
 11
2064.771506932483
 21
1055.519085476774
 31
0.0
  0
LINE
  5
2FE
330
1B
100
AcDbEntity
 67
     1
  8
Visible Edges
  6
Continuous
 62
     7
370
    50
100
AcDbLine
 10
2045.721506932483
 20
1036.469085476774
 30
0.0
 11
2026.671506932482
 21
1036.469085476774
 31
0.0
  0
LINE
  5
300
330
1B
100
AcDbEntity
 67
     1
  8
Visible Edges
  6
Continuous
 62
     7
370
    50
100
AcDbLine
 10
2045.721506932483
 20
1055.519085476774
 30
0.0
 11
2045.721506932483
 21
1036.469085476774
 31
0.0
  0
LINE
  5
302
330
1B
100
AcDbEntity
 67
     1
  8
Visible Edges
  6
Continuous
 62
     7
370
    50
100
AcDbLine
 10
2026.671506932482
 20
1055.519085476774
 30
0.0
 11
2045.721506932483
 21
1055.519085476774
 31
0.0
  0
LINE
  5
304
330
1B
100
AcDbEntity
 67
     1
  8
Visible Edges
  6
Continuous
 62
     7
370
    50
100
AcDbLine
 10
2026.671506932482
 20
1036.469085476774
 30
0.0
 11
2026.671506932482
 21
1055.519085476774
 31
0.0
  0
LINE
  5
306
330
1B
100
AcDbEntity
 67
     1
  8
Visible Edges
  6
Continuous
 62
     7
370
    50
100
AcDbLine
 10
2121.921506932483
 20
1036.469085476774
 30
0.0
 11
2102.871506932483
 21
1036.469085476774
 31
0.0
  0
LINE
  5
308
330
1B
100
AcDbEntity
 67
     1
  8
Visible Edges
  6
Continuous
 62
     7
370
    50
100
AcDbLine
 10
2121.921506932483
 20
1055.519085476774
 30
0.0
 11
2121.921506932483
 21
1036.469085476774
 31
0.0
  0
LINE
  5
30A
330
1B
100
AcDbEntity
 67
     1
  8
Visible Edges
  6
Continuous
 62
     7
370
    50
100
AcDbLine
 10
2102.871506932483
 20
1055.519085476774
 30
0.0
 11
2121.921506932483
 21
1055.519085476774
 31
0.0
  0
LINE
  5
30C
330
1B
100
AcDbEntity
 67
     1
  8
Visible Edges
  6
Continuous
 62
     7
370
    50
100
AcDbLine
 10
2102.871506932483
 20
1036.469085476774
 30
0.0
 11
2102.871506932483
 21
1055.519085476774
 31
0.0
  0
LINE
  5
30E
330
1B
100
AcDbEntity
 67
     1
  8
Visible Edges
  6
Continuous
 62
     7
370
    50
100
AcDbLine
 10
369.321506932483
 20
1055.519085476774
 30
0.0
 11
388.371506932483
 21
1055.519085476774
 31
0.0
  0
LINE
  5
310
330
1B
100
AcDbEntity
 67
     1
  8
Visible Edges
  6
Continuous
 62
     7
370
    50
100
AcDbLine
 10
369.321506932483
 20
1036.469085476774
 30
0.0
 11
369.321506932483
 21
1055.519085476774
 31
0.0
  0
LINE
  5
312
330
1B
100
AcDbEntity
 67
     1
  8
Visible Edges
  6
Continuous
 62
     7
370
    50
100
AcDbLine
 10
388.371506932483
 20
1036.469085476774
 30
0.0
 11
369.321506932483
 21
1036.469085476774
 31
0.0
  0
LINE
  5
314
330
1B
100
AcDbEntity
 67
     1
  8
Visible Edges
  6
Continuous
 62
     7
370
    50
100
AcDbLine
 10
388.371506932483
 20
1055.519085476774
 30
0.0
 11
388.371506932483
 21
1036.469085476774
 31
0.0
  0
LINE
  5
316
330
1B
100
AcDbEntity
 67
     1
  8
Visible Edges
  6
Continuous
 62
     7
370
    50
100
AcDbLine
 10
331.221506932483
 20
1055.519085476774
 30
0.0
 11
350.271506932483
 21
1055.519085476774
 31
0.0
  0
LINE
  5
318
330
1B
100
AcDbEntity
 67
     1
  8
Visible Edges
  6
Continuous
 62
     7
370
    50
100
AcDbLine
 10
331.221506932483
 20
1036.469085476774
 30
0.0
 11
331.221506932483
 21
1055.519085476774
 31
0.0
  0
LINE
  5
31A
330
1B
100
AcDbEntity
 67
     1
  8
Visible Edges
  6
Continuous
 62
     7
370
    50
100
AcDbLine
 10
350.271506932483
 20
1036.469085476774
 30
0.0
 11
331.221506932483
 21
1036.469085476774
 31
0.0
  0
LINE
  5
31C
330
1B
100
AcDbEntity
 67
     1
  8
Visible Edges
  6
Continuous
 62
     7
370
    50
100
AcDbLine
 10
350.271506932483
 20
1055.519085476774
 30
0.0
 11
350.271506932483
 21
1036.469085476774
 31
0.0
  0
LINE
  5
31E
330
1B
100
AcDbEntity
 67
     1
  8
Visible Edges
  6
Continuous
 62
     7
370
    50
100
AcDbLine
 10
191.521506932483
 20
1167.025335476773
 30
0.0
 11
191.521506932483
 21
870.987835476774
 31
0.0
  0
LINE
  5
320
330
1B
100
AcDbEntity
 67
     1
  8
Visible Edges
  6
Continuous
 62
     7
370
    50
100
AcDbLine
 10
2223.521506932482
 20
870.9878354767743
 30
0.0
 11
2223.521506932482
 21
1167.025335476774
 31
0.0
  0
LINE
  5
322
330
1B
100
AcDbEntity
 67
     1
  8
Visible Edges
  6
Continuous
 62
     7
370
    50
100
AcDbLine
 10
191.521506932483
 20
868.987835476774
 30
0.0
 11
191.521506932483
 21
870.987835476774
 31
0.0
  0
LINE
  5
324
330
1B
100
AcDbEntity
 67
     1
  8
Visible Edges
  6
Continuous
 62
     7
370
    50
100
AcDbLine
 10
2223.521506932482
 20
868.9878354767742
 30
0.0
 11
191.521506932483
 21
868.987835476774
 31
0.0
  0
LINE
  5
326
330
1B
100
AcDbEntity
 67
     1
  8
Visible Edges
  6
Continuous
 62
     7
370
    50
100
AcDbLine
 10
2223.521506932482
 20
870.9878354767743
 30
0.0
 11
2223.521506932482
 21
868.9878354767742
 31
0.0
  0
LINE
  5
328
330
1B
100
AcDbEntity
 67
     1
  8
Visible Edges
  6
Continuous
 62
     7
370
    50
100
AcDbLine
 10
2223.521506932482
 20
1169.025335476774
 30
0.0
 11
191.521506932483
 21
1169.025335476774
 31
0.0
  0
LINE
  5
32A
330
1B
100
AcDbEntity
 67
     1
  8
Visible Edges
  6
Continuous
 62
     7
370
    50
100
AcDbLine
 10
191.521506932483
 20
1167.025335476773
 30
0.0
 11
191.521506932483
 21
1169.025335476774
 31
0.0
  0
LINE
  5
32C
330
1B
100
AcDbEntity
 67
     1
  8
Visible Edges
  6
Continuous
 62
     7
370
    50
100
AcDbLine
 10
2223.521506932482
 20
1169.025335476774
 30
0.0
 11
2223.521506932482
 21
1167.025335476774
 31
0.0
  0
LINE
  5
32E
330
1B
100
AcDbEntity
 67
     1
  8
Visible Edges
  6
Continuous
 62
     7
370
    50
100
AcDbLine
 10
2724.11136939064
 20
161.795240921102
 30
0.0
 11
2724.11136939064
 21
114.170240921102
 31
0.0
  0
LINE
  5
330
330
1B
100
AcDbEntity
 67
     1
  8
Visible Edges
  6
Continuous
 62
     7
370
    50
100
AcDbLine
 10
2724.11136939064
 20
161.795240921102
 30
0.0
 11
2724.11136939064
 21
114.170240921102
 31
0.0
  0
LINE
  5
332
330
1B
100
AcDbEntity
 67
     1
  8
Visible Edges
  6
Continuous
 62
     7
370
    50
100
AcDbLine
 10
2724.11136939064
 20
114.170240921102
 30
0.0
 11
2705.06136939064
 21
114.170240921102
 31
0.0
  0
LINE
  5
334
330
1B
100
AcDbEntity
 67
     1
  8
Visible Edges
  6
Continuous
 62
     7
370
    50
100
AcDbLine
 10
2705.06136939064
 20
114.170240921102
 30
0.0
 11
2705.06136939064
 21
161.795240921102
 31
0.0
  0
LINE
  5
336
330
1B
100
AcDbEntity
 67
     1
  8
Visible Edges
  6
Continuous
 62
     7
370
    50
100
AcDbLine
 10
1819.23636939064
 20
161.795240921102
 30
0.0
 11
2705.06136939064
 21
161.795240921102
 31
0.0
  0
LINE
  5
338
330
1B
100
AcDbEntity
 67
     1
  8
Visible Edges
  6
Continuous
 62
     7
370
    50
100
AcDbLine
 10
2762.21136939064
 20
161.795240921102
 30
0.0
 11
2762.21136939064
 21
114.170240921102
 31
0.0
  0
LINE
  5
33A
330
1B
100
AcDbEntity
 67
     1
  8
Visible Edges
  6
Continuous
 62
     7
370
    50
100
AcDbLine
 10
2762.21136939064
 20
114.170240921102
 30
0.0
 11
2743.16136939064
 21
114.170240921102
 31
0.0
  0
LINE
  5
33C
330
1B
100
AcDbEntity
 67
     1
  8
Visible Edges
  6
Continuous
 62
     7
370
    50
100
AcDbLine
 10
2743.16136939064
 20
114.170240921102
 30
0.0
 11
2743.16136939064
 21
161.795240921102
 31
0.0
  0
LINE
  5
33E
330
1B
100
AcDbEntity
 67
     1
  8
Visible Edges
  6
Continuous
 62
     7
370
    50
100
AcDbLine
 10
2724.11136939064
 20
161.795240921102
 30
0.0
 11
2743.16136939064
 21
161.795240921102
 31
0.0
  0
LINE
  5
340
330
1B
100
AcDbEntity
 67
     1
  8
Visible Edges
  6
Continuous
 62
     7
370
    50
100
AcDbLine
 10
3590.88636939064
 20
66.54524092110207
 30
0.0
 11
3590.88636939064
 21
114.170240921102
 31
0.0
  0
LINE
  5
342
330
1B
100
AcDbEntity
 67
     1
  8
Visible Edges
  6
Continuous
 62
     7
370
    50
100
AcDbLine
 10
3609.93636939064
 20
66.54524092110207
 30
0.0
 11
3590.88636939064
 21
66.54524092110207
 31
0.0
  0
LINE
  5
344
330
1B
100
AcDbEntity
 67
     1
  8
Visible Edges
  6
Continuous
 62
     7
370
    50
100
AcDbLine
 10
3609.93636939064
 20
114.170240921102
 30
0.0
 11
3609.93636939064
 21
66.54524092110206
 31
0.0
  0
LINE
  5
346
330
1B
100
AcDbEntity
 67
     1
  8
Visible Edges
  6
Continuous
 62
     7
370
    50
100
AcDbLine
 10
3628.98636939064
 20
114.170240921102
 30
0.0
 11
3609.93636939064
 21
114.170240921102
 31
0.0
  0
LINE
  5
348
330
1B
100
AcDbEntity
 67
     1
  8
Visible Edges
  6
Continuous
 62
     7
370
    50
100
AcDbLine
 10
3628.98636939064
 20
66.54524092110207
 30
0.0
 11
3628.98636939064
 21
114.170240921102
 31
0.0
  0
LINE
  5
34A
330
1B
100
AcDbEntity
 67
     1
  8
Visible Edges
  6
Continuous
 62
     7
370
    50
100
AcDbLine
 10
3648.03636939064
 20
66.54524092110207
 30
0.0
 11
3628.98636939064
 21
66.54524092110207
 31
0.0
  0
LINE
  5
34C
330
1B
100
AcDbEntity
 67
     1
  8
Visible Edges
  6
Continuous
 62
     7
370
    50
100
AcDbLine
 10
3648.03636939064
 20
161.795240921102
 30
0.0
 11
3648.03636939064
 21
66.54524092110206
 31
0.0
  0
LINE
  5
34E
330
1B
100
AcDbEntity
 67
     1
  8
Visible Edges
  6
Continuous
 62
     7
370
    50
100
AcDbLine
 10
2762.211369390639
 20
161.795240921102
 30
0.0
 11
3648.036369390639
 21
161.795240921102
 31
0.0
  0
LINE
  5
350
330
1B
100
AcDbEntity
 67
     1
  8
Visible Edges
  6
Continuous
 62
     7
370
    50
100
AcDbLine
 10
1819.23636939064
 20
66.54524092110207
 30
0.0
 11
1819.23636939064
 21
161.795240921102
 31
0.0
  0
LINE
  5
352
330
1B
100
AcDbEntity
 67
     1
  8
Visible Edges
  6
Continuous
 62
     7
370
    50
100
AcDbLine
 10
1838.286369390639
 20
66.54524092110207
 30
0.0
 11
1819.236369390639
 21
66.54524092110207
 31
0.0
  0
LINE
  5
354
330
1B
100
AcDbEntity
 67
     1
  8
Visible Edges
  6
Continuous
 62
     7
370
    50
100
AcDbLine
 10
1838.286369390639
 20
114.170240921102
 30
0.0
 11
1838.286369390639
 21
66.54524092110206
 31
0.0
  0
LINE
  5
356
330
1B
100
AcDbEntity
 67
     1
  8
Visible Edges
  6
Continuous
 62
     7
370
    50
100
AcDbLine
 10
1857.33636939064
 20
114.170240921102
 30
0.0
 11
1838.28636939064
 21
114.170240921102
 31
0.0
  0
LINE
  5
358
330
1B
100
AcDbEntity
 67
     1
  8
Visible Edges
  6
Continuous
 62
     7
370
    50
100
AcDbLine
 10
1857.33636939064
 20
66.54524092110207
 30
0.0
 11
1857.33636939064
 21
114.170240921102
 31
0.0
  0
LINE
  5
35A
330
1B
100
AcDbEntity
 67
     1
  8
Visible Edges
  6
Continuous
 62
     7
370
    50
100
AcDbLine
 10
1876.386369390639
 20
66.54524092110207
 30
0.0
 11
1857.336369390639
 21
66.54524092110207
 31
0.0
  0
LINE
  5
35C
330
1B
100
AcDbEntity
 67
     1
  8
Visible Edges
  6
Continuous
 62
     7
370
    50
100
AcDbLine
 10
1876.386369390639
 20
114.170240921102
 30
0.0
 11
1876.386369390639
 21
66.54524092110206
 31
0.0
  0
LINE
  5
35E
330
1B
100
AcDbEntity
 67
     1
  8
Visible Edges
  6
Continuous
 62
     7
370
    50
100
AcDbLine
 10
1895.43636939064
 20
114.170240921102
 30
0.0
 11
1876.38636939064
 21
114.170240921102
 31
0.0
  0
LINE
  5
360
330
1B
100
AcDbEntity
 67
     1
  8
Visible Edges
  6
Continuous
 62
     7
370
    50
100
AcDbLine
 10
1895.43636939064
 20
66.54524092110209
 30
0.0
 11
1895.43636939064
 21
114.170240921102
 31
0.0
  0
LINE
  5
362
330
1B
100
AcDbEntity
 67
     1
  8
Visible Edges
  6
Continuous
 62
     7
370
    50
100
AcDbLine
 10
3571.83636939064
 20
66.54524092110209
 30
0.0
 11
1895.436369390639
 21
66.54524092110209
 31
0.0
  0
LINE
  5
364
330
1B
100
AcDbEntity
 67
     1
  8
Visible Edges
  6
Continuous
 62
     7
370
    50
100
AcDbLine
 10
3571.83636939064
 20
114.170240921102
 30
0.0
 11
3571.83636939064
 21
66.54524092110209
 31
0.0
  0
LINE
  5
366
330
1B
100
AcDbEntity
 67
     1
  8
Visible Edges
  6
Continuous
 62
     7
370
    50
100
AcDbLine
 10
3590.88636939064
 20
114.170240921102
 30
0.0
 11
3571.83636939064
 21
114.170240921102
 31
0.0
  0
LINE
  5
368
330
1B
100
AcDbEntity
 67
     1
  8
Visible Edges
  6
Continuous
 62
     7
370
    50
100
AcDbLine
 10
3579.79872830273
 20
776.8341516038936
 30
0.0
 11
3189.27372830273
 21
776.8341516038936
 31
0.0
  0
LINE
  5
36A
330
1B
100
AcDbEntity
 67
     1
  8
Visible Edges
  6
Continuous
 62
     7
370
    50
100
AcDbLine
 10
3579.79872830273
 20
776.8341516038936
 30
0.0
 11
3189.27372830273
 21
776.8341516038936
 31
0.0
  0
LINE
  5
36C
330
1B
100
AcDbEntity
 67
     1
  8
Visible Edges
  6
Continuous
 62
     7
370
    50
100
AcDbLine
 10
3189.27372830273
 20
776.8341516038936
 30
0.0
 11
3189.27372830273
 21
795.8841516038935
 31
0.0
  0
LINE
  5
36E
330
1B
100
AcDbEntity
 67
     1
  8
Visible Edges
  6
Continuous
 62
     7
370
    50
100
AcDbLine
 10
3189.27372830273
 20
795.8841516038935
 30
0.0
 11
3579.79872830273
 21
795.8841516038935
 31
0.0
  0
LINE
  5
370
330
1B
100
AcDbEntity
 67
     1
  8
Visible Edges
  6
Continuous
 62
     7
370
    50
100
AcDbLine
 10
3579.79872830273
 20
814.9341516038935
 30
0.0
 11
3579.79872830273
 21
795.8841516038935
 31
0.0
  0
LINE
  5
372
330
1B
100
AcDbEntity
 67
     1
  8
Visible Edges
  6
Continuous
 62
     7
370
    50
100
AcDbLine
 10
2817.79872830273
 20
814.9341516038935
 30
0.0
 11
3579.79872830273
 21
814.9341516038935
 31
0.0
  0
LINE
  5
374
330
1B
100
AcDbEntity
 67
     1
  8
Visible Edges
  6
Continuous
 62
     7
370
    50
100
AcDbLine
 10
2817.79872830273
 20
757.7841516038936
 30
0.0
 11
2817.79872830273
 21
814.9341516038935
 31
0.0
  0
LINE
  5
376
330
1B
100
AcDbEntity
 67
     1
  8
Visible Edges
  6
Continuous
 62
     7
370
    50
100
AcDbLine
 10
2817.79872830273
 20
757.7841516038936
 30
0.0
 11
2865.423728302729
 21
757.7841516038936
 31
0.0
  0
LINE
  5
378
330
1B
100
AcDbEntity
 67
     1
  8
Visible Edges
  6
Continuous
 62
     7
370
    50
100
AcDbLine
 10
2865.423728302729
 20
757.7841516038936
 30
0.0
 11
2865.423728302729
 21
738.7341516038936
 31
0.0
  0
LINE
  5
37A
330
1B
100
AcDbEntity
 67
     1
  8
Visible Edges
  6
Continuous
 62
     7
370
    50
100
AcDbLine
 10
2865.423728302729
 20
738.7341516038936
 30
0.0
 11
2817.79872830273
 21
738.7341516038936
 31
0.0
  0
LINE
  5
37C
330
1B
100
AcDbEntity
 67
     1
  8
Visible Edges
  6
Continuous
 62
     7
370
    50
100
AcDbLine
 10
2817.79872830273
 20
719.6841516038935
 30
0.0
 11
2817.79872830273
 21
738.7341516038936
 31
0.0
  0
LINE
  5
37E
330
1B
100
AcDbEntity
 67
     1
  8
Visible Edges
  6
Continuous
 62
     7
370
    50
100
AcDbLine
 10
3579.79872830273
 20
719.6841516038936
 30
0.0
 11
2817.79872830273
 21
719.6841516038935
 31
0.0
  0
LINE
  5
380
330
1B
100
AcDbEntity
 67
     1
  8
Visible Edges
  6
Continuous
 62
     7
370
    50
100
AcDbLine
 10
3579.79872830273
 20
738.7341516038936
 30
0.0
 11
3579.79872830273
 21
719.6841516038936
 31
0.0
  0
LINE
  5
382
330
1B
100
AcDbEntity
 67
     1
  8
Visible Edges
  6
Continuous
 62
     7
370
    50
100
AcDbLine
 10
3579.79872830273
 20
738.7341516038936
 30
0.0
 11
3513.123728302729
 21
738.7341516038936
 31
0.0
  0
LINE
  5
384
330
1B
100
AcDbEntity
 67
     1
  8
Visible Edges
  6
Continuous
 62
     7
370
    50
100
AcDbLine
 10
3513.123728302729
 20
738.7341516038936
 30
0.0
 11
3513.123728302729
 21
757.7841516038936
 31
0.0
  0
LINE
  5
386
330
1B
100
AcDbEntity
 67
     1
  8
Visible Edges
  6
Continuous
 62
     7
370
    50
100
AcDbLine
 10
3513.123728302729
 20
757.7841516038936
 30
0.0
 11
3579.79872830273
 21
757.7841516038936
 31
0.0
  0
LINE
  5
388
330
1B
100
AcDbEntity
 67
     1
  8
Visible Edges
  6
Continuous
 62
     7
370
    50
100
AcDbLine
 10
3579.79872830273
 20
776.8341516038936
 30
0.0
 11
3579.79872830273
 21
757.7841516038936
 31
0.0
  0
LINE
  5
38A
330
1B
100
AcDbEntity
 67
     1
  8
Visible Edges
  6
Continuous
 62
     7
370
    50
100
AcDbLine
 10
3547.971423423383
 20
643.02032600059
 30
0.0
 11
3176.496423423383
 21
643.02032600059
 31
0.0
  0
LINE
  5
38C
330
1B
100
AcDbEntity
 67
     1
  8
Visible Edges
  6
Continuous
 62
     7
370
    50
100
AcDbLine
 10
3547.971423423383
 20
643.02032600059
 30
0.0
 11
3176.496423423383
 21
643.02032600059
 31
0.0
  0
LINE
  5
38E
330
1B
100
AcDbEntity
 67
     1
  8
Visible Edges
  6
Continuous
 62
     7
370
    50
100
AcDbLine
 10
3176.496423423383
 20
643.02032600059
 30
0.0
 11
3176.496423423383
 21
662.0703260005901
 31
0.0
  0
LINE
  5
390
330
1B
100
AcDbEntity
 67
     1
  8
Visible Edges
  6
Continuous
 62
     7
370
    50
100
AcDbLine
 10
3176.496423423383
 20
662.0703260005901
 30
0.0
 11
3547.971423423383
 21
662.0703260005901
 31
0.0
  0
LINE
  5
392
330
1B
100
AcDbEntity
 67
     1
  8
Visible Edges
  6
Continuous
 62
     7
370
    50
100
AcDbLine
 10
3547.971423423383
 20
681.1203260005901
 30
0.0
 11
3547.971423423383
 21
662.0703260005901
 31
0.0
  0
LINE
  5
394
330
1B
100
AcDbEntity
 67
     1
  8
Visible Edges
  6
Continuous
 62
     7
370
    50
100
AcDbLine
 10
2805.021423423383
 20
681.1203260005901
 30
0.0
 11
3547.971423423383
 21
681.1203260005901
 31
0.0
  0
LINE
  5
396
330
1B
100
AcDbEntity
 67
     1
  8
Visible Edges
  6
Continuous
 62
     7
370
    50
100
AcDbLine
 10
2805.021423423383
 20
623.97032600059
 30
0.0
 11
2805.021423423383
 21
681.1203260005901
 31
0.0
  0
LINE
  5
398
330
1B
100
AcDbEntity
 67
     1
  8
Visible Edges
  6
Continuous
 62
     7
370
    50
100
AcDbLine
 10
2805.021423423383
 20
623.97032600059
 30
0.0
 11
2852.646423423383
 21
623.97032600059
 31
0.0
  0
LINE
  5
39A
330
1B
100
AcDbEntity
 67
     1
  8
Visible Edges
  6
Continuous
 62
     7
370
    50
100
AcDbLine
 10
2852.646423423383
 20
623.97032600059
 30
0.0
 11
2852.646423423383
 21
604.92032600059
 31
0.0
  0
LINE
  5
39C
330
1B
100
AcDbEntity
 67
     1
  8
Visible Edges
  6
Continuous
 62
     7
370
    50
100
AcDbLine
 10
2852.646423423383
 20
604.92032600059
 30
0.0
 11
2805.021423423383
 21
604.92032600059
 31
0.0
  0
LINE
  5
39E
330
1B
100
AcDbEntity
 67
     1
  8
Visible Edges
  6
Continuous
 62
     7
370
    50
100
AcDbLine
 10
2805.021423423383
 20
585.87032600059
 30
0.0
 11
2805.021423423383
 21
604.92032600059
 31
0.0
  0
LINE
  5
3A0
330
1B
100
AcDbEntity
 67
     1
  8
Visible Edges
  6
Continuous
 62
     7
370
    50
100
AcDbLine
 10
3547.971423423383
 20
585.8703260005902
 30
0.0
 11
2805.021423423383
 21
585.87032600059
 31
0.0
  0
LINE
  5
3A2
330
1B
100
AcDbEntity
 67
     1
  8
Visible Edges
  6
Continuous
 62
     7
370
    50
100
AcDbLine
 10
3547.971423423383
 20
604.92032600059
 30
0.0
 11
3547.971423423383
 21
585.8703260005902
 31
0.0
  0
LINE
  5
3A4
330
1B
100
AcDbEntity
 67
     1
  8
Visible Edges
  6
Continuous
 62
     7
370
    50
100
AcDbLine
 10
3547.971423423383
 20
604.92032600059
 30
0.0
 11
3500.346423423383
 21
604.92032600059
 31
0.0
  0
LINE
  5
3A6
330
1B
100
AcDbEntity
 67
     1
  8
Visible Edges
  6
Continuous
 62
     7
370
    50
100
AcDbLine
 10
3500.346423423383
 20
604.92032600059
 30
0.0
 11
3500.346423423383
 21
623.97032600059
 31
0.0
  0
LINE
  5
3A8
330
1B
100
AcDbEntity
 67
     1
  8
Visible Edges
  6
Continuous
 62
     7
370
    50
100
AcDbLine
 10
3500.346423423383
 20
623.97032600059
 30
0.0
 11
3547.971423423383
 21
623.97032600059
 31
0.0
  0
LINE
  5
3AA
330
1B
100
AcDbEntity
 67
     1
  8
Visible Edges
  6
Continuous
 62
     7
370
    50
100
AcDbLine
 10
3547.971423423383
 20
643.02032600059
 30
0.0
 11
3547.971423423383
 21
623.97032600059
 31
0.0
  0
ENDSEC
  0
SECTION
  2
OBJECTS
  0
DICTIONARY
  5
C
330
0
100
AcDbDictionary
281
     1
  3
ACAD_GROUP
350
D
  3
ACAD_LAYOUT
350
1A
  3
ACAD_MLINESTYLE
350
17
  3
ACAD_PLOTSETTINGS
350
19
  3
ACAD_PLOTSTYLENAME
350
E
  3
AcDbVariableDictionary
350
3B1
  3
DWGPROPS
350
3B0
  0
DICTIONARY
  5
D
102
{ACAD_REACTORS
330
C
102
}
330
C
100
AcDbDictionary
281
     1
  0
DICTIONARY
  5
1A
102
{ACAD_REACTORS
330
C
102
}
330
C
100
AcDbDictionary
281
     1
  3
Layout1
350
1E
  3
Layout2
350
26
  3
Model
350
22
  0
DICTIONARY
  5
17
102
{ACAD_REACTORS
330
C
102
}
330
C
100
AcDbDictionary
281
     1
  3
Standard
350
18
  0
DICTIONARY
  5
19
102
{ACAD_REACTORS
330
C
102
}
330
C
100
AcDbDictionary
281
     1
  0
ACDBDICTIONARYWDFLT
  5
E
102
{ACAD_REACTORS
330
C
102
}
330
C
100
AcDbDictionary
281
     1
  3
Normal
350
F
100
AcDbDictionaryWithDefault
340
F
  0
DICTIONARY
  5
3B1
102
{ACAD_REACTORS
330
C
102
}
330
C
100
AcDbDictionary
281
     1
  3
DIMASSOC
350
3B3
  3
HIDETEXT
350
3B2
  0
XRECORD
  5
3B0
102
{ACAD_REACTORS
330
C
102
}
330
C
100
AcDbXrecord
280
     1
  1
DWGPROPS COOKIE
  2

  3

  4
Administrator
  6

  7

  8

  9

300
=
301
=
302
=
303
=
304
=
305
=
306
=
307
=
308
=
309
=
 40
0.0000378935185185
 41
2454185.001013772
 42
2454185.001013772
  1

 90
        0
  0
LAYOUT
  5
1E
102
{ACAD_REACTORS
330
1A
102
}
330
1A
100
AcDbPlotSettings
  1

  2

  4

  6

 40
0.0
 41
0.0
 42
0.0
 43
0.0
 44
0.0
 45
0.0
 46
0.0
 47
0.0
 48
0.0
 49
0.0
140
0.0
141
0.0
142
1.0
143
1.0
 70
   688
 72
     0
 73
     0
 74
     5
  7

 75
    16
147
1.0
148
0.0
149
0.0
100
AcDbLayout
  1
Layout1
 70
     1
 71
     1
 10
0.0
 20
0.0
 11
709.676
 21
548.3859999999999
 12
0.0
 22
0.0
 32
0.0
 14
0.0
 24
0.0
 34
0.0
 15
709.676
 25
548.3859999999999
 35
0.0
146
0.0
 13
0.0
 23
0.0
 33
0.0
 16
1.0
 26
0.0
 36
0.0
 17
0.0
 27
1.0
 37
0.0
 76
     0
330
1B
  0
LAYOUT
  5
26
102
{ACAD_REACTORS
330
1A
102
}
330
1A
100
AcDbPlotSettings
  1

  2

  4

  6

 40
0.0
 41
0.0
 42
0.0
 43
0.0
 44
0.0
 45
0.0
 46
0.0
 47
0.0
 48
0.0
 49
0.0
140
0.0
141
0.0
142
1.0
143
1.0
 70
   688
 72
     0
 73
     0
 74
     5
  7

 75
    16
147
1.0
148
0.0
149
0.0
100
AcDbLayout
  1
Layout2
 70
     1
 71
     2
 10
0.0
 20
0.0
 11
12.0
 21
9.0
 12
0.0
 22
0.0
 32
0.0
 14
0.0
 24
0.0
 34
0.0
 15
0.0
 25
0.0
 35
0.0
146
0.0
 13
0.0
 23
0.0
 33
0.0
 16
1.0
 26
0.0
 36
0.0
 17
0.0
 27
1.0
 37
0.0
 76
     0
330
23
  0
LAYOUT
  5
22
102
{ACAD_REACTORS
330
1A
102
}
330
1A
100
AcDbPlotSettings
  1

  2

  4

  6

 40
0.0
 41
0.0
 42
0.0
 43
0.0
 44
0.0
 45
0.0
 46
0.0
 47
0.0
 48
0.0
 49
0.0
140
0.0
141
0.0
142
1.0
143
1.0
 70
  1712
 72
     0
 73
     0
 74
     0
  7

 75
     0
147
1.0
148
0.0
149
0.0
100
AcDbLayout
  1
Model
 70
     1
 71
     0
 10
0.0
 20
0.0
 11
12.0
 21
9.0
 12
0.0
 22
0.0
 32
0.0
 14
0.0
 24
0.0
 34
0.0
 15
0.0
 25
0.0
 35
0.0
146
0.0
 13
0.0
 23
0.0
 33
0.0
 16
1.0
 26
0.0
 36
0.0
 17
0.0
 27
1.0
 37
0.0
 76
     0
330
1F
  0
MLINESTYLE
  5
18
102
{ACAD_REACTORS
330
17
102
}
330
17
100
AcDbMlineStyle
  2
STANDARD
 70
     0
  3

 62
   256
 51
90.0
 52
90.0
 71
     2
 49
0.5
 62
   256
  6
BYLAYER
 49
-0.5
 62
   256
  6
BYLAYER
  0
ACDBPLACEHOLDER
  5
F
102
{ACAD_REACTORS
330
E
102
}
330
E
  0
DICTIONARYVAR
  5
3B3
102
{ACAD_REACTORS
330
3B1
102
}
330
3B1
100
DictionaryVariables
280
     0
  1
2
  0
DICTIONARYVAR
  5
3B2
102
{ACAD_REACTORS
330
3B1
102
}
330
3B1
100
DictionaryVariables
280
     0
  1
1
  0
ENDSEC
  0
EOF
