0
SECTION
2
HEADER
9
$ACADVER
1
AC1014
9
$HANDSEED
5
FFFF
0
ENDSEC
0
SECTION
2
TABLES
0
TABLE
2
VPORT
5
8
100
AcDbSymbolTable
0
ENDTAB
0
TABLE
2
LTYPE
5
5
100
AcDbSymbolTable
0
LTYPE
5
14
100
AcDbSymbolTableRecord
100
AcDbLinetypeTableRecord
2
BYBLOCK
70
0
0
LTYPE
5
15
100
AcDbSymbolTableRecord
100
AcDbLinetypeTableRecord
2
BYLAYER
70
0
0
ENDTAB
0
TABLE
2
LAYER
5
2
100
AcDbSymbolTable
70
2
0
LAYER
5
50
100
AcDbSymbolTableRecord
100
AcDbLayerTableRecord
2
0
70
0
6
CONTINUOUS
0
ENDTAB
0
TABLE
2
STYLE
5
3
100
AcDbSymbolTable
70
1
0
STYLE
5
11
100
AcDbSymbolTableRecord
100
AcDbTextStyleTableRecord
2
STANDARD
70
0
0
ENDTAB
0
TABLE
2
VIEW
5
6
100
AcDbSymbolTable
70
0
0
ENDTAB
0
TABLE
2
UCS
5
7
100
AcDbSymbolTable
70
0
0
ENDTAB
0
TABLE
2
APPID
5
9
100
AcDbSymbolTable
70
2
0
APPID
5
12
100
AcDbSymbolTableRecord
100
AcDbRegAppTableRecord
2
ACAD
70
0
0
ENDTAB
0
TABLE
2
DIMSTYLE
5
A
100
AcDbSymbolTable
70
1
0
ENDTAB
0
TABLE
2
BLOCK_RECORD
5
1
100
AcDbSymbolTable
70
1
0
BLOCK_RECORD
5
1F
100
AcDbSymbolTableRecord
100
AcDbBlockTableRecord
2
*MODEL_SPACE
0
BLOCK_RECORD
5
1B
100
AcDbSymbolTableRecord
100
AcDbBlockTableRecord
2
*PAPER_SPACE
0
ENDTAB
0
ENDSEC
0
SECTION
2
BLOCKS
0
BLOCK
5
20
100
AcDbEntity
100
AcDbBlockBegin
2
*MODEL_SPACE
0
ENDBLK
5
21
100
AcDbEntity
100
AcDbBlockEnd
0
BLOCK
5
1C
100
AcDbEntity
100
AcDbBlockBegin
2
*PAPER_SPACE
0
ENDBLK
5
1D
100
AcDbEntity
100
AcDbBlockEnd
0
ENDSEC
0
SECTION
2
ENTITIES
0
LINE
5
100
100
AcDbEntity
8
0
100
AcDbLine
10
-25.000000372529026
20
25.000000298023217
30
0
11
64.999466986055822
21
25.000000298023195
31
0
0
LINE
5
101
100
AcDbEntity
8
0
100
AcDbLine
10
69.999466986055808
20
20.000000298023203
30
0
11
69.999466986055808
21
9.9999999999999964
31
0
0
LINE
5
102
100
AcDbEntity
8
0
100
AcDbLine
10
50.000000052140798
20
9.9999980714557033
30
0
11
-10.000000284781599
21
9.9999980714557086
31
0
0
LINE
5
103
100
AcDbEntity
8
0
100
AcDbLine
10
-30.000000372529016
20
9.9999999999999982
30
0
11
-30.000000372529016
21
20.000000298023224
31
0
0
LINE
5
104
100
AcDbEntity
8
0
100
AcDbLine
10
-30.000000372529016
20
9.9999999999999982
30
0
11
-15
21
9.9999999999999982
31
0
0
LINE
5
105
100
AcDbEntity
8
0
100
AcDbLine
10
-15.000000284781596
20
4.9999980714557068
30
0
11
-15.000000284781599
21
2.9802323012521025e-007
31
0
0
LINE
5
106
100
AcDbEntity
8
0
100
AcDbLine
10
-20.000000284781599
20
-4.9999997019767619
30
0
11
-25.000000372529023
21
-4.9999997019767841
31
0
0
LINE
5
107
100
AcDbEntity
8
0
100
AcDbLine
10
-30.000000372529023
20
2.9802320955464243e-007
30
0
11
-30.000000372529016
21
9.9999999999999982
31
0
0
LINE
5
108
100
AcDbEntity
8
0
100
AcDbLine
10
69.999466986055808
20
9.9999999999999964
30
0
11
54.999999999999986
21
9.9999999999999964
31
0
0
LINE
5
109
100
AcDbEntity
8
0
100
AcDbLine
10
55.00000005214082
20
4.9999980714556873
30
0
11
55.000000051191272
21
2.9802318896211951e-007
31
0
0
LINE
5
110
100
AcDbEntity
8
0
100
AcDbLine
10
60.000000051191265
20
-4.9999997019767939
30
0
11
64.999466986055822
21
-4.9999997019767637
31
0
0
LINE
5
111
100
AcDbEntity
8
0
100
AcDbLine
10
69.999466986055808
20
2.9802323261995944e-007
30
0
11
69.999466986055808
21
9.9999999999999964
31
0
0
ARC
5
112
100
AcDbEntity
8
0
100
AcDbCircle
10
-25.000000372529026
20
20.000000298023224
30
0
40
4.9999999999999911
100
AcDbArc
50
90
51
180
0
ARC
5
113
100
AcDbEntity
8
0
100
AcDbCircle
10
-25.000000372529023
20
2.9802320986038744e-007
30
0
40
5
100
AcDbArc
50
180
51
270
0
ARC
5
114
100
AcDbEntity
8
0
100
AcDbCircle
10
64.999466986055808
20
2.9802323261995944e-007
30
0
40
4.9999999999999964
100
AcDbArc
50
-89.999999999999844
51
0
0
ARC
5
115
100
AcDbEntity
8
0
100
AcDbCircle
10
64.999466986055822
20
20.000000298023203
30
0
40
4.9999999999999911
100
AcDbArc
50
0
51
90
0
LINE
5
116
100
AcDbEntity
8
0
100
AcDbLine
10
-15
20
9.9999999999999982
30
0
11
54.999999999999986
21
9.9999999999999964
31
0
0
ARC
5
117
100
AcDbEntity
8
0
100
AcDbCircle
10
-10.000000284781594
20
4.999998071455706
30
0
40
5.0000000000000018
100
AcDbArc
50
90.000000000000057
51
180
0
ARC
5
118
100
AcDbEntity
8
0
100
AcDbCircle
10
50.000000052140791
20
4.9999980714556873
30
0
40
5.0000000000000266
100
AcDbArc
50
0
51
89.999999999999929
0
ARC
5
119
100
AcDbEntity
8
0
100
AcDbCircle
10
-20.000000284781589
20
2.9802323012523131e-007
30
0
40
4.999999999999992
100
AcDbArc
50
269.99999999999989
51
360
0
ARC
5
120
100
AcDbEntity
8
0
100
AcDbCircle
10
60.000000051191265
20
2.9802318834981634e-007
30
0
40
4.9999999999999911
100
AcDbArc
50
180
51
270
0
CIRCLE
5
121
100
AcDbEntity
8
0
100
AcDbCircle
10
-20.000000284781589
20
2.9802323012523131e-007
30
0
40
0.99999999999999867
0
CIRCLE
5
122
100
AcDbEntity
8
0
100
AcDbCircle
10
60.000000051191265
20
2.9802318834981634e-007
30
0
40
0.99999999999999656
0
CIRCLE
5
123
100
AcDbEntity
8
0
100
AcDbCircle
10
20
20
15
30
0
40
0.99999999999999989
0
CIRCLE
5
124
100
AcDbEntity
8
0
100
AcDbCircle
10
-25.00000037252903
20
15.000000223517418
30
0
40
1.0000000000000007
0
CIRCLE
5
125
100
AcDbEntity
8
0
100
AcDbCircle
10
65.000000968575478
20
15.000000223517418
30
0
40
0.99999999999999845
0
ENDSEC
0
SECTION
2
OBJECTS
0
DICTIONARY
5
C
100
AcDbDictionary
3
ACAD_GROUP
350
D
3
ACAD_MLINESTYLE
350
17
0
DICTIONARY
5
D
100
AcDbDictionary
0
DICTIONARY
5
1A
330
C
100
AcDbDictionary
0
DICTIONARY
5
17
100
AcDbDictionary
0
ENDSEC
0
EOF
