  0
SECTION
  2
HEADER
  9
$ACADVER
  1
AC1012
  9
$DWGCODEPAGE
  3
ascii
  9
$INSBASE
 10
0.0
 20
0.0
 30
0.0
  9
$EXTMIN
 10
1.000000000000000E+20
 20
1.000000000000000E+20
 30
1.000000000000000E+20
  9
$EXTMAX
 10
-1.000000000000000E+20
 20
-1.000000000000000E+20
 30
-1.000000000000000E+20
  9
$LIMMIN
 10
0.0
 20
0.0
  9
$LIMMAX
 10
12.0
 20
9.0
  9
$ORTHOMODE
 70
     0
  9
$REGENMODE
 70
     1
  9
$FILLMODE
 70
     1
  9
$QTEXTMODE
 70
     0
  9
$MIRRTEXT
 70
     1
  9
$DRAGMODE
 70
     2
  9
$LTSCALE
 40
1.0
  9
$OSMODE
 70
    37
  9
$ATTMODE
 70
     1
  9
$TEXTSIZE
 40
0.2
  9
$TRACEWID
 40
0.05
  9
$TEXTSTYLE
  7
STANDARD
  9
$CLAYER
  8
0
  9
$CELTYPE
  6
BYLAYER
  9
$CECOLOR
 62
   256
  9
$CELTSCALE
 40
1.0
  9
$DELOBJ
 70
     1
  9
$DISPSILH
 70
     0
  9
$DIMSCALE
 40
1.0
  9
$DIMASZ
 40
0.18
  9
$DIMEXO
 40
0.0625
  9
$DIMDLI
 40
0.38
  9
$DIMRND
 40
0.0
  9
$DIMDLE
 40
0.0
  9
$DIMEXE
 40
0.18
  9
$DIMTP
 40
0.0
  9
$DIMTM
 40
0.0
  9
$DIMTXT
 40
0.18
  9
$DIMCEN
 40
0.09
  9
$DIMTSZ
 40
0.0
  9
$DIMTOL
 70
     0
  9
$DIMLIM
 70
     0
  9
$DIMTIH
 70
     1
  9
$DIMTOH
 70
     1
  9
$DIMSE1
 70
     0
  9
$DIMSE2
 70
     0
  9
$DIMTAD
 70
     0
  9
$DIMZIN
 70
     0
  9
$DIMBLK
  1

  9
$DIMASO
 70
     1
  9
$DIMSHO
 70
     1
  9
$DIMPOST
  1

  9
$DIMAPOST
  1

  9
$DIMALT
 70
     0
  9
$DIMALTD
 70
     2
  9
$DIMALTF
 40
25.4
  9
$DIMLFAC
 40
1.0
  9
$DIMTOFL
 70
     0
  9
$DIMTVP
 40
0.0
  9
$DIMTIX
 70
     0
  9
$DIMSOXD
 70
     0
  9
$DIMSAH
 70
     0
  9
$DIMBLK1
  1

  9
$DIMBLK2
  1

  9
$DIMSTYLE
  2
STANDARD
  9
$DIMCLRD
 70
     0
  9
$DIMCLRE
 70
     0
  9
$DIMCLRT
 70
     0
  9
$DIMTFAC
 40
1.0
  9
$DIMGAP
 40
0.09
  9
$DIMJUST
 70
     0
  9
$DIMSD1
 70
     0
  9
$DIMSD2
 70
     0
  9
$DIMTOLJ
 70
     1
  9
$DIMTZIN
 70
     0
  9
$DIMALTZ
 70
     0
  9
$DIMALTTZ
 70
     0
  9
$DIMFIT
 70
     3
  9
$DIMUPT
 70
     0
  9
$DIMUNIT
 70
     2
  9
$DIMDEC
 70
     4
  9
$DIMTDEC
 70
     4
  9
$DIMALTU
 70
     2
  9
$DIMALTTD
 70
     2
  9
$DIMTXSTY
  7
STANDARD
  9
$DIMAUNIT
 70
     0
  9
$LUNITS
 70
     2
  9
$LUPREC
 70
     4
  9
$SKETCHINC
 40
0.1
  9
$FILLETRAD
 40
0.5
  9
$AUNITS
 70
     0
  9
$AUPREC
 70
     0
  9
$MENU
  1
.
  9
$ELEVATION
 40
0.0
  9
$PELEVATION
 40
0.0
  9
$THICKNESS
 40
0.0
  9
$LIMCHECK
 70
     0
  9
$CHAMFERA
 40
0.5
  9
$CHAMFERB
 40
0.5
  9
$CHAMFERC
 40
1.0
  9
$CHAMFERD
 40
0.0
  9
$SKPOLY
 70
     0
  9
$TDCREATE
 40
2455168.753472222
  9
$TDUPDATE
 40
2455168.753472234
  9
$TDINDWG
 40
0.0000000116
  9
$TDUSRTIMER
 40
0.0000000116
  9
$USRTIMER
 70
     1
  9
$ANGBASE
 50
0.0
  9
$ANGDIR
 70
     0
  9
$PDMODE
 70
     0
  9
$PDSIZE
 40
0.0
  9
$PLINEWID
 40
0.0
  9
$COORDS
 70
     1
  9
$SPLFRAME
 70
     0
  9
$SPLINETYPE
 70
     6
  9
$SPLINESEGS
 70
     8
  9
$ATTDIA
 70
     0
  9
$ATTREQ
 70
     1
  9
$HANDLING
 70
     1
  9
$HANDSEED
  5
62
  9
$SURFTAB1
 70
     6
  9
$SURFTAB2
 70
     6
  9
$SURFTYPE
 70
     6
  9
$SURFU
 70
     6
  9
$SURFV
 70
     6
  9
$UCSNAME
  2

  9
$UCSORG
 10
0.0
 20
0.0
 30
0.0
  9
$UCSXDIR
 10
1.0
 20
0.0
 30
0.0
  9
$UCSYDIR
 10
0.0
 20
1.0
 30
0.0
  9
$PUCSNAME
  2

  9
$PUCSORG
 10
0.0
 20
0.0
 30
0.0
  9
$PUCSXDIR
 10
1.0
 20
0.0
 30
0.0
  9
$PUCSYDIR
 10
0.0
 20
1.0
 30
0.0
  9
$USERI1
 70
     0
  9
$USERI2
 70
     0
  9
$USERI3
 70
     0
  9
$USERI4
 70
     0
  9
$USERI5
 70
     0
  9
$USERR1
 40
0.0
  9
$USERR2
 40
0.0
  9
$USERR3
 40
0.0
  9
$USERR4
 40
0.0
  9
$USERR5
 40
0.0
  9
$WORLDVIEW
 70
     1
  9
$SHADEDGE
 70
     3
  9
$SHADEDIF
 70
    70
  9
$TILEMODE
 70
     1
  9
$MAXACTVP
 70
    64
  9
$PINSBASE
 10
0.0
 20
0.0
 30
0.0
  9
$PLIMCHECK
 70
     0
  9
$PEXTMIN
 10
1.000000000000000E+20
 20
1.000000000000000E+20
 30
1.000000000000000E+20
  9
$PEXTMAX
 10
-1.000000000000000E+20
 20
-1.000000000000000E+20
 30
-1.000000000000000E+20
  9
$PLIMMIN
 10
0.0
 20
0.0
  9
$PLIMMAX
 10
12.0
 20
9.0
  9
$UNITMODE
 70
     0
  9
$VISRETAIN
 70
     1
  9
$PLINEGEN
 70
     0
  9
$PSLTSCALE
 70
     1
  9
$TREEDEPTH
 70
  3020
  9
$PICKSTYLE
 70
     1
  9
$CMLSTYLE
  2
STANDARD
  9
$CMLJUST
 70
     0
  9
$CMLSCALE
 40
1.0
  9
$SAVEIMAGES
 70
     1
  0
ENDSEC
  0
SECTION
  2
CLASSES
  0
CLASS
  1
ACDBDICTIONARYWDFLT
  2
AcDbDictionaryWithDefault
  3
ObjectDBX Classes
 90
    32768
280
     0
281
     0
  0
CLASS
  1
VISUALSTYLE
  2
AcDbVisualStyle
  3
ObjectDBX Classes
 90
     4095
280
     0
281
     0
  0
CLASS
  1
XRECORD
  2
AcDbXrecord
  3
AutoCAD 2000
 90
    32768
280
     0
281
     0
  0
CLASS
  1
LWPOLYLINE
  2
AcDbPolyline
  3
AutoCAD 2000
 90
    32768
280
     0
281
     1
  0
CLASS
  1
HATCH
  2
AcDbHatch
  3
AutoCAD 2000
 90
    32768
280
     0
281
     1
  0
CLASS
  1
ACDBPLACEHOLDER
  2
AcDbPlaceHolder
  3
ObjectDBX Classes
 90
        0
280
     0
281
     0
  0
CLASS
  1
LAYOUT
  2
AcDbLayout
  3
ObjectDBX Classes
 90
        0
280
     0
281
     0
  0
ENDSEC
  0
SECTION
  2
TABLES
  0
TABLE
  2
VPORT
  5
8
330
0
100
AcDbSymbolTable
 70
     1
  0
VPORT
  5
29
330
8
100
AcDbSymbolTableRecord
100
AcDbViewportTableRecord
  2
*ACTIVE
 70
     0
 10
0.0
 20
0.0
 11
1.0
 21
1.0
 12
0.0
 22
0.0
 13
0.0
 23
0.0
 14
0.5
 24
0.5
 15
0.5
 25
0.5
 16
0.0
 26
0.0
 36
1.0
 17
-3.652563172551381
 27
4.837920942076199
 37
0.0
 40
8.327183225689717
 41
0.4144919157080484
 42
50.0
 43
0.0
 44
0.0
 50
0.0
 51
0.0
 71
     0
 72
   100
 73
     1
 74
     3
 75
     0
 76
     0
 77
     0
 78
     0
  0
ENDTAB
  0
TABLE
  2
LTYPE
  5
5
330
0
100
AcDbSymbolTable
 70
     1
  0
LTYPE
  5
14
330
5
100
AcDbSymbolTableRecord
100
AcDbLinetypeTableRecord
  2
BYBLOCK
 70
     0
  3

 72
    65
 73
     0
 40
0.0
  0
LTYPE
  5
15
330
5
100
AcDbSymbolTableRecord
100
AcDbLinetypeTableRecord
  2
BYLAYER
 70
     0
  3

 72
    65
 73
     0
 40
0.0
  0
LTYPE
  5
16
330
5
100
AcDbSymbolTableRecord
100
AcDbLinetypeTableRecord
  2
CONTINUOUS
 70
     0
  3
Solid line
 72
    65
 73
     0
 40
0.0
  0
ENDTAB
  0
TABLE
  2
LAYER
  5
2
330
0
100
AcDbSymbolTable
 70
     2
  0
LAYER
  5
10
330
2
100
AcDbSymbolTableRecord
100
AcDbLayerTableRecord
  2
0
 70
     0
 62
     7
  6
CONTINUOUS
  0
LAYER
  5
3B
330
2
100
AcDbSymbolTableRecord
100
AcDbLayerTableRecord
  2
LAYER_1
 70
     0
 62
     7
  6
CONTINUOUS
  0
ENDTAB
  0
TABLE
  2
STYLE
  5
3
330
0
100
AcDbSymbolTable
 70
     1
  0
STYLE
  5
11
330
3
100
AcDbSymbolTableRecord
100
AcDbTextStyleTableRecord
  2
STANDARD
 70
     0
 40
0.0
 41
1.0
 50
0.0
 71
     0
 42
0.2
  3
txt
  4

  0
ENDTAB
  0
TABLE
  2
VIEW
  5
6
330
0
100
AcDbSymbolTable
 70
     0
  0
ENDTAB
  0
TABLE
  2
UCS
  5
7
330
0
100
AcDbSymbolTable
 70
     0
  0
ENDTAB
  0
TABLE
  2
APPID
  5
9
330
0
100
AcDbSymbolTable
 70
     1
  0
APPID
  5
12
330
9
100
AcDbSymbolTableRecord
100
AcDbRegAppTableRecord
  2
ACAD
 70
     0
  0
ENDTAB
  0
TABLE
  2
DIMSTYLE
  5
A
330
0
100
AcDbSymbolTable
 70
     1
  0
DIMSTYLE
105
27
330
A
100
AcDbSymbolTableRecord
100
AcDbDimStyleTableRecord
  2
STANDARD
 70
     0
  3

  4

  5

  6

  7

 40
1.0
 41
0.18
 42
0.0625
 43
0.38
 44
0.18
 45
0.0
 46
0.0
 47
0.0
 48
0.0
140
0.18
141
0.09
142
0.0
143
25.4
144
1.0
145
0.0
146
1.0
147
0.09
 71
     0
 72
     0
 73
     1
 74
     1
 75
     0
 76
     0
 77
     0
 78
     0
170
     0
171
     2
172
     0
173
     0
174
     0
175
     0
176
     0
177
     0
178
     0
270
     2
271
     4
272
     4
273
     2
274
     2
340
11
275
     0
280
     0
281
     0
282
     0
283
     1
284
     0
285
     0
286
     0
287
     3
288
     0
  0
ENDTAB
  0
TABLE
  2
BLOCK_RECORD
  5
1
330
0
100
AcDbSymbolTable
 70
     8
  0
BLOCK_RECORD
  5
1F
330
1
100
AcDbSymbolTableRecord
100
AcDbBlockTableRecord
  2
*MODEL_SPACE
  0
BLOCK_RECORD
  5
1B
330
1
100
AcDbSymbolTableRecord
100
AcDbBlockTableRecord
  2
*PAPER_SPACE
  0
BLOCK_RECORD
  5
3C
330
1
100
AcDbSymbolTableRecord
100
AcDbBlockTableRecord
  2
BLOCK_2
  0
BLOCK_RECORD
  5
41
330
1
100
AcDbSymbolTableRecord
100
AcDbBlockTableRecord
  2
BLOCK_3
  0
BLOCK_RECORD
  5
45
330
1
100
AcDbSymbolTableRecord
100
AcDbBlockTableRecord
  2
BLOCK_4
  0
BLOCK_RECORD
  5
4A
330
1
100
AcDbSymbolTableRecord
100
AcDbBlockTableRecord
  2
BLOCK_5
  0
BLOCK_RECORD
  5
4F
330
1
100
AcDbSymbolTableRecord
100
AcDbBlockTableRecord
  2
BLOCK_6
  0
BLOCK_RECORD
  5
53
330
1
100
AcDbSymbolTableRecord
100
AcDbBlockTableRecord
  2
BLOCK_7
  0
BLOCK_RECORD
  5
58
330
1
100
AcDbSymbolTableRecord
100
AcDbBlockTableRecord
  2
BLOCK_8
  0
ENDTAB
  0
ENDSEC
  0
SECTION
  2
BLOCKS
  0
BLOCK
  5
20
330
1F
100
AcDbEntity
  8
0
100
AcDbBlockBegin
  2
*MODEL_SPACE
 70
     0
 71
     0
 10
0.0
 20
0.0
 30
0.0
  3
*MODEL_SPACE
  1

  0
ENDBLK
  5
21
330
1F
100
AcDbEntity
  8
0
100
AcDbBlockEnd
  0
BLOCK
  5
1C
330
1B
100
AcDbEntity
 67
     1
  8
0
100
AcDbBlockBegin
  2
*PAPER_SPACE
 70
     0
 71
     0
 10
0.0
 20
0.0
 30
0.0
  3
*PAPER_SPACE
  1

  0
ENDBLK
  5
1D
330
1B
100
AcDbEntity
 67
     1
  8
0
100
AcDbBlockEnd
  0
BLOCK
  5
3E
330
3C
100
AcDbEntity
  8
0
100
AcDbBlockBegin
  2
BLOCK_2
 70
     0
 71
     0
 10
0.0
 20
0.0
 30
0.0
  3
BLOCK_2
  1

  0
SPLINE
  5
40
330
3C
100
AcDbEntity
  8
LAYER_1
 62
   250
100
AcDbSpline
210
0.0
220
0.0
230
1.0
 70
    11
 71
     3
 72
    29
 73
    25
 74
     0
 42
0.0000000001
 43
0.0000000001
 40
0.0
 40
0.0
 40
0.0
 40
0.0
 40
1.0
 40
1.0
 40
1.0
 40
2.0
 40
2.0
 40
2.0
 40
3.0
 40
3.0
 40
3.0
 40
4.0
 40
4.0
 40
4.0
 40
5.0
 40
5.0
 40
5.0
 40
6.0
 40
6.0
 40
6.0
 40
7.0
 40
7.0
 40
7.0
 40
8.0
 40
8.0
 40
8.0
 40
8.0
 10
-5.088314444870415
 20
0.7629128294875159
 30
0.0
 10
-5.225969158041885
 20
0.7629128294875159
 30
0.0
 10
-5.337555060619644
 20
0.874864943244271
 30
0.0
 10
-5.337555060619644
 20
1.012912994348736
 30
0.0
 10
-5.337555060619644
 20
1.012912994348736
 30
0.0
 10
-5.337555060619644
 20
8.662928889803663
 30
0.0
 10
-5.337555060619644
 20
8.662928889803663
 30
0.0
 10
-5.337555060619644
 20
8.800990504285128
 30
0.0
 10
-5.225962376353384
 20
8.912929054664882
 30
0.0
 10
-5.088307663181915
 20
8.912929054664882
 30
0.0
 10
-5.088307663181915
 20
8.912929054664882
 30
0.0
 10
-2.216825463609347
 20
8.912929054664882
 30
0.0
 10
-2.216825463609347
 20
8.912929054664882
 30
0.0
 10
-2.079157187060879
 20
8.912929054664882
 30
0.0
 10
-1.967571284483119
 20
8.800990504285128
 30
0.0
 10
-1.967571284483119
 20
8.662928889803663
 30
0.0
 10
-1.967571284483119
 20
8.662928889803663
 30
0.0
 10
-1.967571284483119
 20
1.012912994348736
 30
0.0
 10
-1.967571284483119
 20
1.012912994348736
 30
0.0
 10
-1.967571284483119
 20
0.874864943244271
 30
0.0
 10
-2.079157187060879
 20
0.7629128294875159
 30
0.0
 10
-2.216825463609347
 20
0.7629128294875159
 30
0.0
 10
-2.216825463609347
 20
0.7629128294875159
 30
0.0
 10
-5.088314444870415
 20
0.7629128294875159
 30
0.0
 10
-5.088314444870415
 20
0.7629128294875159
 30
0.0
  0
INSERT
  5
42
330
3C
100
AcDbEntity
  8
LAYER_1
100
AcDbBlockReference
  2
BLOCK_3
 10
0.0
 20
0.0
 30
0.0
  0
INSERT
  5
50
330
3C
100
AcDbEntity
  8
LAYER_1
100
AcDbBlockReference
  2
BLOCK_6
 10
0.0
 20
0.0
 30
0.0
  0
SPLINE
  5
5D
330
3C
100
AcDbEntity
  8
LAYER_1
 62
   250
100
AcDbSpline
210
0.0
220
0.0
230
1.0
 70
     8
 71
     3
 72
    77
 73
    73
 74
     0
 42
0.0000000001
 43
0.0000000001
 40
0.0
 40
0.0
 40
0.0
 40
0.0
 40
1.0
 40
1.0
 40
1.0
 40
2.0
 40
2.0
 40
2.0
 40
3.0
 40
3.0
 40
3.0
 40
4.0
 40
4.0
 40
4.0
 40
5.0
 40
5.0
 40
5.0
 40
6.0
 40
6.0
 40
6.0
 40
7.0
 40
7.0
 40
7.0
 40
8.0
 40
8.0
 40
8.0
 40
9.0
 40
9.0
 40
9.0
 40
10.0
 40
10.0
 40
10.0
 40
11.0
 40
11.0
 40
11.0
 40
12.0
 40
12.0
 40
12.0
 40
13.0
 40
13.0
 40
13.0
 40
14.0
 40
14.0
 40
14.0
 40
15.0
 40
15.0
 40
15.0
 40
16.0
 40
16.0
 40
16.0
 40
17.0
 40
17.0
 40
17.0
 40
18.0
 40
18.0
 40
18.0
 40
19.0
 40
19.0
 40
19.0
 40
20.0
 40
20.0
 40
20.0
 40
21.0
 40
21.0
 40
21.0
 40
22.0
 40
22.0
 40
22.0
 40
23.0
 40
23.0
 40
23.0
 40
24.0
 40
24.0
 40
24.0
 40
24.0
 10
-4.071318874044724
 20
2.951851989985174
 30
0.0
 10
-4.071318874044724
 20
2.951851989985174
 30
0.0
 10
-4.609378039628741
 20
3.10056085541152
 30
0.0
 10
-4.609378039628741
 20
3.10056085541152
 30
0.0
 10
-4.609378039628741
 20
3.10056085541152
 30
0.0
 10
-4.637888258082424
 20
2.997424936704667
 30
0.0
 10
-4.637888258082424
 20
2.997424936704667
 30
0.0
 10
-4.637888258082424
 20
2.997424936704667
 30
0.0
 10
-4.106882048538329
 20
2.850669197566299
 30
0.0
 10
-4.106882048538329
 20
2.850669197566299
 30
0.0
 10
-4.106882048538329
 20
2.850669197566299
 30
0.0
 10
-4.119713003180187
 20
2.804282448226814
 30
0.0
 10
-4.119713003180187
 20
2.804282448226814
 30
0.0
 10
-4.119713003180187
 20
2.804282448226814
 30
0.0
 10
-3.294245878969366
 20
2.576146447089352
 30
0.0
 10
-3.294245878969366
 20
2.576146447089352
 30
0.0
 10
-3.294245878969366
 20
2.576146447089352
 30
0.0
 10
-3.324817730727026
 20
2.465550671032581
 30
0.0
 10
-3.324817730727026
 20
2.465550671032581
 30
0.0
 10
-3.324817730727026
 20
2.465550671032581
 30
0.0
 10
-3.328506969270985
 20
2.452122927802731
 30
0.0
 10
-3.328506969270985
 20
2.452122927802731
 30
0.0
 10
-3.345189922980799
 20
2.391765900153402
 30
0.0
 10
-3.40272576821416
 20
2.368165624173665
 30
0.0
 10
-3.463489697173484
 20
2.368762412761658
 30
0.0
 10
-3.463489697173484
 20
2.368762412761658
 30
0.0
 10
-4.122452805334156
 20
2.37576111529358
 30
0.0
 10
-4.122452805334156
 20
2.37576111529358
 30
0.0
 10
-4.188533578077421
 20
2.376140889849576
 30
0.0
 10
-4.242814212830817
 20
2.353978331831822
 30
0.0
 10
-4.260663616962619
 20
2.294299473032486
 30
0.0
 10
-4.260663616962619
 20
2.294299473032486
 30
0.0
 10
-4.553442672881363
 20
1.234918349082267
 30
0.0
 10
-4.553442672881363
 20
1.234918349082267
 30
0.0
 10
-4.571210696751165
 20
1.174751208710936
 30
0.0
 10
-4.63376499147447
 20
1.14024597762332
 30
0.0
 10
-4.694691680957792
 20
1.155816734419147
 30
0.0
 10
-4.694691680957792
 20
1.155816734419147
 30
0.0
 10
-4.782094082344821
 20
1.179959545478878
 30
0.0
 10
-4.782094082344821
 20
1.179959545478878
 30
0.0
 10
-4.782094082344821
 20
1.179959545478878
 30
0.0
 10
-4.516631667703773
 20
2.140436524346197
 30
0.0
 10
-4.516631667703773
 20
2.140436524346197
 30
0.0
 10
-4.516631667703773
 20
2.140436524346197
 30
0.0
 10
-4.619767586410625
 20
2.16891961604588
 30
0.0
 10
-4.619767586410625
 20
2.16891961604588
 30
0.0
 10
-4.619767586410625
 20
2.16891961604588
 30
0.0
 10
-4.885230001051673
 20
1.208469763932561
 30
0.0
 10
-4.885230001051673
 20
1.208469763932561
 30
0.0
 10
-4.885230001051673
 20
1.208469763932561
 30
0.0
 10
-5.092966683181364
 20
1.265897102149923
 30
0.0
 10
-5.092966683181364
 20
1.265897102149923
 30
0.0
 10
-5.153649231878688
 20
1.284777322933712
 30
0.0
 10
-5.177412268382424
 20
1.340061647585098
 30
0.0
 10
-5.177629282414422
 20
1.402697322570401
 30
0.0
 10
-5.177629282414422
 20
1.402697322570401
 30
0.0
 10
-5.17773778943042
 20
3.609892788509856
 30
0.0
 10
-5.17773778943042
 20
3.609892788509856
 30
0.0
 10
-5.175838916650441
 20
3.676597476595114
 30
0.0
 10
-5.11580741004911
 20
3.721560071349614
 30
0.0
 10
-5.034861176114009
 20
3.700604653884847
 30
0.0
 10
-5.034861176114009
 20
3.700604653884847
 30
0.0
 10
-4.064320171512803
 20
3.43236174695883
 30
0.0
 10
-4.064320171512803
 20
3.43236174695883
 30
0.0
 10
-4.064320171512803
 20
3.43236174695883
 30
0.0
 10
-4.064998340362795
 20
3.432483817351829
 30
0.0
 10
-4.064998340362795
 20
3.432483817351829
 30
0.0
 10
-4.00518384779346
 20
3.413603596568039
 30
0.0
 10
-3.970732870213843
 20
3.353517836458707
 30
0.0
 10
-3.984838782293686
 20
3.292211372419389
 30
0.0
 10
-3.984838782293686
 20
3.292211372419389
 30
0.0
 10
-4.078426083592645
 20
2.953615228995154
 30
0.0
 10
-4.078426083592645
 20
2.953615228995154
 30
0.0
  0
SPLINE
  5
5E
330
3C
100
AcDbEntity
  8
LAYER_1
 62
   250
100
AcDbSpline
210
0.0
220
0.0
230
1.0
 70
     8
 71
     3
 72
    77
 73
    73
 74
     0
 42
0.0000000001
 43
0.0000000001
 40
0.0
 40
0.0
 40
0.0
 40
0.0
 40
1.0
 40
1.0
 40
1.0
 40
2.0
 40
2.0
 40
2.0
 40
3.0
 40
3.0
 40
3.0
 40
4.0
 40
4.0
 40
4.0
 40
5.0
 40
5.0
 40
5.0
 40
6.0
 40
6.0
 40
6.0
 40
7.0
 40
7.0
 40
7.0
 40
8.0
 40
8.0
 40
8.0
 40
9.0
 40
9.0
 40
9.0
 40
10.0
 40
10.0
 40
10.0
 40
11.0
 40
11.0
 40
11.0
 40
12.0
 40
12.0
 40
12.0
 40
13.0
 40
13.0
 40
13.0
 40
14.0
 40
14.0
 40
14.0
 40
15.0
 40
15.0
 40
15.0
 40
16.0
 40
16.0
 40
16.0
 40
17.0
 40
17.0
 40
17.0
 40
18.0
 40
18.0
 40
18.0
 40
19.0
 40
19.0
 40
19.0
 40
20.0
 40
20.0
 40
20.0
 40
21.0
 40
21.0
 40
21.0
 40
22.0
 40
22.0
 40
22.0
 40
23.0
 40
23.0
 40
23.0
 40
24.0
 40
24.0
 40
24.0
 40
24.0
 10
-3.237076244915002
 20
1.690756323293198
 30
0.0
 10
-3.237076244915002
 20
1.690756323293198
 30
0.0
 10
-2.699003515953986
 20
1.542047457866851
 30
0.0
 10
-2.699003515953986
 20
1.542047457866851
 30
0.0
 10
-2.699003515953986
 20
1.542047457866851
 30
0.0
 10
-2.670493297500303
 20
1.645183376573705
 30
0.0
 10
-2.670493297500303
 20
1.645183376573705
 30
0.0
 10
-2.670493297500303
 20
1.645183376573705
 30
0.0
 10
-3.201485943667397
 20
1.791939115712073
 30
0.0
 10
-3.201485943667397
 20
1.791939115712073
 30
0.0
 10
-3.201485943667397
 20
1.791939115712073
 30
0.0
 10
-3.18868211577954
 20
1.838298738297557
 30
0.0
 10
-3.18868211577954
 20
1.838298738297557
 30
0.0
 10
-3.18868211577954
 20
1.838298738297557
 30
0.0
 10
-4.014149239990361
 20
2.06646186618902
 30
0.0
 10
-4.014149239990361
 20
2.06646186618902
 30
0.0
 10
-4.014149239990361
 20
2.06646186618902
 30
0.0
 10
-3.9835773882327
 20
2.17705764224579
 30
0.0
 10
-3.9835773882327
 20
2.17705764224579
 30
0.0
 10
-3.9835773882327
 20
2.17705764224579
 30
0.0
 10
-3.979874586311742
 20
2.190458258721641
 30
0.0
 10
-3.979874586311742
 20
2.190458258721641
 30
0.0
 10
-3.963178069224927
 20
2.250842413124969
 30
0.0
 10
-3.905669350745566
 20
2.274415562350707
 30
0.0
 10
-3.844891858409242
 20
2.273845900516713
 30
0.0
 10
-3.844891858409242
 20
2.273845900516713
 30
0.0
 10
-3.185915186871571
 20
2.266874324738791
 30
0.0
 10
-3.185915186871571
 20
2.266874324738791
 30
0.0
 10
-3.119820850751306
 20
2.266467423428796
 30
0.0
 10
-3.065567342751909
 20
2.288629981446549
 30
0.0
 10
-3.047717938620107
 20
2.348308840245886
 30
0.0
 10
-3.047717938620107
 20
2.348308840245886
 30
0.0
 10
-2.754925319324363
 20
3.407676400819105
 30
0.0
 10
-2.754925319324363
 20
3.407676400819105
 30
0.0
 10
-2.737170858831561
 20
3.467843541190435
 30
0.0
 10
-2.674616564108257
 20
3.502335208901052
 30
0.0
 10
-2.613689874624934
 20
3.486791578859225
 30
0.0
 10
-2.613689874624934
 20
3.486791578859225
 30
0.0
 10
-2.526273909860906
 20
3.462621641045494
 30
0.0
 10
-2.526273909860906
 20
3.462621641045494
 30
0.0
 10
-2.526273909860906
 20
3.462621641045494
 30
0.0
 10
-2.791736324501954
 20
2.502171788932174
 30
0.0
 10
-2.791736324501954
 20
2.502171788932174
 30
0.0
 10
-2.791736324501954
 20
2.502171788932174
 30
0.0
 10
-2.688613969172101
 20
2.473661570478491
 30
0.0
 10
-2.688613969172101
 20
2.473661570478491
 30
0.0
 10
-2.688613969172101
 20
2.473661570478491
 30
0.0
 10
-2.423165117908053
 20
3.43412498596881
 30
0.0
 10
-2.423165117908053
 20
3.43412498596881
 30
0.0
 10
-2.423165117908053
 20
3.43412498596881
 30
0.0
 10
-2.215401309024363
 20
3.376711211128449
 30
0.0
 10
-2.215401309024363
 20
3.376711211128449
 30
0.0
 10
-2.154745887081038
 20
3.357830990344659
 30
0.0
 10
-2.130969287200303
 20
3.302546665693274
 30
0.0
 10
-2.130765836545305
 20
3.23991099070797
 30
0.0
 10
-2.130765836545305
 20
3.23991099070797
 30
0.0
 10
-2.130630202775306
 20
1.032715524768516
 30
0.0
 10
-2.130630202775306
 20
1.032715524768516
 30
0.0
 10
-2.132556202309285
 20
0.9659837099292576
 30
0.0
 10
-2.192560582156617
 20
0.9210618053057572
 30
0.0
 10
-2.273506816091717
 20
0.9419765326395246
 30
0.0
 10
-2.273506816091717
 20
0.9419765326395246
 30
0.0
 10
-3.244061384069924
 20
1.210233002942541
 30
0.0
 10
-3.244061384069924
 20
1.210233002942541
 30
0.0
 10
-3.244061384069924
 20
1.210233002942541
 30
0.0
 10
-3.243369651842932
 20
1.210124495926543
 30
0.0
 10
-3.243369651842932
 20
1.210124495926543
 30
0.0
 10
-3.303184144412266
 20
1.228977589956333
 30
0.0
 10
-3.337662248745883
 20
1.289063350065665
 30
0.0
 10
-3.32352920991204
 20
1.350396940858983
 30
0.0
 10
-3.32352920991204
 20
1.350396940858983
 30
0.0
 10
-3.229955471990081
 20
1.688965957529218
 30
0.0
 10
-3.229955471990081
 20
1.688965957529218
 30
0.0
  0
SPLINE
  5
5F
330
3C
100
AcDbEntity
  8
LAYER_1
 62
   250
100
AcDbSpline
210
0.0
220
0.0
230
1.0
 70
    11
 71
     3
 72
    83
 73
    79
 74
     0
 42
0.0000000001
 43
0.0000000001
 40
0.0
 40
0.0
 40
0.0
 40
0.0
 40
1.0
 40
1.0
 40
1.0
 40
2.0
 40
2.0
 40
2.0
 40
3.0
 40
3.0
 40
3.0
 40
4.0
 40
4.0
 40
4.0
 40
5.0
 40
5.0
 40
5.0
 40
6.0
 40
6.0
 40
6.0
 40
7.0
 40
7.0
 40
7.0
 40
8.0
 40
8.0
 40
8.0
 40
9.0
 40
9.0
 40
9.0
 40
10.0
 40
10.0
 40
10.0
 40
11.0
 40
11.0
 40
11.0
 40
12.0
 40
12.0
 40
12.0
 40
13.0
 40
13.0
 40
13.0
 40
14.0
 40
14.0
 40
14.0
 40
15.0
 40
15.0
 40
15.0
 40
16.0
 40
16.0
 40
16.0
 40
17.0
 40
17.0
 40
17.0
 40
18.0
 40
18.0
 40
18.0
 40
19.0
 40
19.0
 40
19.0
 40
20.0
 40
20.0
 40
20.0
 40
21.0
 40
21.0
 40
21.0
 40
22.0
 40
22.0
 40
22.0
 40
23.0
 40
23.0
 40
23.0
 40
24.0
 40
24.0
 40
24.0
 40
25.0
 40
25.0
 40
25.0
 40
26.0
 40
26.0
 40
26.0
 40
26.0
 10
-5.034854394425509
 20
6.27397060868923
 30
0.0
 10
-5.034854394425509
 20
6.27397060868923
 30
0.0
 10
-4.064320171512803
 20
6.005727701763213
 30
0.0
 10
-4.064320171512803
 20
6.005727701763213
 30
0.0
 10
-4.064320171512803
 20
6.005727701763213
 30
0.0
 10
-4.064998340362795
 20
6.005836208779211
 30
0.0
 10
-4.064998340362795
 20
6.005836208779211
 30
0.0
 10
-4.00518384779346
 20
5.986983114749421
 30
0.0
 10
-3.970705743459843
 20
5.926897354640089
 30
0.0
 10
-3.984838782293686
 20
5.865563763846771
 30
0.0
 10
-3.984838782293686
 20
5.865563763846771
 30
0.0
 10
-4.021188632653282
 20
5.734121077341233
 30
0.0
 10
-4.021188632653282
 20
5.734121077341233
 30
0.0
 10
-4.021188632653282
 20
5.734121077341233
 30
0.0
 10
-4.381479397588775
 20
5.833703391274126
 30
0.0
 10
-4.381479397588775
 20
5.833703391274126
 30
0.0
 10
-4.381479397588775
 20
5.833703391274126
 30
0.0
 10
-4.438689721774139
 20
5.626739821633428
 30
0.0
 10
-4.438689721774139
 20
5.626739821633428
 30
0.0
 10
-4.438689721774139
 20
5.626739821633428
 30
0.0
 10
-4.609371257940241
 20
5.673913246838903
 30
0.0
 10
-4.609371257940241
 20
5.673913246838903
 30
0.0
 10
-4.609371257940241
 20
5.673913246838903
 30
0.0
 10
-4.637881476393924
 20
5.57077732813205
 30
0.0
 10
-4.637881476393924
 20
5.57077732813205
 30
0.0
 10
-4.637881476393924
 20
5.57077732813205
 30
0.0
 10
-4.106882048538329
 20
5.424021588993682
 30
0.0
 10
-4.106882048538329
 20
5.424021588993682
 30
0.0
 10
-4.106882048538329
 20
5.424021588993682
 30
0.0
 10
-4.119685876426186
 20
5.377648403031198
 30
0.0
 10
-4.119685876426186
 20
5.377648403031198
 30
0.0
 10
-4.119685876426186
 20
5.377648403031198
 30
0.0
 10
-3.294218752215366
 20
5.149498838516735
 30
0.0
 10
-3.294218752215366
 20
5.149498838516735
 30
0.0
 10
-3.294218752215366
 20
5.149498838516735
 30
0.0
 10
-3.324790603973026
 20
5.038903062459965
 30
0.0
 10
-3.324790603973026
 20
5.038903062459965
 30
0.0
 10
-3.324790603973026
 20
5.038903062459965
 30
0.0
 10
-3.328506969270985
 20
5.025502445984113
 30
0.0
 10
-3.328506969270985
 20
5.025502445984113
 30
0.0
 10
-3.345189922980799
 20
4.965118291580785
 30
0.0
 10
-3.40269864146016
 20
4.941545142355047
 30
0.0
 10
-3.463489697173484
 20
4.94214193094304
 30
0.0
 10
-3.463489697173484
 20
4.94214193094304
 30
0.0
 10
-4.122452805334156
 20
4.949086379966963
 30
0.0
 10
-4.122452805334156
 20
4.949086379966963
 30
0.0
 10
-4.188526796388921
 20
4.949493281276959
 30
0.0
 10
-4.242807431142317
 20
4.927330723259205
 30
0.0
 10
-4.260656835274119
 20
4.867651864459869
 30
0.0
 10
-4.260656835274119
 20
4.867651864459869
 30
0.0
 10
-4.553442672881363
 20
3.80827074050965
 30
0.0
 10
-4.553442672881363
 20
3.80827074050965
 30
0.0
 10
-4.571210696751165
 20
3.748117163515319
 30
0.0
 10
-4.63376499147447
 20
3.713625495804702
 30
0.0
 10
-4.694691680957792
 20
3.729169125846529
 30
0.0
 10
-4.694691680957792
 20
3.729169125846529
 30
0.0
 10
-4.782094082344821
 20
3.753339063660261
 30
0.0
 10
-4.782094082344821
 20
3.753339063660261
 30
0.0
 10
-4.782094082344821
 20
3.753339063660261
 30
0.0
 10
-4.516624886015272
 20
4.71378891577358
 30
0.0
 10
-4.516624886015272
 20
4.71378891577358
 30
0.0
 10
-4.516624886015272
 20
4.71378891577358
 30
0.0
 10
-4.619760804722126
 20
4.742285570850263
 30
0.0
 10
-4.619760804722126
 20
4.742285570850263
 30
0.0
 10
-4.619760804722126
 20
4.742285570850263
 30
0.0
 10
-4.885202874297674
 20
3.781835718736944
 30
0.0
 10
-4.885202874297674
 20
3.781835718736944
 30
0.0
 10
-4.885202874297674
 20
3.781835718736944
 30
0.0
 10
-5.092966683181364
 20
3.839249493577305
 30
0.0
 10
-5.092966683181364
 20
3.839249493577305
 30
0.0
 10
-5.153622105124689
 20
3.858129714361095
 30
0.0
 10
-5.177412268382424
 20
3.91341403901248
 30
0.0
 10
-5.177629282414422
 20
3.976063277374784
 30
0.0
 10
-5.177629282414422
 20
3.976063277374784
 30
0.0
 10
-5.177731007741921
 20
6.183245179937239
 30
0.0
 10
-5.177731007741921
 20
6.183245179937239
 30
0.0
 10
-5.175805008207942
 20
6.249976994776497
 30
0.0
 10
-5.115800628360609
 20
6.294898899399997
 30
0.0
 10
-5.034854394425509
 20
6.27397060868923
 30
0.0
  0
SPLINE
  5
60
330
3C
100
AcDbEntity
  8
LAYER_1
 62
   250
100
AcDbSpline
210
0.0
220
0.0
230
1.0
 70
    11
 71
     3
 72
    83
 73
    79
 74
     0
 42
0.0000000001
 43
0.0000000001
 40
0.0
 40
0.0
 40
0.0
 40
0.0
 40
1.0
 40
1.0
 40
1.0
 40
2.0
 40
2.0
 40
2.0
 40
3.0
 40
3.0
 40
3.0
 40
4.0
 40
4.0
 40
4.0
 40
5.0
 40
5.0
 40
5.0
 40
6.0
 40
6.0
 40
6.0
 40
7.0
 40
7.0
 40
7.0
 40
8.0
 40
8.0
 40
8.0
 40
9.0
 40
9.0
 40
9.0
 40
10.0
 40
10.0
 40
10.0
 40
11.0
 40
11.0
 40
11.0
 40
12.0
 40
12.0
 40
12.0
 40
13.0
 40
13.0
 40
13.0
 40
14.0
 40
14.0
 40
14.0
 40
15.0
 40
15.0
 40
15.0
 40
16.0
 40
16.0
 40
16.0
 40
17.0
 40
17.0
 40
17.0
 40
18.0
 40
18.0
 40
18.0
 40
19.0
 40
19.0
 40
19.0
 40
20.0
 40
20.0
 40
20.0
 40
21.0
 40
21.0
 40
21.0
 40
22.0
 40
22.0
 40
22.0
 40
23.0
 40
23.0
 40
23.0
 40
24.0
 40
24.0
 40
24.0
 40
25.0
 40
25.0
 40
25.0
 40
26.0
 40
26.0
 40
26.0
 40
26.0
 10
-2.273493252714717
 20
3.508398038419985
 30
0.0
 10
-2.273493252714717
 20
3.508398038419985
 30
0.0
 10
-3.244061384069924
 20
3.776640945346001
 30
0.0
 10
-3.244061384069924
 20
3.776640945346001
 30
0.0
 10
-3.244061384069924
 20
3.776640945346001
 30
0.0
 10
-3.243383215219932
 20
3.776532438330003
 30
0.0
 10
-3.243383215219932
 20
3.776532438330003
 30
0.0
 10
-3.303184144412266
 20
3.795399095736793
 30
0.0
 10
-3.337648685368883
 20
3.855498419223125
 30
0.0
 10
-3.32352920991204
 20
3.916804883262443
 30
0.0
 10
-3.32352920991204
 20
3.916804883262443
 30
0.0
 10
-3.287192922929445
 20
4.04826113314498
 30
0.0
 10
-3.287192922929445
 20
4.04826113314498
 30
0.0
 10
-3.287192922929445
 20
4.04826113314498
 30
0.0
 10
-2.926881812928452
 20
3.948678819212089
 30
0.0
 10
-2.926881812928452
 20
3.948678819212089
 30
0.0
 10
-2.926881812928452
 20
3.948678819212089
 30
0.0
 10
-2.869685052120087
 20
4.155628825475786
 30
0.0
 10
-2.869685052120087
 20
4.155628825475786
 30
0.0
 10
-2.869685052120087
 20
4.155628825475786
 30
0.0
 10
-2.698989952576986
 20
4.108455400270311
 30
0.0
 10
-2.698989952576986
 20
4.108455400270311
 30
0.0
 10
-2.698989952576986
 20
4.108455400270311
 30
0.0
 10
-2.670493297500303
 20
4.211591318977165
 30
0.0
 10
-2.670493297500303
 20
4.211591318977165
 30
0.0
 10
-2.670493297500303
 20
4.211591318977165
 30
0.0
 10
-3.201485943667397
 20
4.358347058115533
 30
0.0
 10
-3.201485943667397
 20
4.358347058115533
 30
0.0
 10
-3.201485943667397
 20
4.358347058115533
 30
0.0
 10
-3.18866855240254
 20
4.404720244078017
 30
0.0
 10
-3.18866855240254
 20
4.404720244078017
 30
0.0
 10
-3.18866855240254
 20
4.404720244078017
 30
0.0
 10
-4.01413567661336
 20
4.63286980859248
 30
0.0
 10
-4.01413567661336
 20
4.63286980859248
 30
0.0
 10
-4.01413567661336
 20
4.63286980859248
 30
0.0
 10
-3.9835638248557
 20
4.74346558464925
 30
0.0
 10
-3.9835638248557
 20
4.74346558464925
 30
0.0
 10
-3.9835638248557
 20
4.74346558464925
 30
0.0
 10
-3.979861022934742
 20
4.7568797645021
 30
0.0
 10
-3.979861022934742
 20
4.7568797645021
 30
0.0
 10
-3.963178069224927
 20
4.817250355528429
 30
0.0
 10
-3.905655787368567
 20
4.840850631508167
 30
0.0
 10
-3.844891858409242
 20
4.840253842920173
 30
0.0
 10
-3.844891858409242
 20
4.840253842920173
 30
0.0
 10
-3.185915186871571
 20
4.833268703765251
 30
0.0
 10
-3.185915186871571
 20
4.833268703765251
 30
0.0
 10
-3.119834414128305
 20
4.832875365832256
 30
0.0
 10
-3.065567342751909
 20
4.855037923850009
 30
0.0
 10
-3.047717938620107
 20
4.914716782649346
 30
0.0
 10
-3.047717938620107
 20
4.914716782649346
 30
0.0
 10
-2.754925319324363
 20
5.974084343222565
 30
0.0
 10
-2.754925319324363
 20
5.974084343222565
 30
0.0
 10
-2.737170858831561
 20
6.034251483593896
 30
0.0
 10
-2.674603000731257
 20
6.068770278058512
 30
0.0
 10
-2.613689874624934
 20
6.053199521262685
 30
0.0
 10
-2.613689874624934
 20
6.053199521262685
 30
0.0
 10
-2.526273909860906
 20
6.029043146825954
 30
0.0
 10
-2.526273909860906
 20
6.029043146825954
 30
0.0
 10
-2.526273909860906
 20
6.029043146825954
 30
0.0
 10
-2.791736324501954
 20
5.068579731335634
 30
0.0
 10
-2.791736324501954
 20
5.068579731335634
 30
0.0
 10
-2.791736324501954
 20
5.068579731335634
 30
0.0
 10
-2.688613969172101
 20
5.040069512881951
 30
0.0
 10
-2.688613969172101
 20
5.040069512881951
 30
0.0
 10
-2.688613969172101
 20
5.040069512881951
 30
0.0
 10
-2.423151554531053
 20
6.000546491749271
 30
0.0
 10
-2.423151554531053
 20
6.000546491749271
 30
0.0
 10
-2.423151554531053
 20
6.000546491749271
 30
0.0
 10
-2.215401309024363
 20
5.943119153531909
 30
0.0
 10
-2.215401309024363
 20
5.943119153531909
 30
0.0
 10
-2.154745887081038
 20
5.924238932748119
 30
0.0
 10
-2.130969287200303
 20
5.868954608096733
 30
0.0
 10
-2.130752273168305
 20
5.806305369734431
 30
0.0
 10
-2.130752273168305
 20
5.806305369734431
 30
0.0
 10
-2.130630202775306
 20
3.599123467171975
 30
0.0
 10
-2.130630202775306
 20
3.599123467171975
 30
0.0
 10
-2.132542638932285
 20
3.532418779086717
 30
0.0
 10
-2.192560582156617
 20
3.487456184332217
 30
0.0
 10
-2.273493252714717
 20
3.508398038419985
 30
0.0
  0
ENDBLK
  5
3F
330
3C
100
AcDbEntity
  8
0
100
AcDbBlockEnd
  0
BLOCK
  5
43
330
41
100
AcDbEntity
  8
0
100
AcDbBlockBegin
  2
BLOCK_3
 70
     0
 71
     0
 10
0.0
 20
0.0
 30
0.0
  3
BLOCK_3
  1

  0
INSERT
  5
46
330
41
100
AcDbEntity
  8
LAYER_1
100
AcDbBlockReference
  2
BLOCK_4
 10
0.0
 20
0.0
 30
0.0
  0
INSERT
  5
4B
330
41
100
AcDbEntity
  8
LAYER_1
100
AcDbBlockReference
  2
BLOCK_5
 10
0.0
 20
0.0
 30
0.0
  0
ENDBLK
  5
44
330
41
100
AcDbEntity
  8
0
100
AcDbBlockEnd
  0
BLOCK
  5
47
330
45
100
AcDbEntity
  8
0
100
AcDbBlockBegin
  2
BLOCK_4
 70
     0
 71
     0
 10
0.0
 20
0.0
 30
0.0
  3
BLOCK_4
  1

  0
SPLINE
  5
49
330
45
100
AcDbEntity
  8
LAYER_1
100
AcDbSpline
210
0.0
220
0.0
230
1.0
 70
    11
 71
     3
 72
    92
 73
    88
 74
     0
 42
0.0000000001
 43
0.0000000001
 40
0.0
 40
0.0
 40
0.0
 40
0.0
 40
1.0
 40
1.0
 40
1.0
 40
2.0
 40
2.0
 40
2.0
 40
3.0
 40
3.0
 40
3.0
 40
4.0
 40
4.0
 40
4.0
 40
5.0
 40
5.0
 40
5.0
 40
6.0
 40
6.0
 40
6.0
 40
7.0
 40
7.0
 40
7.0
 40
8.0
 40
8.0
 40
8.0
 40
9.0
 40
9.0
 40
9.0
 40
10.0
 40
10.0
 40
10.0
 40
11.0
 40
11.0
 40
11.0
 40
12.0
 40
12.0
 40
12.0
 40
13.0
 40
13.0
 40
13.0
 40
14.0
 40
14.0
 40
14.0
 40
15.0
 40
15.0
 40
15.0
 40
16.0
 40
16.0
 40
16.0
 40
17.0
 40
17.0
 40
17.0
 40
18.0
 40
18.0
 40
18.0
 40
19.0
 40
19.0
 40
19.0
 40
20.0
 40
20.0
 40
20.0
 40
21.0
 40
21.0
 40
21.0
 40
22.0
 40
22.0
 40
22.0
 40
23.0
 40
23.0
 40
23.0
 40
24.0
 40
24.0
 40
24.0
 40
25.0
 40
25.0
 40
25.0
 40
26.0
 40
26.0
 40
26.0
 40
27.0
 40
27.0
 40
27.0
 40
28.0
 40
28.0
 40
28.0
 40
29.0
 40
29.0
 40
29.0
 40
29.0
 10
-2.244060724625045
 20
8.75229798085567
 30
0.0
 10
-2.244060724625045
 20
8.75229798085567
 30
0.0
 10
-3.119549583211309
 20
8.75229798085567
 30
0.0
 10
-3.119549583211309
 20
8.75229798085567
 30
0.0
 10
-3.182185258196612
 20
8.75229798085567
 30
0.0
 10
-3.232966541684048
 20
8.701516697368234
 30
0.0
 10
-3.232966541684048
 20
8.638867459005931
 30
0.0
 10
-3.232966541684048
 20
8.638867459005931
 30
0.0
 10
-3.232966541684048
 20
8.363869990333988
 30
0.0
 10
-3.232966541684048
 20
8.363869990333988
 30
0.0
 10
-3.232966541684048
 20
8.363869990333988
 30
0.0
 10
-2.669760875142311
 20
8.363869990333988
 30
0.0
 10
-2.669760875142311
 20
8.363869990333988
 30
0.0
 10
-2.669760875142311
 20
8.363869990333988
 30
0.0
 10
-2.669760875142311
 20
8.256868509182178
 30
0.0
 10
-2.669760875142311
 20
8.256868509182178
 30
0.0
 10
-2.669760875142311
 20
8.256868509182178
 30
0.0
 10
-3.232966541684048
 20
8.256868509182178
 30
0.0
 10
-3.232966541684048
 20
8.256868509182178
 30
0.0
 10
-3.232966541684048
 20
8.256868509182178
 30
0.0
 10
-3.232966541684048
 20
7.871085377175469
 30
0.0
 10
-3.232966541684048
 20
7.871085377175469
 30
0.0
 10
-3.232966541684048
 20
7.871085377175469
 30
0.0
 10
-2.669760875142311
 20
7.871085377175469
 30
0.0
 10
-2.669760875142311
 20
7.871085377175469
 30
0.0
 10
-2.669760875142311
 20
7.871085377175469
 30
0.0
 10
-2.669760875142311
 20
7.764083896023659
 30
0.0
 10
-2.669760875142311
 20
7.764083896023659
 30
0.0
 10
-2.669760875142311
 20
7.764083896023659
 30
0.0
 10
-3.232966541684048
 20
7.764083896023659
 30
0.0
 10
-3.232966541684048
 20
7.764083896023659
 30
0.0
 10
-3.232966541684048
 20
7.764083896023659
 30
0.0
 10
-3.232966541684048
 20
7.624150535516215
 30
0.0
 10
-3.232966541684048
 20
7.624150535516215
 30
0.0
 10
-3.232966541684048
 20
7.624150535516215
 30
0.0
 10
-3.101890066357505
 20
7.624150535516215
 30
0.0
 10
-3.101890066357505
 20
7.624150535516215
 30
0.0
 10
-3.07264742554583
 20
7.624150535516215
 30
0.0
 10
-3.048938642550094
 20
7.600441752520479
 30
0.0
 10
-3.048938642550094
 20
7.571199111708804
 30
0.0
 10
-3.048938642550094
 20
7.541956470897129
 30
0.0
 10
-3.07264742554583
 20
7.518247687901392
 30
0.0
 10
-3.101890066357505
 20
7.518247687901392
 30
0.0
 10
-3.101890066357505
 20
7.518247687901392
 30
0.0
 10
-3.232966541684048
 20
7.518247687901392
 30
0.0
 10
-3.232966541684048
 20
7.518247687901392
 30
0.0
 10
-3.232966541684048
 20
7.518247687901392
 30
0.0
 10
-3.232966541684048
 20
7.378300764016949
 30
0.0
 10
-3.232966541684048
 20
7.378300764016949
 30
0.0
 10
-3.232966541684048
 20
7.378300764016949
 30
0.0
 10
-2.669760875142311
 20
7.378300764016949
 30
0.0
 10
-2.669760875142311
 20
7.378300764016949
 30
0.0
 10
-2.669760875142311
 20
7.378300764016949
 30
0.0
 10
-2.669760875142311
 20
7.271299282865138
 30
0.0
 10
-2.669760875142311
 20
7.271299282865138
 30
0.0
 10
-2.669760875142311
 20
7.271299282865138
 30
0.0
 10
-3.232966541684048
 20
7.271299282865138
 30
0.0
 10
-3.232966541684048
 20
7.271299282865138
 30
0.0
 10
-3.232966541684048
 20
7.271299282865138
 30
0.0
 10
-3.232966541684048
 20
6.885529714235429
 30
0.0
 10
-3.232966541684048
 20
6.885529714235429
 30
0.0
 10
-3.232966541684048
 20
6.885529714235429
 30
0.0
 10
-2.669760875142311
 20
6.885529714235429
 30
0.0
 10
-2.669760875142311
 20
6.885529714235429
 30
0.0
 10
-2.669760875142311
 20
6.885529714235429
 30
0.0
 10
-2.669760875142311
 20
6.778528233083619
 30
0.0
 10
-2.669760875142311
 20
6.778528233083619
 30
0.0
 10
-2.669760875142311
 20
6.778528233083619
 30
0.0
 10
-3.232966541684048
 20
6.778528233083619
 30
0.0
 10
-3.232966541684048
 20
6.778528233083619
 30
0.0
 10
-3.232966541684048
 20
6.778528233083619
 30
0.0
 10
-3.232966541684048
 20
6.503530764411677
 30
0.0
 10
-3.232966541684048
 20
6.503530764411677
 30
0.0
 10
-3.232966541684048
 20
6.440881526049374
 30
0.0
 10
-3.182185258196612
 20
6.390100242561938
 30
0.0
 10
-3.119549583211309
 20
6.390100242561938
 30
0.0
 10
-3.119549583211309
 20
6.390100242561938
 30
0.0
 10
-2.244060724625045
 20
6.390100242561938
 30
0.0
 10
-2.244060724625045
 20
6.390100242561938
 30
0.0
 10
-2.181411486262741
 20
6.390100242561938
 30
0.0
 10
-2.130630202775306
 20
6.440881526049374
 30
0.0
 10
-2.130630202775306
 20
6.503530764411677
 30
0.0
 10
-2.130630202775306
 20
6.503530764411677
 30
0.0
 10
-2.130630202775306
 20
8.638867459005931
 30
0.0
 10
-2.130630202775306
 20
8.638867459005931
 30
0.0
 10
-2.130630202775306
 20
8.701516697368234
 30
0.0
 10
-2.181411486262741
 20
8.75229798085567
 30
0.0
 10
-2.244060724625045
 20
8.75229798085567
 30
0.0
  0
ENDBLK
  5
48
330
45
100
AcDbEntity
  8
0
100
AcDbBlockEnd
  0
BLOCK
  5
4C
330
4A
100
AcDbEntity
  8
0
100
AcDbBlockBegin
  2
BLOCK_5
 70
     0
 71
     0
 10
0.0
 20
0.0
 30
0.0
  3
BLOCK_5
  1

  0
SPLINE
  5
4E
330
4A
100
AcDbEntity
  8
LAYER_1
 62
   250
100
AcDbSpline
210
0.0
220
0.0
230
1.0
 70
    11
 71
     3
 72
    92
 73
    88
 74
     0
 42
0.0000000001
 43
0.0000000001
 40
0.0
 40
0.0
 40
0.0
 40
0.0
 40
1.0
 40
1.0
 40
1.0
 40
2.0
 40
2.0
 40
2.0
 40
3.0
 40
3.0
 40
3.0
 40
4.0
 40
4.0
 40
4.0
 40
5.0
 40
5.0
 40
5.0
 40
6.0
 40
6.0
 40
6.0
 40
7.0
 40
7.0
 40
7.0
 40
8.0
 40
8.0
 40
8.0
 40
9.0
 40
9.0
 40
9.0
 40
10.0
 40
10.0
 40
10.0
 40
11.0
 40
11.0
 40
11.0
 40
12.0
 40
12.0
 40
12.0
 40
13.0
 40
13.0
 40
13.0
 40
14.0
 40
14.0
 40
14.0
 40
15.0
 40
15.0
 40
15.0
 40
16.0
 40
16.0
 40
16.0
 40
17.0
 40
17.0
 40
17.0
 40
18.0
 40
18.0
 40
18.0
 40
19.0
 40
19.0
 40
19.0
 40
20.0
 40
20.0
 40
20.0
 40
21.0
 40
21.0
 40
21.0
 40
22.0
 40
22.0
 40
22.0
 40
23.0
 40
23.0
 40
23.0
 40
24.0
 40
24.0
 40
24.0
 40
25.0
 40
25.0
 40
25.0
 40
26.0
 40
26.0
 40
26.0
 40
27.0
 40
27.0
 40
27.0
 40
28.0
 40
28.0
 40
28.0
 40
29.0
 40
29.0
 40
29.0
 40
29.0
 10
-2.244060724625045
 20
8.75229798085567
 30
0.0
 10
-2.244060724625045
 20
8.75229798085567
 30
0.0
 10
-3.119549583211309
 20
8.75229798085567
 30
0.0
 10
-3.119549583211309
 20
8.75229798085567
 30
0.0
 10
-3.182185258196612
 20
8.75229798085567
 30
0.0
 10
-3.232966541684048
 20
8.701516697368234
 30
0.0
 10
-3.232966541684048
 20
8.638867459005931
 30
0.0
 10
-3.232966541684048
 20
8.638867459005931
 30
0.0
 10
-3.232966541684048
 20
8.363869990333988
 30
0.0
 10
-3.232966541684048
 20
8.363869990333988
 30
0.0
 10
-3.232966541684048
 20
8.363869990333988
 30
0.0
 10
-2.669760875142311
 20
8.363869990333988
 30
0.0
 10
-2.669760875142311
 20
8.363869990333988
 30
0.0
 10
-2.669760875142311
 20
8.363869990333988
 30
0.0
 10
-2.669760875142311
 20
8.256868509182178
 30
0.0
 10
-2.669760875142311
 20
8.256868509182178
 30
0.0
 10
-2.669760875142311
 20
8.256868509182178
 30
0.0
 10
-3.232966541684048
 20
8.256868509182178
 30
0.0
 10
-3.232966541684048
 20
8.256868509182178
 30
0.0
 10
-3.232966541684048
 20
8.256868509182178
 30
0.0
 10
-3.232966541684048
 20
7.871085377175469
 30
0.0
 10
-3.232966541684048
 20
7.871085377175469
 30
0.0
 10
-3.232966541684048
 20
7.871085377175469
 30
0.0
 10
-2.669760875142311
 20
7.871085377175469
 30
0.0
 10
-2.669760875142311
 20
7.871085377175469
 30
0.0
 10
-2.669760875142311
 20
7.871085377175469
 30
0.0
 10
-2.669760875142311
 20
7.764083896023659
 30
0.0
 10
-2.669760875142311
 20
7.764083896023659
 30
0.0
 10
-2.669760875142311
 20
7.764083896023659
 30
0.0
 10
-3.232966541684048
 20
7.764083896023659
 30
0.0
 10
-3.232966541684048
 20
7.764083896023659
 30
0.0
 10
-3.232966541684048
 20
7.764083896023659
 30
0.0
 10
-3.232966541684048
 20
7.624150535516215
 30
0.0
 10
-3.232966541684048
 20
7.624150535516215
 30
0.0
 10
-3.232966541684048
 20
7.624150535516215
 30
0.0
 10
-3.101890066357505
 20
7.624150535516215
 30
0.0
 10
-3.101890066357505
 20
7.624150535516215
 30
0.0
 10
-3.07264742554583
 20
7.624150535516215
 30
0.0
 10
-3.048938642550094
 20
7.600441752520479
 30
0.0
 10
-3.048938642550094
 20
7.571199111708804
 30
0.0
 10
-3.048938642550094
 20
7.541956470897129
 30
0.0
 10
-3.07264742554583
 20
7.518247687901392
 30
0.0
 10
-3.101890066357505
 20
7.518247687901392
 30
0.0
 10
-3.101890066357505
 20
7.518247687901392
 30
0.0
 10
-3.232966541684048
 20
7.518247687901392
 30
0.0
 10
-3.232966541684048
 20
7.518247687901392
 30
0.0
 10
-3.232966541684048
 20
7.518247687901392
 30
0.0
 10
-3.232966541684048
 20
7.378300764016949
 30
0.0
 10
-3.232966541684048
 20
7.378300764016949
 30
0.0
 10
-3.232966541684048
 20
7.378300764016949
 30
0.0
 10
-2.669760875142311
 20
7.378300764016949
 30
0.0
 10
-2.669760875142311
 20
7.378300764016949
 30
0.0
 10
-2.669760875142311
 20
7.378300764016949
 30
0.0
 10
-2.669760875142311
 20
7.271299282865138
 30
0.0
 10
-2.669760875142311
 20
7.271299282865138
 30
0.0
 10
-2.669760875142311
 20
7.271299282865138
 30
0.0
 10
-3.232966541684048
 20
7.271299282865138
 30
0.0
 10
-3.232966541684048
 20
7.271299282865138
 30
0.0
 10
-3.232966541684048
 20
7.271299282865138
 30
0.0
 10
-3.232966541684048
 20
6.885529714235429
 30
0.0
 10
-3.232966541684048
 20
6.885529714235429
 30
0.0
 10
-3.232966541684048
 20
6.885529714235429
 30
0.0
 10
-2.669760875142311
 20
6.885529714235429
 30
0.0
 10
-2.669760875142311
 20
6.885529714235429
 30
0.0
 10
-2.669760875142311
 20
6.885529714235429
 30
0.0
 10
-2.669760875142311
 20
6.778528233083619
 30
0.0
 10
-2.669760875142311
 20
6.778528233083619
 30
0.0
 10
-2.669760875142311
 20
6.778528233083619
 30
0.0
 10
-3.232966541684048
 20
6.778528233083619
 30
0.0
 10
-3.232966541684048
 20
6.778528233083619
 30
0.0
 10
-3.232966541684048
 20
6.778528233083619
 30
0.0
 10
-3.232966541684048
 20
6.503530764411677
 30
0.0
 10
-3.232966541684048
 20
6.503530764411677
 30
0.0
 10
-3.232966541684048
 20
6.440881526049374
 30
0.0
 10
-3.182185258196612
 20
6.390100242561938
 30
0.0
 10
-3.119549583211309
 20
6.390100242561938
 30
0.0
 10
-3.119549583211309
 20
6.390100242561938
 30
0.0
 10
-2.244060724625045
 20
6.390100242561938
 30
0.0
 10
-2.244060724625045
 20
6.390100242561938
 30
0.0
 10
-2.181411486262741
 20
6.390100242561938
 30
0.0
 10
-2.130630202775306
 20
6.440881526049374
 30
0.0
 10
-2.130630202775306
 20
6.503530764411677
 30
0.0
 10
-2.130630202775306
 20
6.503530764411677
 30
0.0
 10
-2.130630202775306
 20
8.638867459005931
 30
0.0
 10
-2.130630202775306
 20
8.638867459005931
 30
0.0
 10
-2.130630202775306
 20
8.701516697368234
 30
0.0
 10
-2.181411486262741
 20
8.75229798085567
 30
0.0
 10
-2.244060724625045
 20
8.75229798085567
 30
0.0
  0
ENDBLK
  5
4D
330
4A
100
AcDbEntity
  8
0
100
AcDbBlockEnd
  0
BLOCK
  5
51
330
4F
100
AcDbEntity
  8
0
100
AcDbBlockBegin
  2
BLOCK_6
 70
     0
 71
     0
 10
0.0
 20
0.0
 30
0.0
  3
BLOCK_6
  1

  0
INSERT
  5
54
330
4F
100
AcDbEntity
  8
LAYER_1
100
AcDbBlockReference
  2
BLOCK_7
 10
0.0
 20
0.0
 30
0.0
  0
INSERT
  5
59
330
4F
100
AcDbEntity
  8
LAYER_1
100
AcDbBlockReference
  2
BLOCK_8
 10
0.0
 20
0.0
 30
0.0
  0
ENDBLK
  5
52
330
4F
100
AcDbEntity
  8
0
100
AcDbBlockEnd
  0
BLOCK
  5
55
330
53
100
AcDbEntity
  8
0
100
AcDbBlockBegin
  2
BLOCK_7
 70
     0
 71
     0
 10
0.0
 20
0.0
 30
0.0
  3
BLOCK_7
  1

  0
SPLINE
  5
57
330
53
100
AcDbEntity
  8
LAYER_1
100
AcDbSpline
210
0.0
220
0.0
230
1.0
 70
    11
 71
     3
 72
    86
 73
    82
 74
     0
 42
0.0000000001
 43
0.0000000001
 40
0.0
 40
0.0
 40
0.0
 40
0.0
 40
1.0
 40
1.0
 40
1.0
 40
2.0
 40
2.0
 40
2.0
 40
3.0
 40
3.0
 40
3.0
 40
4.0
 40
4.0
 40
4.0
 40
5.0
 40
5.0
 40
5.0
 40
6.0
 40
6.0
 40
6.0
 40
7.0
 40
7.0
 40
7.0
 40
8.0
 40
8.0
 40
8.0
 40
9.0
 40
9.0
 40
9.0
 40
10.0
 40
10.0
 40
10.0
 40
11.0
 40
11.0
 40
11.0
 40
12.0
 40
12.0
 40
12.0
 40
13.0
 40
13.0
 40
13.0
 40
14.0
 40
14.0
 40
14.0
 40
15.0
 40
15.0
 40
15.0
 40
16.0
 40
16.0
 40
16.0
 40
17.0
 40
17.0
 40
17.0
 40
18.0
 40
18.0
 40
18.0
 40
19.0
 40
19.0
 40
19.0
 40
20.0
 40
20.0
 40
20.0
 40
21.0
 40
21.0
 40
21.0
 40
22.0
 40
22.0
 40
22.0
 40
23.0
 40
23.0
 40
23.0
 40
24.0
 40
24.0
 40
24.0
 40
25.0
 40
25.0
 40
25.0
 40
26.0
 40
26.0
 40
26.0
 40
27.0
 40
27.0
 40
27.0
 40
27.0
 10
-3.401532191038173
 20
8.363869990333988
 30
0.0
 10
-3.401532191038173
 20
8.363869990333988
 30
0.0
 10
-3.401532191038173
 20
8.75229798085567
 30
0.0
 10
-3.401532191038173
 20
8.75229798085567
 30
0.0
 10
-3.401532191038173
 20
8.75229798085567
 30
0.0
 10
-5.068111794829139
 20
8.75229798085567
 30
0.0
 10
-5.068111794829139
 20
8.75229798085567
 30
0.0
 10
-5.130747469814443
 20
8.75229798085567
 30
0.0
 10
-5.181528753301878
 20
8.701516697368234
 30
0.0
 10
-5.181528753301878
 20
8.638867459005931
 30
0.0
 10
-5.181528753301878
 20
8.638867459005931
 30
0.0
 10
-5.181528753301878
 20
7.624136972139215
 30
0.0
 10
-5.181528753301878
 20
7.624136972139215
 30
0.0
 10
-5.181528753301878
 20
7.624136972139215
 30
0.0
 10
-5.051130446825328
 20
7.624136972139215
 30
0.0
 10
-5.051130446825328
 20
7.624136972139215
 30
0.0
 10
-5.021887806013654
 20
7.624136972139215
 30
0.0
 10
-4.998179023017917
 20
7.600428189143479
 30
0.0
 10
-4.998179023017917
 20
7.571199111708804
 30
0.0
 10
-4.998179023017917
 20
7.541956470897129
 30
0.0
 10
-5.021887806013654
 20
7.518247687901392
 30
0.0
 10
-5.051130446825328
 20
7.518247687901392
 30
0.0
 10
-5.051130446825328
 20
7.518247687901392
 30
0.0
 10
-5.181528753301878
 20
7.518247687901392
 30
0.0
 10
-5.181528753301878
 20
7.518247687901392
 30
0.0
 10
-5.181528753301878
 20
7.518247687901392
 30
0.0
 10
-5.181528753301878
 20
6.503530764411677
 30
0.0
 10
-5.181528753301878
 20
6.503530764411677
 30
0.0
 10
-5.181528753301878
 20
6.440881526049374
 30
0.0
 10
-5.130747469814443
 20
6.390100242561938
 30
0.0
 10
-5.068111794829139
 20
6.390100242561938
 30
0.0
 10
-5.068111794829139
 20
6.390100242561938
 30
0.0
 10
-3.401532191038173
 20
6.390100242561938
 30
0.0
 10
-3.401532191038173
 20
6.390100242561938
 30
0.0
 10
-3.401532191038173
 20
6.390100242561938
 30
0.0
 10
-3.401532191038173
 20
6.778528233083619
 30
0.0
 10
-3.401532191038173
 20
6.778528233083619
 30
0.0
 10
-3.401532191038173
 20
6.778528233083619
 30
0.0
 10
-4.181528093856999
 20
6.778528233083619
 30
0.0
 10
-4.181528093856999
 20
6.778528233083619
 30
0.0
 10
-4.181528093856999
 20
6.778528233083619
 30
0.0
 10
-4.181528093856999
 20
6.885529714235429
 30
0.0
 10
-4.181528093856999
 20
6.885529714235429
 30
0.0
 10
-4.181528093856999
 20
6.885529714235429
 30
0.0
 10
-3.401532191038173
 20
6.885529714235429
 30
0.0
 10
-3.401532191038173
 20
6.885529714235429
 30
0.0
 10
-3.401532191038173
 20
6.885529714235429
 30
0.0
 10
-3.401532191038173
 20
7.271299282865138
 30
0.0
 10
-3.401532191038173
 20
7.271299282865138
 30
0.0
 10
-3.401532191038173
 20
7.271299282865138
 30
0.0
 10
-4.181528093856999
 20
7.271299282865138
 30
0.0
 10
-4.181528093856999
 20
7.271299282865138
 30
0.0
 10
-4.181528093856999
 20
7.271299282865138
 30
0.0
 10
-4.181528093856999
 20
7.378300764016949
 30
0.0
 10
-4.181528093856999
 20
7.378300764016949
 30
0.0
 10
-4.181528093856999
 20
7.378300764016949
 30
0.0
 10
-3.401532191038173
 20
7.378300764016949
 30
0.0
 10
-3.401532191038173
 20
7.378300764016949
 30
0.0
 10
-3.401532191038173
 20
7.378300764016949
 30
0.0
 10
-3.401532191038173
 20
7.764083896023659
 30
0.0
 10
-3.401532191038173
 20
7.764083896023659
 30
0.0
 10
-3.401532191038173
 20
7.764083896023659
 30
0.0
 10
-4.181528093856999
 20
7.764083896023659
 30
0.0
 10
-4.181528093856999
 20
7.764083896023659
 30
0.0
 10
-4.181528093856999
 20
7.764083896023659
 30
0.0
 10
-4.181528093856999
 20
7.871085377175469
 30
0.0
 10
-4.181528093856999
 20
7.871085377175469
 30
0.0
 10
-4.181528093856999
 20
7.871085377175469
 30
0.0
 10
-3.401532191038173
 20
7.871085377175469
 30
0.0
 10
-3.401532191038173
 20
7.871085377175469
 30
0.0
 10
-3.401532191038173
 20
7.871085377175469
 30
0.0
 10
-3.401532191038173
 20
8.256868509182178
 30
0.0
 10
-3.401532191038173
 20
8.256868509182178
 30
0.0
 10
-3.401532191038173
 20
8.256868509182178
 30
0.0
 10
-4.181528093856999
 20
8.256868509182178
 30
0.0
 10
-4.181528093856999
 20
8.256868509182178
 30
0.0
 10
-4.181528093856999
 20
8.256868509182178
 30
0.0
 10
-4.181528093856999
 20
8.363869990333988
 30
0.0
 10
-4.181528093856999
 20
8.363869990333988
 30
0.0
 10
-4.181528093856999
 20
8.363869990333988
 30
0.0
 10
-3.401532191038173
 20
8.363869990333988
 30
0.0
 10
-3.401532191038173
 20
8.363869990333988
 30
0.0
  0
ENDBLK
  5
56
330
53
100
AcDbEntity
  8
0
100
AcDbBlockEnd
  0
BLOCK
  5
5A
330
58
100
AcDbEntity
  8
0
100
AcDbBlockBegin
  2
BLOCK_8
 70
     0
 71
     0
 10
0.0
 20
0.0
 30
0.0
  3
BLOCK_8
  1

  0
SPLINE
  5
5C
330
58
100
AcDbEntity
  8
LAYER_1
 62
   250
100
AcDbSpline
210
0.0
220
0.0
230
1.0
 70
    11
 71
     3
 72
    86
 73
    82
 74
     0
 42
0.0000000001
 43
0.0000000001
 40
0.0
 40
0.0
 40
0.0
 40
0.0
 40
1.0
 40
1.0
 40
1.0
 40
2.0
 40
2.0
 40
2.0
 40
3.0
 40
3.0
 40
3.0
 40
4.0
 40
4.0
 40
4.0
 40
5.0
 40
5.0
 40
5.0
 40
6.0
 40
6.0
 40
6.0
 40
7.0
 40
7.0
 40
7.0
 40
8.0
 40
8.0
 40
8.0
 40
9.0
 40
9.0
 40
9.0
 40
10.0
 40
10.0
 40
10.0
 40
11.0
 40
11.0
 40
11.0
 40
12.0
 40
12.0
 40
12.0
 40
13.0
 40
13.0
 40
13.0
 40
14.0
 40
14.0
 40
14.0
 40
15.0
 40
15.0
 40
15.0
 40
16.0
 40
16.0
 40
16.0
 40
17.0
 40
17.0
 40
17.0
 40
18.0
 40
18.0
 40
18.0
 40
19.0
 40
19.0
 40
19.0
 40
20.0
 40
20.0
 40
20.0
 40
21.0
 40
21.0
 40
21.0
 40
22.0
 40
22.0
 40
22.0
 40
23.0
 40
23.0
 40
23.0
 40
24.0
 40
24.0
 40
24.0
 40
25.0
 40
25.0
 40
25.0
 40
26.0
 40
26.0
 40
26.0
 40
27.0
 40
27.0
 40
27.0
 40
27.0
 10
-3.401532191038173
 20
8.363869990333988
 30
0.0
 10
-3.401532191038173
 20
8.363869990333988
 30
0.0
 10
-3.401532191038173
 20
8.75229798085567
 30
0.0
 10
-3.401532191038173
 20
8.75229798085567
 30
0.0
 10
-3.401532191038173
 20
8.75229798085567
 30
0.0
 10
-5.068111794829139
 20
8.75229798085567
 30
0.0
 10
-5.068111794829139
 20
8.75229798085567
 30
0.0
 10
-5.130747469814443
 20
8.75229798085567
 30
0.0
 10
-5.181528753301878
 20
8.701516697368234
 30
0.0
 10
-5.181528753301878
 20
8.638867459005931
 30
0.0
 10
-5.181528753301878
 20
8.638867459005931
 30
0.0
 10
-5.181528753301878
 20
7.624136972139215
 30
0.0
 10
-5.181528753301878
 20
7.624136972139215
 30
0.0
 10
-5.181528753301878
 20
7.624136972139215
 30
0.0
 10
-5.051130446825328
 20
7.624136972139215
 30
0.0
 10
-5.051130446825328
 20
7.624136972139215
 30
0.0
 10
-5.021887806013654
 20
7.624136972139215
 30
0.0
 10
-4.998179023017917
 20
7.600428189143479
 30
0.0
 10
-4.998179023017917
 20
7.571199111708804
 30
0.0
 10
-4.998179023017917
 20
7.541956470897129
 30
0.0
 10
-5.021887806013654
 20
7.518247687901392
 30
0.0
 10
-5.051130446825328
 20
7.518247687901392
 30
0.0
 10
-5.051130446825328
 20
7.518247687901392
 30
0.0
 10
-5.181528753301878
 20
7.518247687901392
 30
0.0
 10
-5.181528753301878
 20
7.518247687901392
 30
0.0
 10
-5.181528753301878
 20
7.518247687901392
 30
0.0
 10
-5.181528753301878
 20
6.503530764411677
 30
0.0
 10
-5.181528753301878
 20
6.503530764411677
 30
0.0
 10
-5.181528753301878
 20
6.440881526049374
 30
0.0
 10
-5.130747469814443
 20
6.390100242561938
 30
0.0
 10
-5.068111794829139
 20
6.390100242561938
 30
0.0
 10
-5.068111794829139
 20
6.390100242561938
 30
0.0
 10
-3.401532191038173
 20
6.390100242561938
 30
0.0
 10
-3.401532191038173
 20
6.390100242561938
 30
0.0
 10
-3.401532191038173
 20
6.390100242561938
 30
0.0
 10
-3.401532191038173
 20
6.778528233083619
 30
0.0
 10
-3.401532191038173
 20
6.778528233083619
 30
0.0
 10
-3.401532191038173
 20
6.778528233083619
 30
0.0
 10
-4.181528093856999
 20
6.778528233083619
 30
0.0
 10
-4.181528093856999
 20
6.778528233083619
 30
0.0
 10
-4.181528093856999
 20
6.778528233083619
 30
0.0
 10
-4.181528093856999
 20
6.885529714235429
 30
0.0
 10
-4.181528093856999
 20
6.885529714235429
 30
0.0
 10
-4.181528093856999
 20
6.885529714235429
 30
0.0
 10
-3.401532191038173
 20
6.885529714235429
 30
0.0
 10
-3.401532191038173
 20
6.885529714235429
 30
0.0
 10
-3.401532191038173
 20
6.885529714235429
 30
0.0
 10
-3.401532191038173
 20
7.271299282865138
 30
0.0
 10
-3.401532191038173
 20
7.271299282865138
 30
0.0
 10
-3.401532191038173
 20
7.271299282865138
 30
0.0
 10
-4.181528093856999
 20
7.271299282865138
 30
0.0
 10
-4.181528093856999
 20
7.271299282865138
 30
0.0
 10
-4.181528093856999
 20
7.271299282865138
 30
0.0
 10
-4.181528093856999
 20
7.378300764016949
 30
0.0
 10
-4.181528093856999
 20
7.378300764016949
 30
0.0
 10
-4.181528093856999
 20
7.378300764016949
 30
0.0
 10
-3.401532191038173
 20
7.378300764016949
 30
0.0
 10
-3.401532191038173
 20
7.378300764016949
 30
0.0
 10
-3.401532191038173
 20
7.378300764016949
 30
0.0
 10
-3.401532191038173
 20
7.764083896023659
 30
0.0
 10
-3.401532191038173
 20
7.764083896023659
 30
0.0
 10
-3.401532191038173
 20
7.764083896023659
 30
0.0
 10
-4.181528093856999
 20
7.764083896023659
 30
0.0
 10
-4.181528093856999
 20
7.764083896023659
 30
0.0
 10
-4.181528093856999
 20
7.764083896023659
 30
0.0
 10
-4.181528093856999
 20
7.871085377175469
 30
0.0
 10
-4.181528093856999
 20
7.871085377175469
 30
0.0
 10
-4.181528093856999
 20
7.871085377175469
 30
0.0
 10
-3.401532191038173
 20
7.871085377175469
 30
0.0
 10
-3.401532191038173
 20
7.871085377175469
 30
0.0
 10
-3.401532191038173
 20
7.871085377175469
 30
0.0
 10
-3.401532191038173
 20
8.256868509182178
 30
0.0
 10
-3.401532191038173
 20
8.256868509182178
 30
0.0
 10
-3.401532191038173
 20
8.256868509182178
 30
0.0
 10
-4.181528093856999
 20
8.256868509182178
 30
0.0
 10
-4.181528093856999
 20
8.256868509182178
 30
0.0
 10
-4.181528093856999
 20
8.256868509182178
 30
0.0
 10
-4.181528093856999
 20
8.363869990333988
 30
0.0
 10
-4.181528093856999
 20
8.363869990333988
 30
0.0
 10
-4.181528093856999
 20
8.363869990333988
 30
0.0
 10
-3.401532191038173
 20
8.363869990333988
 30
0.0
 10
-3.401532191038173
 20
8.363869990333988
 30
0.0
  0
ENDBLK
  5
5B
330
58
100
AcDbEntity
  8
0
100
AcDbBlockEnd
  0
ENDSEC
  0
SECTION
  2
ENTITIES
  0
INSERT
  5
3D
330
1F
100
AcDbEntity
  8
LAYER_1
100
AcDbBlockReference
  2
BLOCK_2
 10
0.0
 20
0.0
 30
0.0
  0
ENDSEC
  0
SECTION
  2
OBJECTS
  0
DICTIONARY
  5
C
330
0
100
AcDbDictionary
  3
ACAD_GROUP
350
D
  3
ACAD_LAYOUT
350
1A
  3
ACAD_MLINESTYLE
350
17
  3
ACAD_PLOTSETTINGS
350
19
  3
ACAD_TABLESTYLE
350
61
  3
ACAD_VISUALSTYLE
350
2A
1001
ACAD
1000
TREAT_AS_HARD
1070
     0
  0
DICTIONARY
  5
D
102
{ACAD_REACTORS
330
C
102
}
330
C
100
AcDbDictionary
1001
ACAD
1000
TREAT_AS_HARD
1070
     0
  0
DICTIONARY
  5
1A
102
{ACAD_REACTORS
330
C
102
}
330
C
100
AcDbDictionary
1001
ACAD
1000
TREAT_AS_HARD
1070
     0
  0
DICTIONARY
  5
17
102
{ACAD_REACTORS
330
C
102
}
330
C
100
AcDbDictionary
  3
STANDARD
350
18
1001
ACAD
1000
TREAT_AS_HARD
1070
     0
  0
DICTIONARY
  5
19
102
{ACAD_REACTORS
330
C
102
}
330
C
100
AcDbDictionary
1001
ACAD
1000
TREAT_AS_HARD
1070
     0
  0
DICTIONARY
  5
61
102
{ACAD_REACTORS
330
C
102
}
330
C
100
AcDbDictionary
1001
ACAD
1000
TREAT_AS_HARD
1070
     0
  0
DICTIONARY
  5
2A
102
{ACAD_REACTORS
330
C
102
}
330
C
100
AcDbDictionary
  3
2DWIREFRAME
350
2F
  3
3DWIREFRAME
350
30
  3
3D_HIDDEN
350
31
  3
BASIC
350
32
  3
BRIGHTEN
350
36
  3
COLORCHANGE
350
3A
  3
CONCEPTUAL
350
34
  3
DIM
350
35
  3
FACEPATTERN
350
39
  3
FLAT
350
2B
  3
FLATWITHEDGES
350
2C
  3
GOURAUD
350
2D
  3
GOURAUDWITHEDGES
350
2E
  3
LINEPATTERN
350
38
  3
REALISTIC
350
33
  3
THICKEN
350
37
1001
ACAD
1000
TREAT_AS_HARD
1070
     0
  0
MLINESTYLE
  5
18
102
{ACAD_REACTORS
330
17
102
}
330
17
100
AcDbMlineStyle
  2
Standard
 70
     0
  3

 62
   256
 51
90.0
 52
90.0
 71
     2
 49
0.5
 62
   256
  6
BYLAYER
 49
-0.5
 62
   256
  6
BYLAYER
  0
VISUALSTYLE
  5
2F
102
{ACAD_REACTORS
330
2A
102
}
330
2A
100
AcDbVisualStyle
  2
2dWireframe
 70
     4
 71
     0
 72
     2
 73
     0
 90
        0
 40
-0.6
 41
-30.0
 62
     5
 63
     7
 74
     1
 91
        4
 64
     7
 65
   257
 75
     1
175
     1
 42
1.0
 92
        0
 66
   257
 43
1.0
 76
     1
 77
     6
 78
     2
 67
     7
 79
     5
170
     0
171
     0
290
     0
174
     0
 93
        1
 44
0.0
173
     0
291
     0
 45
0.0
1001
ACAD
1000
AcDbSavedByObjectVersion
1070
     0
  0
VISUALSTYLE
  5
30
102
{ACAD_REACTORS
330
2A
102
}
330
2A
100
AcDbVisualStyle
  2
3dWireframe
 70
     5
 71
     0
 72
     2
 73
     0
 90
        0
 40
-0.6
 41
-30.0
 62
     5
 63
     7
 74
     1
 91
        4
 64
     7
 65
   257
 75
     1
175
     1
 42
1.0
 92
        0
 66
   257
 43
1.0
 76
     1
 77
     6
 78
     2
 67
     7
 79
     5
170
     0
171
     0
290
     0
174
     0
 93
        1
 44
0.0
173
     0
291
     0
 45
0.0
1001
ACAD
1000
AcDbSavedByObjectVersion
1070
     0
  0
VISUALSTYLE
  5
31
102
{ACAD_REACTORS
330
2A
102
}
330
2A
100
AcDbVisualStyle
  2
3D Hidden
 70
     6
 71
     1
 72
     2
 73
     2
 90
        0
 40
-0.6
 41
-30.0
 62
     5
 63
     7
 74
     2
 91
        2
 64
     7
 65
   257
 75
     2
175
     1
 42
40.0
 92
        0
 66
   257
 43
1.0
 76
     1
 77
     6
 78
     2
 67
     7
 79
     3
170
     0
171
     0
290
     0
174
     0
 93
        1
 44
0.0
173
     0
291
     0
 45
0.0
1001
ACAD
1000
AcDbSavedByObjectVersion
1070
     0
  0
VISUALSTYLE
  5
32
102
{ACAD_REACTORS
330
2A
102
}
330
2A
100
AcDbVisualStyle
  2
Basic
 70
     7
 71
     1
 72
     0
 73
     1
 90
        0
 40
-0.6
 41
-30.0
 62
     5
 63
     7
 74
     0
 91
        4
 64
     7
 65
   257
 75
     1
175
     1
 42
1.0
 92
        8
 66
     7
 43
1.0
 76
     1
 77
     6
 78
     2
 67
     7
 79
     5
170
     0
171
     0
290
     0
174
     0
 93
        1
 44
0.0
173
     0
291
     1
 45
0.0
1001
ACAD
1000
AcDbSavedByObjectVersion
1070
     0
  0
VISUALSTYLE
  5
36
102
{ACAD_REACTORS
330
2A
102
}
330
2A
100
AcDbVisualStyle
  2
Brighten
 70
    12
 71
     2
 72
     2
 73
     0
 90
        0
 40
-0.6
 41
-30.0
 62
     5
 63
     7
 74
     1
 91
        4
 64
     7
 65
   257
 75
     1
175
     1
 42
1.0
 92
        8
 66
     7
 43
1.0
 76
     1
 77
     6
 78
     2
 67
     7
 79
     5
170
     0
171
     0
290
     0
174
     0
 93
        1
 44
50.0
173
     0
291
     1
 45
0.0
1001
ACAD
1000
AcDbSavedByObjectVersion
1070
     0
  0
VISUALSTYLE
  5
3A
102
{ACAD_REACTORS
330
2A
102
}
330
2A
100
AcDbVisualStyle
  2
ColorChange
 70
    16
 71
     2
 72
     2
 73
     3
 90
        0
 40
-0.6
 41
-30.0
 62
     5
 63
     8
 74
     1
 91
        4
 64
     7
 65
   257
 75
     1
175
     1
 42
1.0
 92
        8
 66
     8
 43
1.0
 76
     1
 77
     6
 78
     2
 67
     7
 79
     5
170
     0
171
     0
290
     0
174
     0
 93
        1
 44
0.0
173
     0
291
     1
 45
0.0
1001
ACAD
1000
AcDbSavedByObjectVersion
1070
     0
  0
VISUALSTYLE
  5
34
102
{ACAD_REACTORS
330
2A
102
}
330
2A
100
AcDbVisualStyle
  2
Conceptual
 70
     9
 71
     3
 72
     2
 73
     0
 90
        0
 40
-0.6
 41
-30.0
 62
     5
 63
     7
 74
     2
 91
        2
 64
     7
 65
   257
 75
     1
175
     1
 42
40.0
 92
        8
 66
     7
 43
1.0
 76
     1
 77
     6
 78
     2
 67
     7
 79
     3
170
     0
171
     0
290
     0
174
     0
 93
        1
 44
0.0
173
     0
291
     0
 45
0.0
1001
ACAD
1000
AcDbSavedByObjectVersion
1070
     0
  0
VISUALSTYLE
  5
35
102
{ACAD_REACTORS
330
2A
102
}
330
2A
100
AcDbVisualStyle
  2
Dim
 70
    11
 71
     2
 72
     2
 73
     0
 90
        0
 40
-0.6
 41
-30.0
 62
     5
 63
     7
 74
     1
 91
        4
 64
     7
 65
   257
 75
     1
175
     1
 42
1.0
 92
        8
 66
     7
 43
1.0
 76
     1
 77
     6
 78
     2
 67
     7
 79
     5
170
     0
171
     0
290
     0
174
     0
 93
        1
 44
-50.0
173
     0
291
     1
 45
0.0
1001
ACAD
1000
AcDbSavedByObjectVersion
1070
     0
  0
VISUALSTYLE
  5
39
102
{ACAD_REACTORS
330
2A
102
}
330
2A
100
AcDbVisualStyle
  2
Facepattern
 70
    15
 71
     2
 72
     2
 73
     0
 90
        0
 40
-0.6
 41
-30.0
 62
     5
 63
     7
 74
     1
 91
        4
 64
     7
 65
   257
 75
     1
175
     1
 42
1.0
 92
        8
 66
     7
 43
1.0
 76
     1
 77
     6
 78
     2
 67
     7
 79
     5
170
     0
171
     0
290
     0
174
     0
 93
        1
 44
0.0
173
     0
291
     1
 45
0.0
1001
ACAD
1000
AcDbSavedByObjectVersion
1070
     0
  0
VISUALSTYLE
  5
2B
102
{ACAD_REACTORS
330
2A
102
}
330
2A
100
AcDbVisualStyle
  2
Flat
 70
     0
 71
     2
 72
     1
 73
     1
 90
        2
 40
-0.6
 41
30.0
 62
     5
 63
     7
 74
     0
 91
        4
 64
     7
 65
   257
 75
     1
175
     1
 42
1.0
 92
        8
 66
     7
 43
1.0
 76
     1
 77
     6
 78
     2
 67
     7
 79
     5
170
     0
171
     0
290
     0
174
     0
 93
       13
 44
0.0
173
     0
291
     1
 45
0.0
1001
ACAD
1000
AcDbSavedByObjectVersion
1070
     0
  0
VISUALSTYLE
  5
2C
102
{ACAD_REACTORS
330
2A
102
}
330
2A
100
AcDbVisualStyle
  2
FlatWithEdges
 70
     1
 71
     2
 72
     1
 73
     1
 90
        2
 40
-0.6
 41
30.0
 62
     5
 63
     7
 74
     1
 91
        4
 64
     7
 65
   257
 75
     1
175
     1
 42
1.0
 92
        0
 66
   257
 43
1.0
 76
     1
 77
     6
 78
     2
 67
     7
 79
     5
170
     0
171
     0
290
     0
174
     0
 93
       13
 44
0.0
173
     0
291
     1
 45
0.0
1001
ACAD
1000
AcDbSavedByObjectVersion
1070
     0
  0
VISUALSTYLE
  5
2D
102
{ACAD_REACTORS
330
2A
102
}
330
2A
100
AcDbVisualStyle
  2
Gouraud
 70
     2
 71
     2
 72
     2
 73
     1
 90
        2
 40
-0.6
 41
30.0
 62
     5
 63
     7
 74
     0
 91
        4
 64
     7
 65
   257
 75
     1
175
     1
 42
1.0
 92
        0
 66
     7
 43
1.0
 76
     1
 77
     6
 78
     2
 67
     7
 79
     5
170
     0
171
     0
290
     0
174
     0
 93
       13
 44
0.0
173
     0
291
     1
 45
0.0
1001
ACAD
1000
AcDbSavedByObjectVersion
1070
     0
  0
VISUALSTYLE
  5
2E
102
{ACAD_REACTORS
330
2A
102
}
330
2A
100
AcDbVisualStyle
  2
GouraudWithEdges
 70
     3
 71
     2
 72
     2
 73
     1
 90
        2
 40
-0.6
 41
30.0
 62
     5
 63
     7
 74
     1
 91
        4
 64
     7
 65
   257
 75
     1
175
     1
 42
1.0
 92
        0
 66
   257
 43
1.0
 76
     1
 77
     6
 78
     2
 67
     7
 79
     5
170
     0
171
     0
290
     0
174
     0
 93
       13
 44
0.0
173
     0
291
     1
 45
0.0
1001
ACAD
1000
AcDbSavedByObjectVersion
1070
     0
  0
VISUALSTYLE
  5
38
102
{ACAD_REACTORS
330
2A
102
}
330
2A
100
AcDbVisualStyle
  2
Linepattern
 70
    14
 71
     2
 72
     2
 73
     0
 90
        0
 40
-0.6
 41
-30.0
 62
     5
 63
     7
 74
     1
 91
        4
 64
     7
 65
   257
 75
     7
175
     7
 42
1.0
 92
        8
 66
     7
 43
1.0
 76
     1
 77
     6
 78
     2
 67
     7
 79
     5
170
     0
171
     0
290
     0
174
     0
 93
        1
 44
0.0
173
     0
291
     1
 45
0.0
1001
ACAD
1000
AcDbSavedByObjectVersion
1070
     0
  0
VISUALSTYLE
  5
33
102
{ACAD_REACTORS
330
2A
102
}
330
2A
100
AcDbVisualStyle
  2
Realistic
 70
     8
 71
     2
 72
     2
 73
     0
 90
        0
 40
-0.6
 41
-30.0
 62
     5
 63
     7
 74
     1
 91
        0
 64
     7
 65
   257
 75
     1
175
     1
 42
1.0
 92
        8
 66
     8
 43
1.0
 76
     1
 77
     6
 78
     2
 67
     7
 79
     5
170
     0
171
     0
290
     0
174
     0
 93
       13
 44
0.0
173
     0
291
     0
 45
0.0
1001
ACAD
1000
AcDbSavedByObjectVersion
1070
     0
  0
VISUALSTYLE
  5
37
102
{ACAD_REACTORS
330
2A
102
}
330
2A
100
AcDbVisualStyle
  2
Thicken
 70
    13
 71
     2
 72
     2
 73
     0
 90
        0
 40
-0.6
 41
-30.0
 62
     5
 63
     7
 74
     1
 91
        4
 64
     7
 65
   257
 75
     1
175
     1
 42
1.0
 92
       12
 66
     7
 43
1.0
 76
     1
 77
     6
 78
     2
 67
     7
 79
     5
170
     0
171
     0
290
     0
174
     0
 93
        1
 44
0.0
173
     0
291
     1
 45
0.0
1001
ACAD
1000
AcDbSavedByObjectVersion
1070
     0
  0
ENDSEC
  0
EOF
