0
SECTION
2
HEADER
9
$INSUNITS
70
4
9
$ACADVER
1
AC1014
9
$HANDSEED
5
FFFF
0
ENDSEC
0
SECTION
2
TABLES
0
TABLE
2
VPORT
5
8
100
AcDbSymbolTable
0
ENDTAB
0
TABLE
2
LTYPE
5
5
100
AcDbSymbolTable
0
LTYPE
5
14
100
AcDbSymbolTableRecord
100
AcDbLinetypeTableRecord
2
BYBLOCK
70
0
0
LTYPE
5
15
100
AcDbSymbolTableRecord
100
AcDbLinetypeTableRecord
2
BYLAYER
70
0
0
ENDTAB
0
TABLE
2
LAYER
5
2
100
AcDbSymbolTable
70
2
0
LAYER
5
50
100
AcDbSymbolTableRecord
100
AcDbLayerTableRecord
2
0
70
0
6
CONTINUOUS
0
ENDTAB
0
TABLE
2
STYLE
5
3
100
AcDbSymbolTable
70
1
0
STYLE
5
11
100
AcDbSymbolTableRecord
100
AcDbTextStyleTableRecord
2
STANDARD
70
0
0
ENDTAB
0
TABLE
2
VIEW
5
6
100
AcDbSymbolTable
70
0
0
ENDTAB
0
TABLE
2
UCS
5
7
100
AcDbSymbolTable
70
0
0
ENDTAB
0
TABLE
2
APPID
5
9
100
AcDbSymbolTable
70
2
0
APPID
5
12
100
AcDbSymbolTableRecord
100
AcDbRegAppTableRecord
2
ACAD
70
0
0
ENDTAB
0
TABLE
2
DIMSTYLE
5
A
100
AcDbSymbolTable
70
1
0
ENDTAB
0
TABLE
2
BLOCK_RECORD
5
1
100
AcDbSymbolTable
70
1
0
BLOCK_RECORD
5
1F
100
AcDbSymbolTableRecord
100
AcDbBlockTableRecord
2
*MODEL_SPACE
0
BLOCK_RECORD
5
1B
100
AcDbSymbolTableRecord
100
AcDbBlockTableRecord
2
*PAPER_SPACE
0
ENDTAB
0
ENDSEC
0
SECTION
2
BLOCKS
0
BLOCK
5
20
100
AcDbEntity
100
AcDbBlockBegin
2
*MODEL_SPACE
0
ENDBLK
5
21
100
AcDbEntity
100
AcDbBlockEnd
0
BLOCK
5
1C
100
AcDbEntity
100
AcDbBlockBegin
2
*PAPER_SPACE
0
ENDBLK
5
1D
100
AcDbEntity
100
AcDbBlockEnd
0
ENDSEC
0
SECTION
2
ENTITIES
0
SPLINE
5
100
100
AcDbEntity
8
0
100
AcDbSpline
70
1064
71
3
72
17
73
13
74
0
42
0.000000001
43
0.0000000001
44
0.0000000001
40
0
40
0
40
0
40
0
40
1
40
1
40
1
40
2
40
2
40
2
40
3
40
3
40
3
40
4
40
4
40
4
40
4
10
254.59427890770564
20
360.29755986001237
30
0
10
240.23477641563576
20
360.29755986001237
30
0
10
228.59431553529942
20
348.65709897967599
30
0
10
228.59431553529942
20
334.29759648760626
30
0
10
228.59431553529942
20
319.93809399553629
30
0
10
240.23477641563576
20
308.29780536997418
30
0
10
254.59427890770564
20
308.29780536997418
30
0
10
268.95360914500111
20
308.29780536997418
30
0
10
280.59424228011193
20
319.93809399553629
30
0
10
280.59424228011193
20
334.29759648760626
30
0
10
280.59424228011193
20
348.65709897967599
30
0
10
268.95360914500111
20
360.29755986001237
30
0
10
254.59427890770564
20
360.29755986001237
30
0
0
SPLINE
5
101
100
AcDbEntity
8
0
100
AcDbSpline
70
1064
71
3
72
17
73
13
74
0
42
0.000000001
43
0.0000000001
44
0.0000000001
40
0
40
0
40
0
40
0
40
1
40
1
40
1
40
2
40
2
40
2
40
3
40
3
40
3
40
4
40
4
40
4
40
4
10
350.60426694793921
20
309.34442537839311
30
0
10
350.60426694793921
20
307.13508564370227
30
0
10
348.81350631470633
20
305.34432501046945
30
0
10
346.60416658001571
20
305.34432501046945
30
0
10
344.39517135487347
20
305.34432501046945
30
0
10
342.60423846686638
20
307.13508564370227
30
0
10
342.60423846686638
20
309.34442537839311
30
0
10
342.60423846686638
20
311.55342060353519
30
0
10
344.39517135487347
20
313.34452574631666
30
0
10
346.60416658001571
20
313.34452574631666
30
0
10
348.81350631470633
20
313.34452574631666
30
0
10
350.60426694793921
20
311.55342060353519
30
0
10
350.60426694793921
20
309.34442537839311
30
0
0
LINE
5
102
100
AcDbEntity
8
0
100
AcDbLine
10
313.07201869343339
20
549.62777764037082
30
0
11
313.07270771253053
21
549.62777764037082
31
0
0
SPLINE
5
103
100
AcDbEntity
8
0
100
AcDbSpline
70
1064
71
3
72
8
73
4
74
0
42
0.000000001
43
0.0000000001
44
0.0000000001
40
1
40
1
40
1
40
1
40
2
40
2
40
2
40
2
10
313.07270771253053
20
549.62777764037082
30
0
10
315.31959898801034
20
549.6284666594679
30
0
10
317.14756665248382
20
551.457467852587
30
0
10
317.14722214293539
20
553.70315334464726
30
0
0
ELLIPSE
5
104
100
AcDbEntity
8
0
100
AcDbEllipse
10
312.26403504677626
20
553.37501188442513
30
0
11
4.5839190499740265
21
1.868013746096914
31
0.0
40
0.90107091632623482
41
5.9309065360290862
42
6.6453681246071037
0
SPLINE
5
105
100
AcDbEntity
8
0
100
AcDbSpline
70
1064
71
3
72
11
73
7
74
0
42
0.000000001
43
0.0000000001
44
0.0000000001
40
3
40
3
40
3
40
3
40
4
40
4
40
4
40
5
40
5
40
5
40
5
10
315.9541855763934
20
556.58532022760721
30
0
10
315.18455124498865
20
557.35495455901196
30
0
10
314.16066886677237
20
557.77887355847201
30
0
10
313.07201869343339
20
557.77887355847201
30
0
10
311.20098733539419
20
557.77887355847201
30
0
10
309.62416713179539
20
556.50883910783466
30
0
10
309.14805493573385
20
554.78698038430673
30
0
0
LINE
5
106
100
AcDbEntity
8
0
100
AcDbLine
10
309.14805493573385
20
554.78698038430673
30
0
11
292.55957566470732
21
554.78698038430673
31
0
0
LINE
5
107
100
AcDbEntity
8
0
100
AcDbLine
10
292.55957566470732
20
554.78698038430673
30
0
11
285.07682827074473
21
562.26869424962376
31
0
0
LINE
5
108
100
AcDbEntity
8
0
100
AcDbLine
10
285.07682827074473
20
562.26869424962376
30
0
11
285.07751728984181
21
577.98280828649388
31
0
0
ELLIPSE
5
109
100
AcDbEntity
8
0
100
AcDbEllipse
10
283.40555794985801
20
582.90371357830895
30
0
11
2.6817149696173677
21
-4.4907277641181373
31
0.0
40
0.87915320490462523
41
6.0444302907972274
42
6.5008411682414309
0
ELLIPSE
5
110
100
AcDbEntity
8
0
100
AcDbEllipse
10
283.27355411929381
20
582.19867622017466
30
0
11
4.5009313335194623
21
-1.8177102991211331
31
0.0
40
0.90958915718664379
41
5.9146173646187075
42
6.6364761278713642
0
ELLIPSE
5
111
100
AcDbEntity
8
0
100
AcDbEllipse
10
283.24194828069039
20
581.60591137088102
30
0
11
4.5290966938665758
21
1.8413405877552678
31
0.0
40
0.90605251066182368
41
5.9289951082912964
42
6.6483812348894267
0
SPLINE
5
112
100
AcDbEntity
8
0
100
AcDbSpline
70
1064
71
3
72
14
73
10
74
0
42
0.000000001
43
0.0000000001
44
0.0000000001
40
11
40
11
40
11
40
11
40
12
40
12
40
12
40
13
40
13
40
13
40
14
40
14
40
14
40
14
10
286.8765461522392
20
584.79135049399315
30
0
10
286.1069118208344
20
585.56132933494655
30
0
10
285.08371846171519
20
585.98542058918076
30
0
10
283.99369025018217
20
585.98542058918076
30
0
10
281.74610995560522
20
585.98542058918076
30
0
10
279.91814229113157
20
584.15659165083582
30
0
10
279.91814229113157
20
581.90935586580736
30
0
10
279.91814229113157
20
580.03884127209085
30
0
10
281.18800448699471
20
578.46202106849228
30
0
10
282.91055222961961
20
577.98504759855928
30
0
0
LINE
5
113
100
AcDbEntity
8
0
100
AcDbLine
10
282.91055222961961
20
577.98504759855928
30
0
11
282.91124124871664
21
561.37107462094195
31
0
0
LINE
5
114
100
AcDbEntity
8
0
100
AcDbLine
10
282.91124124871664
20
561.37107462094195
30
0
11
291.66247280034833
21
552.62035983363307
31
0
0
LINE
5
115
100
AcDbEntity
8
0
100
AcDbLine
10
291.66247280034833
20
552.62035983363307
30
0
11
309.14805493573385
21
552.62035983363307
31
0
0
SPLINE
5
116
100
AcDbEntity
8
0
100
AcDbSpline
70
1064
71
3
72
8
73
4
74
0
42
0.000000001
43
0.0000000001
44
0.0000000001
40
17
40
17
40
17
40
17
40
18
40
18
40
18
40
18
10
309.14805493573385
20
552.62035983363307
30
0
10
309.62416713179539
20
550.89850111010526
30
0
10
311.20098733539419
20
549.62812214991936
30
0
10
313.07201869343339
20
549.62777764037082
30
0
0
LINE
5
117
100
AcDbEntity
8
0
100
AcDbLine
10
245.23360996473329
20
537.93787963982106
30
0
11
245.23360996473329
21
553.7689546684154
31
0
0
LINE
5
118
100
AcDbEntity
8
0
100
AcDbLine
10
245.23360996473329
20
553.7689546684154
30
0
11
265.1894978178172
21
570.19706474460349
31
0
0
LINE
5
119
100
AcDbEntity
8
0
100
AcDbLine
10
265.1894978178172
20
570.19706474460349
30
0
11
265.18984232736568
21
585.67846258144505
31
0
0
LINE
5
120
100
AcDbEntity
8
0
100
AcDbLine
10
265.18984232736568
20
585.67846258144505
30
0
11
252.5690795267015
21
585.67760130757381
31
0
0
LINE
5
121
100
AcDbEntity
8
0
100
AcDbLine
10
252.5690795267015
20
585.67760130757381
30
0
11
252.5690795267015
21
588.41094006557091
31
0
0
ELLIPSE
5
122
100
AcDbEntity
8
0
100
AcDbEllipse
10
251.26682080512984
20
592.39124934700862
30
0
11
1.7385807349997533
21
-3.816061604280701
31
0.0
40
0.90768358727337783
41
6.1606739826819155
42
6.6106868405847932
0
ELLIPSE
5
123
100
AcDbEntity
8
0
100
AcDbEllipse
10
250.91056058448569
20
592.01236195030856
30
0
11
3.8908944242255146
21
-1.5560849581508231
31
0.0
40
0.90607188754203427
41
5.9127881612919033
42
6.6314173822048463
0
ELLIPSE
5
124
100
AcDbEntity
8
0
100
AcDbEllipse
10
250.88815041653555
20
591.47911478648257
30
0
11
3.9008464689688624
21
1.6024257492215508
31
0.0
40
0.9035503153113299
41
5.9271961385993359
42
6.6436099318597419
0
SPLINE
5
125
100
AcDbEntity
8
0
100
AcDbSpline
70
1064
71
3
72
11
73
7
74
0
42
0.000000001
43
0.0000000001
44
0.0000000001
40
8
40
8
40
8
40
8
40
9
40
9
40
9
40
10
40
10
40
10
40
10
10
254.02773295515632
20
594.22161036576756
30
0
10
253.36851393405368
20
594.88082938687012
30
0
10
252.49225389738041
20
595.24359794146687
30
0
10
251.55966654952334
20
595.24359794146687
30
0
10
249.63575297578552
20
595.24359794146687
30
0
10
248.07012933251369
20
593.67797429819507
30
0
10
248.06961256819091
20
591.7530271958118
30
0
0
SPLINE
5
126
100
AcDbEntity
8
0
100
AcDbSpline
70
1064
71
3
72
8
73
4
74
0
42
0.000000001
43
0.0000000001
44
0.0000000001
40
10
40
10
40
10
40
10
40
11
40
11
40
11
40
11
10
248.06961256819091
20
591.7530271958118
30
0
10
248.07012933251369
20
590.18085787111806
30
0
10
249.11657708615837
20
588.84932846606898
30
0
10
250.54956455324799
20
588.41404065150778
30
0
0
LINE
5
127
100
AcDbEntity
8
0
100
AcDbLine
10
250.54956455324799
20
588.41404065150778
30
0
11
250.54956455324799
21
583.65739731502322
31
0
0
LINE
5
128
100
AcDbEntity
8
0
100
AcDbLine
10
250.54956455324799
20
583.65739731502322
30
0
11
263.17015509913807
21
583.65877535321727
31
0
0
LINE
5
129
100
AcDbEntity
8
0
100
AcDbLine
10
263.17015509913807
20
583.65877535321727
30
0
11
263.16981058958947
21
571.62540133278821
31
0
0
LINE
5
130
100
AcDbEntity
8
0
100
AcDbLine
10
263.16981058958947
20
571.62540133278821
30
0
11
255.35909010543111
21
571.62540133278821
31
0
0
ELLIPSE
5
131
100
AcDbEntity
8
0
100
AcDbEllipse
10
251.22101528986735
20
570.25722577509191
30
0
11
3.9795996511907061
21
1.7924931552138121
31
0.0
40
0.88817231666796603
41
6.1663302156506754
42
6.6074661066466529
0
ELLIPSE
5
132
100
AcDbEntity
8
0
100
AcDbEllipse
10
251.72444665955732
20
569.91438764032966
30
0
11
-1.6432499245644017
21
-3.9211421395341652
31
0.0
40
0.89944176583380797
41
2.7884911468690543
42
3.5021288500256023
0
LINE
5
133
100
AcDbEntity
8
0
100
AcDbLine
10
252.01786424906152
20
574.10483655352232
30
0
11
252.01579719177039
21
574.10483655352232
31
0
0
SPLINE
5
134
100
AcDbEntity
8
0
100
AcDbSpline
70
1064
71
3
72
11
73
7
74
0
42
0.000000001
43
0.0000000001
44
0.0000000001
40
18
40
18
40
18
40
18
40
19
40
19
40
19
40
20
40
20
40
20
40
20
10
252.01579719177039
20
574.10483655352232
30
0
10
250.09222812758114
20
574.10483655352232
30
0
10
248.52746575818071
20
572.53904065547636
30
0
10
248.52746575818071
20
570.61512708173871
30
0
10
248.52746575818071
20
568.69069674367802
30
0
10
250.09257263712959
20
567.12541760995475
30
0
10
252.01717522996447
20
567.12541760995475
30
0
0
ELLIPSE
5
135
100
AcDbEntity
8
0
100
AcDbEllipse
10
251.74415233910008
20
571.27099860265525
30
0
11
1.6116528298279167
21
-3.8802922726996347
31
0.0
40
0.90538684953491133
41
5.9237766104978746
42
6.6411514515887369
0
ELLIPSE
5
136
100
AcDbEntity
8
0
100
AcDbEllipse
10
251.31288931929288
20
570.89176539673542
30
0
11
3.9526451098291537
21
-1.5564179686401867
31
0.0
40
0.89927427362272205
41
5.9104970086718245
42
6.3579963556806094
0
LINE
5
137
100
AcDbEntity
8
0
100
AcDbLine
10
255.35909010543108
20
569.60536959501189
30
0
11
261.74112949185644
21
569.60536959501189
31
0
0
LINE
5
138
100
AcDbEntity
8
0
100
AcDbLine
10
261.74112949185644
20
569.60536959501189
30
0
11
243.21323371740846
21
554.6050793426856
31
0
0
LINE
5
139
100
AcDbEntity
8
0
100
AcDbLine
10
243.21323371740846
20
554.6050793426856
30
0
11
243.21323371740846
21
537.93787963982106
31
0
0
LINE
5
140
100
AcDbEntity
8
0
100
AcDbLine
10
243.21323371740846
20
537.93787963982106
30
0
11
245.23360996473329
21
537.93787963982106
31
0
0
LINE
5
141
100
AcDbEntity
8
0
100
AcDbLine
10
293.67888718786497
20
398.52313358092482
30
0
11
293.67923169741351
21
403.27943240786078
31
0
0
LINE
5
142
100
AcDbEntity
8
0
100
AcDbLine
10
293.67923169741351
20
403.27943240786078
30
0
11
281.05846889674933
21
403.27839887921516
31
0
0
LINE
5
143
100
AcDbEntity
8
0
100
AcDbLine
10
281.05846889674933
20
403.27839887921516
30
0
11
281.05846889674933
21
415.31177289964432
31
0
0
LINE
5
144
100
AcDbEntity
8
0
100
AcDbLine
10
281.05846889674933
20
415.31177289964432
30
0
11
288.86987840000478
21
415.31211740919281
31
0
0
ELLIPSE
5
145
100
AcDbEntity
8
0
100
AcDbEllipse
10
292.96162181173554
20
416.64111302456951
30
0
11
3.9582483523560508
21
1.6968641612504087
31
0.0
40
0.89367533083671213
41
3.0399012570533452
42
3.4840770981335778
0
ELLIPSE
5
146
100
AcDbEntity
8
0
100
AcDbEllipse
10
292.49559669894859
20
416.99910989260798
30
0
11
-1.6423771271344845
21
-3.893975907526924
31
0.0
40
0.90229874481361227
41
5.9311777759488242
42
6.6468984830735662
0
LINE
5
147
100
AcDbEntity
8
0
100
AcDbLine
10
292.21058749205162
20
412.83268218845848
30
0
11
292.21368807798831
21
412.83268218845848
31
0
0
ELLIPSE
5
148
100
AcDbEntity
8
0
100
AcDbEllipse
10
291.95369716122843
20
416.95361982085495
30
0
11
1.5810632674927265
21
-3.8628151837831766
31
0.0
40
0.90796098818983706
41
5.9273023943500371
42
6.6471380309520702
0
ELLIPSE
5
149
100
AcDbEntity
8
0
100
AcDbEllipse
10
291.56275553626705
20
416.58134773866709
30
0
11
3.8904255756895978
21
-1.556694487851948
31
0.0
40
0.90641865370005104
41
5.9131953108549977
42
6.6315380233634862
0
ELLIPSE
5
150
100
AcDbEntity
8
0
100
AcDbEllipse
10
291.59308507965216
20
416.06538465734775
30
0
11
3.843566103639434
21
1.5947289728885212
31
0.0
40
0.909411370309128
41
5.9219648635855098
42
6.6431973307349566
0
SPLINE
5
151
100
AcDbEntity
8
0
100
AcDbSpline
70
1064
71
3
72
11
73
7
74
0
42
0.000000001
43
0.0000000001
44
0.0000000001
40
10
40
10
40
10
40
10
40
11
40
11
40
11
40
12
40
12
40
12
40
12
10
294.67934291678159
20
418.78925228245549
30
0
10
294.02029615045319
20
419.44864355833226
30
0
10
293.14386385900571
20
419.81141211292908
30
0
10
292.21093200159999
20
419.81141211292908
30
0
10
291.27903367284
20
419.81141211292908
30
0
10
290.40294589094083
20
419.44864355833226
30
0
10
289.74355461506411
20
418.78925228245549
30
0
0
ELLIPSE
5
152
100
AcDbEntity
8
0
100
AcDbEllipse
10
292.84074863750442
20
416.05208549850045
30
0
11
3.8338819158990138
21
-1.6554948047704563
31
0.0
40
0.90731837128075377
41
2.7955652183331541
42
3.2472128208996924
0
LINE
5
153
100
AcDbEntity
8
0
100
AcDbLine
10
288.86987840000478
20
417.33163238264632
30
0
11
282.48714999448237
21
417.33197689219475
31
0
0
LINE
5
154
100
AcDbEntity
8
0
100
AcDbLine
10
282.48714999448237
20
417.33197689219475
30
0
11
301.01487351415602
21
435.85970041186835
31
0
0
LINE
5
155
100
AcDbEntity
8
0
100
AcDbLine
10
301.01487351415602
20
435.85970041186835
30
0
11
301.01590704280164
21
467.18526464014809
31
0
0
SPLINE
5
156
100
AcDbEntity
8
0
100
AcDbSpline
70
1064
71
3
72
17
73
13
74
0
42
0.000000001
43
0.0000000001
44
0.0000000001
40
16
40
16
40
16
40
16
40
17
40
17
40
17
40
18
40
18
40
18
40
19
40
19
40
19
40
20
40
20
40
20
40
20
10
301.01590704280164
20
467.18526464014809
30
0
10
302.44803323602002
20
467.62003569038666
30
0
10
303.49430873489035
20
468.9512205858872
30
0
10
303.49430873489035
20
470.52494020354936
30
0
10
303.49430873489035
20
472.44868152251291
30
0
10
301.92885734639282
20
474.01482193010736
30
0
10
300.00442700833219
20
474.01482193010736
30
0
10
298.08068568936869
20
474.01482193010736
30
0
10
296.51523430087121
20
472.44868152251291
30
0
10
296.51523430087121
20
470.52494020354936
30
0
10
296.51523430087121
20
468.9512205858872
30
0
10
297.56219881883862
20
467.61934667128958
30
0
10
298.99501403115397
20
467.18457562105118
30
0
0
LINE
5
157
100
AcDbEntity
8
0
100
AcDbLine
10
298.99501403115397
20
467.18457562105118
30
0
11
298.99501403115397
21
436.69616959568708
31
0
0
LINE
5
158
100
AcDbEntity
8
0
100
AcDbLine
10
298.99501403115397
20
436.69616959568708
30
0
11
279.63047681811315
21
417.33197689219475
31
0
0
LINE
5
159
100
AcDbEntity
8
0
100
AcDbLine
10
279.63047681811315
20
417.33197689219475
30
0
11
279.39310973917952
21
417.33197689219475
31
0
0
LINE
5
160
100
AcDbEntity
8
0
100
AcDbLine
10
279.39310973917952
20
417.33197689219475
30
0
11
279.39310973917952
21
417.09460981326112
31
0
0
LINE
5
161
100
AcDbEntity
8
0
100
AcDbLine
10
279.39310973917952
20
417.09460981326112
30
0
11
279.03895392329582
21
416.74045399737736
31
0
0
LINE
5
162
100
AcDbEntity
8
0
100
AcDbLine
10
279.03895392329582
20
416.74045399737736
30
0
11
279.0382649041988
21
401.25853939621317
31
0
0
LINE
5
163
100
AcDbEntity
8
0
100
AcDbLine
10
279.0382649041988
20
401.25853939621317
30
0
11
291.65902770486304
21
401.25922841531013
31
0
0
LINE
5
164
100
AcDbEntity
8
0
100
AcDbLine
10
291.65902770486304
20
401.25922841531013
30
0
11
291.65902770486304
21
398.52588965731297
31
0
0
SPLINE
5
165
100
AcDbEntity
8
0
100
AcDbSpline
70
1064
71
3
72
11
73
7
74
0
42
0.000000001
43
0.0000000001
44
0.0000000001
40
28
40
28
40
28
40
28
40
29
40
29
40
29
40
30
40
30
40
30
40
30
10
291.65902770486304
20
398.52588965731297
30
0
10
291.11401359909649
20
398.36190311221515
30
0
10
290.61481926328378
20
398.06528039093513
30
0
10
290.20106329550532
20
397.65152442315667
30
0
10
289.54167201962849
20
396.99213314727979
30
0
10
289.17924797458011
20
396.11535634628365
30
0
10
289.1795924841287
20
395.18414703662063
30
0
0
ELLIPSE
5
166
100
AcDbEntity
8
0
100
AcDbEllipse
10
293.30657388448395
20
395.45215705612543
30
0
11
3.8526165026366073
21
1.6310583390679414
31
0.0
40
0.90716349623514547
41
2.7744926119071533
42
3.493611378122349
0
ELLIPSE
5
167
100
AcDbEntity
8
0
100
AcDbEllipse
10
292.94830955284402
20
395.87088046843917
30
0
11
-1.5966265946373956
21
-3.9215148454785087
31
0.0
40
0.90146467085488124
41
5.9201471067185301
42
6.6350178136071278
0
LINE
5
168
100
AcDbEntity
8
0
100
AcDbLine
10
292.66775166294417
20
391.69357629096544
30
0
11
292.66844068204131
21
391.69357629096555
31
0
0
SPLINE
5
169
100
AcDbEntity
8
0
100
AcDbSpline
70
1064
71
3
72
8
73
4
74
0
42
0.000000001
43
0.0000000001
44
0.0000000001
40
33
40
33
40
33
40
33
40
34
40
34
40
34
40
34
10
292.66844068204131
20
391.69357629096555
30
0
10
294.59218200100469
20
391.69357629096555
30
0
10
296.15797789905082
20
393.25902767946297
30
0
10
296.15901142769638
20
395.18414703662063
30
0
0
SPLINE
5
170
100
AcDbEntity
8
0
100
AcDbSpline
70
1064
71
3
72
8
73
4
74
0
42
0.000000001
43
0.0000000001
44
0.0000000001
40
34
40
34
40
34
40
34
40
35
40
35
40
35
40
35
10
296.15901142769638
20
395.18414703662063
30
0
10
296.15797789905082
20
396.75648861608869
30
0
10
295.11204690972903
20
398.08801802113771
30
0
10
293.67888718786497
20
398.52313358092482
30
0
0
LINE
5
171
100
AcDbEntity
8
0
100
AcDbLine
10
339.02375072904618
20
540.69602308531216
30
0
11
339.02357847427191
21
562.1307181754396
31
0
0
SPLINE
5
172
100
AcDbEntity
8
0
100
AcDbSpline
70
1064
71
3
72
11
73
7
74
0
42
0.000000001
43
0.0000000001
44
0.0000000001
40
1
40
1
40
1
40
1
40
2
40
2
40
2
40
3
40
3
40
3
40
3
10
339.02357847427191
20
562.1307181754396
30
0
10
339.63680547064644
20
562.28006306472514
30
0
10
340.20128436590448
20
562.59149969659177
30
0
10
340.65896530112008
20
563.0491806318073
30
0
10
341.31818432222269
20
563.70839965290975
30
0
10
341.6811251315936
20
564.58448743480869
30
0
10
341.68078062204518
20
565.51638576356868
30
0
0
ELLIPSE
5
173
100
AcDbEntity
8
0
100
AcDbEllipse
10
337.55845207998851
20
565.26171202039586
30
0
11
3.8698312249876006
21
1.5636075081942398
31
0.0
40
0.90851695180252356
41
5.9309520035715968
42
6.6505663839890339
0
ELLIPSE
5
174
100
AcDbEntity
8
0
100
AcDbEllipse
10
337.8974530716369
20
564.81861114595551
30
0
11
-1.6513498059108611
21
-3.915247027378304
31
0.0
40
0.89968863786124986
41
2.7903953336460865
42
3.5043365954163752
0
LINE
5
175
100
AcDbEntity
8
0
100
AcDbLine
10
338.19141565980976
20
569.0062674901269
30
0
11
338.18917634774436
21
569.0062674901269
31
0
0
SPLINE
5
176
100
AcDbEntity
8
0
100
AcDbSpline
70
1064
71
3
72
8
73
4
74
0
42
0.000000001
43
0.0000000001
44
0.0000000001
40
6
40
6
40
6
40
6
40
7
40
7
40
7
40
7
10
338.18917634774436
20
569.0062674901269
30
0
10
336.26629630265222
20
569.0062674901269
30
0
10
334.70136167847733
20
567.4406438468551
30
0
10
334.70136167847733
20
565.51638576356868
30
0
0
SPLINE
5
177
100
AcDbEntity
8
0
100
AcDbSpline
70
1064
71
3
72
8
73
4
74
0
42
0.000000001
43
0.0000000001
44
0.0000000001
40
7
40
7
40
7
40
7
40
8
40
8
40
8
40
8
10
334.70136167847733
20
565.51638576356868
30
0
10
334.70170618802598
20
564.00984550786904
30
0
10
335.66340459273351
20
562.72654743961368
30
0
10
337.00354673649571
20
562.23958319277347
30
0
0
LINE
5
178
100
AcDbEntity
8
0
100
AcDbLine
10
337.00354673649571
20
562.23958319277347
30
0
11
337.00354673649571
21
540.69602308531216
31
0
0
LINE
5
179
100
AcDbEntity
8
0
100
AcDbLine
10
337.00354673649571
20
540.69602308531216
30
0
11
339.02375072904618
21
540.69602308531216
31
0
0
ELLIPSE
5
180
100
AcDbEntity
8
0
100
AcDbEllipse
10
393.26535361129794
20
552.32077894576116
30
0
11
-1.4897153737789943
21
-3.7045206349304678
31
0.0
40
0.90562720252317908
41
5.9146038681523558
42
6.6334128804973762
0
SPLINE
5
181
100
AcDbEntity
8
0
100
AcDbSpline
70
1064
71
3
72
8
73
4
74
0
42
0.000000001
43
0.0000000001
44
0.0000000001
40
1
40
1
40
1
40
1
40
2
40
2
40
2
40
2
10
393.01718197639849
20
548.37824150787071
30
0
10
394.84962826500288
20
548.37789699832217
30
0
10
396.34101010056747
20
549.86927883388682
30
0
10
396.34238813876152
20
551.70224188681391
30
0
0
SPLINE
5
182
100
AcDbEntity
8
0
100
AcDbSpline
70
1064
71
3
72
11
73
7
74
0
42
0.000000001
43
0.0000000001
44
0.0000000001
40
2
40
2
40
2
40
2
40
3
40
3
40
3
40
4
40
4
40
4
40
4
10
396.34238813876152
20
551.70224188681391
30
0
10
396.34169911966461
20
552.58952622904019
30
0
10
395.99581153294548
20
553.42410061034207
30
0
10
395.36777062598452
20
554.05214151730297
30
0
10
394.74007422857187
20
554.67983791471534
30
0
10
393.90532759249589
20
555.02607001098318
30
0
10
393.01821550504417
20
555.02624226575733
30
0
0
ELLIPSE
5
183
100
AcDbEntity
8
0
100
AcDbEllipse
10
393.27266294804838
20
551.09871628675739
30
0
11
1.5482035203790745
21
-3.6673892136143218
31
0.0
40
0.90789223517712003
41
2.775699954340908
42
3.495191911763504
0
ELLIPSE
5
184
100
AcDbEntity
8
0
100
AcDbEllipse
10
393.74338631655985
20
551.3963799099015
30
0
11
3.787646810626399
21
-1.6037027868114317
31
0.0
40
0.89159745796608159
41
2.7947730313990422
42
3.2390313199661107
0
LINE
5
185
100
AcDbEntity
8
0
100
AcDbLine
10
389.83460276712464
20
552.6639402915215
30
0
11
379.01941451027983
21
552.6639402915215
31
0
0
ELLIPSE
5
186
100
AcDbEntity
8
0
100
AcDbEllipse
10
375.33711712555879
20
551.50602868308204
30
0
11
3.5900392897602402
21
1.4232698611832513
31
0.0
40
0.9214415530747222
41
6.2042269217855148
42
6.6622170966886323
0
ELLIPSE
5
187
100
AcDbEntity
8
0
100
AcDbEllipse
10
375.60723964406486
20
551.11966081461514
30
0
11
-1.4461125555361072
21
-3.6776093738558653
31
0.0
40
0.91126391709090715
41
2.7639849249741069
42
3.4861151606040051
0
SPLINE
5
188
100
AcDbEntity
8
0
100
AcDbSpline
70
1064
71
3
72
8
73
4
74
0
42
0.000000001
43
0.0000000001
44
0.0000000001
40
9
40
9
40
9
40
9
40
10
40
10
40
10
40
10
10
375.83649079145749
20
555.02624226575733
30
0
10
374.00369999330462
20
555.0264145205316
30
0
10
372.51197364819154
20
553.53486043019268
30
0
10
372.51231815774008
20
551.70241414158829
30
0
0
ELLIPSE
5
189
100
AcDbEntity
8
0
100
AcDbEllipse
10
376.44572637054841
20
551.95619346242688
30
0
11
3.6768940807416826
21
1.5404325925785618
31
0.0
40
0.90701447241464483
41
2.7780249015106553
42
3.4972904417698105
0
ELLIPSE
5
190
100
AcDbEntity
8
0
100
AcDbEllipse
10
376.08866931711441
20
552.29954814047403
30
0
11
-1.5538966283382549
21
-3.6584294983845185
31
0.0
40
0.90840942635698796
41
5.9316957894683755
42
6.6518550492980175
0
SPLINE
5
191
100
AcDbEntity
8
0
100
AcDbSpline
70
1064
71
3
72
8
73
4
74
0
42
0.000000001
43
0.0000000001
44
0.0000000001
40
12
40
12
40
12
40
12
40
13
40
13
40
13
40
13
10
375.83683530100609
20
548.37824150787071
30
0
10
377.33545183708969
20
548.3772079792252
30
0
10
378.60393599475867
20
549.37473537697929
30
0
10
379.01769196253713
20
550.73950995346081
30
0
0
LINE
5
192
100
AcDbEntity
8
0
100
AcDbLine
10
379.01769196253713
20
550.73950995346081
30
0
11
389.83425825757621
21
550.74019897255801
31
0
0
ELLIPSE
5
193
100
AcDbEntity
8
0
100
AcDbEllipse
10
393.73266529685009
20
552.06586789144001
30
0
11
3.6817229386345787
21
1.867005454762394
31
0.0
40
0.89285813500675659
41
2.9833517596674164
42
3.4261369278662088
0
LINE
5
194
100
AcDbEntity
8
0
100
AcDbLine
10
387.88157813653663
20
302.02256394359159
30
0
11
387.88192264608512
21
309.40712611622462
31
0
0
LINE
5
195
100
AcDbEntity
8
0
100
AcDbLine
10
387.88192264608512
20
309.40712611622462
30
0
11
384.57463098024527
21
312.84705395824659
31
0
0
SPLINE
5
196
100
AcDbEntity
8
0
100
AcDbSpline
70
1064
71
3
72
23
73
19
74
0
42
0.000000001
43
0.0000000001
44
0.0000000001
40
2
40
2
40
2
40
2
40
3
40
3
40
3
40
4
40
4
40
4
40
5
40
5
40
5
40
6
40
6
40
6
40
7
40
7
40
7
40
8
40
8
40
8
40
8
10
384.57463098024527
20
312.84705395824659
30
0
10
384.08887251682501
20
312.59831806421153
30
0
10
383.54937056383483
20
312.46464835938377
30
0
10
382.98850901883623
20
312.46464835938377
30
0
10
381.06407868077576
20
312.46464835938377
30
0
10
379.49793827318115
20
314.03009974788137
30
0
10
379.49793827318115
20
315.95521910503896
30
0
10
379.49793827318115
20
317.87964944309954
30
0
10
381.06270064258149
20
319.44441181250011
30
0
10
382.98713098064206
20
319.44441181250011
30
0
10
383.92075185714475
20
319.44441181250011
30
0
10
384.79718414859235
20
319.0812987483547
30
0
10
385.45588640537221
20
318.42259649157478
30
0
10
386.11527768124904
20
317.76320521569812
30
0
10
386.47770172629737
20
316.88677292425047
30
0
10
386.47770172629737
20
315.95521910503896
30
0
10
386.47770172629737
20
315.34681524234384
30
0
10
386.32060537216995
20
314.76390508623962
30
0
10
386.03052833231175
20
314.24782978254916
30
0
0
LINE
5
197
100
AcDbEntity
8
0
100
AcDbLine
10
386.03052833231175
20
314.24782978254916
30
0
11
389.90212663863565
21
310.22085766984071
31
0
0
LINE
5
198
100
AcDbEntity
8
0
100
AcDbLine
10
389.90212663863565
20
310.22085766984071
30
0
11
389.90247114818408
21
302.02256394359159
31
0
0
LINE
5
199
100
AcDbEntity
8
0
100
AcDbLine
10
389.90247114818408
20
302.02256394359159
30
0
11
387.88157813653663
21
302.02256394359159
31
0
0
LINE
5
200
100
AcDbEntity
8
0
100
AcDbLine
10
347.86438250852007
20
572.4182900587183
30
0
11
354.23677562758667
21
566.08517102818359
31
0
0
ELLIPSE
5
201
100
AcDbEntity
8
0
100
AcDbEllipse
10
357.79005577849523
20
564.33386826394371
30
0
11
3.7915496823709338
21
-1.1803806221637474
31
0.0
40
0.91246079044823347
41
2.9707739494640535
42
3.4212755134184811
0
SPLINE
5
202
100
AcDbEntity
8
0
100
AcDbSpline
70
1064
71
3
72
10
73
6
74
0
42
0.000000001
43
0.0000000001
44
0.0000000001
40
2
40
2
40
2
40
2
40
3
40
3
40
4
40
4
40
4
40
4
10
353.84851336639906
20
564.5133462130384
30
0
10
353.85195846188418
20
563.62554510648943
30
0
10
354.20025761544298
20
562.79183199905901
30
0
10
355.45978452485036
20
561.54022880926777
30
0
10
356.2959091991205
20
561.1970972989368
30
0
10
357.18267677702386
20
561.20002563009939
30
0
0
SPLINE
5
203
100
AcDbEntity
8
0
100
AcDbSpline
70
1064
71
3
72
11
73
7
74
0
42
0.000000001
43
0.0000000001
44
0.0000000001
40
4
40
4
40
4
40
4
40
5
40
5
40
5
40
6
40
6
40
6
40
6
10
357.18267677702386
20
561.20002563009939
30
0
10
358.07151141221817
20
561.20243719693906
30
0
10
358.90556846039863
20
561.55090917033795
30
0
10
359.53119836931864
20
562.18067205997568
30
0
10
360.15717164987768
20
562.81078058960372
30
0
10
360.5003037293194
20
563.64656018894948
30
0
10
360.49720314338265
20
564.53436129549823
30
0
0
ELLIPSE
5
204
100
AcDbEntity
8
0
100
AcDbEllipse
10
356.58361865054462
20
564.27191982596628
30
0
11
3.6459204007931367
21
1.5642072010443759
31
0.0
40
0.9094120626707074
41
5.9140265777788317
42
6.6347276355867413
0
ELLIPSE
5
205
100
AcDbEntity
8
0
100
AcDbEllipse
10
356.91952367264423
20
563.93714378109098
30
0
11
-1.5743823915420889
21
-3.6393164129278355
31
0.0
40
0.91041657066181114
41
2.7985061588774514
42
3.5186543413370579
0
ELLIPSE
5
206
100
AcDbEntity
8
0
100
AcDbEllipse
10
357.50064492274788
20
563.64202617157116
30
0
11
1.4933066168692357
21
-3.9964994051162068
31
0.0
40
0.87902083066663816
41
2.8281225084947885
42
3.2627198780482991
0
LINE
5
207
100
AcDbEntity
8
0
100
AcDbLine
10
355.59379873922649
20
567.45063462376231
30
0
11
348.65537643193335
21
574.34564872794135
31
0
0
LINE
5
208
100
AcDbEntity
8
0
100
AcDbLine
10
348.65537643193335
20
574.34564872794135
30
0
11
317.0175142979158
21
574.24574095886919
31
0
0
ELLIPSE
5
209
100
AcDbEntity
8
0
100
AcDbEllipse
10
313.06671879806748
20
573.09119391115928
30
0
11
3.6146359360205009
21
2.0243214585010634
31
0.0
40
0.89081145948866569
41
6.0303659748818603
42
6.5318226328256461
0
ELLIPSE
5
210
100
AcDbEntity
8
0
100
AcDbEllipse
10
313.52273488088917
20
572.8699883802434
30
0
11
-1.5487612703932518
21
-3.6842058566532288
31
0.0
40
0.90629480179972055
41
2.7900894463475723
42
3.5080135667497316
0
SPLINE
5
211
100
AcDbEntity
8
0
100
AcDbSpline
70
1064
71
3
72
8
73
4
74
0
42
0.000000001
43
0.0000000001
44
0.0000000001
40
13
40
13
40
13
40
13
40
14
40
14
40
14
40
14
10
313.77240660558465
20
576.81250935015453
30
0
10
311.93892678833481
20
576.80613592350687
30
0
10
310.45340161509506
20
575.30958644471423
30
0
10
310.45839700354861
20
573.47748466565838
30
0
0
ELLIPSE
5
212
100
AcDbEntity
8
0
100
AcDbEllipse
10
314.41213327216826
20
573.74842618339244
30
0
11
3.7032241930670962
21
1.5314949340699424
31
0.0
40
0.90435560202662524
41
2.7863290152094673
42
3.5037822265953609
0
ELLIPSE
5
213
100
AcDbEntity
8
0
100
AcDbEllipse
10
314.01909507850092
20
574.07624011350276
30
0
11
-1.4759681250993042
21
-3.675072228947736
31
0.0
40
0.90959987586891333
41
5.9153972379287723
42
6.6369407885365801
0
ELLIPSE
5
214
100
AcDbEntity
8
0
100
AcDbEllipse
10
313.5225456266831
20
574.11273935207817
30
0
11
1.5435682000168587
21
-3.6937139676626169
31
0.0
40
0.90511315498840472
41
5.9240369416087084
42
6.6417096486133129
0
ELLIPSE
5
215
100
AcDbEntity
8
0
100
AcDbEllipse
10
313.05721032182987
20
574.05536406127533
30
0
11
3.3339509364878186
21
-2.6290289130343836
31
0.0
40
0.87966648645559109
41
6.1822208492768773
42
6.5582768279685357
0
LINE
5
216
100
AcDbEntity
8
0
100
AcDbLine
10
316.89400762476964
20
572.32182738513143
30
0
11
347.86438250852007
21
572.4182900587183
31
0
0
SPLINE
5
217
100
AcDbEntity
8
0
100
AcDbSpline
70
1064
71
3
72
17
73
13
74
0
42
0.000000001
43
0.0000000001
44
0.0000000001
40
0
40
0
40
0
40
0
40
1
40
1
40
1
40
2
40
2
40
2
40
3
40
3
40
3
40
4
40
4
40
4
40
4
10
462.61844606490092
20
334.29863001625176
30
0
10
462.61844606490092
20
321.04396964630149
30
0
10
451.87319324640669
20
310.29871682780731
30
0
10
438.61853287645653
20
310.29871682780731
30
0
10
425.36352799695777
20
310.29871682780731
30
0
10
414.61861968801207
20
321.04396964630149
30
0
10
414.61861968801207
20
334.29863001625176
30
0
10
414.61861968801207
20
347.55363489575052
30
0
10
425.36352799695777
20
358.2987154594706
30
0
10
438.61853287645653
20
358.2987154594706
30
0
10
451.87319324640669
20
358.2987154594706
30
0
10
462.61844606490092
20
347.55363489575052
30
0
10
462.61844606490092
20
334.29863001625176
30
0
0
SPLINE
5
218
100
AcDbEntity
8
0
100
AcDbSpline
70
1064
71
3
72
17
73
13
74
0
42
0.000000001
43
0.0000000001
44
0.0000000001
40
0
40
0
40
0
40
0
40
1
40
1
40
1
40
2
40
2
40
2
40
3
40
3
40
3
40
4
40
4
40
4
40
4
10
278.59436435092442
20
334.29759648760626
30
0
10
278.59436435092442
20
321.04293611765581
30
0
10
267.84911153243007
20
310.29768329916169
30
0
10
254.59445116247991
20
310.29768329916169
30
0
10
241.3394462829811
20
310.29768329916169
30
0
10
230.59436571926113
20
321.04293611765581
30
0
10
230.59436571926113
20
334.29759648760626
30
0
10
230.59436571926113
20
347.5526013671049
30
0
10
241.3394462829811
20
358.29768193082487
30
0
10
254.59445116247991
20
358.29768193082487
30
0
10
267.84911153243007
20
358.29768193082487
30
0
10
278.59436435092442
20
347.5526013671049
30
0
10
278.59436435092442
20
334.29759648760626
30
0
0
SPLINE
5
219
100
AcDbEntity
8
0
100
AcDbSpline
70
1064
71
3
72
17
73
13
74
0
42
0.000000001
43
0.0000000001
44
0.0000000001
40
0
40
0
40
0
40
0
40
1
40
1
40
1
40
2
40
2
40
2
40
3
40
3
40
3
40
4
40
4
40
4
40
4
10
438.61853287645653
20
360.29859338865799
30
0
10
424.25903038438668
20
360.29859338865799
30
0
10
412.6187417588244
20
348.65813250832161
30
0
10
412.6187417588244
20
334.29863001625176
30
0
10
412.6187417588244
20
319.93912752418186
30
0
10
424.25903038438668
20
308.29883889861969
30
0
10
438.61853287645653
20
308.29883889861969
30
0
10
452.97769085897784
20
308.29883889861969
30
0
10
464.61866850363697
20
319.93912752418186
30
0
10
464.61866850363697
20
334.29863001625176
30
0
10
464.61866850363697
20
348.65813250832161
30
0
10
452.97769085897784
20
360.29859338865799
30
0
10
438.61853287645653
20
360.29859338865799
30
0
0
LINE
5
220
100
AcDbEntity
8
0
100
AcDbLine
10
285.79874802967879
20
302.06114901302641
30
0
11
285.79874802967879
21
306.36751836958871
31
0
0
LINE
5
221
100
AcDbEntity
8
0
100
AcDbLine
10
285.79874802967879
20
306.36751836958871
30
0
11
294.78424607430736
21
312.93593742176603
31
0
0
SPLINE
5
222
100
AcDbEntity
8
0
100
AcDbSpline
70
1064
71
3
72
14
73
10
74
0
42
0.000000001
43
0.0000000001
44
0.0000000001
40
2
40
2
40
2
40
2
40
3
40
3
40
3
40
4
40
4
40
4
40
5
40
5
40
5
40
5
10
294.78424607430736
20
312.93593742176603
30
0
10
294.58925366984232
20
313.37070847200448
30
0
10
294.47832159521732
20
313.85095478264839
30
0
10
294.47832159521732
20
314.35738381898022
30
0
10
294.47832159521732
20
316.28146964749214
30
0
10
296.04377298371469
20
317.84657652644114
30
0
10
297.9675143026783
20
317.84657652644114
30
0
10
298.9004461600839
20
317.84657652644114
30
0
10
299.7768784515315
20
317.48380797184433
30
0
10
300.43558070831119
20
316.8244166959675
30
0
0
SPLINE
5
223
100
AcDbEntity
8
0
100
AcDbSpline
70
1064
71
3
72
11
73
7
74
0
42
0.000000001
43
0.0000000001
44
0.0000000001
40
5
40
5
40
5
40
5
40
6
40
6
40
6
40
7
40
7
40
7
40
7
10
300.43558070831119
20
316.8244166959675
30
0
10
301.09497198418813
20
316.16536992963921
30
0
10
301.45808504833337
20
315.28893763819167
30
0
10
301.45808504833337
20
314.35738381898022
30
0
10
301.45808504833337
20
312.43364250001667
30
0
10
299.89263365983589
20
310.86715758287352
30
0
10
297.9688923408724
20
310.86646856377638
30
0
0
LINE
5
224
100
AcDbEntity
8
0
100
AcDbLine
10
297.9688923408724
20
310.86646856377638
30
0
11
297.9675143026783
21
310.86646856377638
31
0
0
SPLINE
5
225
100
AcDbEntity
8
0
100
AcDbSpline
70
1064
71
3
72
8
73
4
74
0
42
0.000000001
43
0.0000000001
44
0.0000000001
40
8
40
8
40
8
40
8
40
9
40
9
40
9
40
9
10
297.9675143026783
20
310.86646856377638
30
0
10
297.28676343479287
20
310.86681307332498
30
0
10
296.65217684640987
20
311.06628410192087
30
0
10
296.11474195071088
20
311.40562600721813
30
0
0
LINE
5
226
100
AcDbEntity
8
0
100
AcDbLine
10
296.11474195071088
20
311.40562600721813
30
0
11
287.81964104132629
21
305.34225795317832
31
0
0
LINE
5
227
100
AcDbEntity
8
0
100
AcDbLine
10
287.81964104132629
20
305.34225795317832
30
0
11
287.81946878655214
21
302.06114901302641
31
0
0
LINE
5
228
100
AcDbEntity
8
0
100
AcDbLine
10
287.81946878655214
20
302.06114901302641
30
0
11
285.79874802967879
21
302.06114901302641
31
0
0
SPLINE
5
229
100
AcDbEntity
8
0
100
AcDbSpline
70
1064
71
3
72
8
73
4
74
0
42
0.000000001
43
0.0000000001
44
0.0000000001
40
0
40
0
40
0
40
0
40
1
40
1
40
1
40
1
10
297.20011928333889
20
568.94735635732911
30
0
10
297.20011928333889
20
566.70046508184919
30
0
10
299.02808694781237
20
564.87232516260144
30
0
10
301.27497822329241
20
564.87129163395582
30
0
0
LINE
5
230
100
AcDbEntity
8
0
100
AcDbLine
10
301.27497822329241
20
564.87129163395582
30
0
11
301.27566724238937
21
564.87129163395582
31
0
0
ELLIPSE
5
231
100
AcDbEntity
8
0
100
AcDbEllipse
10
300.94408249454125
20
569.7639590998383
30
0
11
1.8620918945583089
21
-4.5965908219890101
31
0.0
40
0.90015460564982808
41
5.933444947895044
42
6.6471577754693074
0
ELLIPSE
5
232
100
AcDbEntity
8
0
100
AcDbEllipse
10
300.53546658041449
20
569.24165231750953
30
0
11
4.525072731998657
21
-1.8113034492835858
31
0.0
40
0.90749613636073045
41
5.9123132368882034
42
6.6328662893256851
0
ELLIPSE
5
233
100
AcDbEntity
8
0
100
AcDbEllipse
10
300.51049155741401
20
568.63940841392309
30
0
11
4.5453964412331631
21
1.8359002133855726
31
0.0
40
0.90469267714533441
41
5.9316041639786885
42
6.650212911599791
0
ELLIPSE
5
234
100
AcDbEntity
8
0
100
AcDbEllipse
10
300.74010862446778
20
568.03630315067528
30
0
11
-2.6141819058512459
21
-4.4159725702217232
31
0.0
40
0.88667052620705056
41
2.9180846933763034
42
3.3792931900768024
0
LINE
5
235
100
AcDbEntity
8
0
100
AcDbLine
10
302.35880526295199
20
572.87390393664271
30
0
11
302.35880526295199
21
583.11841212635579
31
0
0
SPLINE
5
236
100
AcDbEntity
8
0
100
AcDbSpline
70
1064
71
3
72
8
73
4
74
0
42
0.000000001
43
0.0000000001
44
0.0000000001
40
7
40
7
40
7
40
7
40
8
40
8
40
8
40
8
10
302.35880526295199
20
583.11841212635579
30
0
10
304.08066398647986
20
583.59504108674014
30
0
10
305.34983716324587
20
585.17186129033894
30
0
10
305.35121520143997
20
587.04272039360399
30
0
0
SPLINE
5
237
100
AcDbEntity
8
0
100
AcDbSpline
70
1064
71
3
72
8
73
4
74
0
42
0.000000001
43
0.0000000001
44
0.0000000001
40
8
40
8
40
8
40
8
40
9
40
9
40
9
40
9
10
305.35121520143997
20
587.04272039360399
30
0
10
305.34983716324587
20
589.28961166908391
30
0
10
303.52118047967531
20
591.1180960978802
30
0
10
301.27428920419533
20
591.11844060742874
30
0
0
SPLINE
5
238
100
AcDbEntity
8
0
100
AcDbSpline
70
1064
71
3
72
11
73
7
74
0
42
0.000000001
43
0.0000000001
44
0.0000000001
40
9
40
9
40
9
40
9
40
10
40
10
40
10
40
11
40
11
40
11
40
11
10
301.27428920419533
20
591.11844060742874
30
0
10
299.02808694781237
20
591.11844060742874
30
0
10
297.20011928333889
20
589.29047294295515
30
0
10
297.20011928333889
20
587.0432371579268
30
0
10
297.20011928333889
20
585.17134452601624
30
0
10
298.46929246010484
20
583.59400755809463
30
0
10
300.19252922182687
20
583.11806761680737
30
0
0
LINE
5
239
100
AcDbEntity
8
0
100
AcDbLine
10
300.19252922182687
20
583.11806761680737
30
0
11
300.19252922182687
21
572.8721813889
31
0
0
SPLINE
5
240
100
AcDbEntity
8
0
100
AcDbSpline
70
1064
71
3
72
8
73
4
74
0
42
0.000000001
43
0.0000000001
44
0.0000000001
40
12
40
12
40
12
40
12
40
13
40
13
40
13
40
13
10
300.19252922182687
20
572.8721813889
30
0
10
298.46929246010484
20
572.39641370238712
30
0
10
297.20011928333889
20
570.81924898923978
30
0
10
297.20011928333889
20
568.94735635732911
30
0
0
LINE
5
241
100
AcDbEntity
8
0
100
AcDbLine
10
466.85005684943337
20
537.93787963982106
30
0
11
466.84971233988477
21
551.60732950619558
31
0
0
LINE
5
242
100
AcDbEntity
8
0
100
AcDbLine
10
466.84971233988477
20
551.60732950619558
30
0
11
457.63890505052086
21
559.16517998173651
31
0
0
LINE
5
243
100
AcDbEntity
8
0
100
AcDbLine
10
457.63890505052086
20
559.16517998173651
30
0
11
457.63890505052086
21
578.02122110115442
31
0
0
SPLINE
5
244
100
AcDbEntity
8
0
100
AcDbSpline
70
1064
71
3
72
8
73
4
74
0
42
0.000000001
43
0.0000000001
44
0.0000000001
40
3
40
3
40
3
40
3
40
4
40
4
40
4
40
4
10
457.63890505052086
20
578.02122110115442
30
0
10
459.07137575328767
20
578.45564764184439
30
0
10
460.11799576170677
20
579.78769381121629
30
0
10
460.11902929035216
20
581.36089666455564
30
0
0
SPLINE
5
245
100
AcDbEntity
8
0
100
AcDbSpline
70
1064
71
3
72
8
73
4
74
0
42
0.000000001
43
0.0000000001
44
0.0000000001
40
4
40
4
40
4
40
4
40
5
40
5
40
5
40
5
10
460.11902929035216
20
581.36089666455564
30
0
10
460.11902929035216
20
583.28412121919621
30
0
10
458.55323339230608
20
584.8499171172424
30
0
10
456.62845854469714
20
584.85095064588802
30
0
0
SPLINE
5
246
100
AcDbEntity
8
0
100
AcDbSpline
70
1064
71
3
72
8
73
4
74
0
42
0.000000001
43
0.0000000001
44
0.0000000001
40
5
40
5
40
5
40
5
40
6
40
6
40
6
40
6
10
456.62845854469714
20
584.85095064588802
30
0
10
454.70368369708808
20
584.85026162679083
30
0
10
453.13857681813909
20
583.28446572874486
30
0
10
453.13892132768757
20
581.36072440978137
30
0
0
ELLIPSE
5
247
100
AcDbEntity
8
0
100
AcDbEllipse
10
457.30200695231133
20
581.6386437263327
30
0
11
3.9006960406646201
21
1.6113769953753729
31
0.0
40
0.9027049322477545
41
2.7842479742855053
42
3.5004811108289329
0
ELLIPSE
5
248
100
AcDbEntity
8
0
100
AcDbEllipse
10
456.93377488406009
20
582.01506602042843
30
0
11
-1.7744567532108766
21
-3.8218037233763571
31
0.0
40
0.90487160786738219
41
5.9628865478246285
42
6.4120260809146732
0
LINE
5
249
100
AcDbEntity
8
0
100
AcDbLine
10
455.61835654842173
20
578.01863727954048
30
0
11
455.61835654842179
21
558.21019951322512
31
0
0
LINE
5
250
100
AcDbEntity
8
0
100
AcDbLine
10
455.61835654842179
20
558.21019951322512
30
0
11
464.82985285688278
21
550.65217678290981
31
0
0
LINE
5
251
100
AcDbEntity
8
0
100
AcDbLine
10
464.82985285688278
20
550.65217678290981
30
0
11
464.83019736643138
21
537.93787963982106
31
0
0
LINE
5
252
100
AcDbEntity
8
0
100
AcDbLine
10
464.83019736643138
20
537.93787963982106
30
0
11
466.85005684943337
21
537.93787963982106
31
0
0
ELLIPSE
5
253
100
AcDbEntity
8
0
100
AcDbEllipse
10
419.01722102515419
20
546.89228348652784
30
0
11
3.773544958936474
21
-0.95026072901933589
31
0.0
40
0.9203600968865665
41
2.9135142033901493
42
3.3694529963826332
0
ELLIPSE
5
254
100
AcDbEntity
8
0
100
AcDbEllipse
10
419.0599455051206
20
547.28404543295926
30
0
11
3.6572278932857594
21
1.5398936439983135
31
0.0
40
0.90962759091548273
41
2.7764872242454599
42
3.4964368899728915
0
SPLINE
5
255
100
AcDbEntity
8
0
100
AcDbSpline
70
1064
71
3
72
11
73
7
74
0
42
0.000000001
43
0.0000000001
44
0.0000000001
40
2
40
2
40
2
40
2
40
3
40
3
40
3
40
4
40
4
40
4
40
4
10
416.11723622409562
20
544.68423787381175
30
0
10
416.74562164060535
20
544.05602471207635
30
0
10
417.58036827668127
20
543.7104816349057
30
0
10
418.46748036413322
20
543.70996487058289
30
0
10
419.35597048977911
20
543.7094481062602
30
0
10
420.19106163540357
20
544.05602471207635
30
0
10
420.8191025423647
20
544.68337659994029
30
0
0
ELLIPSE
5
256
100
AcDbEntity
8
0
100
AcDbEllipse
10
417.88565361136307
20
547.27599158902672
30
0
11
3.6542974230943863
21
-1.5179470568119475
31
0.0
40
0.91070124467587166
41
5.9233349337040284
42
6.6452771125807217
0
ELLIPSE
5
257
100
AcDbEntity
8
0
100
AcDbEllipse
10
417.8220529425235
20
546.7640611620576
30
0
11
3.7153548538547914
21
1.5517358815434106
31
0.0
40
0.90269315952179396
41
5.9233165579010194
42
6.638355993003481
0
ELLIPSE
5
258
100
AcDbEntity
8
0
100
AcDbEllipse
10
418.22382848270865
20
546.43615413072951
30
0
11
-1.5038919735592662
21
-3.6764402378594001
31
0.0
40
0.90858731587652697
41
2.777589953555454
42
3.4976897209368012
0
ELLIPSE
5
259
100
AcDbEntity
8
0
100
AcDbEllipse
10
418.68840428487255
20
546.30347135047589
30
0
11
1.166949675506517
21
-3.9171876353719455
31
0.0
40
0.89768147757971217
41
2.8804602675827193
42
3.3251332453930056
0
LINE
5
260
100
AcDbEntity
8
0
100
AcDbLine
10
416.89927289924731
20
549.96367445018268
30
0
11
403.40104427848991
21
563.4620753257143
31
0
0
LINE
5
261
100
AcDbEntity
8
0
100
AcDbLine
10
403.40104427848991
20
563.4620753257143
30
0
11
375.30697961537464
21
563.46173081616587
31
0
0
SPLINE
5
262
100
AcDbEntity
8
0
100
AcDbSpline
70
1064
71
3
72
11
73
7
74
0
42
0.000000001
43
0.0000000001
44
0.0000000001
40
10
40
10
40
10
40
10
40
11
40
11
40
11
40
12
40
12
40
12
40
12
10
375.30697961537464
20
563.46173081616587
30
0
10
375.15057228034431
20
563.9815957248901
30
0
10
374.8687634696509
20
564.45684664708028
30
0
10
374.47464454613828
20
564.85096557059273
30
0
10
373.84660363917732
20
565.47900647755387
30
0
10
373.01220151264977
20
565.8245495547244
30
0
10
372.12371138700377
20
565.82489406427283
30
0
0
SPLINE
5
263
100
AcDbEntity
8
0
100
AcDbSpline
70
1064
71
3
72
8
73
4
74
0
42
0.000000001
43
0.0000000001
44
0.0000000001
40
12
40
12
40
12
40
12
40
13
40
13
40
13
40
13
10
372.12371138700377
20
565.82489406427283
30
0
10
370.29092058885084
20
565.82489406427283
30
0
10
368.79988326283478
20
564.33368448348256
30
0
10
368.79988326283478
20
562.49986015668412
30
0
0
ELLIPSE
5
264
100
AcDbEntity
8
0
100
AcDbEllipse
10
372.7515802750579
20
562.76472268321049
30
0
11
3.6928122037691917
21
1.5541907180216994
31
0.0
40
0.90515827996841924
41
2.7782754311894333
42
3.4951091507630472
0
ELLIPSE
5
265
100
AcDbEntity
8
0
100
AcDbEllipse
10
372.39138723793593
20
563.11199230145564
30
0
11
-1.5933965116588218
21
-3.6617495126219799
31
0.0
40
0.90674473927458654
41
5.9401867097295646
42
6.6579707204176151
0
SPLINE
5
266
100
AcDbEntity
8
0
100
AcDbSpline
70
1064
71
3
72
8
73
4
74
0
42
0.000000001
43
0.0000000001
44
0.0000000001
40
15
40
15
40
15
40
15
40
16
40
16
40
16
40
16
10
372.12405589655236
20
559.17551526819227
30
0
10
373.62267243263602
20
559.17551526819227
30
0
10
374.89150109985354
20
560.1733871754949
30
0
10
375.30525706763223
20
561.53747273287968
30
0
0
LINE
5
267
100
AcDbEntity
8
0
100
AcDbLine
10
375.30525706763223
20
561.53747273287968
30
0
11
402.60384918320318
21
561.53850626152507
31
0
0
LINE
5
268
100
AcDbEntity
8
0
100
AcDbLine
10
402.60384918320318
20
561.53850626152507
30
0
11
415.5391492016708
21
548.60320624305768
31
0
0
LINE
5
269
100
AcDbEntity
8
0
100
AcDbLine
10
243.21323371740846
20
523.96939548532714
30
0
11
243.21323371740846
21
463.31022123833918
31
0
0
ELLIPSE
5
270
100
AcDbEntity
8
0
100
AcDbEllipse
10
244.57895389878979
20
459.21184666109406
30
0
11
1.8367574508168309
21
-3.9182498017499356
31
0.0
40
0.89266082562752325
41
3.0110203557080748
42
3.4541108988641209
0
ELLIPSE
5
271
100
AcDbEntity
8
0
100
AcDbEllipse
10
244.87609667825558
20
459.70015164793574
30
0
11
3.8821420716776656
21
-1.596307277036505
31
0.0
40
0.90543355885126042
41
2.7801916430281284
42
3.4984108440251096
0
ELLIPSE
5
272
100
AcDbEntity
8
0
100
AcDbEllipse
10
244.87046575324132
20
460.22876980598835
30
0
11
3.8857995032986823
21
1.5655950131675413
31
0.0
40
0.90646488821066307
41
2.791010551099026
42
3.5097464801559273
0
SPLINE
5
273
100
AcDbEntity
8
0
100
AcDbSpline
70
1064
71
3
72
11
73
7
74
0
42
0.000000001
43
0.0000000001
44
0.0000000001
40
4
40
4
40
4
40
4
40
5
40
5
40
5
40
6
40
6
40
6
40
6
10
241.75578607237358
20
457.50041221201377
30
0
10
242.41500509347614
20
456.84119319091133
30
0
10
243.29126513014941
20
456.4782523815403
30
0
10
244.22333571368381
20
456.4782523815403
30
0
10
245.15557855199239
20
456.4782523815403
30
0
10
246.03218309821418
20
456.84119319091133
30
0
10
246.69140211931665
20
457.50041221201377
30
0
0
ELLIPSE
5
274
100
AcDbEntity
8
0
100
AcDbEllipse
10
243.57971830755326
20
460.23293576095102
30
0
11
3.8723323287091271
21
-1.5953328327545733
31
0.0
40
0.90638186459109527
41
5.9220680630014151
42
6.640976695405306
0
SPLINE
5
275
100
AcDbEntity
8
0
100
AcDbSpline
70
1064
71
3
72
8
73
4
74
0
42
0.000000001
43
0.0000000001
44
0.0000000001
40
7
40
7
40
7
40
7
40
8
40
8
40
8
40
8
10
247.71321744024181
20
459.96778959854987
30
0
10
247.71356194979046
20
461.54116470666327
30
0
10
246.6669419413715
20
462.87355538558364
30
0
10
245.23360996473329
20
463.308154181048
30
0
0
LINE
5
276
100
AcDbEntity
8
0
100
AcDbLine
10
245.23360996473329
20
463.308154181048
30
0
11
245.23360996473329
21
523.96939548532714
31
0
0
LINE
5
277
100
AcDbEntity
8
0
100
AcDbLine
10
245.23360996473329
20
523.96939548532714
30
0
11
243.21323371740846
21
523.96939548532714
31
0
0
SPLINE
5
278
100
AcDbEntity
8
0
100
AcDbSpline
70
1064
71
3
72
17
73
13
74
0
42
0.000000001
43
0.0000000001
44
0.0000000001
40
0
40
0
40
0
40
0
40
1
40
1
40
1
40
2
40
2
40
2
40
3
40
3
40
3
40
4
40
4
40
4
40
4
10
346.60416658001571
20
312.39436841148478
30
0
10
344.91985939727698
20
312.39436841148478
30
0
10
343.55422354692388
20
311.02873256113173
30
0
10
343.55422354692388
20
309.34442537839311
30
0
10
343.55422354692388
20
307.65977368610589
30
0
10
344.91985939727698
20
306.29448234530133
30
0
10
346.60416658001571
20
306.29448234530133
30
0
10
348.28881827230276
20
306.29448234530133
30
0
10
349.65410961310732
20
307.65977368610589
30
0
10
349.65410961310732
20
309.34442537839311
30
0
10
349.65410961310732
20
311.02873256113173
30
0
10
348.28881827230276
20
312.39436841148478
30
0
10
346.60416658001571
20
312.39436841148478
30
0
0
LINE
5
279
100
AcDbEntity
8
0
100
AcDbLine
10
464.82985285688278
20
523.96939548532714
30
0
11
464.83019736643138
21
476.77382664946981
31
0
0
LINE
5
280
100
AcDbEntity
8
0
100
AcDbLine
10
464.83019736643138
20
476.77382664946981
30
0
11
446.64732790483117
21
461.85518516014383
31
0
0
LINE
5
281
100
AcDbEntity
8
0
100
AcDbLine
10
446.64732790483117
20
461.85518516014383
30
0
11
446.40754925905787
21
461.65881471748457
31
0
0
LINE
5
282
100
AcDbEntity
8
0
100
AcDbLine
10
446.40754925905787
20
461.65881471748457
30
0
11
446.40754925905787
21
448.9326319949717
31
0
0
SPLINE
5
283
100
AcDbEntity
8
0
100
AcDbSpline
70
1064
71
3
72
11
73
7
74
0
42
0.000000001
43
0.0000000001
44
0.0000000001
40
4
40
4
40
4
40
4
40
5
40
5
40
5
40
6
40
6
40
6
40
6
10
446.40754925905787
20
448.9326319949717
30
0
10
444.97438953719393
20
448.49872221860443
30
0
10
443.92742501922646
20
447.16650379445838
30
0
10
443.92742501922646
20
445.59312868634481
30
0
10
443.92742501922646
20
443.66904285783278
30
0
10
445.492876407724
20
442.1032469597867
30
0
10
447.41696223623597
20
442.10290245023816
30
0
0
SPLINE
5
284
100
AcDbEntity
8
0
100
AcDbSpline
70
1064
71
3
72
11
73
7
74
0
42
0.000000001
43
0.0000000001
44
0.0000000001
40
6
40
6
40
6
40
6
40
7
40
7
40
7
40
8
40
8
40
8
40
8
10
447.41696223623597
20
442.10290245023816
30
0
10
449.34139257429672
20
442.1032469597867
30
0
10
450.90718847234263
20
443.66904285783278
30
0
10
450.90718847234263
20
445.59312868634481
30
0
10
450.90718847234263
20
447.16615928490995
30
0
10
449.8609129734723
20
448.498377709056
30
0
10
448.42775325160829
20
448.9326319949717
30
0
0
LINE
5
285
100
AcDbEntity
8
0
100
AcDbLine
10
448.42775325160829
20
448.9326319949717
30
0
11
448.42809776115689
21
460.70366199419914
31
0
0
LINE
5
286
100
AcDbEntity
8
0
100
AcDbLine
10
448.42809776115689
20
460.70366199419914
30
0
11
466.60993369411142
21
475.62264799307343
31
0
0
LINE
5
287
100
AcDbEntity
8
0
100
AcDbLine
10
466.60993369411142
20
475.62264799307343
30
0
11
466.85005684943337
21
475.81901843573269
31
0
0
LINE
5
288
100
AcDbEntity
8
0
100
AcDbLine
10
466.85005684943337
20
475.81901843573269
30
0
11
466.84971233988477
21
523.96939548532714
31
0
0
LINE
5
289
100
AcDbEntity
8
0
100
AcDbLine
10
466.84971233988477
20
523.96939548532714
30
0
11
464.82985285688278
21
523.96939548532714
31
0
0
ELLIPSE
5
290
100
AcDbEntity
8
0
100
AcDbEllipse
10
358.078801069772
20
578.22910862944696
30
0
11
-1.4268181319926558
21
-3.9730190011797601
31
0.0
40
0.90287798222186111
41
5.9306358874710066
42
6.6465718742438211
0
ELLIPSE
5
291
100
AcDbEntity
8
0
100
AcDbEllipse
10
357.52773802520522
20
578.16548366547545
30
0
11
1.8371116352561701
21
-3.76078616771201
31
0.0
40
0.90648989677690384
41
5.9164233779915962
42
6.6358662387088501
0
ELLIPSE
5
292
100
AcDbEntity
8
0
100
AcDbEllipse
10
355.31882528277174
20
580.2833368908714
30
0
11
4.8912394267993973
21
-5.2943609015345832
31
0.0
40
0.68085464006032337
41
0.063616851514148434
42
0.25290715516738788
0
LINE
5
293
100
AcDbEntity
8
0
100
AcDbLine
10
360.95643437156639
20
575.9906818221483
30
0
11
382.91581750409739
21
576.01031886641408
31
0
0
SPLINE
5
294
100
AcDbEntity
8
0
100
AcDbSpline
70
1064
71
3
72
8
73
4
74
0
42
0.000000001
43
0.0000000001
44
0.0000000001
40
4
40
4
40
4
40
4
40
5
40
5
40
5
40
5
10
382.91581750409739
20
576.01031886641408
30
0
10
383.09358443113632
20
575.41982950024226
30
0
10
383.42672516456003
20
574.86861422260222
30
0
10
383.9193738189507
20
574.42660847184482
30
0
0
SPLINE
5
295
100
AcDbEntity
8
0
100
AcDbSpline
70
1064
71
3
72
8
73
4
74
0
42
0.000000001
43
0.0000000001
44
0.0000000001
40
5
40
5
40
5
40
5
40
6
40
6
40
6
40
6
10
383.9193738189507
20
574.42660847184482
30
0
10
385.35046648352352
20
573.1412433462981
30
0
10
387.56152876595678
20
573.26044365008772
30
0
10
388.8472384010521
20
574.69188082420897
30
0
0
SPLINE
5
296
100
AcDbEntity
8
0
100
AcDbSpline
70
1064
71
3
72
8
73
4
74
0
42
0.000000001
43
0.0000000001
44
0.0000000001
40
6
40
6
40
6
40
6
40
7
40
7
40
7
40
7
10
388.8472384010521
20
574.69188082420897
30
0
10
390.13191450750162
20
576.12366250787886
30
0
10
390.01409224190627
20
578.33438028076364
30
0
10
388.58299957733351
20
579.61991766108463
30
0
0
LINE
5
297
100
AcDbEntity
8
0
100
AcDbLine
10
388.58299957733351
20
579.61991766108463
30
0
11
388.58231055823637
21
579.62060668018171
31
0
0
SPLINE
5
298
100
AcDbEntity
8
0
100
AcDbSpline
70
1064
71
3
72
8
73
4
74
0
42
0.000000001
43
0.0000000001
44
0.0000000001
40
8
40
8
40
8
40
8
40
9
40
9
40
9
40
9
10
388.58231055823637
20
579.62060668018171
30
0
10
387.14983985546951
20
580.90597180572843
30
0
10
384.93843306348771
20
580.78625473761599
30
0
10
383.65306793794082
20
579.35447305394621
30
0
0
ELLIPSE
5
299
100
AcDbEntity
8
0
100
AcDbEllipse
10
387.38120976100527
20
576.21960555730436
30
0
11
3.9622878687386813
21
-2.8435184402451452
31
0.0
40
0.83836990871449535
41
3.0501853061527062
42
3.4227322861857696
0
LINE
5
300
100
AcDbEntity
8
0
100
AcDbLine
10
382.91306142770918
20
578.02983383986759
30
0
11
376.04457455876673
21
578.02397717754263
31
0
0
LINE
5
301
100
AcDbEntity
8
0
100
AcDbLine
10
376.04457455876673
20
578.02397717754263
30
0
11
375.82925609093849
21
582.0239052906918
31
0
0
ELLIPSE
5
302
100
AcDbEntity
8
0
100
AcDbEllipse
10
374.33521256632434
20
585.76433176520004
30
0
11
2.2624420830545913
21
-3.3509648206063765
31
0.0
40
0.92425898801591166
41
6.0524102195744547
42
6.5109821818658
0
SPLINE
5
303
100
AcDbEntity
8
0
100
AcDbSpline
70
1064
71
3
72
8
73
4
74
0
42
0.000000001
43
0.0000000001
44
0.0000000001
40
13
40
13
40
13
40
13
40
14
40
14
40
14
40
14
10
377.23864465395417
20
582.97216782300688
30
0
10
378.52297625085544
20
584.40463852577386
30
0
10
378.40377594706581
20
586.61535629865864
30
0
10
376.97406132068699
20
587.90037691465693
30
0
0
LINE
5
304
100
AcDbEntity
8
0
100
AcDbLine
10
376.97406132068699
20
587.90037691465693
30
0
11
376.97302779204142
21
587.9010659337539
31
0
0
SPLINE
5
305
100
AcDbEntity
8
0
100
AcDbSpline
70
1064
71
3
72
8
73
4
74
0
42
0.000000001
43
0.0000000001
44
0.0000000001
40
15
40
15
40
15
40
15
40
16
40
16
40
16
40
16
10
376.97302779204142
20
587.9010659337539
30
0
10
375.54124610837164
20
589.18556978542938
30
0
10
373.33052833548675
20
589.06654173641391
30
0
10
372.04447419084312
20
587.63562132661536
30
0
0
SPLINE
5
306
100
AcDbEntity
8
0
100
AcDbSpline
70
1064
71
3
72
8
73
4
74
0
42
0.000000001
43
0.0000000001
44
0.0000000001
40
16
40
16
40
16
40
16
40
17
40
17
40
17
40
17
10
372.04447419084312
20
587.63562132661536
30
0
10
370.75945357484488
20
586.20332287862277
30
0
10
370.87830936908603
20
583.99243285096372
30
0
10
372.3114690909498
20
582.70586194199723
30
0
0
ELLIPSE
5
307
100
AcDbEntity
8
0
100
AcDbEllipse
10
374.89334634204579
20
585.73481356929301
30
0
11
-2.0197596310939083
21
-3.4403898312020571
31
0.0
40
0.92996256995163462
41
6.0952759893577522
42
6.5564021382436204
0
LINE
5
308
100
AcDbEntity
8
0
100
AcDbLine
10
373.81180817477616
20
581.9152125281322
30
0
11
374.0209254707309
21
578.02208237502578
31
0
0
LINE
5
309
100
AcDbEntity
8
0
100
AcDbLine
10
374.0209254707309
20
578.02208237502578
30
0
11
361.28854157634453
21
578.01036905037586
31
0
0
ELLIPSE
5
310
100
AcDbEntity
8
0
100
AcDbEllipse
10
357.09676524007716
20
577.13404692773327
30
0
11
3.7817211858316027
21
2.1130778576752878
31
0.0
40
0.89047729956767496
41
5.9450514784773487
42
6.5793235463806159
0
LINE
5
311
100
AcDbEntity
8
0
100
AcDbLine
10
360.16475142905597
20
580.137887767292
30
0
11
360.16406240995906
21
580.13874904116324
31
0
0
SPLINE
5
312
100
AcDbEntity
8
0
100
AcDbSpline
70
1064
71
3
72
8
73
4
74
0
42
0.000000001
43
0.0000000001
44
0.0000000001
40
22
40
22
40
22
40
22
40
23
40
23
40
23
40
23
10
360.16406240995906
20
580.13874904116324
30
0
10
358.73228072628922
20
581.4244586762585
30
0
10
356.52190746295287
20
581.30491386292022
30
0
10
355.23619782785761
20
579.87364894357324
30
0
0
SPLINE
5
313
100
AcDbEntity
8
0
100
AcDbSpline
70
1064
71
3
72
8
73
4
74
0
42
0.000000001
43
0.0000000001
44
0.0000000001
40
23
40
23
40
23
40
23
40
24
40
24
40
24
40
24
10
355.23619782785761
20
579.87364894357324
30
0
10
353.95083270231089
20
578.44117824080638
30
0
10
354.06968849655198
20
576.2309772322443
30
0
10
355.50112567067322
20
574.94526759714927
30
0
0
SPLINE
5
314
100
AcDbEntity
8
0
100
AcDbSpline
70
1064
71
3
72
11
73
7
74
0
42
0.000000001
43
0.0000000001
44
0.0000000001
40
0
40
0
40
0
40
0
40
1
40
1
40
1
40
2
40
2
40
2
40
2
10
258.91925177988833
20
390.55807281902725
30
0
10
258.26640618543337
20
391.18714725463377
30
0
10
257.41202250509139
20
391.53441287954695
30
0
10
256.50148376833999
20
391.53441287954695
30
0
10
254.57860372324771
20
391.53441287954695
30
0
10
253.0129800799759
20
389.96896149104947
30
0
10
253.01125753223332
20
388.0445311529889
30
0
0
SPLINE
5
315
100
AcDbEntity
8
0
100
AcDbSpline
70
1064
71
3
72
8
73
4
74
0
42
0.000000001
43
0.0000000001
44
0.0000000001
40
2
40
2
40
2
40
2
40
3
40
3
40
3
40
3
10
253.01125753223332
20
388.0445311529889
30
0
10
253.01211880610458
20
386.12078983402535
30
0
10
254.5782592136992
20
384.55533844552792
30
0
10
256.50182827788842
20
384.55499393597933
30
0
0
LINE
5
316
100
AcDbEntity
8
0
100
AcDbLine
10
256.50182827788842
20
384.55499393597933
30
0
11
256.50234504221118
21
384.55499393597933
31
0
0
ELLIPSE
5
317
100
AcDbEntity
8
0
100
AcDbEllipse
10
256.21894447181177
20
388.71266369019122
30
0
11
1.6396327869141749
21
-3.8852897406882358
31
0.0
40
0.90271149214044666
41
5.9191454174836711
42
6.6358938686752209
0
ELLIPSE
5
318
100
AcDbEntity
8
0
100
AcDbEllipse
10
255.84235595246793
20
388.31880788863475
30
0
11
3.8827030745620963
21
-1.6153120201514861
31
0.0
40
0.90418565992356348
41
5.9259510576618046
42
6.6433837619415517
0
ELLIPSE
5
319
100
AcDbEntity
8
0
100
AcDbEllipse
10
253.16651189281671
20
388.60561467056078
30
0
11
6.7822838947601802
21
-1.0881963824377539
31
0.0
40
0.69370051671352118
41
0.11084294032876456
42
0.26171281349860392
0
LINE
5
320
100
AcDbEntity
8
0
100
AcDbLine
10
259.91316182738285
20
388.77179080992511
30
0
11
270.97432990187451
21
397.32079525657264
31
0
0
LINE
5
321
100
AcDbEntity
8
0
100
AcDbLine
10
270.97432990187451
20
397.32079525657264
30
0
11
270.97432990187451
21
467.73647991778819
31
0
0
SPLINE
5
322
100
AcDbEntity
8
0
100
AcDbSpline
70
1064
71
3
72
17
73
13
74
0
42
0.000000001
43
0.0000000001
44
0.0000000001
40
9
40
9
40
9
40
9
40
10
40
10
40
10
40
11
40
11
40
11
40
12
40
12
40
12
40
13
40
13
40
13
40
13
10
270.97432990187451
20
467.73647991778819
30
0
10
272.40680060464143
20
468.17090645847804
30
0
10
273.45324835828603
20
469.50295262785005
30
0
10
273.45324835828603
20
471.07563871686648
30
0
10
273.45324835828603
20
472.99989680015278
30
0
10
271.88762471501423
20
474.56552044342459
30
0
10
269.96319437695371
20
474.56552044342459
30
0
10
268.03910854844156
20
474.56552044342459
30
0
10
266.47382941471841
20
472.99989680015278
30
0
10
266.47382941471841
20
471.07563871686648
30
0
10
266.47382941471841
20
469.50260811830151
30
0
10
267.52096618746003
20
468.17056194892962
30
0
10
268.95378139977538
20
467.73630766301386
30
0
0
LINE
5
323
100
AcDbEntity
8
0
100
AcDbLine
10
268.95378139977538
20
467.73630766301386
30
0
11
268.95378139977538
21
398.31332726587311
31
0
0
LINE
5
324
100
AcDbEntity
8
0
100
AcDbLine
10
268.95378139977538
20
398.31332726587311
30
0
11
258.91925177988833
21
390.55807281902725
31
0
0
ELLIPSE
5
325
100
AcDbEntity
8
0
100
AcDbEllipse
10
573.72485847135772
20
331.92805871110812
30
0
11
-1.4041461942006199
21
-3.9573601315356601
31
0.0
40
0.90581203593832871
41
2.7874760937467888
42
3.5050956562504894
0
ELLIPSE
5
326
100
AcDbEntity
8
0
100
AcDbEllipse
10
574.27019207656895
20
331.95883368587835
30
0
11
1.8277410167445094
21
-3.7795882392117148
31
0.0
40
0.90556860171653708
41
2.7822677854411837
42
3.5001001900302606
0
ELLIPSE
5
327
100
AcDbEntity
8
0
100
AcDbEllipse
10
578.74277756220476
20
326.95281257728573
30
0
11
7.0727744869596982
21
-8.2703115259292872
31
0.0
40
0.54546917383021432
41
3.2151194834596311
42
3.3698407655919311
0
LINE
5
328
100
AcDbEntity
8
0
100
AcDbLine
10
570.83268486163229
20
334.13567699979927
30
0
11
548.87399074819814
21
334.04472647898876
31
0
0
SPLINE
5
329
100
AcDbEntity
8
0
100
AcDbSpline
70
1064
71
3
72
8
73
4
74
0
42
0.000000001
43
0.0000000001
44
0.0000000001
40
4
40
4
40
4
40
4
40
5
40
5
40
5
40
5
10
548.87399074819814
20
334.04472647898876
30
0
10
548.69346774477094
20
334.63521584516064
30
0
10
548.3592934827019
20
335.18539759415512
30
0
10
547.86595580921414
20
335.62568079717005
30
0
0
SPLINE
5
330
100
AcDbEntity
8
0
100
AcDbSpline
70
1064
71
3
72
8
73
4
74
0
42
0.000000001
43
0.0000000001
44
0.0000000001
40
5
40
5
40
5
40
5
40
6
40
6
40
6
40
6
10
547.86595580921414
20
335.62568079717005
30
0
10
546.43004001096199
20
336.90656729858597
30
0
10
544.21932223807721
20
336.78082131337419
30
0
10
542.93809122711264
20
335.34421649602513
30
0
0
SPLINE
5
331
100
AcDbEntity
8
0
100
AcDbSpline
70
1064
71
3
72
8
73
4
74
0
42
0.000000001
43
0.0000000001
44
0.0000000001
40
6
40
6
40
6
40
6
40
7
40
7
40
7
40
7
10
542.93809122711264
20
335.34421649602513
30
0
10
541.65754923524537
20
333.90898971687
30
0
10
541.78329522045703
20
331.69827194398516
30
0
10
543.21852199961211
20
330.41704093302081
30
0
0
LINE
5
332
100
AcDbEntity
8
0
100
AcDbLine
10
543.21852199961211
20
330.41704093302081
30
0
11
543.21955552825762
21
330.41669642347216
31
0
0
SPLINE
5
333
100
AcDbEntity
8
0
100
AcDbSpline
70
1064
71
3
72
8
73
4
74
0
42
0.000000001
43
0.0000000001
44
0.0000000001
40
8
40
8
40
8
40
8
40
9
40
9
40
9
40
9
10
543.21955552825762
20
330.41669642347216
30
0
10
544.65581583605831
20
329.13615443160489
30
0
10
546.86618909939455
20
329.26293394546212
30
0
10
548.14707560081047
20
330.69781621506866
30
0
0
ELLIPSE
5
334
100
AcDbEntity
8
0
100
AcDbEllipse
10
544.10794911253925
20
334.12467842911838
30
0
11
4.1920506956325587
21
-3.2428725804099114
31
0.0
40
0.80257694041620786
41
6.2269452354612405
42
6.5842997036604833
0
LINE
5
335
100
AcDbEntity
8
0
100
AcDbLine
10
548.88329250600827
20
332.02555601508385
30
0
11
555.75109035585388
21
332.05380579806302
31
0
0
LINE
5
336
100
AcDbEntity
8
0
100
AcDbLine
10
555.75109035585388
20
332.05380579806302
30
0
11
555.97950018652602
21
328.05473895878487
31
0
0
ELLIPSE
5
337
100
AcDbEntity
8
0
100
AcDbEllipse
10
557.50910596644985
20
324.19963596436611
30
0
11
2.0889664005805422
21
-3.593626016394377
31
0.0
40
0.91209667456069543
41
2.9786589419235909
42
3.4305017764947321
0
SPLINE
5
338
100
AcDbEntity
8
0
100
AcDbSpline
70
1064
71
3
72
8
73
4
74
0
42
0.000000001
43
0.0000000001
44
0.0000000001
40
13
40
13
40
13
40
13
40
14
40
14
40
14
40
14
10
554.57286769989832
20
327.10148103801635
30
0
10
553.29404825577387
20
325.66556523976425
30
0
10
553.41979424098531
20
323.45484746687936
30
0
10
554.85433200104342
20
322.17430547501203
30
0
0
LINE
5
339
100
AcDbEntity
8
0
100
AcDbLine
10
554.85433200104342
20
322.17430547501203
30
0
11
554.85502102014038
21
322.17396096546349
31
0
0
SPLINE
5
340
100
AcDbEntity
8
0
100
AcDbSpline
70
1064
71
3
72
8
73
4
74
0
42
0.000000001
43
0.0000000001
44
0.0000000001
40
15
40
15
40
15
40
15
40
16
40
16
40
16
40
16
10
554.85502102014038
20
322.17396096546349
30
0
10
556.29128132794119
20
320.89341897359611
30
0
10
558.50165459127743
20
321.02019848745329
30
0
10
559.78219658314481
20
322.45542526660842
30
0
0
SPLINE
5
341
100
AcDbEntity
8
0
100
AcDbSpline
70
1064
71
3
72
8
73
4
74
0
42
0.000000001
43
0.0000000001
44
0.0000000001
40
16
40
16
40
16
40
16
40
17
40
17
40
17
40
17
10
559.78219658314481
20
322.45542526660842
30
0
10
561.06342759410916
20
323.89168557440917
30
0
10
560.93699258980052
20
326.10205883774535
30
0
10
559.50004326290286
20
327.38397886780683
30
0
0
ELLIPSE
5
342
100
AcDbEntity
8
0
100
AcDbEllipse
10
556.87078860474867
20
324.15681696428737
30
0
11
-1.8666599361559966
21
-3.7442901986179669
31
0.0
40
0.90844083753908877
41
2.8989464872638564
42
3.3491069293406395
0
LINE
5
343
100
AcDbEntity
8
0
100
AcDbLine
10
557.99660359313975
20
328.17014965754083
30
0
11
557.77473944388953
21
332.06207402722754
31
0
0
LINE
5
344
100
AcDbEntity
8
0
100
AcDbLine
10
557.77473944388953
20
332.06207402722754
30
0
11
570.5074678478245
21
332.11478398815188
31
0
0
ELLIPSE
5
345
100
AcDbEntity
8
0
100
AcDbEllipse
10
574.62548503858898
20
332.95142055871247
30
0
11
3.7296498946329408
21
2.0256189775762232
31
0.0
40
0.89990113962430651
41
2.8136565091505146
42
3.4544110575251192
0
LINE
5
346
100
AcDbEntity
8
0
100
AcDbLine
10
571.63780367653499
20
329.9912271310439
30
0
11
571.63883720518061
21
329.99053811194688
31
0
0
SPLINE
5
347
100
AcDbEntity
8
0
100
AcDbSpline
70
1064
71
3
72
8
73
4
74
0
42
0.000000001
43
0.0000000001
44
0.0000000001
40
22
40
22
40
22
40
22
40
23
40
23
40
23
40
23
10
571.63883720518061
20
329.99053811194688
30
0
10
573.07440849388422
20
328.70999612007944
30
0
10
575.28409273812349
20
328.83608661483959
30
0
10
576.56635727773357
20
330.27131339399466
30
0
0
SPLINE
5
348
100
AcDbEntity
8
0
100
AcDbSpline
70
1064
71
3
72
8
73
4
74
0
42
0.000000001
43
0.0000000001
44
0.0000000001
40
23
40
23
40
23
40
23
40
24
40
24
40
24
40
24
10
576.56635727773357
20
330.27131339399466
30
0
10
577.84586574095533
20
331.70826272089238
30
0
10
577.72011975574367
20
333.91863598422873
30
0
10
576.28489297658848
20
335.19883346654751
30
0
0
LINE
5
349
100
AcDbEntity
8
0
100
AcDbLine
10
214.53987624844842
20
504.70407702226146
30
0
11
228.22517355405478
21
504.67651625837959
31
0
0
LINE
5
350
100
AcDbEntity
8
0
100
AcDbLine
10
228.22517355405478
20
504.67651625837959
30
0
11
232.58976502431781
21
508.26354967762171
31
0
0
ELLIPSE
5
351
100
AcDbEntity
8
0
100
AcDbEllipse
10
234.30900793510449
20
512.13518134559331
30
0
11
-1.2341323266675066
21
-4.0622624585856002
31
0.0
40
0.87863292820444516
41
6.1434461939825695
42
6.5806927381423028
0
ELLIPSE
5
352
100
AcDbEntity
8
0
100
AcDbEllipse
10
233.77510304539797
20
511.82395135915749
30
0
11
1.673019237078839
21
-3.5826114955367072
31
0.0
40
0.91082387798789211
41
5.9187974571591937
42
6.6407058568552753
0
SPLINE
5
353
100
AcDbEntity
8
0
100
AcDbSpline
70
1064
71
3
72
8
73
4
74
0
42
0.000000001
43
0.0000000001
44
0.0000000001
40
4
40
4
40
4
40
4
40
5
40
5
40
5
40
5
10
236.48427321561851
20
509.00114462101357
30
0
10
237.72623013805111
20
510.34921048439185
30
0
10
237.64096402479112
20
512.45588637362221
30
0
10
236.294276199607
20
513.69818780560331
30
0
0
ELLIPSE
5
354
100
AcDbEntity
8
0
100
AcDbEllipse
10
233.80004121295272
20
510.63394033907628
30
0
11
-1.4427637576471524
21
-3.7220721394690006
31
0.0
40
0.90582947365963284
41
2.7979943152924354
42
3.5168600863975632
0
ELLIPSE
5
355
100
AcDbEntity
8
0
100
AcDbEllipse
10
234.33843681933183
20
510.64350914566546
30
0
11
1.7498406045273052
21
-3.6034765805032536
31
0.0
40
0.90383163124316801
41
2.7656313234898637
42
3.4834143781509597
0
ELLIPSE
5
356
100
AcDbEntity
8
0
100
AcDbEllipse
10
234.70677157237034
20
511.01143212159235
30
0
11
3.7897510656133262
21
-1.384123069762059
31
0.0
40
0.9009373629089853
41
2.782052459122677
42
3.4970137605335871
0
ELLIPSE
5
357
100
AcDbEntity
8
0
100
AcDbEllipse
10
234.64629926404814
20
511.56308167172938
30
0
11
3.5764592807343965
21
1.8025116052528105
31
0.0
40
0.90260879339006173
41
2.752222822074482
42
3.2022458698651834
0
LINE
5
358
100
AcDbEntity
8
0
100
AcDbLine
10
231.17503656330001
20
509.56820733788567
30
0
11
227.62986105420364
21
506.72118042887524
31
0
0
LINE
5
359
100
AcDbEntity
8
0
100
AcDbLine
10
227.62986105420364
20
506.72118042887524
30
0
11
214.53987624844842
21
506.71187867106516
31
0
0
LINE
5
360
100
AcDbEntity
8
0
100
AcDbLine
10
214.53987624844842
20
506.71187867106516
30
0
11
214.53987624844842
21
504.70407702226146
31
0
0
LINE
5
361
100
AcDbEntity
8
0
100
AcDbLine
10
295.18422166014489
20
490.12374390958712
30
0
11
289.17924797458011
21
481.11602499907866
31
0
0
ELLIPSE
5
362
100
AcDbEntity
8
0
100
AcDbEllipse
10
287.96082129146151
20
475.89983770483508
30
0
11
-0.57600497871765677
21
-5.3471753284773582
31
0.0
40
0.80532990001266525
41
2.990304450196426
42
3.2269524092310826
0
SPLINE
5
363
100
AcDbEntity
8
0
100
AcDbSpline
70
1064
71
3
72
17
73
13
74
0
42
0.000000001
43
0.0000000001
44
0.0000000001
40
2
40
2
40
2
40
2
40
3
40
3
40
3
40
4
40
4
40
4
40
5
40
5
40
5
40
6
40
6
40
6
40
6
10
288.16759568533661
20
481.26709243610691
30
0
10
286.2433376020503
20
481.26709243610691
30
0
10
284.67754170400417
20
479.70146879283499
30
0
10
284.67754170400417
20
477.77686620000031
30
0
10
284.67754170400417
20
475.85243586193968
30
0
10
286.2433376020503
20
474.28663996389361
30
0
10
288.16725117578807
20
474.28663996389361
30
0
10
289.09983852364519
20
474.28663996389361
30
0
10
289.97592630554419
20
474.64958077326469
30
0
10
290.63531758142108
20
475.3089720491414
30
0
10
291.29453660252364
20
475.96819107024419
30
0
10
291.65747741189466
20
476.84479561646583
30
0
10
291.65713290234612
20
477.77686620000031
30
0
0
SPLINE
5
364
100
AcDbEntity
8
0
100
AcDbSpline
70
1064
71
3
72
8
73
4
74
0
42
0.000000001
43
0.0000000001
44
0.0000000001
40
6
40
6
40
6
40
6
40
7
40
7
40
7
40
7
10
291.65713290234612
20
477.77686620000031
30
0
10
291.65713290234612
20
478.617986262724
30
0
10
291.35758184990368
20
479.39089343483971
30
0
10
290.85993780705934
20
479.99430190908134
30
0
0
LINE
5
365
100
AcDbEntity
8
0
100
AcDbLine
10
290.85993780705934
20
479.99430190908134
30
0
11
296.26580938773913
21
488.10353991703658
31
0
0
LINE
5
366
100
AcDbEntity
8
0
100
AcDbLine
10
296.26580938773913
20
488.10353991703658
30
0
11
327.4253200136298
21
488.10353991703658
31
0
0
LINE
5
367
100
AcDbEntity
8
0
100
AcDbLine
10
327.4253200136298
20
488.10353991703658
30
0
11
327.4253200136298
21
481.11809205636979
31
0
0
ELLIPSE
5
368
100
AcDbEntity
8
0
100
AcDbEllipse
10
328.78415881064711
20
476.98682234540752
30
0
11
1.760941826071436
21
-3.9826644783652494
31
0.0
40
0.88874425439877813
41
3.0308135442553148
42
3.4729371373525795
0
ELLIPSE
5
369
100
AcDbEntity
8
0
100
AcDbEllipse
10
329.08484582669928
20
477.51703051761245
30
0
11
3.8902482569109749
21
-1.5584134685686046
31
0.0
40
0.90613535808167578
41
2.7719534679380371
42
3.4903832857601915
0
SPLINE
5
370
100
AcDbEntity
8
0
100
AcDbSpline
70
1064
71
3
72
11
73
7
74
0
42
0.000000001
43
0.0000000001
44
0.0000000001
40
12
40
12
40
12
40
12
40
13
40
13
40
13
40
14
40
14
40
14
40
14
10
324.94622930244395
20
477.77686620000031
30
0
10
324.94622930244395
20
475.85243586193968
30
0
10
326.51202520049003
20
474.28663996389361
30
0
10
328.43593877422785
20
474.28663996389361
30
0
10
330.36002460273994
20
474.28663996389361
30
0
10
331.92530373646315
20
475.85243586193968
30
0
10
331.92564824601163
20
477.7773829643229
30
0
0
SPLINE
5
371
100
AcDbEntity
8
0
100
AcDbSpline
70
1064
71
3
72
8
73
4
74
0
42
0.000000001
43
0.0000000001
44
0.0000000001
40
14
40
14
40
14
40
14
40
15
40
15
40
15
40
15
10
331.92564824601163
20
477.7773829643229
30
0
10
331.92495922691467
20
479.3495522890168
30
0
10
330.87833921849563
20
480.68108169406594
30
0
10
329.44535175140618
20
481.11568048953012
30
0
0
LINE
5
372
100
AcDbEntity
8
0
100
AcDbLine
10
329.44535175140618
20
481.11568048953012
30
0
11
329.44535175140618
21
490.12374390958712
31
0
0
LINE
5
373
100
AcDbEntity
8
0
100
AcDbLine
10
329.44535175140618
20
490.12374390958712
30
0
11
295.18422166014489
21
490.12374390958712
31
0
0
LINE
5
374
100
AcDbEntity
8
0
100
AcDbLine
10
57.35567218618192
20
369.29838857955042
30
0
11
57.366696491734714
21
363.73559289951754
31
0
0
LINE
5
375
100
AcDbEntity
8
0
100
AcDbLine
10
57.366696491734714
20
363.73559289951754
30
0
11
64.965543603550287
21
357.15098189855951
31
0
0
LINE
5
376
100
AcDbEntity
8
0
100
AcDbLine
10
64.965543603550287
20
357.15098189855951
30
0
11
64.977945947297201
21
326.18232956255167
31
0
0
SPLINE
5
377
100
AcDbEntity
8
0
100
AcDbSpline
70
1064
71
3
72
8
73
4
74
0
42
0.000000001
43
0.0000000001
44
0.0000000001
40
3
40
3
40
3
40
3
40
4
40
4
40
4
40
4
10
64.977945947297201
20
326.18232956255167
30
0
10
64.223814545575991
20
326.08896747490144
30
0
10
63.4986219459309
20
325.74032381179416
30
0
10
62.944650591902722
20
325.14087719736062
30
0
0
ELLIPSE
5
378
100
AcDbEntity
8
0
100
AcDbEllipse
10
66.008442559126067
20
322.66192911108936
30
0
11
3.7436325279099618
21
-1.3656384334708083
31
0.0
40
0.90810741003563156
41
2.7803875468607249
42
3.4990599696794598
0
ELLIPSE
5
379
100
AcDbEntity
8
0
100
AcDbEllipse
10
65.959225132032316
20
323.15342043508105
30
0
11
3.5830317450344014
21
1.6761285972397779
31
0.0
40
0.9104545566439225
41
2.7767136123876339
42
3.4983753108691498
0
SPLINE
5
380
100
AcDbEntity
8
0
100
AcDbSpline
70
1064
71
3
72
8
73
4
74
0
42
0.000000001
43
0.0000000001
44
0.0000000001
40
6
40
6
40
6
40
6
40
7
40
7
40
7
40
7
10
63.134819862688516
20
320.44348950322251
30
0
10
64.481852197421205
20
319.20049905214432
30
0
10
66.589906124845569
20
319.28559291062999
30
0
10
67.833241085472253
20
320.63331426445973
30
0
0
ELLIPSE
5
381
100
AcDbEntity
8
0
100
AcDbEllipse
10
64.81913584236159
20
323.09937131918321
30
0
11
3.6835071741602854
21
-1.3814418428015804
31
0.0
40
0.91347092939684504
41
5.9277406991967405
42
6.6510542807750799
0
ELLIPSE
5
382
100
AcDbEntity
8
0
100
AcDbEllipse
10
64.779142658709105
20
322.61081384748991
30
0
11
3.6365307955461206
21
1.6538412952657566
31
0.0
40
0.90682725075500903
41
5.9295868997260586
42
6.64733518614901
0
ELLIPSE
5
383
100
AcDbEntity
8
0
100
AcDbEllipse
10
59.801211835527369
20
316.38603628399437
30
0
11
-7.7685358507040183
21
-9.0098216021798354
31
0.0
40
0.52544267307083925
41
3.12590164760703
42
3.2701105580663481
0
LINE
5
384
100
AcDbEntity
8
0
100
AcDbLine
10
66.898931189872499
20
325.84471020499711
30
0
11
66.895486094387252
21
358.34126238871329
31
0
0
LINE
5
385
100
AcDbEntity
8
0
100
AcDbLine
10
66.895486094387252
20
358.34126238871329
30
0
11
59.398958318483601
21
364.75740822044264
31
0
0
LINE
5
386
100
AcDbEntity
8
0
100
AcDbLine
10
59.398958318483601
20
364.75740822044264
30
0
11
59.400336356677698
21
369.29838857955042
31
0
0
LINE
5
387
100
AcDbEntity
8
0
100
AcDbLine
10
609.94347586747949
20
302.04840215973098
30
0
11
609.94347586747949
21
326.89684236619252
31
0
0
ELLIPSE
5
388
100
AcDbEntity
8
0
100
AcDbEllipse
10
608.64988923073497
20
330.93893087648786
30
0
11
1.6049916433069487
21
-3.9321449950093195
31
0.0
40
0.89868426736021556
41
6.1966537844351759
42
6.644736012403146
0
ELLIPSE
5
389
100
AcDbEntity
8
0
100
AcDbEllipse
10
608.3377209560897
20
330.48729687938976
30
0
11
3.8151552291063795
21
-1.599960548418774
31
0.0
40
0.91169791132640843
41
5.9256392017749979
42
6.6491262058558647
0
ELLIPSE
5
390
100
AcDbEntity
8
0
100
AcDbEllipse
10
608.2656204005516
20
329.96221281793771
30
0
11
3.8914595825076947
21
1.6171224071814234
31
0.0
40
0.90332299914019143
41
5.9233287541650554
42
6.6402339411623821
0
SPLINE
5
391
100
AcDbEntity
8
0
100
AcDbSpline
70
1064
71
3
72
11
73
7
74
0
42
0.000000001
43
0.0000000001
44
0.0000000001
40
4
40
4
40
4
40
4
40
5
40
5
40
5
40
6
40
6
40
6
40
6
10
611.40109576728878
20
332.70596237342068
30
0
10
610.74273802005723
20
333.36535364929762
30
0
10
609.86699474770694
20
333.72777769434583
30
0
10
608.93130681391301
20
333.72777769434583
30
0
10
607.0082545140466
20
333.72777769434583
30
0
10
605.44349214464614
20
332.16301532494532
30
0
10
605.44280312554906
20
330.2385849868848
30
0
0
SPLINE
5
392
100
AcDbEntity
8
0
100
AcDbSpline
70
1064
71
3
72
8
73
4
74
0
42
0.000000001
43
0.0000000001
44
0.0000000001
40
6
40
6
40
6
40
6
40
7
40
7
40
7
40
7
10
605.44280312554906
20
330.2385849868848
30
0
10
605.44349214464614
20
328.66555438831972
30
0
10
606.49011215306496
20
327.33368047372215
30
0
10
607.92292736538036
20
326.89959844258067
30
0
0
LINE
5
393
100
AcDbEntity
8
0
100
AcDbLine
10
607.92292736538036
20
326.89959844258067
30
0
11
607.92396089402598
21
302.05012470747363
31
0
0
LINE
5
394
100
AcDbEntity
8
0
100
AcDbLine
10
607.92396089402598
20
302.05012470747363
30
0
11
609.94347586747949
21
302.04840215973098
31
0
0
ELLIPSE
5
395
100
AcDbEntity
8
0
100
AcDbEllipse
10
643.21982562964183
20
351.59064700235172
30
0
11
4.5436308301280732
21
1.8972077548445703
31
0.0
40
0.90323220825871031
41
2.7808765172747165
42
3.497445170083739
0
ELLIPSE
5
396
100
AcDbEntity
8
0
100
AcDbEllipse
10
643.02046405318038
20
352.30683661140978
30
0
11
-2.5834242770411775
21
-4.5920425143054198
31
0.0
40
0.87361569907897374
41
6.0432956383638361
42
6.4990351453956992
0
LINE
5
397
100
AcDbEntity
8
0
100
AcDbLine
10
641.35620101153586
20
347.33797191837391
30
0
11
641.35620101153586
21
341.39862730180312
31
0
0
LINE
5
398
100
AcDbEntity
8
0
100
AcDbLine
10
641.35620101153586
20
341.39862730180312
30
0
11
630.01976980777272
21
332.36076380579868
31
0
0
SPLINE
5
399
100
AcDbEntity
8
0
100
AcDbSpline
70
1064
71
3
72
14
73
10
74
0
42
0.000000001
43
0.0000000001
44
0.0000000001
40
5
40
5
40
5
40
5
40
6
40
6
40
6
40
7
40
7
40
7
40
8
40
8
40
8
40
8
10
630.01976980777272
20
332.36076380579868
30
0
10
629.30594602322913
20
332.97812491675541
30
0
10
628.37714828040578
20
333.35432934374489
30
0
10
627.36153413135412
20
333.35432934374489
30
0
10
625.11464285587431
20
333.35432934374489
30
0
10
623.28598617230341
20
331.52636167927119
30
0
10
623.28598617230341
20
329.27878138469418
30
0
10
623.28598617230341
20
328.19013121135532
30
0
10
623.71042193608628
20
327.16693785223612
30
0
10
624.48005626749114
20
326.39730352083126
30
0
0
ELLIPSE
5
400
100
AcDbEntity
8
0
100
AcDbEllipse
10
627.68274881952607
20
330.05848954857595
30
0
11
-1.875663988165956
21
-4.5494526885480084
31
0.0
40
0.90309586840512857
41
5.9232124659701144
42
6.6402693691059067
0
ELLIPSE
5
401
100
AcDbEntity
8
0
100
AcDbEllipse
10
627.05847467613103
20
330.00104062051491
30
0
11
1.8781100985845329
21
-4.4832987822826507
31
0.0
40
0.90866400048817164
41
5.9188146062626004
42
6.6403433520296682
0
SPLINE
5
402
100
AcDbEntity
8
0
100
AcDbSpline
70
1064
71
3
72
11
73
7
74
0
42
0.000000001
43
0.0000000001
44
0.0000000001
40
10
40
10
40
10
40
10
40
11
40
11
40
11
40
12
40
12
40
12
40
12
10
630.24232297612002
20
326.39730352083126
30
0
10
631.01264632662173
20
327.16624883313898
30
0
10
631.43639307130775
20
328.18944219225818
30
0
10
631.43639307130775
20
329.28084844198537
30
0
10
631.43639307130775
20
329.72595477867964
30
0
10
631.36197900882621
20
330.15245759975363
30
0
10
631.22968734219262
20
330.55415573333369
30
0
0
LINE
5
403
100
AcDbEntity
8
0
100
AcDbLine
10
631.22968734219262
20
330.55415573333369
30
0
11
641.35620101153586
21
338.62739249346816
31
0
0
LINE
5
404
100
AcDbEntity
8
0
100
AcDbLine
10
641.35620101153586
20
338.62739249346816
30
0
11
641.35551199243889
21
323.21472431155757
31
0
0
SPLINE
5
405
100
AcDbEntity
8
0
100
AcDbSpline
70
1064
71
3
72
8
73
4
74
0
42
0.000000001
43
0.0000000001
44
0.0000000001
40
14
40
14
40
14
40
14
40
15
40
15
40
15
40
15
10
641.35551199243889
20
323.21472431155757
30
0
10
639.63365326891119
20
322.73861211549587
30
0
10
638.36448009214519
20
321.16282544054263
30
0
10
638.36448009214519
20
319.29213859205203
30
0
0
LINE
5
406
100
AcDbEntity
8
0
100
AcDbLine
10
638.36448009214519
20
319.29213859205203
30
0
11
638.36448009214519
21
319.29007153476084
31
0
0
SPLINE
5
407
100
AcDbEntity
8
0
100
AcDbSpline
70
1064
71
3
72
8
73
4
74
0
42
0.000000001
43
0.0000000001
44
0.0000000001
40
16
40
16
40
16
40
16
40
17
40
17
40
17
40
17
10
638.36448009214519
20
319.29007153476084
30
0
10
638.36448009214519
20
317.04318025928092
30
0
10
640.19175873752158
20
315.21590161390441
30
0
10
642.43865001300151
20
315.21590161390441
30
0
0
ELLIPSE
5
408
100
AcDbEntity
8
0
100
AcDbEllipse
10
642.13722480294746
20
320.05927473344678
30
0
11
1.7984715193574279
21
-4.5612670008121183
31
0.0
40
0.90567971390248136
41
5.939527528655824
42
6.6572475466028695
0
ELLIPSE
5
409
100
AcDbEntity
8
0
100
AcDbEllipse
10
641.65119177255804
20
319.61818457861631
30
0
11
4.5535377131955981
21
-1.8914405104237055
31
0.0
40
0.90356749285015237
41
5.9263236371383048
42
6.6417156531099373
0
SPLINE
5
410
100
AcDbEntity
8
0
100
AcDbSpline
70
1064
71
3
72
8
73
4
74
0
42
0.000000001
43
0.0000000001
44
0.0000000001
40
19
40
19
40
19
40
19
40
20
40
20
40
20
40
20
10
646.51488699114918
20
319.29076055385787
30
0
10
646.51419797205199
20
321.16213642144567
30
0
10
645.2443357761889
20
322.73861211549587
30
0
10
643.52247705266109
20
323.21472431155757
30
0
0
LINE
5
411
100
AcDbEntity
8
0
100
AcDbLine
10
643.52247705266109
20
323.21472431155757
30
0
11
643.52247705266109
21
340.35476336977251
31
0
0
LINE
5
412
100
AcDbEntity
8
0
100
AcDbLine
10
643.52247705266109
20
340.35476336977251
30
0
11
643.62789697450978
21
340.43951271870958
31
0
0
LINE
5
413
100
AcDbEntity
8
0
100
AcDbLine
10
643.62789697450978
20
340.43951271870958
30
0
11
643.52247705266109
21
340.57111536624609
31
0
0
LINE
5
414
100
AcDbEntity
8
0
100
AcDbLine
10
643.52247705266109
20
340.57111536624609
30
0
11
643.52247705266109
21
347.33797191837391
31
0
0
ELLIPSE
5
415
100
AcDbEntity
8
0
100
AcDbEllipse
10
641.93246413839813
20
352.15763679222789
30
0
11
2.5374298177828232
21
-4.4266454039931888
31
0.0
40
0.88838835948746608
41
6.0568048260398095
42
6.5197303588758233
0
SPLINE
5
416
100
AcDbEntity
8
0
100
AcDbSpline
70
1064
71
3
72
14
73
10
74
0
42
0.000000001
43
0.0000000001
44
0.0000000001
40
25
40
25
40
25
40
25
40
26
40
26
40
26
40
27
40
27
40
27
40
28
40
28
40
28
40
28
10
645.32081689596157
20
348.38252486950159
30
0
10
646.0904512273662
20
349.15147018180937
30
0
10
646.51419797205199
20
350.17466354092858
30
0
10
646.51419797205199
20
351.26469175246166
30
0
10
646.51419797205199
20
352.35334192580063
30
0
10
646.0904512273662
20
353.3758462658227
30
0
10
645.32012787686449
20
354.14616961632464
30
0
10
644.55049354545963
20
354.91580394772933
30
0
10
643.52661116724323
20
355.33955069241523
30
0
10
642.43796099390443
20
355.33955069241523
30
0
0
SPLINE
5
417
100
AcDbEntity
8
0
100
AcDbSpline
70
1064
71
3
72
8
73
4
74
0
42
0.000000001
43
0.0000000001
44
0.0000000001
40
28
40
28
40
28
40
28
40
29
40
29
40
29
40
29
10
642.43796099390443
20
355.33955069241523
30
0
10
640.19175873752158
20
355.33886167331809
30
0
10
638.36448009214519
20
353.5108940088445
30
0
10
638.36379107304799
20
351.26400273336463
30
0
0
LINE
5
418
100
AcDbEntity
8
0
100
AcDbLine
10
214.53987624844842
20
311.90240877619112
30
0
11
225.53041986549243
21
311.90275328573961
31
0
0
SPLINE
5
419
100
AcDbEntity
8
0
100
AcDbSpline
70
1064
71
3
72
8
73
4
74
0
42
0.000000001
43
0.0000000001
44
0.0000000001
40
1
40
1
40
1
40
1
40
2
40
2
40
2
40
2
10
225.53041986549243
20
311.90275328573961
30
0
10
225.96450189663392
20
310.46959356387572
30
0
10
227.29740933987699
20
309.42297355545679
30
0
10
228.87009542889359
20
309.42228453635965
30
0
0
SPLINE
5
420
100
AcDbEntity
8
0
100
AcDbSpline
70
1064
71
3
72
8
73
4
74
0
42
0.000000001
43
0.0000000001
44
0.0000000001
40
2
40
2
40
2
40
2
40
3
40
3
40
3
40
3
10
228.87009542889359
20
309.42228453635965
30
0
10
230.7941812574056
20
309.42297355545679
30
0
10
232.36032166500021
20
310.98842494395433
30
0
10
232.36032166500021
20
312.91216626291782
30
0
0
SPLINE
5
421
100
AcDbEntity
8
0
100
AcDbSpline
70
1064
71
3
72
11
73
7
74
0
42
0.000000001
43
0.0000000001
44
0.0000000001
40
3
40
3
40
3
40
3
40
4
40
4
40
4
40
5
40
5
40
5
40
5
10
232.36032166500021
20
312.91216626291782
30
0
10
232.35963264590325
20
314.8362520914298
30
0
10
230.79349223830857
20
316.40273700857301
30
0
10
228.86940640979645
20
316.40273700857301
30
0
10
227.29672032078
20
316.40273700857301
30
0
10
225.96484640618243
20
315.35542798105701
30
0
10
225.53076437504089
20
313.92330178783862
30
0
0
LINE
5
422
100
AcDbEntity
8
0
100
AcDbLine
10
225.53076437504089
20
313.92330178783862
30
0
11
214.54004850322261
21
313.92295727829014
31
0
0
LINE
5
423
100
AcDbEntity
8
0
100
AcDbLine
10
214.54004850322261
20
313.92295727829014
30
0
11
214.53987624844842
21
311.90240877619112
31
0
0
LINE
5
424
100
AcDbEntity
8
0
100
AcDbLine
10
398.38429623286919
20
369.29838857955042
30
0
11
398.38464074241762
21
353.80166006779967
31
0
0
SPLINE
5
425
100
AcDbEntity
8
0
100
AcDbSpline
70
1064
71
3
72
11
73
7
74
0
42
0.000000001
43
0.0000000001
44
0.0000000001
40
1
40
1
40
1
40
1
40
2
40
2
40
2
40
3
40
3
40
3
40
3
10
398.38464074241762
20
353.80166006779967
30
0
10
399.74269738270317
20
353.37825783266237
30
0
10
400.73075076787285
20
352.10942916544479
30
0
10
400.73075076787285
20
350.61494674394351
30
0
10
400.73075076787285
20
348.77423222617443
30
0
10
399.23385677953178
20
347.27699372828499
30
0
10
397.39314226176293
20
347.27699372828499
30
0
0
SPLINE
5
426
100
AcDbEntity
8
0
100
AcDbSpline
70
1064
71
3
72
8
73
4
74
0
42
0.000000001
43
0.0000000001
44
0.0000000001
40
3
40
3
40
3
40
3
40
4
40
4
40
4
40
4
10
397.39314226176293
20
347.27699372828499
30
0
10
395.55242774399397
20
347.27768274738196
30
0
10
394.05622277474993
20
348.77492124527157
30
0
10
394.05656728429841
20
350.61425772484642
30
0
0
ELLIPSE
5
427
100
AcDbEntity
8
0
100
AcDbEllipse
10
398.01371236691284
20
350.35727283833364
30
0
11
3.7016443661829994
21
-1.5438686841692046
31
0.0
40
0.90607902651725647
41
2.7798562343074318
42
3.4981847899373224
0
ELLIPSE
5
428
100
AcDbEntity
8
0
100
AcDbEllipse
10
397.67867358960382
20
349.99134548081548
30
0
11
-1.6822682741004682
21
3.6557160933676904
31
0.0
40
0.90512755924055166
41
5.9602375961651513
42
6.4025299058947152
0
LINE
5
429
100
AcDbEntity
8
0
100
AcDbLine
10
396.40233280020504
20
353.80234908689658
30
0
11
396.40233280020504
21
369.29838857955042
31
0
0
LINE
5
430
100
AcDbEntity
8
0
100
AcDbLine
10
396.40233280020504
20
369.29838857955042
30
0
11
398.38429623286919
21
369.29838857955042
31
0
0
LINE
5
431
100
AcDbEntity
8
0
100
AcDbLine
10
214.53987624844842
20
356.76719826150259
30
0
11
223.78823507860159
21
356.76754277105118
31
0
0
SPLINE
5
432
100
AcDbEntity
8
0
100
AcDbSpline
70
1064
71
3
72
17
73
13
74
0
42
0.000000001
43
0.0000000001
44
0.0000000001
40
1
40
1
40
1
40
1
40
2
40
2
40
2
40
3
40
3
40
3
40
4
40
4
40
4
40
5
40
5
40
5
40
5
10
223.78823507860159
20
356.76754277105118
30
0
10
224.21646044741809
20
358.21034876027386
30
0
10
225.55281298614648
20
359.26627052650281
30
0
10
227.13273377568211
20
359.26627052650281
30
0
10
229.05716411374272
20
359.26627052650281
30
0
10
230.62227099269168
20
357.70081913800539
30
0
10
230.62227099269168
20
355.77604429039633
30
0
10
230.62227099269168
20
353.85195846188418
30
0
10
229.05716411374272
20
352.2865070733867
30
0
10
227.13273377568211
20
352.2865070733867
30
0
10
225.55246847659802
20
352.2865070733867
30
0
10
224.2161159378696
20
353.3427733491643
30
0
10
223.78754605950451
20
354.78557933838704
30
0
0
LINE
5
433
100
AcDbEntity
8
0
100
AcDbLine
10
223.78754605950451
20
354.78557933838704
30
0
11
214.53987624844842
21
354.78523482883838
31
0
0
LINE
5
434
100
AcDbEntity
8
0
100
AcDbLine
10
214.53987624844842
20
354.78523482883838
30
0
11
214.53987624844842
21
356.76719826150259
31
0
0
LINE
5
435
100
AcDbEntity
8
0
100
AcDbLine
10
294.52276332697699
20
500.89707425628609
30
0
11
294.52241881742839
21
503.28952081601784
31
0
0
SPLINE
5
436
100
AcDbEntity
8
0
100
AcDbSpline
70
1064
71
3
72
8
73
4
74
0
42
0.000000001
43
0.0000000001
44
0.0000000001
40
1
40
1
40
1
40
1
40
2
40
2
40
2
40
2
10
294.52241881742839
20
503.28952081601784
30
0
10
295.95540628451812
20
503.72377510193365
30
0
10
297.00202629293699
20
505.05599352607976
30
0
10
297.00202629293699
20
506.62902412464473
30
0
0
ELLIPSE
5
437
100
AcDbEntity
8
0
100
AcDbEllipse
10
292.84926755174445
20
506.36136234487088
30
0
11
3.9016604788624494
21
1.5726265546439802
31
0.0
40
0.90430239991704231
41
5.9332421638001778
42
6.6502839270127394
0
ELLIPSE
5
438
100
AcDbEntity
8
0
100
AcDbEllipse
10
293.2402288604867
20
505.97732794956596
30
0
11
-1.6186867175480288
21
-3.8730833428959426
31
0.0
40
0.90504650953989874
41
2.7850661965748231
42
3.5032678727531277
0
LINE
5
439
100
AcDbEntity
8
0
100
AcDbLine
10
293.51386711412152
20
510.11821683210587
30
0
11
293.51214456637888
21
510.11821683210587
31
0
0
SPLINE
5
440
100
AcDbEntity
8
0
100
AcDbSpline
70
1064
71
3
72
8
73
4
74
0
42
0.000000001
43
0.0000000001
44
0.0000000001
40
5
40
5
40
5
40
5
40
6
40
6
40
6
40
6
10
293.51214456637888
20
510.11821683210587
30
0
10
291.58823099264117
20
510.11821683210587
30
0
10
290.02295185891791
20
508.55293769838272
30
0
10
290.0224350945951
20
506.62902412464473
30
0
0
SPLINE
5
441
100
AcDbEntity
8
0
100
AcDbSpline
70
1064
71
3
72
8
73
4
74
0
42
0.000000001
43
0.0000000001
44
0.0000000001
40
6
40
6
40
6
40
6
40
7
40
7
40
7
40
7
10
290.0224350945951
20
506.62902412464473
30
0
10
290.02295185891791
20
505.05547676175695
30
0
10
291.06939961256251
20
503.72325833761079
30
0
10
292.50238707965218
20
503.28900405169514
30
0
0
LINE
5
442
100
AcDbEntity
8
0
100
AcDbLine
10
292.50238707965218
20
503.28900405169514
30
0
11
292.50238707965218
21
501.73319893055634
31
0
0
LINE
5
443
100
AcDbEntity
8
0
100
AcDbLine
10
292.50238707965218
20
501.73319893055634
30
0
11
273.37366665257667
21
482.60482301302949
31
0
0
LINE
5
444
100
AcDbEntity
8
0
100
AcDbLine
10
273.37366665257667
20
482.60482301302949
30
0
11
266.73927402185694
21
482.60430624870651
31
0
0
SPLINE
5
445
100
AcDbEntity
8
0
100
AcDbSpline
70
1064
71
3
72
11
73
7
74
0
42
0.000000001
43
0.0000000001
44
0.0000000001
40
10
40
10
40
10
40
10
40
11
40
11
40
11
40
12
40
12
40
12
40
12
10
266.73927402185694
20
482.60430624870651
30
0
10
266.30467522639259
20
484.03677695147348
30
0
10
264.97297356656935
20
485.08391372421511
30
0
10
263.39994296800421
20
485.08391372421511
30
0
10
261.47602939426639
20
485.08391372421511
30
0
10
259.9100612414461
20
483.51829008094342
30
0
10
259.9100612414461
20
481.59385974288284
30
0
0
SPLINE
5
446
100
AcDbEntity
8
0
100
AcDbSpline
70
1064
71
3
72
8
73
4
74
0
42
0.000000001
43
0.0000000001
44
0.0000000001
40
12
40
12
40
12
40
12
40
13
40
13
40
13
40
13
10
259.9100612414461
20
481.59385974288284
30
0
10
259.91057800576891
20
479.66977391437075
30
0
10
261.47602939426639
20
478.10432252587333
30
0
10
263.39959845845567
20
478.10363350677619
30
0
0
ELLIPSE
5
447
100
AcDbEntity
8
0
100
AcDbEllipse
10
263.13007567506827
20
482.23914199178841
30
0
11
1.6147129911004625
21
-3.8679272306656487
31
0.0
40
0.90629741370784467
41
5.9214222967588865
42
6.6399256064639891
0
ELLIPSE
5
448
100
AcDbEntity
8
0
100
AcDbEllipse
10
262.53019914202252
20
481.95556447663489
30
0
11
4.091636030753949
21
-1.706849030330706
31
0.0
40
0.88039641573048699
41
5.9363261426056972
42
6.3745367671464814
0
LINE
5
449
100
AcDbEntity
8
0
100
AcDbLine
10
266.74185784347077
20
480.58444676570457
30
0
11
274.21116936504103
21
480.58444676570457
31
0
0
LINE
5
450
100
AcDbEntity
8
0
100
AcDbLine
10
274.21116936504103
20
480.58444676570457
30
0
11
294.52276332697699
21
500.89707425628609
31
0
0
LINE
5
451
100
AcDbEntity
8
0
100
AcDbLine
10
431.63325727056389
20
411.75230024428424
30
0
11
421.72654069317946
21
411.75230024428424
31
0
0
LINE
5
452
100
AcDbEntity
8
0
100
AcDbLine
10
421.72654069317946
20
411.75230024428424
30
0
11
393.38477366467458
21
443.40101442908031
31
0
0
LINE
5
453
100
AcDbEntity
8
0
100
AcDbLine
10
393.38477366467458
20
443.40101442908031
30
0
11
364.18448884124564
21
443.39963639088609
31
0
0
LINE
5
454
100
AcDbEntity
8
0
100
AcDbLine
10
364.18448884124564
20
443.39963639088609
30
0
11
360.15786123808562
21
439.52803808456258
31
0
0
ELLIPSE
5
455
100
AcDbEntity
8
0
100
AcDbEllipse
10
358.2860560157348
20
435.64677873946448
30
0
11
-0.83285048394849903
21
-4.2643674463409145
31
0.0
40
0.89088228878720477
41
2.8552967769851327
42
3.3149404317541848
0
ELLIPSE
5
456
100
AcDbEntity
8
0
100
AcDbEllipse
10
358.70267328910182
20
435.86479083945608
30
0
11
1.5689923044772751
21
-3.8548047554997962
31
0.0
40
0.9094381995721631
41
2.7863061838874446
42
3.5074187641237287
0
SPLINE
5
457
100
AcDbEntity
8
0
100
AcDbSpline
70
1064
71
3
72
17
73
13
74
0
42
0.000000001
43
0.0000000001
44
0.0000000001
40
6
40
6
40
6
40
6
40
7
40
7
40
7
40
8
40
8
40
8
40
9
40
9
40
9
40
10
40
10
40
10
40
10
10
355.98343903860831
20
438.9540851767199
30
0
10
355.32404776273148
20
438.29469390084296
30
0
10
354.96127920813473
20
437.41895062849244
30
0
10
354.96127920813473
20
436.48464073289267
30
0
10
354.96127920813473
20
434.56021039483221
30
0
10
356.52638608708367
20
432.99544802543176
30
0
10
358.45116093469289
20
432.99544802543176
30
0
10
360.37559127275335
20
432.99544802543176
30
0
10
361.94104266125078
20
434.56158843302626
30
0
10
361.94104266125078
20
436.48601877108683
30
0
10
361.94104266125078
20
437.04688031608549
30
0
10
361.80737295642314
20
437.58707128817269
30
0
10
361.55863706238813
20
438.07214073249588
30
0
0
LINE
5
458
100
AcDbEntity
8
0
100
AcDbLine
10
361.55863706238813
20
438.07214073249588
30
0
11
364.99890941395859
21
441.37943239833567
31
0
0
LINE
5
459
100
AcDbEntity
8
0
100
AcDbLine
10
364.99890941395859
20
441.37943239833567
30
0
11
392.48215864753922
21
441.38012141743269
31
0
0
LINE
5
460
100
AcDbEntity
8
0
100
AcDbLine
10
392.48215864753922
20
441.38012141743269
30
0
11
420.82392567604393
21
409.73278527083068
31
0
0
LINE
5
461
100
AcDbEntity
8
0
100
AcDbLine
10
420.82392567604393
20
409.73278527083068
30
0
11
431.63325727056389
21
409.73278527083068
31
0
0
SPLINE
5
462
100
AcDbEntity
8
0
100
AcDbSpline
70
1064
71
3
72
11
73
7
74
0
42
0.000000001
43
0.0000000001
44
0.0000000001
40
14
40
14
40
14
40
14
40
15
40
15
40
15
40
16
40
16
40
16
40
16
10
431.63325727056389
20
409.73278527083068
30
0
10
432.06733930170537
20
408.29962554896679
30
0
10
433.39990223539996
20
407.25300554054786
30
0
10
434.97293283396516
20
407.25300554054786
30
0
10
436.89667415292865
20
407.25300554054786
30
0
10
438.46212554142619
20
408.8184569290454
30
0
10
438.46281456052316
20
410.74288726710597
30
0
0
LINE
5
463
100
AcDbEntity
8
0
100
AcDbLine
10
438.46281456052316
20
410.74288726710597
30
0
11
438.46281456052316
21
410.74357628620305
31
0
0
SPLINE
5
464
100
AcDbEntity
8
0
100
AcDbSpline
70
1064
71
3
72
11
73
7
74
0
42
0.000000001
43
0.0000000001
44
0.0000000001
40
17
40
17
40
17
40
17
40
18
40
18
40
18
40
19
40
19
40
19
40
19
10
438.46281456052316
20
410.74357628620305
30
0
10
438.46212554142619
20
412.66731760516649
30
0
10
436.89667415292865
20
414.232079974567
30
0
10
434.97293283396516
20
414.232079974567
30
0
10
433.39990223539996
20
414.232079974567
30
0
10
432.06733930170537
20
413.18545996614819
30
0
10
431.63325727056389
20
411.75230024428424
30
0
0
LINE
5
465
100
AcDbEntity
8
0
100
AcDbLine
10
368.07848026822347
20
414.03157541732554
30
0
11
374.08293718946538
21
405.02333974249427
31
0
0
ELLIPSE
5
466
100
AcDbEntity
8
0
100
AcDbEllipse
10
375.2589735563057
20
400.14145133406117
30
0
11
-0.51920155648414779
21
5.0146250574827764
31
0.0
40
0.83049903370264189
41
6.1231944298363885
42
6.3681594023862296
0
SPLINE
5
467
100
AcDbEntity
8
0
100
AcDbSpline
70
1064
71
3
72
13
73
9
74
0
42
0.000000001
43
0.0000000001
44
0.0000000001
40
2
40
2
40
2
40
2
40
3
40
3
40
4
40
4
40
4
40
5
40
5
40
5
40
5
10
375.09510624303186
20
405.17457943429679
30
0
10
377.01953658109238
20
405.17457943429679
30
0
10
378.5853324791384
20
403.6087835362506
30
0
10
378.5853324791384
20
399.75992286012945
30
0
10
377.01988109064087
20
398.19447147163203
30
0
10
375.0954507525804
20
398.19447147163203
30
0
10
374.16355242382019
20
398.19447147163203
30
0
10
373.28677562282417
20
398.55724002622878
30
0
10
372.62738434694734
20
399.21628679255713
30
0
0
SPLINE
5
468
100
AcDbEntity
8
0
100
AcDbSpline
70
1064
71
3
72
11
73
7
74
0
42
0.000000001
43
0.0000000001
44
0.0000000001
40
5
40
5
40
5
40
5
40
6
40
6
40
6
40
7
40
7
40
7
40
7
10
372.62738434694734
20
399.21628679255713
30
0
10
371.96902659971613
20
399.8756780684339
30
0
10
371.60591353557089
20
400.75211035988139
30
0
10
371.60591353557089
20
401.68435319819002
30
0
10
371.60591353557089
20
402.52564551568804
30
0
10
371.90494782369046
20
403.29838043302971
30
0
10
372.40310863085762
20
403.90161665249678
30
0
0
LINE
5
469
100
AcDbEntity
8
0
100
AcDbLine
10
372.40310863085762
20
403.90161665249678
30
0
11
366.9970647954035
21
412.01068240567787
31
0
0
LINE
5
470
100
AcDbEntity
8
0
100
AcDbLine
10
366.9970647954035
20
412.01068240567787
30
0
11
335.83789867906137
21
412.01068240567787
31
0
0
LINE
5
471
100
AcDbEntity
8
0
100
AcDbLine
10
335.83789867906137
20
412.01068240567787
30
0
11
335.83789867906137
21
405.02540679978529
31
0
0
ELLIPSE
5
472
100
AcDbEntity
8
0
100
AcDbEllipse
10
334.60757034434442
20
401.136971014859
30
0
11
1.5384546323147701
21
3.7797882211902274
31
0.0
40
0.91754936709127477
41
6.1959178705000895
42
6.6529877777253112
0
SPLINE
5
473
100
AcDbEntity
8
0
100
AcDbSpline
70
1064
71
3
72
14
73
10
74
0
42
0.000000001
43
0.0000000001
44
0.0000000001
40
11
40
11
40
11
40
11
40
12
40
12
40
12
40
13
40
13
40
13
40
14
40
14
40
14
40
14
10
337.2955185788706
20
404.15104156562893
30
0
10
337.95422083565035
20
403.4916502897521
30
0
10
338.31664488069862
20
402.6155625078531
30
0
10
338.31664488069862
20
401.68435319819002
30
0
10
338.31664488069862
20
399.75992286012945
30
0
10
336.75153800174962
20
398.19447147163203
30
0
10
334.82676315414062
20
398.19447147163203
30
0
10
332.90336634472561
20
398.19447147163203
30
0
10
331.33757044667948
20
399.75992286012945
30
0
10
331.33722593713105
20
401.68504221728716
30
0
0
SPLINE
5
474
100
AcDbEntity
8
0
100
AcDbSpline
70
1064
71
3
72
8
73
4
74
0
42
0.000000001
43
0.0000000001
44
0.0000000001
40
14
40
14
40
14
40
14
40
15
40
15
40
15
40
15
10
331.33722593713105
20
401.68504221728716
30
0
10
331.33791495622796
20
403.25669477765808
30
0
10
332.38453496464683
20
404.58856869225571
30
0
10
333.81735017696229
20
405.02299523294573
30
0
0
LINE
5
475
100
AcDbEntity
8
0
100
AcDbLine
10
333.81735017696229
20
405.02299523294573
30
0
11
333.81735017696229
21
414.03157541732554
31
0
0
LINE
5
476
100
AcDbEntity
8
0
100
AcDbLine
10
333.81735017696229
20
414.03157541732554
30
0
11
368.07848026822347
21
414.03157541732554
31
0
0
SPLINE
5
477
100
AcDbEntity
8
0
100
AcDbSpline
70
1064
71
3
72
11
73
7
74
0
42
0.000000001
43
0.0000000001
44
0.0000000001
40
0
40
0
40
0
40
0
40
1
40
1
40
1
40
2
40
2
40
2
40
2
10
103.53183726795379
20
349.74127052888412
30
0
10
101.60671791079622
20
349.74023700023872
30
0
10
100.04161103184721
20
348.17513012128961
30
0
10
100.04161103184721
20
346.25104429277746
30
0
10
100.04161103184721
20
345.62679299085028
30
0
10
100.2086981628819
20
345.04181577745476
30
0
10
100.49670814544869
20
344.53400870292899
30
0
0
LINE
5
478
100
AcDbEntity
8
0
100
AcDbLine
10
100.49670814544869
20
344.53400870292899
30
0
11
75.703733976299759
21
315.03779017731694
31
0
0
LINE
5
479
100
AcDbEntity
8
0
100
AcDbLine
10
75.703733976299759
20
315.03779017731694
30
0
11
56.415677883031499
21
315.03779017731694
31
0
0
SPLINE
5
480
100
AcDbEntity
8
0
100
AcDbSpline
70
1064
71
3
72
11
73
7
74
0
42
0.000000001
43
0.0000000001
44
0.0000000001
40
4
40
4
40
4
40
4
40
5
40
5
40
5
40
6
40
6
40
6
40
6
10
56.415677883031499
20
315.03779017731694
30
0
10
56.107686346650155
20
316.64975035486538
30
0
10
54.689685044921326
20
317.87207023303199
30
0
10
52.989874932499063
20
317.87207023303199
30
0
10
51.065444594438496
20
317.87207023303199
30
0
10
49.499304186843929
20
316.30592982543737
30
0
10
49.499304186843929
20
314.38081046827978
30
0
0
SPLINE
5
481
100
AcDbEntity
8
0
100
AcDbSpline
70
1064
71
3
72
8
73
4
74
0
42
0.000000001
43
0.0000000001
44
0.0000000001
40
6
40
6
40
6
40
6
40
7
40
7
40
7
40
7
10
49.499304186843929
20
314.38081046827978
30
0
10
49.499993205940967
20
312.45706914931634
30
0
10
51.06613361353557
20
310.8916177608188
30
0
10
52.989185913401997
20
310.8916177608188
30
0
0
SPLINE
5
482
100
AcDbEntity
8
0
100
AcDbSpline
70
1064
71
3
72
8
73
4
74
0
42
0.000000001
43
0.0000000001
44
0.0000000001
40
7
40
7
40
7
40
7
40
8
40
8
40
8
40
8
10
52.989185913401997
20
310.8916177608188
30
0
10
54.429235826236436
20
310.89265128946431
30
0
10
55.668781181829338
20
311.76942809046051
30
0
10
56.200703924751906
20
313.01827520386348
30
0
0
LINE
5
483
100
AcDbEntity
8
0
100
AcDbLine
10
56.200703924751906
20
313.01827520386348
30
0
11
76.568108433548943
21
313.01827520386348
31
0
0
LINE
5
484
100
AcDbEntity
8
0
100
AcDbLine
10
76.568108433548943
20
313.01827520386348
30
0
11
101.95811765029171
21
343.14012306959688
31
0
0
SPLINE
5
485
100
AcDbEntity
8
0
100
AcDbSpline
70
1064
71
3
72
11
73
7
74
0
42
0.000000001
43
0.0000000001
44
0.0000000001
40
10
40
10
40
10
40
10
40
11
40
11
40
11
40
12
40
12
40
12
40
12
10
101.95811765029171
20
343.14012306959688
30
0
10
102.43147376996511
20
342.8996554047265
30
0
10
102.96546357017881
20
342.76116256621947
30
0
10
103.53183726795379
20
342.76116256621947
30
0
10
105.10486786651889
20
342.76116256621947
30
0
10
106.43674178111651
20
343.80778257463828
30
0
10
106.87151283135501
20
345.24094229650223
30
0
0
LINE
5
486
100
AcDbEntity
8
0
100
AcDbLine
10
106.87151283135501
20
345.24094229650223
30
0
11
146.95588782133399
21
345.24094229650223
31
0
0
SPLINE
5
487
100
AcDbEntity
8
0
100
AcDbSpline
70
1064
71
3
72
11
73
7
74
0
42
0.000000001
43
0.0000000001
44
0.0000000001
40
13
40
13
40
13
40
13
40
14
40
14
40
14
40
15
40
15
40
15
40
15
10
146.95588782133399
20
345.24094229650223
30
0
10
147.39031436202401
20
343.8074380650898
30
0
10
148.72253278617009
20
342.76116256621947
30
0
10
150.29556338473509
20
342.76116256621947
30
0
10
152.21930470369858
20
342.76116256621947
30
0
10
153.78475609219618
20
344.32592493561992
30
0
10
153.78578962084168
20
346.2503552736805
30
0
0
SPLINE
5
488
100
AcDbEntity
8
0
100
AcDbSpline
70
1064
71
3
72
8
73
4
74
0
42
0.000000001
43
0.0000000001
44
0.0000000001
40
15
40
15
40
15
40
15
40
16
40
16
40
16
40
16
10
153.78578962084168
20
346.2503552736805
30
0
10
153.78475609219618
20
348.17409659264399
30
0
10
152.21930470369858
20
349.74023700023872
30
0
10
150.2962524038322
20
349.74127052888412
30
0
0
SPLINE
5
489
100
AcDbEntity
8
0
100
AcDbSpline
70
1064
71
3
72
8
73
4
74
0
42
0.000000001
43
0.0000000001
44
0.0000000001
40
16
40
16
40
16
40
16
40
17
40
17
40
17
40
17
10
150.2962524038322
20
349.74127052888412
30
0
10
148.72322180526709
20
349.74023700023872
30
0
10
147.39031436202401
20
348.69327248227114
30
0
10
146.95588782133399
20
347.2614907986013
30
0
0
LINE
5
490
100
AcDbEntity
8
0
100
AcDbLine
10
146.95588782133399
20
347.2614907986013
30
0
11
106.87151283135499
21
347.26045726995562
31
0
0
SPLINE
5
491
100
AcDbEntity
8
0
100
AcDbSpline
70
1064
71
3
72
8
73
4
74
0
42
0.000000001
43
0.0000000001
44
0.0000000001
40
18
40
18
40
18
40
18
40
19
40
19
40
19
40
19
10
106.87151283135501
20
347.26045726995562
30
0
10
106.43743080021359
20
348.69327248227114
30
0
10
105.10521237606751
20
349.74023700023872
30
0
10
103.53183726795379
20
349.74127052888412
30
0
0
LINE
5
492
100
AcDbEntity
8
0
100
AcDbLine
10
411.46704633810549
20
443.65285090905212
30
0
11
411.46704633810549
21
459.03451323159567
31
0
0
LINE
5
493
100
AcDbEntity
8
0
100
AcDbLine
10
411.46704633810549
20
459.03451323159567
30
0
11
398.24098026068282
21
459.03451323159567
31
0
0
LINE
5
494
100
AcDbEntity
8
0
100
AcDbLine
10
398.24098026068282
20
459.03451323159567
30
0
11
398.24098026068282
21
471.45235990817861
31
0
0
SPLINE
5
495
100
AcDbEntity
8
0
100
AcDbSpline
70
1064
71
3
72
14
73
10
74
0
42
0.000000001
43
0.0000000001
44
0.0000000001
40
3
40
3
40
3
40
3
40
4
40
4
40
4
40
5
40
5
40
5
40
6
40
6
40
6
40
6
10
398.24098026068282
20
471.45235990817861
30
0
10
399.67413998254676
20
471.88678644886869
30
0
10
400.72075999096563
20
473.2186603634662
30
0
10
400.72075999096563
20
474.79272449067679
30
0
10
400.72075999096563
20
476.71646580964034
30
0
10
399.15599762156518
20
478.28191719813782
30
0
10
397.23156728350466
20
478.28191719813782
30
0
10
396.29932444519602
20
478.28191719813782
30
0
10
395.42220313465145
20
477.91880413399247
30
0
10
394.76281185877463
20
477.26044638676137
30
0
0
SPLINE
5
496
100
AcDbEntity
8
0
100
AcDbSpline
70
1064
71
3
72
11
73
7
74
0
42
0.000000001
43
0.0000000001
44
0.0000000001
40
6
40
6
40
6
40
6
40
7
40
7
40
7
40
8
40
8
40
8
40
8
10
394.76281185877463
20
477.26044638676137
30
0
10
394.1034205828978
20
476.60105511088443
30
0
10
393.74168555694655
20
475.72462281943695
30
0
10
393.74168555694655
20
474.79306900022539
30
0
10
393.74168555694655
20
473.86048165236815
30
0
10
394.1034205828978
20
472.98404936092072
30
0
10
394.76281185877463
20
472.32465808504378
30
0
0
ELLIPSE
5
497
100
AcDbEntity
8
0
100
AcDbEllipse
10
397.50535129401754
20
475.53267257784819
30
0
11
-1.5019174595026394
21
-4.0087834493508518
31
0.0
40
0.89565493238914162
41
5.8974162286250582
42
6.3430056180337511
0
LINE
5
498
100
AcDbEntity
8
0
100
AcDbLine
10
396.22077626813228
20
471.45063736043596
30
0
11
396.22077626813228
21
459.03451323159567
31
0
0
LINE
5
499
100
AcDbEntity
8
0
100
AcDbLine
10
396.22077626813228
20
459.03451323159567
30
0
11
385.72288130547895
21
459.03451323159567
31
0
0
LINE
5
500
100
AcDbEntity
8
0
100
AcDbLine
10
385.72288130547895
20
459.03451323159567
30
0
11
385.72288130547895
21
475.23197416504615
31
0
0
SPLINE
5
501
100
AcDbEntity
8
0
100
AcDbSpline
70
1064
71
3
72
11
73
7
74
0
42
0.000000001
43
0.0000000001
44
0.0000000001
40
12
40
12
40
12
40
12
40
13
40
13
40
13
40
14
40
14
40
14
40
14
10
385.72288130547895
20
475.23197416504615
30
0
10
387.15604102734301
20
475.66708972483332
30
0
10
388.20266103576188
20
476.99896363943083
30
0
10
388.20266103576188
20
478.57164972844737
30
0
10
388.20266103576188
20
479.50354805720747
30
0
10
387.83954797161647
20
480.37998034865501
30
0
10
387.18084571483689
20
481.03937162453178
30
0
0
SPLINE
5
502
100
AcDbEntity
8
0
100
AcDbSpline
70
1064
71
3
72
14
73
10
74
0
42
0.000000001
43
0.0000000001
44
0.0000000001
40
14
40
14
40
14
40
14
40
15
40
15
40
15
40
16
40
16
40
16
40
17
40
17
40
17
40
17
10
387.18084571483689
20
481.03937162453178
30
0
10
386.52145443895989
20
481.69841839086018
30
0
10
385.64433312841527
20
482.06153145500548
30
0
10
384.71277930920382
20
482.06153145500548
30
0
10
382.78765995204623
20
482.06153145500548
30
0
10
381.22220856354863
20
480.49573555695935
30
0
10
381.22220856354863
20
478.57164972844737
30
0
10
381.22220856354863
20
476.99861912988234
30
0
10
382.26951759106453
20
475.66571168663916
30
0
10
383.70198829383133
20
475.23162965549773
30
0
0
LINE
5
503
100
AcDbEntity
8
0
100
AcDbLine
10
383.70198829383133
20
475.23162965549773
30
0
11
383.70198829383133
21
459.03451323159567
31
0
0
LINE
5
504
100
AcDbEntity
8
0
100
AcDbLine
10
383.70198829383133
20
459.03451323159567
30
0
11
356.89914541858786
21
459.03451323159567
31
0
0
LINE
5
505
100
AcDbEntity
8
0
100
AcDbLine
10
356.89914541858786
20
459.03451323159567
30
0
11
343.76368535242727
21
445.89905316543502
31
0
0
ELLIPSE
5
506
100
AcDbEntity
8
0
100
AcDbEllipse
10
342.14981332094112
20
441.18108505487089
30
0
11
-0.93202462191052793
21
-4.9210631599180541
31
0.0
40
0.83256156235683143
41
2.9710442419804832
42
3.2967911195438919
0
LINE
5
507
100
AcDbEntity
8
0
100
AcDbLine
10
342.43732359060607
20
446.16294747960512
30
0
11
342.43663457150888
21
446.16294747960512
31
0
0
SPLINE
5
508
100
AcDbEntity
8
0
100
AcDbSpline
70
1064
71
3
72
8
73
4
74
0
42
0.000000001
43
0.0000000001
44
0.0000000001
40
22
40
22
40
22
40
22
40
23
40
23
40
23
40
23
10
342.43663457150888
20
446.16294747960512
30
0
10
340.51220423344836
20
446.16156944141096
30
0
10
338.94744186404796
20
444.59611805291354
30
0
10
338.94813088314487
20
442.67237673394993
30
0
0
SPLINE
5
509
100
AcDbEntity
8
0
100
AcDbSpline
70
1064
71
3
72
11
73
7
74
0
42
0.000000001
43
0.0000000001
44
0.0000000001
40
23
40
23
40
23
40
23
40
24
40
24
40
24
40
25
40
25
40
25
40
25
10
338.94813088314487
20
442.67237673394993
30
0
10
338.94813088314487
20
440.74794639588936
30
0
10
340.51358227164252
20
439.18249500739188
30
0
10
342.43732359060601
20
439.18249500739188
30
0
10
344.36175392866653
20
439.18249500739188
30
0
10
345.92651629806704
20
440.74794639588936
30
0
10
345.92720531716418
20
442.67237673394993
30
0
0
SPLINE
5
510
100
AcDbEntity
8
0
100
AcDbSpline
70
1064
71
3
72
8
73
4
74
0
42
0.000000001
43
0.0000000001
44
0.0000000001
40
25
40
25
40
25
40
25
40
26
40
26
40
26
40
26
10
345.92720531716418
20
442.67237673394993
30
0
10
345.92720531716418
20
443.39102365217315
30
0
10
345.70878626339919
20
444.05868315721449
30
0
10
345.33464889370111
20
444.61403254943673
30
0
0
LINE
5
511
100
AcDbEntity
8
0
100
AcDbLine
10
345.33464889370111
20
444.61403254943673
30
0
11
357.73561460240637
21
457.01396472949654
31
0
0
LINE
5
512
100
AcDbEntity
8
0
100
AcDbLine
10
357.73561460240637
20
457.01396472949654
30
0
11
409.44684234555501
21
457.01396472949654
31
0
0
LINE
5
513
100
AcDbEntity
8
0
100
AcDbLine
10
409.44684234555501
20
457.01396472949654
30
0
11
409.44684234555501
21
443.65285090905212
31
0
0
ELLIPSE
5
514
100
AcDbEntity
8
0
100
AcDbEllipse
10
410.78557283394099
20
439.63055168538915
30
0
11
1.8461392434049304
21
-3.8249722383927409
31
0.0
40
0.90191581278655442
41
2.9994294931212302
42
3.4465226050025946
0
ELLIPSE
5
515
100
AcDbEntity
8
0
100
AcDbEllipse
10
411.10684980227524
20
440.0505964129016
30
0
11
3.8874714540535464
21
-1.5683197012546408
31
0.0
40
0.90617032847275047
41
2.7743401627022659
42
3.4928390236797902
0
SPLINE
5
516
100
AcDbEntity
8
0
100
AcDbSpline
70
1064
71
3
72
8
73
4
74
0
42
0.000000001
43
0.0000000001
44
0.0000000001
40
31
40
31
40
31
40
31
40
32
40
32
40
32
40
32
10
406.96775163436928
20
440.31110828835972
30
0
10
406.9670626152722
20
438.38805598849331
30
0
10
408.53251400376968
20
436.82191558089869
30
0
10
410.45625532273323
20
436.8205375427047
30
0
0
SPLINE
5
517
100
AcDbEntity
8
0
100
AcDbSpline
70
1064
71
3
72
15
73
11
74
0
42
0.000000001
43
0.0000000001
44
0.0000000001
40
32
40
32
40
32
40
32
40
33
40
33
40
34
40
34
40
35
40
35
40
35
40
36
40
36
40
36
40
36
10
410.45625532273323
20
436.8205375427047
30
0
10
411.38918718013878
20
436.8205375427047
30
0
10
412.26493045248947
20
437.18365060684988
30
0
10
413.58371300424301
20
438.50243315860354
30
0
10
413.94682606838836
20
439.37886545005108
30
0
10
413.94682606838836
20
441.24335112666836
30
0
10
413.58371300424301
20
442.11909439901888
30
0
10
412.92432172836612
20
442.77848567489571
30
0
10
412.51091027013621
20
443.19189713312568
30
0
10
412.01206044387192
20
443.48886436395418
30
0
10
411.46704633810549
20
443.65285090905212
30
0
0
LINE
5
518
100
AcDbEntity
8
0
100
AcDbLine
10
467.06813139364965
20
299.29818243385603
30
0
11
467.06813139364965
21
309.80296758747983
31
0
0
ELLIPSE
5
519
100
AcDbEntity
8
0
100
AcDbEllipse
10
465.7341494301121
20
313.90818475610092
30
0
11
1.6859573415336224
21
-3.9781143245548605
31
0.0
40
0.89283613564674624
41
6.1861677271851701
42
6.6295498652462452
0
ELLIPSE
5
520
100
AcDbEntity
8
0
100
AcDbEllipse
10
465.40744290604522
20
313.40858525840827
30
0
11
3.8844923543651584
21
-1.5792933338400308
31
0.0
40
0.90626360997512234
41
5.9184047649765841
42
6.6366227367124209
0
ELLIPSE
5
521
100
AcDbEntity
8
0
100
AcDbEllipse
10
465.41359014631678
20
312.88512984826474
30
0
11
3.8816294742145256
21
1.567472849227816
31
0.0
40
0.90669567450005817
41
5.9317913883027469
42
6.6508153354620392
0
SPLINE
5
522
100
AcDbEntity
8
0
100
AcDbSpline
70
1064
71
3
72
11
73
7
74
0
42
0.000000001
43
0.0000000001
44
0.0000000001
40
4
40
4
40
4
40
4
40
5
40
5
40
5
40
6
40
6
40
6
40
6
10
468.5250622743618
20
315.61277661380518
30
0
10
467.86601550803346
20
316.27216788968201
30
0
10
466.98992772613451
20
316.63459193473034
30
0
10
466.05802939737436
20
316.63459193473034
30
0
10
464.13394356886238
20
316.63459193473034
30
0
10
462.56849218036479
20
315.06914054623269
30
0
10
462.56780316126776
20
313.14471020817217
30
0
0
SPLINE
5
523
100
AcDbEntity
8
0
100
AcDbSpline
70
1064
71
3
72
8
73
4
74
0
42
0.000000001
43
0.0000000001
44
0.0000000001
40
6
40
6
40
6
40
6
40
7
40
7
40
7
40
7
10
462.56780316126776
20
313.14471020817217
30
0
10
462.56849218036479
20
311.57236862870417
30
0
10
463.61511218878383
20
310.23980569500952
30
0
10
465.04792740109912
20
309.80572366386798
30
0
0
LINE
5
524
100
AcDbEntity
8
0
100
AcDbLine
10
465.04792740109912
20
309.80572366386798
30
0
11
465.04792740109912
21
299.29818243385603
31
0
0
LINE
5
525
100
AcDbEntity
8
0
100
AcDbLine
10
465.04792740109912
20
299.29818243385603
30
0
11
467.06813139364965
21
299.29818243385603
31
0
0
LINE
5
526
100
AcDbEntity
8
0
100
AcDbLine
10
317.35565041979311
20
151.0412543025175
30
0
11
390.75685482852623
21
151.0419433216145
31
0
0
LINE
5
527
100
AcDbEntity
8
0
100
AcDbLine
10
390.75685482852623
20
151.0419433216145
30
0
11
402.90942915274491
21
163.19451764583332
31
0
0
LINE
5
528
100
AcDbEntity
8
0
100
AcDbLine
10
402.90942915274491
20
163.19451764583332
30
0
11
403.18090267698267
21
163.19451764583332
31
0
0
LINE
5
529
100
AcDbEntity
8
0
100
AcDbLine
10
403.18090267698267
20
163.19451764583332
30
0
11
452.6535073738159
21
163.19451764583332
31
0
0
SPLINE
5
530
100
AcDbEntity
8
0
100
AcDbSpline
70
1064
71
3
72
11
73
7
74
0
42
0.000000001
43
0.0000000001
44
0.0000000001
40
4
40
4
40
4
40
4
40
5
40
5
40
5
40
6
40
6
40
6
40
6
10
452.6535073738159
20
163.19451764583332
30
0
10
453.28878298129587
20
164.61906462898409
30
0
10
454.71677505993182
20
165.61676428151253
30
0
10
456.37489951698262
20
165.61676428151253
30
0
10
457.46389419987008
20
165.61676428151253
30
0
10
458.48743206853788
20
165.1926730272782
30
0
10
459.25741090949117
20
164.42269418632489
30
0
0
ELLIPSE
5
531
100
AcDbEntity
8
0
100
AcDbEllipse
10
455.64582334090454
20
161.23974820102774
30
0
11
4.4960050272467011
21
1.8638655612796615
31
0.0
40
0.90845444554158028
41
5.9232719431582685
42
6.6440199890724223
0
ELLIPSE
5
532
100
AcDbEntity
8
0
100
AcDbEllipse
10
455.58813999371273
20
161.86155688444376
30
0
11
4.5620270231240454
21
-1.8621228389640954
31
0.0
40
0.90286770474842337
41
5.9294439637682244
42
6.6457140050767958
0
SPLINE
5
533
100
AcDbEntity
8
0
100
AcDbSpline
70
1064
71
3
72
11
73
7
74
0
42
0.000000001
43
0.0000000001
44
0.0000000001
40
8
40
8
40
8
40
8
40
9
40
9
40
9
40
10
40
10
40
10
40
10
10
459.25741090949117
20
158.65973845859901
30
0
10
458.48743206853788
20
157.89044863674269
30
0
10
457.46423870941874
20
157.46601287295991
30
0
10
456.37386598833706
20
157.46601287295991
30
0
10
454.30129654441083
20
157.46601287295991
30
0
10
452.58942859779017
20
159.02285152274428
30
0
10
452.33586957007589
20
161.02789709515969
30
0
0
LINE
5
534
100
AcDbEntity
8
0
100
AcDbLine
10
452.33586957007589
20
161.02789709515969
30
0
11
403.80687652665239
21
161.02789709515969
31
0
0
LINE
5
535
100
AcDbEntity
8
0
100
AcDbLine
10
403.80687652665239
20
161.02789709515969
30
0
11
391.65361318333657
21
148.87497826139241
31
0
0
LINE
5
536
100
AcDbEntity
8
0
100
AcDbLine
10
391.65361318333657
20
148.87497826139241
30
0
11
317.35737296753564
21
148.87463375184382
31
0
0
ELLIPSE
5
537
100
AcDbEntity
8
0
100
AcDbEllipse
10
312.58124546985675
20
150.42874186514723
30
0
11
4.4034123906330418
21
-2.4648723744774088
31
0.0
40
0.894252323879561
41
6.065007887783973
42
6.529851779854452
0
ELLIPSE
5
538
100
AcDbEntity
8
0
100
AcDbEllipse
10
313.11583748590255
20
150.72094141086859
30
0
11
-1.8749649205324586
21
4.5299042982236086
31
0.0
40
0.90560913749592031
41
2.782406849436144
42
3.5002873195392077
0
SPLINE
5
539
100
AcDbEntity
8
0
100
AcDbSpline
70
1064
71
3
72
11
73
7
74
0
42
0.000000001
43
0.0000000001
44
0.0000000001
40
15
40
15
40
15
40
15
40
16
40
16
40
16
40
17
40
17
40
17
40
17
10
313.43134215254503
20
145.8832573420014
30
0
10
312.34200296010897
20
145.88360185154988
30
0
10
311.31915411053831
20
146.30769310578418
30
0
10
310.54951977913339
20
147.0769829276405
30
0
10
309.77919642863162
20
147.84696176859381
30
0
10
309.35613870304286
20
148.87015512771299
30
0
10
309.35648321259151
20
149.95742726285789
30
0
0
ELLIPSE
5
540
100
AcDbEntity
8
0
100
AcDbEllipse
10
314.18829797237441
20
149.63560352503976
30
0
11
4.5063710073799603
21
-1.9252778123902059
31
0.0
40
0.90547408967322518
41
2.7721194926067794
42
3.4904197068603855
0
ELLIPSE
5
541
100
AcDbEntity
8
0
100
AcDbEllipse
10
313.75855433665168
20
149.20466383914413
30
0
11
-1.955787512060476
21
4.4917668161700144
31
0.0
40
0.90554368661591034
41
5.9403231383322508
42
6.658819071929412
0
LINE
5
542
100
AcDbEntity
8
0
100
AcDbLine
10
313.43134215254503
20
154.0329752219084
30
0
11
313.43272019073913
21
153.37702904151689
31
0
0
LINE
5
543
100
AcDbEntity
8
0
100
AcDbLine
10
313.43272019073913
20
153.37702904151689
30
0
11
313.43272019073913
21
154.0329752219084
31
0
0
SPLINE
5
544
100
AcDbEntity
8
0
100
AcDbSpline
70
1064
71
3
72
8
73
4
74
0
42
0.000000001
43
0.0000000001
44
0.0000000001
40
21
40
21
40
21
40
21
40
22
40
22
40
22
40
22
10
313.43272019073913
20
154.0329752219084
30
0
10
315.30237351058412
20
154.0329752219084
30
0
10
316.87884920463449
20
152.76311302604529
30
0
10
317.35565041979311
20
151.0412543025175
30
0
0
LINE
5
545
100
AcDbEntity
8
0
100
AcDbLine
10
344.70953631790252
20
421.06852745549691
30
0
11
361.67645932798371
21
421.06852745549691
31
0
0
LINE
5
546
100
AcDbEntity
8
0
100
AcDbLine
10
361.67645932798371
20
421.06852745549691
30
0
11
372.54125695981611
21
430.98764637662816
31
0
0
LINE
5
547
100
AcDbEntity
8
0
100
AcDbLine
10
372.54125695981611
20
430.98764637662816
30
0
11
381.09095042556066
21
430.98833539572513
31
0
0
SPLINE
5
548
100
AcDbEntity
8
0
100
AcDbSpline
70
1064
71
3
72
11
73
7
74
0
42
0.000000001
43
0.0000000001
44
0.0000000001
40
3
40
3
40
3
40
3
40
4
40
4
40
4
40
5
40
5
40
5
40
5
10
381.09095042556066
20
430.98833539572513
30
0
10
381.52572147579912
20
429.55586469295832
30
0
10
382.85759539039657
20
428.50855566544226
30
0
10
384.43097049851031
20
428.50855566544226
30
0
10
386.35505632702234
20
428.50855566544226
30
0
10
387.92050771551988
20
430.07400705393991
30
0
10
387.92085222506836
20
431.99774837290329
30
0
0
ELLIPSE
5
549
100
AcDbEntity
8
0
100
AcDbEllipse
10
383.77517255998134
20
431.72648311889202
30
0
11
3.8821719948955007
21
1.6058516042893423
31
0.0
40
0.9057138815428557
41
5.9250001321001902
42
6.6423694175523771
0
ELLIPSE
5
550
100
AcDbEntity
8
0
100
AcDbEllipse
10
384.17364115468871
20
431.34852319784102
30
0
11
-1.5446152701137972
21
-3.8954630001802455
31
0.0
40
0.9058157333448803
41
2.7684265555059664
42
3.4871728959304473
0
SPLINE
5
551
100
AcDbEntity
8
0
100
AcDbSpline
70
1064
71
3
72
11
73
7
74
0
42
0.000000001
43
0.0000000001
44
0.0000000001
40
8
40
8
40
8
40
8
40
9
40
9
40
9
40
10
40
10
40
10
40
10
10
384.43165951760733
20
435.48763009946157
30
0
10
383.49907216975026
20
435.48831911855848
30
0
10
382.62263987830266
20
435.12589507351015
30
0
10
381.96324860242584
20
434.46650379763344
30
0
10
381.54914812509878
20
434.05240332030644
30
0
10
381.25286991336736
20
433.55355349404221
30
0
10
381.08888336826953
20
433.00785036917864
30
0
0
LINE
5
552
100
AcDbEntity
8
0
100
AcDbLine
10
381.08888336826953
20
433.00785036917864
30
0
11
371.75818675601874
21
433.00785036917864
31
0
0
LINE
5
553
100
AcDbEntity
8
0
100
AcDbLine
10
371.75818675601874
20
433.00785036917864
30
0
11
360.89373363373488
21
423.08873144804738
31
0
0
LINE
5
554
100
AcDbEntity
8
0
100
AcDbLine
10
360.89373363373488
20
423.08873144804738
30
0
11
345.7423759443804
21
423.08873144804738
31
0
0
LINE
5
555
100
AcDbEntity
8
0
100
AcDbLine
10
345.7423759443804
20
423.08873144804738
30
0
11
337.60368237002615
21
434.3714191622405
31
0
0
SPLINE
5
556
100
AcDbEntity
8
0
100
AcDbSpline
70
1064
71
3
72
11
73
7
74
0
42
0.000000001
43
0.0000000001
44
0.0000000001
40
14
40
14
40
14
40
14
40
15
40
15
40
15
40
16
40
16
40
16
40
16
10
337.60368237002615
20
434.3714191622405
30
0
10
338.05326733085133
20
434.95846343292703
30
0
10
338.32405183599184
20
435.69020171399421
30
0
10
338.32405183599184
20
436.48601877108683
30
0
10
338.32405183599184
20
438.40907107095336
30
0
10
336.7589449570429
20
439.97452245945084
30
0
10
334.83348109033682
20
439.97658951674202
30
0
0
SPLINE
5
557
100
AcDbEntity
8
0
100
AcDbSpline
70
1064
71
3
72
11
73
7
74
0
42
0.000000001
43
0.0000000001
44
0.0000000001
40
16
40
16
40
16
40
16
40
17
40
17
40
17
40
18
40
18
40
18
40
18
10
334.83348109033682
20
439.97658951674202
30
0
10
332.90939526182461
20
439.97452245945084
30
0
10
331.34394387332719
20
438.40907107095336
30
0
10
331.34394387332719
20
436.48601877108683
30
0
10
331.34394387332719
20
434.5622774521234
30
0
10
332.90939526182461
20
432.99613704452889
30
0
10
334.83417010943384
20
432.99544802543176
30
0
0
ELLIPSE
5
558
100
AcDbEntity
8
0
100
AcDbEllipse
10
334.93640597077922
20
440.19173894448443
30
0
11
-0.1911081791526944
21
-7.1951098058135843
31
0.0
40
0.68221025103052013
41
0.018100124090410622
42
0.25019415628382247
0
LINE
5
559
100
AcDbEntity
8
0
100
AcDbLine
10
335.96657299543551
20
433.18837337260561
30
0
11
344.70953631790252
21
421.06852745549691
31
0
0
ELLIPSE
5
560
100
AcDbEntity
8
0
100
AcDbEllipse
10
615.18711122584637
20
341.15472202079934
30
0
11
-1.5802373387910953
21
-3.8883217308376681
31
0.0
40
0.90515878986247567
41
2.7768411672313524
42
3.4948443380444054
0
ELLIPSE
5
561
100
AcDbEntity
8
0
100
AcDbEllipse
10
615.05986486775043
20
340.4483621374311
30
0
11
-1.2423348523190254
21
-4.7404735495108703
31
0.0
40
0.82277919755598283
41
3.3539622240077818
42
3.5322037128619748
0
LINE
5
562
100
AcDbEntity
8
0
100
AcDbLine
10
614.72354585326354
20
345.22096074268796
30
0
11
606.17557493526181
21
356.28143979808237
31
0
0
LINE
5
563
100
AcDbEntity
8
0
100
AcDbLine
10
606.17557493526181
20
356.28143979808237
30
0
11
560.45467922186549
21
356.28143979808237
31
0
0
SPLINE
5
564
100
AcDbEntity
8
0
100
AcDbSpline
70
1064
71
3
72
11
73
7
74
0
42
0.000000001
43
0.0000000001
44
0.0000000001
40
4
40
4
40
4
40
4
40
5
40
5
40
5
40
6
40
6
40
6
40
6
10
560.45467922186549
20
356.28143979808237
30
0
10
560.02025268117552
20
357.71425501039778
30
0
10
558.6883787665779
20
358.76087501881682
30
0
10
557.11534816801282
20
358.76087501881682
30
0
10
555.19126233950078
20
358.76087501881682
30
0
10
553.62581095100325
20
357.19507912077074
30
0
10
553.62512193190628
20
355.27030427316163
30
0
0
SPLINE
5
565
100
AcDbEntity
8
0
100
AcDbSpline
70
1064
71
3
72
11
73
7
74
0
42
0.000000001
43
0.0000000001
44
0.0000000001
40
6
40
6
40
6
40
6
40
7
40
7
40
7
40
8
40
8
40
8
40
8
10
553.62512193190628
20
355.27030427316163
30
0
10
553.62581095100325
20
353.34656295419813
30
0
10
555.19126233950078
20
351.78145607524914
30
0
10
557.11534816801282
20
351.78145607524914
30
0
10
558.68872327612644
20
351.78145607524914
30
0
10
560.02025268117552
20
352.82807608366801
30
0
10
560.45467922186549
20
354.26123580553201
30
0
0
LINE
5
566
100
AcDbEntity
8
0
100
AcDbLine
10
560.45467922186549
20
354.26123580553201
30
0
11
605.18304292596122
21
354.26123580553201
31
0
0
LINE
5
567
100
AcDbEntity
8
0
100
AcDbLine
10
605.18304292596122
20
354.26123580553201
30
0
11
612.93864188235568
21
344.22739520474181
31
0
0
SPLINE
5
568
100
AcDbEntity
8
0
100
AcDbSpline
70
1064
71
3
72
11
73
7
74
0
42
0.000000001
43
0.0000000001
44
0.0000000001
40
10
40
10
40
10
40
10
40
11
40
11
40
11
40
12
40
12
40
12
40
12
10
612.93864188235568
20
344.22739520474181
30
0
10
612.30956744674893
20
343.57420510073837
30
0
10
611.96230182183581
20
342.72016592994498
30
0
10
611.96230182183581
20
341.80756013590235
30
0
10
611.96230182183581
20
339.88485234558431
30
0
10
613.5274087007848
20
338.31974546663537
30
0
10
615.45183903884538
20
338.3187119379898
30
0
0
SPLINE
5
569
100
AcDbEntity
8
0
100
AcDbSpline
70
1064
71
3
72
11
73
7
74
0
42
0.000000001
43
0.0000000001
44
0.0000000001
40
12
40
12
40
12
40
12
40
13
40
13
40
13
40
14
40
14
40
14
40
14
10
615.45183903884538
20
338.3187119379898
30
0
10
617.37592486735741
20
338.31905644753829
30
0
10
618.94103174630641
20
339.88519685513279
30
0
10
618.94103174630641
20
341.8089381740964
30
0
10
618.94103174630641
20
342.74152552195352
30
0
10
618.57826319170977
20
343.61795781340112
30
0
10
617.91887191583271
20
344.27700457972941
30
0
0
LINE
5
570
100
AcDbEntity
8
0
100
AcDbLine
10
547.00984958112952
20
366.54369022954472
30
0
11
547.00950507158097
21
351.8048827245488
31
0
0
LINE
5
571
100
AcDbEntity
8
0
100
AcDbLine
10
547.00950507158097
20
351.8048827245488
30
0
11
525.48523749883702
21
330.28061515180491
31
0
0
LINE
5
572
100
AcDbEntity
8
0
100
AcDbLine
10
525.48523749883702
20
330.28061515180491
30
0
11
525.47283515509014
21
314.76528312443367
31
0
0
ELLIPSE
5
573
100
AcDbEntity
8
0
100
AcDbEllipse
10
526.74041020517961
20
310.67329514410761
30
0
11
2.3923321994232776
21
-3.6059346915574038
31
0.0
40
0.89165443986148696
41
2.8237218953209724
42
3.3211560864019054
0
SPLINE
5
574
100
AcDbEntity
8
0
100
AcDbSpline
70
1064
71
3
72
10
73
6
74
0
42
0.000000001
43
0.0000000001
44
0.0000000001
40
4
40
4
40
4
40
4
40
5
40
5
40
6
40
6
40
6
40
6
10
523.81229913119978
20
313.84027498664415
30
0
10
523.15290785532306
20
313.18157272986429
30
0
10
522.79013930072608
20
312.30479592886832
30
0
10
522.79082831982316
20
310.44031025225104
30
0
10
523.15394138396846
20
309.5638779608035
30
0
10
523.81264364074821
20
308.90517570402369
30
0
0
LINE
5
575
100
AcDbEntity
8
0
100
AcDbLine
10
523.81264364074821
20
308.90517570402369
30
0
11
523.81436618849091
21
308.9034531562811
31
0
0
SPLINE
5
576
100
AcDbEntity
8
0
100
AcDbSpline
70
1064
71
3
72
8
73
4
74
0
42
0.000000001
43
0.0000000001
44
0.0000000001
40
7
40
7
40
7
40
7
40
8
40
8
40
8
40
8
10
523.81436618849091
20
308.9034531562811
30
0
10
525.17380086697051
20
307.5440184778015
30
0
10
527.3872747162435
20
307.54436298734998
30
0
10
528.74843194246569
20
308.90483119447515
30
0
0
SPLINE
5
577
100
AcDbEntity
8
0
100
AcDbSpline
70
1064
71
3
72
8
73
4
74
0
42
0.000000001
43
0.0000000001
44
0.0000000001
40
8
40
8
40
8
40
8
40
9
40
9
40
9
40
9
10
528.74843194246569
20
308.90483119447515
30
0
10
530.10855564004237
20
310.26564391114886
30
0
10
530.10855564004237
20
312.47946226997038
30
0
10
528.74774292336861
20
313.84027498664415
30
0
0
ELLIPSE
5
578
100
AcDbEntity
8
0
100
AcDbEllipse
10
525.63586597356311
20
310.53156317801734
30
0
11
-2.7755697028317901
21
-3.604351199898248
31
0.0
40
0.87056815145916511
41
3.0285256360258286
42
3.4076082593004497
0
LINE
5
579
100
AcDbEntity
8
0
100
AcDbLine
10
527.48890503305824
20
314.64436027290145
30
0
11
527.46754544104977
21
329.40521638900287
31
0
0
LINE
5
580
100
AcDbEntity
8
0
100
AcDbLine
10
527.46754544104977
20
329.40521638900287
30
0
11
549.03074259277707
21
350.96841354073013
31
0
0
LINE
5
581
100
AcDbEntity
8
0
100
AcDbLine
10
549.03074259277707
20
350.96841354073013
30
0
11
549.03039808322853
21
366.54369022954472
31
0
0
LINE
5
582
100
AcDbEntity
8
0
100
AcDbLine
10
549.03039808322853
20
366.54369022954472
30
0
11
547.00984958112952
21
366.54369022954472
31
0
0
ELLIPSE
5
583
100
AcDbEntity
8
0
100
AcDbEllipse
10
586.60617693084532
20
314.06228455611893
30
0
11
-2.8984505791914716
21
-3.6636612435497455
31
0.0
40
0.85588701254169541
41
3.0453891690778172
42
3.4478498529318768
0
LINE
5
584
100
AcDbEntity
8
0
100
AcDbLine
10
588.42437593796353
20
318.30339618778532
30
0
11
588.33583698399241
21
337.97868101359563
31
0
0
SPLINE
5
585
100
AcDbEntity
8
0
100
AcDbSpline
70
1064
71
3
72
8
73
4
74
0
42
0.000000001
43
0.0000000001
44
0.0000000001
40
2
40
2
40
2
40
2
40
3
40
3
40
3
40
3
10
588.33583698399241
20
337.97868101359563
30
0
10
589.17954086833026
20
338.01726608303034
30
0
10
590.01118691846943
20
338.35660798832748
30
0
10
590.65163016917745
20
339.00221888226332
30
0
0
SPLINE
5
586
100
AcDbEntity
8
0
100
AcDbSpline
70
1064
71
3
72
8
73
4
74
0
42
0.000000001
43
0.0000000001
44
0.0000000001
40
3
40
3
40
3
40
3
40
4
40
4
40
4
40
4
10
590.65163016917745
20
339.00221888226332
30
0
10
592.00555269488063
20
340.36888826126199
30
0
10
591.99590642752173
20
342.58270662008351
30
0
10
590.62958155807178
20
343.93800718398086
30
0
0
SPLINE
5
587
100
AcDbEntity
8
0
100
AcDbSpline
70
1064
71
3
72
8
73
4
74
0
42
0.000000001
43
0.0000000001
44
0.0000000001
40
4
40
4
40
4
40
4
40
5
40
5
40
5
40
5
10
590.62958155807178
20
343.93800718398086
30
0
10
589.26291217907328
20
345.29192970968404
30
0
10
587.04909382025164
20
345.28228344232531
30
0
10
585.69275972770879
20
343.91561406332664
30
0
0
SPLINE
5
588
100
AcDbEntity
8
0
100
AcDbSpline
70
1064
71
3
72
8
73
4
74
0
42
0.000000001
43
0.0000000001
44
0.0000000001
40
5
40
5
40
5
40
5
40
6
40
6
40
6
40
6
10
585.69275972770879
20
343.91561406332664
30
0
10
584.3395262211028
20
342.54756664613387
30
0
10
584.34917248846136
20
340.3337482873124
30
0
10
585.71584186745997
20
338.97982576160922
30
0
0
SPLINE
5
589
100
AcDbEntity
8
0
100
AcDbSpline
70
1064
71
3
72
8
73
4
74
0
42
0.000000001
43
0.0000000001
44
0.0000000001
40
6
40
6
40
6
40
6
40
7
40
7
40
7
40
7
10
585.71584186745997
20
338.97982576160922
30
0
10
585.90015447592077
20
338.79689119134252
30
0
10
586.10169256180802
20
338.64082836586056
30
0
10
586.31322142460226
20
338.50681415148438
30
0
0
LINE
5
590
100
AcDbEntity
8
0
100
AcDbLine
10
586.31322142460226
20
338.50681415148438
30
0
11
586.4041719454126
21
318.35162752457882
31
0
0
ELLIPSE
5
591
100
AcDbEntity
8
0
100
AcDbEllipse
10
587.88499874383865
20
314.2265069153313
30
0
11
2.6051102956764898
21
-3.5846683959224528
31
0.0
40
0.882673311524108
41
2.8224510604668551
42
3.2839518563481014
0
SPLINE
5
592
100
AcDbEntity
8
0
100
AcDbSpline
70
1064
71
3
72
8
73
4
74
0
42
0.000000001
43
0.0000000001
44
0.0000000001
40
9
40
9
40
9
40
9
40
10
40
10
40
10
40
10
10
584.85732407253579
20
317.4486679978948
30
0
10
583.50271252773541
20
316.08130959979911
30
0
10
583.51166977599723
20
313.86749124097764
30
0
10
584.87868366454427
20
312.51322420572586
30
0
0
LINE
5
593
100
AcDbEntity
8
0
100
AcDbLine
10
584.87868366454427
20
312.51322420572586
30
0
11
584.87868366454427
21
312.51253518662878
31
0
0
SPLINE
5
594
100
AcDbEntity
8
0
100
AcDbSpline
70
1064
71
3
72
8
73
4
74
0
42
0.000000001
43
0.0000000001
44
0.0000000001
40
11
40
11
40
11
40
11
40
12
40
12
40
12
40
12
10
584.87868366454427
20
312.51253518662878
30
0
10
586.24604206264007
20
311.15757913228015
30
0
10
588.46089395010699
20
311.16791441873579
30
0
10
589.81550549490726
20
312.53492830728288
30
0
0
SPLINE
5
595
100
AcDbEntity
8
0
100
AcDbSpline
70
1064
71
3
72
8
73
4
74
0
42
0.000000001
43
0.0000000001
44
0.0000000001
40
12
40
12
40
12
40
12
40
13
40
13
40
13
40
13
10
589.81550549490726
20
312.53492830728288
30
0
10
591.16942802061033
20
313.90090866718447
30
0
10
591.15978175325176
20
316.11472702600611
30
0
10
589.79242335515619
20
317.47071660900036
30
0
0
LINE
5
596
100
AcDbEntity
8
0
100
AcDbLine
10
481.6043672841127
20
347.60634485667481
30
0
11
471.86060372318076
21
347.60634485667481
31
0
0
SPLINE
5
597
100
AcDbEntity
8
0
100
AcDbSpline
70
1064
71
3
72
13
73
9
74
0
42
0.000000001
43
0.0000000001
44
0.0000000001
40
1
40
1
40
1
40
1
40
2
40
2
40
2
40
3
40
3
40
4
40
4
40
4
40
4
10
471.86060372318076
20
347.60634485667481
30
0
10
471.42583267294219
20
346.17387415390789
30
0
10
470.09464777744171
20
345.12725414548896
30
0
10
468.52161717887662
20
345.12725414548896
30
0
10
467.58937434056782
20
345.12725414548896
30
0
10
466.71225303002336
20
345.49036720963437
30
0
10
465.39347047826965
20
346.80914976138803
30
0
10
465.03035741412441
20
347.68489303373849
30
0
10
465.03173545231851
20
348.61782489114421
30
0
0
SPLINE
5
598
100
AcDbEntity
8
0
100
AcDbSpline
70
1064
71
3
72
13
73
9
74
0
42
0.000000001
43
0.0000000001
44
0.0000000001
40
4
40
4
40
4
40
4
40
5
40
5
40
6
40
6
40
6
40
7
40
7
40
7
40
7
10
465.03173545231851
20
348.61782489114421
30
0
10
465.03035741412441
20
349.54937871035565
30
0
10
465.39347047826965
20
350.42512198270623
30
0
10
466.71225303002336
20
351.74390453445983
30
0
10
467.58937434056782
20
352.10701759860518
30
0
10
468.52092815977949
20
352.10701759860518
30
0
10
470.09464777744171
20
352.10701759860518
30
0
10
471.42652169203916
20
351.06039759018631
30
0
10
471.86060372318076
20
349.62723786832237
30
0
0
LINE
5
599
100
AcDbEntity
8
0
100
AcDbLine
10
471.86060372318076
20
349.62723786832237
30
0
11
481.6043672841127
21
349.62723786832237
31
0
0
LINE
5
600
100
AcDbEntity
8
0
100
AcDbLine
10
481.6043672841127
20
349.62723786832237
30
0
11
481.6043672841127
21
347.60634485667481
31
0
0
LINE
5
601
100
AcDbEntity
8
0
100
AcDbLine
10
322.11263826582604
20
366.54369022954472
30
0
11
322.11263826582604
21
361.9375975657656
31
0
0
LINE
5
602
100
AcDbEntity
8
0
100
AcDbLine
10
322.11263826582604
20
361.9375975657656
30
0
11
321.87251511050414
21
361.74088261355791
31
0
0
LINE
5
603
100
AcDbEntity
8
0
100
AcDbLine
10
321.87251511050414
20
361.74088261355791
30
0
11
303.6910236870981
21
346.82189661468351
31
0
0
LINE
5
604
100
AcDbEntity
8
0
100
AcDbLine
10
303.6910236870981
20
346.82189661468351
30
0
11
303.69067917754955
21
335.05138337977883
31
0
0
SPLINE
5
605
100
AcDbEntity
8
0
100
AcDbSpline
70
1064
71
3
72
11
73
7
74
0
42
0.000000001
43
0.0000000001
44
0.0000000001
40
4
40
4
40
4
40
4
40
5
40
5
40
5
40
6
40
6
40
6
40
6
10
303.69067917754955
20
335.05138337977883
30
0
10
305.1238388994135
20
334.61730134863734
30
0
10
306.16976988873529
20
333.28508292449112
30
0
10
306.16976988873529
20
331.71205232592615
30
0
10
306.16976988873529
20
329.78796649741412
30
0
10
304.60431850023781
20
328.22217059936816
30
0
10
302.68023267172578
20
328.22182608981961
30
0
0
LINE
5
606
100
AcDbEntity
8
0
100
AcDbLine
10
302.68023267172578
20
328.22182608981961
30
0
11
302.67954365262881
21
328.22182608981961
31
0
0
SPLINE
5
607
100
AcDbEntity
8
0
100
AcDbSpline
70
1064
71
3
72
11
73
7
74
0
42
0.000000001
43
0.0000000001
44
0.0000000001
40
7
40
7
40
7
40
7
40
8
40
8
40
8
40
9
40
9
40
9
40
9
10
302.67954365262881
20
328.22182608981961
30
0
10
300.75580233366532
20
328.22217059936816
30
0
10
299.19035094516767
20
329.78796649741412
30
0
10
299.19035094516767
20
331.71205232592615
30
0
10
299.19035094516767
20
333.28542743403978
30
0
10
300.23697095358659
20
334.61764585818594
30
0
10
301.67013067545054
20
335.05138337977883
30
0
0
LINE
5
608
100
AcDbEntity
8
0
100
AcDbLine
10
301.67013067545054
20
335.05138337977883
30
0
11
301.67047518499913
21
347.77722159274327
31
0
0
LINE
5
609
100
AcDbEntity
8
0
100
AcDbLine
10
301.67047518499913
20
347.77722159274327
30
0
11
320.09277878282398
21
362.89257803427688
31
0
0
LINE
5
610
100
AcDbEntity
8
0
100
AcDbLine
10
320.09277878282398
20
362.89257803427688
30
0
11
320.09277878282398
21
366.54369022954472
31
0
0
LINE
5
611
100
AcDbEntity
8
0
100
AcDbLine
10
320.09277878282398
20
366.54369022954472
30
0
11
322.11263826582604
21
366.54369022954472
31
0
0
LINE
5
612
100
AcDbEntity
8
0
100
AcDbLine
10
506.58199857127124
20
347.60634485667481
30
0
11
528.47454685138837
21
347.60634485667481
31
0
0
SPLINE
5
613
100
AcDbEntity
8
0
100
AcDbSpline
70
1064
71
3
72
23
73
19
74
0
42
0.000000001
43
0.0000000001
44
0.0000000001
40
1
40
1
40
1
40
1
40
2
40
2
40
2
40
3
40
3
40
3
40
4
40
4
40
4
40
5
40
5
40
5
40
6
40
6
40
6
40
7
40
7
40
7
40
7
10
528.47454685138837
20
347.60634485667481
30
0
10
528.6385333964862
20
347.06201977000535
30
0
10
528.93481160821773
20
346.56316994374117
30
0
10
529.34822306644764
20
346.14975848551114
30
0
10
530.00761434232447
20
345.49036720963437
30
0
10
530.88473565286915
20
345.12725414548896
30
0
10
531.81697849117768
20
345.12725414548896
30
0
10
533.74140882923825
20
345.12725414548896
30
0
10
535.30686021773579
20
346.69270553398661
30
0
10
535.30686021773579
20
348.61644685294999
30
0
10
535.30686021773579
20
350.54087719101057
30
0
10
533.74003079104432
20
352.10701759860518
30
0
10
531.81628947208071
20
352.10701759860518
30
0
10
530.88404663377207
20
352.10701759860518
30
0
10
530.00761434232447
20
351.74390453445983
30
0
10
529.34822306644764
20
351.08451325858312
30
0
10
528.93481160821773
20
350.67110180035309
30
0
10
528.63784437738923
20
350.17225197408891
30
0
10
528.47454685138837
20
349.62723786832237
30
0
0
LINE
5
614
100
AcDbEntity
8
0
100
AcDbLine
10
528.47454685138837
20
349.62723786832237
30
0
11
506.58199857127124
21
349.62723786832237
31
0
0
LINE
5
615
100
AcDbEntity
8
0
100
AcDbLine
10
506.58199857127124
20
349.62723786832237
30
0
11
506.58199857127124
21
347.60634485667481
31
0
0
LINE
5
616
100
AcDbEntity
8
0
100
AcDbLine
10
187.22302512680542
20
354.78523482883838
30
0
11
175.11213645795812
21
354.78489031928984
31
0
0
SPLINE
5
617
100
AcDbEntity
8
0
100
AcDbSpline
70
1064
71
3
72
8
73
4
74
0
42
0.000000001
43
0.0000000001
44
0.0000000001
40
1
40
1
40
1
40
1
40
2
40
2
40
2
40
2
10
175.11213645795812
20
354.78489031928984
30
0
10
174.68838971327239
20
353.42683367900435
30
0
10
173.41956104605481
20
352.43843578428618
30
0
10
171.92507862455352
20
352.43809127473764
30
0
0
SPLINE
5
618
100
AcDbEntity
8
0
100
AcDbSpline
70
1064
71
3
72
14
73
10
74
0
42
0.000000001
43
0.0000000001
44
0.0000000001
40
2
40
2
40
2
40
2
40
3
40
3
40
3
40
4
40
4
40
4
40
5
40
5
40
5
40
5
10
171.92507862455352
20
352.43809127473764
30
0
10
170.08436410678451
20
352.43809127473764
30
0
10
168.58712560889489
20
353.93532977262731
30
0
10
168.58712560889489
20
355.77604429039633
30
0
10
168.58712560889489
20
356.66729049243037
30
0
10
168.93404672425959
20
357.50582673354018
30
0
10
169.56449919806033
20
358.13593469779244
30
0
10
170.1952961814095
20
358.76638717159312
30
0
10
171.0334879129708
20
359.11296377740928
30
0
10
171.92507862455352
20
359.11261926786074
30
0
0
ELLIPSE
5
619
100
AcDbEntity
8
0
100
AcDbEllipse
10
171.67603511898247
20
355.16304926001612
30
0
11
1.5134803685133043
21
3.7031062275639486
31
0.0
40
0.90741666328594717
41
5.9276218008583506
42
6.6466694919582698
0
ELLIPSE
5
620
100
AcDbEntity
8
0
100
AcDbEllipse
10
171.38047719437486
20
355.51859773685874
30
0
11
3.5601833815500865
21
1.6903473536249085
31
0.0
40
0.9148675406056439
41
5.9677737536302109
42
6.4148077797658765
0
LINE
5
621
100
AcDbEntity
8
0
100
AcDbLine
10
175.11282547705508
20
356.7668537519541
30
0
11
187.22302512680542
21
356.76719826150259
31
0
0
LINE
5
622
100
AcDbEntity
8
0
100
AcDbLine
10
187.22302512680542
20
356.76719826150259
30
0
11
187.22302512680542
21
354.78523482883838
31
0
0
LINE
5
623
100
AcDbEntity
8
0
100
AcDbLine
10
398.38429623286919
20
379.7349608425663
30
0
11
398.38395172332071
21
402.47810319799157
31
0
0
SPLINE
5
624
100
AcDbEntity
8
0
100
AcDbSpline
70
1064
71
3
72
16
73
12
74
0
42
0.000000001
43
0.0000000001
44
0.0000000001
40
1
40
1
40
1
40
1
40
2
40
2
40
2
40
3
40
3
40
4
40
4
40
4
40
5
40
5
40
5
40
5
10
398.38395172332071
20
402.47810319799157
30
0
10
399.82675771254333
20
402.90667307635664
30
0
10
400.88302398832082
20
404.24268110553663
30
0
10
400.88302398832082
20
405.82260189507218
30
0
10
400.88302398832082
20
407.7470322331327
30
0
10
399.31757259982339
20
409.31248362163018
30
0
10
395.46871192370224
20
409.31248362163018
30
0
10
393.90360504475336
20
407.7470322331327
30
0
10
393.90360504475336
20
405.82260189507218
30
0
10
393.90360504475336
20
404.24268110553663
30
0
10
394.95952681098237
20
402.90667307635664
30
0
10
396.40233280020504
20
402.47810319799157
30
0
0
LINE
5
625
100
AcDbEntity
8
0
100
AcDbLine
10
396.40233280020504
20
402.47810319799157
30
0
11
396.40233280020504
21
379.7349608425663
31
0
0
LINE
5
626
100
AcDbEntity
8
0
100
AcDbLine
10
396.40233280020504
20
379.7349608425663
30
0
11
398.38429623286919
21
379.7349608425663
31
0
0
LINE
5
627
100
AcDbEntity
8
0
100
AcDbLine
10
257.17431091660922
20
445.09806846511435
30
0
11
257.17344964273792
21
445.09806846511435
31
0
0
SPLINE
5
628
100
AcDbEntity
8
0
100
AcDbSpline
70
1064
71
3
72
8
73
4
74
0
42
0.000000001
43
0.0000000001
44
0.0000000001
40
1
40
1
40
1
40
1
40
2
40
2
40
2
40
2
10
257.17344964273792
20
445.09806846511435
30
0
10
255.24850254035456
20
445.09737944601733
30
0
10
253.68322340663133
20
443.53123903842283
30
0
10
253.68374017095408
20
441.60680870036225
30
0
0
SPLINE
5
629
100
AcDbEntity
8
0
100
AcDbSpline
70
1064
71
3
72
8
73
4
74
0
42
0.000000001
43
0.0000000001
44
0.0000000001
40
2
40
2
40
2
40
2
40
3
40
3
40
3
40
3
10
253.68374017095408
20
441.60680870036225
30
0
10
253.68374017095408
20
440.03377810179705
30
0
10
254.73070468892149
20
438.70155967765101
30
0
10
256.16403666555971
20
438.26713313696098
30
0
0
LINE
5
630
100
AcDbEntity
8
0
100
AcDbLine
10
256.16403666555971
20
438.26713313696098
30
0
11
256.16403666555971
21
417.582779843521
31
0
0
LINE
5
631
100
AcDbEntity
8
0
100
AcDbLine
10
256.16403666555971
20
417.582779843521
30
0
11
243.50744487184883
21
417.58346886261796
31
0
0
SPLINE
5
632
100
AcDbEntity
8
0
100
AcDbSpline
70
1064
71
3
72
11
73
7
74
0
42
0.000000001
43
0.0000000001
44
0.0000000001
40
5
40
5
40
5
40
5
40
6
40
6
40
6
40
7
40
7
40
7
40
7
10
243.50744487184883
20
417.58346886261796
30
0
10
243.07267382161029
20
419.01593956538488
30
0
10
241.74062765223852
20
420.06255957380375
30
0
10
240.16811381799619
20
420.06255957380375
30
0
10
238.24368347993558
20
420.06255957380375
30
0
10
236.67823209143813
20
418.4977972044033
30
0
10
236.67823209143813
20
416.57336686634278
30
0
0
SPLINE
5
633
100
AcDbEntity
8
0
100
AcDbSpline
70
1064
71
3
72
8
73
4
74
0
42
0.000000001
43
0.0000000001
44
0.0000000001
40
7
40
7
40
7
40
7
40
8
40
8
40
8
40
8
10
236.67823209143813
20
416.57336686634278
30
0
10
236.67874885576094
20
414.64893652828215
30
0
10
238.24402798948415
20
413.08348513978467
30
0
10
240.16759705367338
20
413.08279612068765
30
0
0
ELLIPSE
5
634
100
AcDbEntity
8
0
100
AcDbEllipse
10
239.89502400073246
20
417.22160822973467
30
0
11
1.6248119802622096
21
-3.8683394002473097
31
0.0
40
0.9057276865443914
41
5.9195940263509055
42
6.637928403884743
0
ELLIPSE
5
635
100
AcDbEntity
8
0
100
AcDbEllipse
10
239.28422187952808
20
416.99126610315909
30
0
11
4.0422184792927869
21
-1.9064353074785605
31
0.0
40
0.87829031952845504
41
5.9776859132731275
42
6.4137466061391679
0
LINE
5
636
100
AcDbEntity
8
0
100
AcDbLine
10
243.51002869346277
20
415.56326487006754
30
0
11
258.18458516765867
21
415.56257585097052
31
0
0
LINE
5
637
100
AcDbEntity
8
0
100
AcDbLine
10
258.18458516765867
20
415.56257585097052
30
0
11
258.18406840333591
21
438.26782215605812
31
0
0
SPLINE
5
638
100
AcDbEntity
8
0
100
AcDbSpline
70
1064
71
3
72
8
73
4
74
0
42
0.000000001
43
0.0000000001
44
0.0000000001
40
12
40
12
40
12
40
12
40
13
40
13
40
13
40
13
10
258.18406840333591
20
438.26782215605812
30
0
10
259.61619459655429
20
438.70328222539371
30
0
10
260.66264235019901
20
440.03515613999122
30
0
10
260.66402038839311
20
441.6081867385563
30
0
0
SPLINE
5
639
100
AcDbEntity
8
0
100
AcDbSpline
70
1064
71
3
72
8
73
4
74
0
42
0.000000001
43
0.0000000001
44
0.0000000001
40
13
40
13
40
13
40
13
40
14
40
14
40
14
40
14
10
260.66402038839311
20
441.6081867385563
30
0
10
260.66264235019901
20
443.53158354797137
30
0
10
259.09701870692709
20
445.09737944601733
30
0
10
257.17431091660922
20
445.09806846511435
30
0
0
LINE
5
640
100
AcDbEntity
8
0
100
AcDbLine
10
162.2776054824341
20
339.3601643031808
30
0
11
123.84790985402071
21
339.3601643031808
31
0
0
LINE
5
641
100
AcDbEntity
8
0
100
AcDbLine
10
123.84790985402071
20
339.3601643031808
30
0
11
112.06464976582062
21
327.57655970543232
31
0
0
SPLINE
5
642
100
AcDbEntity
8
0
100
AcDbSpline
70
1064
71
3
72
14
73
10
74
0
42
0.000000001
43
0.0000000001
44
0.0000000001
40
2
40
2
40
2
40
2
40
3
40
3
40
3
40
4
40
4
40
4
40
5
40
5
40
5
40
5
10
112.06464976582062
20
327.57655970543232
30
0
10
111.70325924941791
20
327.70402823838651
30
0
10
111.31603051687591
20
327.77637524357681
30
0
10
110.91123179735902
20
327.77637524357681
30
0
10
108.98645694974989
20
327.77637524357681
30
0
10
107.4210055612524
20
326.21023483598219
30
0
10
107.4210055612524
20
324.28649351701864
30
0
10
107.4210055612524
20
322.36137415986099
30
0
10
108.98714596884702
20
320.79592277136351
30
0
10
110.910542778262
20
320.79592277136351
30
0
0
LINE
5
643
100
AcDbEntity
8
0
100
AcDbLine
10
110.910542778262
20
320.79592277136351
30
0
11
110.91123179735902
21
320.79592277136351
31
0
0
SPLINE
5
644
100
AcDbEntity
8
0
100
AcDbSpline
70
1064
71
3
72
11
73
7
74
0
42
0.000000001
43
0.0000000001
44
0.0000000001
40
6
40
6
40
6
40
6
40
7
40
7
40
7
40
8
40
8
40
8
40
8
10
110.91123179735902
20
320.79592277136351
30
0
10
112.83600664496808
20
320.79592277136351
30
0
10
114.4011135239171
20
322.36240768850666
30
0
10
114.4011135239171
20
324.28649351701864
30
0
10
114.4011135239171
20
325.06542960623364
30
0
10
114.1413533243292
20
325.78304299581123
30
0
10
113.70864933138191
20
326.36457511372129
30
0
0
LINE
5
645
100
AcDbEntity
8
0
100
AcDbLine
10
113.70864933138191
20
326.36457511372129
30
0
11
124.68472354738779
21
337.33996031063032
31
0
0
LINE
5
646
100
AcDbEntity
8
0
100
AcDbLine
10
124.68472354738779
20
337.33996031063032
30
0
11
162.49120140251958
21
337.34064932972734
31
0
0
SPLINE
5
647
100
AcDbEntity
8
0
100
AcDbSpline
70
1064
71
3
72
8
73
4
74
0
42
0.000000001
43
0.0000000001
44
0.0000000001
40
10
40
10
40
10
40
10
40
11
40
11
40
11
40
11
10
162.49120140251958
20
337.34064932972734
30
0
10
163.02381316453918
20
336.09214672587279
30
0
10
164.2633585201321
20
335.21468090577969
30
0
10
165.70409745206359
20
335.21468090577969
30
0
0
SPLINE
5
648
100
AcDbEntity
8
0
100
AcDbSpline
70
1064
71
3
72
8
73
4
74
0
42
0.000000001
43
0.0000000001
44
0.0000000001
40
11
40
11
40
11
40
11
40
12
40
12
40
12
40
12
10
165.70409745206359
20
335.21468090577969
30
0
10
167.62783877102709
20
335.21536992487665
30
0
10
169.19329015952459
20
336.78047680382571
30
0
10
169.19397917862159
20
338.70559616098342
30
0
0
SPLINE
5
649
100
AcDbEntity
8
0
100
AcDbSpline
70
1064
71
3
72
11
73
7
74
0
42
0.000000001
43
0.0000000001
44
0.0000000001
40
12
40
12
40
12
40
12
40
13
40
13
40
13
40
14
40
14
40
14
40
14
10
169.19397917862159
20
338.70559616098342
30
0
10
169.19397917862159
20
340.62933747994686
30
0
10
167.62887229967271
20
342.19478886844433
30
0
10
165.70409745206359
20
342.19478886844433
30
0
10
164.00463184918982
20
342.19478886844433
30
0
10
162.58628603791252
20
340.97246899027766
30
0
10
162.2776054824341
20
339.3601643031808
30
0
0
LINE
5
650
100
AcDbEntity
8
0
100
AcDbLine
10
339.02375072904618
20
526.8543184446753
30
0
11
339.02461200291754
21
474.40153389832665
31
0
0
LINE
5
651
100
AcDbEntity
8
0
100
AcDbLine
10
339.02461200291754
20
474.40153389832665
30
0
11
345.04663891113421
21
468.37933473533587
31
0
0
ELLIPSE
5
652
100
AcDbEntity
8
0
100
AcDbEllipse
10
346.88879225816083
20
464.57903275941578
30
0
11
-1.0933898618960889
21
4.0971178298203261
31
0.0
40
0.90232318489568142
41
6.0725583092638358
42
6.5195915653167855
0
LINE
5
653
100
AcDbEntity
8
0
100
AcDbLine
10
346.69167200534105
20
468.79326295788849
30
0
11
346.69167200534105
21
468.13748903227128
31
0
0
LINE
5
654
100
AcDbEntity
8
0
100
AcDbLine
10
346.69167200534105
20
468.13748903227128
30
0
11
346.6930500435351
21
468.79326295788849
31
0
0
ELLIPSE
5
655
100
AcDbEntity
8
0
100
AcDbEllipse
10
346.41848784119924
20
464.66691031236155
30
0
11
1.6629592484498485
21
3.8408729427350865
31
0.0
40
0.90690036073253888
41
5.908964234486044
42
6.6282997309010234
0
SPLINE
5
656
100
AcDbEntity
8
0
100
AcDbSpline
70
1064
71
3
72
11
73
7
74
0
42
0.000000001
43
0.0000000001
44
0.0000000001
40
6
40
6
40
6
40
6
40
7
40
7
40
7
40
8
40
8
40
8
40
8
10
349.16180546826513
20
467.7711031274149
30
0
10
349.82050772504488
20
467.1124008706351
30
0
10
350.18362078919017
20
466.2356240696389
30
0
10
350.18362078919017
20
465.30338123133038
30
0
10
350.18362078919017
20
463.38015667668969
30
0
10
348.61816940069269
20
461.81453303341789
30
0
10
346.69373906263212
20
461.81349950477232
30
0
0
SPLINE
5
657
100
AcDbEntity
8
0
100
AcDbSpline
70
1064
71
3
72
8
73
4
74
0
42
0.000000001
43
0.0000000001
44
0.0000000001
40
8
40
8
40
8
40
8
40
9
40
9
40
9
40
9
10
346.69373906263212
20
461.81349950477232
30
0
10
344.76913646979722
20
461.81349950477232
30
0
10
343.20334057175131
20
463.3792954028184
30
0
10
343.20299606220266
20
465.30372574087897
30
0
0
ELLIPSE
5
658
100
AcDbEntity
8
0
100
AcDbEllipse
10
347.48358680986769
20
465.09939658074325
30
0
11
4.1742683675210941
21
-1.0588900211461685
31
0.0
40
0.89539512217115602
41
2.918143396231152
42
3.3622958379903647
0
LINE
5
659
100
AcDbEntity
8
0
100
AcDbLine
10
343.61813006817528
20
466.95082589237694
30
0
11
337.00354673649571
21
473.56506471450814
31
0
0
LINE
5
660
100
AcDbEntity
8
0
100
AcDbLine
10
337.00354673649571
20
473.56506471450814
30
0
11
337.00354673649571
21
526.8543184446753
31
0
0
LINE
5
661
100
AcDbEntity
8
0
100
AcDbLine
10
337.00354673649571
20
526.8543184446753
30
0
11
339.02375072904618
21
526.8543184446753
31
0
0
LINE
5
662
100
AcDbEntity
8
0
100
AcDbLine
10
187.22302512680542
20
311.90275328573961
30
0
11
130.70278859579648
21
311.90206426664247
31
0
0
ELLIPSE
5
663
100
AcDbEntity
8
0
100
AcDbEllipse
10
126.56853510010627
20
313.22060243329258
30
0
11
4.0464966600229531
21
-1.5733848896934413
31
0.0
40
0.88979629252746628
41
6.2134121677254504
42
6.6556584742664322
0
ELLIPSE
5
664
100
AcDbEntity
8
0
100
AcDbEllipse
10
127.08065289401226
20
313.5779834669076
30
0
11
-1.6303163243926901
21
3.885291405973168
31
0.0
40
0.90446744045545036
41
2.7875849023447294
42
3.5037073386535162
0
SPLINE
5
665
100
AcDbEntity
8
0
100
AcDbSpline
70
1064
71
3
72
8
73
4
74
0
42
0.000000001
43
0.0000000001
44
0.0000000001
40
3
40
3
40
3
40
3
40
4
40
4
40
4
40
4
10
127.36035695600708
20
309.42228453635965
30
0
10
125.4369601465922
20
309.42297355545679
30
0
10
123.87116424854609
20
310.98842494395433
30
0
10
123.87013071990047
20
312.91319979156339
30
0
0
SPLINE
5
666
100
AcDbEntity
8
0
100
AcDbSpline
70
1064
71
3
72
11
73
7
74
0
42
0.000000001
43
0.0000000001
44
0.0000000001
40
4
40
4
40
4
40
4
40
5
40
5
40
5
40
6
40
6
40
6
40
6
10
123.87013071990047
20
312.91319979156339
30
0
10
123.87116424854609
20
314.83694111052688
30
0
10
125.4369601465922
20
316.40273700857301
30
0
10
127.36035695600708
20
316.40273700857301
30
0
10
127.95601396540681
20
316.40273700857301
30
0
10
128.5168755104055
20
316.2514973167705
30
0
10
129.0081461266021
20
315.98794751214888
30
0
0
LINE
5
667
100
AcDbEntity
8
0
100
AcDbLine
10
129.0081461266021
20
315.98794751214888
30
0
11
142.76958004243261
21
328.33792580767249
31
0
0
ELLIPSE
5
668
100
AcDbEntity
8
0
100
AcDbEllipse
10
149.23034187587683
20
329.72272012027952
30
0
11
6.6901619723841321
21
0.28767589597378984
31
0.0
40
0.71314093949090729
41
2.907877168532583
42
3.1717111564207658
0
SPLINE
5
669
100
AcDbEntity
8
0
100
AcDbSpline
70
1064
71
3
72
8
73
4
74
0
42
0.000000001
43
0.0000000001
44
0.0000000001
40
8
40
8
40
8
40
8
40
9
40
9
40
9
40
9
10
142.53703609717832
20
329.57884920145949
30
0
10
142.53841413537231
20
331.50190150132585
30
0
10
144.10455454296689
20
333.06804190892052
30
0
10
146.0279513523819
20
333.06873092801754
30
0
0
SPLINE
5
670
100
AcDbEntity
8
0
100
AcDbSpline
70
1064
71
3
72
8
73
4
74
0
42
0.000000001
43
0.0000000001
44
0.0000000001
40
9
40
9
40
9
40
9
40
10
40
10
40
10
40
10
10
146.0279513523819
20
333.06873092801754
30
0
10
147.95203718089391
20
333.06804190892052
30
0
10
149.5174885693915
20
331.50190150132585
30
0
10
149.5181775884885
20
329.57747116326539
30
0
0
SPLINE
5
671
100
AcDbEntity
8
0
100
AcDbSpline
70
1064
71
3
72
8
73
4
74
0
42
0.000000001
43
0.0000000001
44
0.0000000001
40
10
40
10
40
10
40
10
40
11
40
11
40
11
40
11
10
149.5181775884885
20
329.57747116326539
30
0
10
149.5174885693915
20
327.65441886339886
30
0
10
147.95203718089391
20
326.08827845580436
30
0
10
146.0279513523819
20
326.08758943670728
30
0
0
SPLINE
5
672
100
AcDbEntity
8
0
100
AcDbSpline
70
1064
71
3
72
8
73
4
74
0
42
0.000000001
43
0.0000000001
44
0.0000000001
40
11
40
11
40
11
40
11
40
12
40
12
40
12
40
12
10
146.0279513523819
20
326.08758943670728
30
0
10
145.2793321034371
20
326.08827845580436
30
0
10
144.58755692999901
20
326.32667906338361
30
0
10
144.01773813673859
20
326.73044425425479
30
0
0
LINE
5
673
100
AcDbEntity
8
0
100
AcDbLine
10
144.01773813673859
20
326.73044425425479
30
0
11
130.43579369568971
21
314.55961092396433
31
0
0
ELLIPSE
5
674
100
AcDbEntity
8
0
100
AcDbEllipse
10
125.22331772433955
20
311.7330727023442
30
0
11
5.198047067731598
21
2.8531011351654318
31
0.0
40
0.76311813009714158
41
0.0066804362336522517
42
0.15888951889973041
0
LINE
5
675
100
AcDbEntity
8
0
100
AcDbLine
10
130.70037702895692
20
313.9226127687416
30
0
11
187.22319738157955
21
313.92330178783862
31
0
0
LINE
5
676
100
AcDbEntity
8
0
100
AcDbLine
10
187.22319738157955
20
313.92330178783862
30
0
11
187.22302512680542
21
311.90275328573961
31
0
0
LINE
5
677
100
AcDbEntity
8
0
100
AcDbLine
10
322.11263826582604
20
376.85417199780028
30
0
11
322.11263826582604
21
416.73976497828039
31
0
0
LINE
5
678
100
AcDbEntity
8
0
100
AcDbLine
10
322.11263826582604
20
416.73976497828039
30
0
11
312.9007974478165
21
424.29899349201548
31
0
0
LINE
5
679
100
AcDbEntity
8
0
100
AcDbLine
10
312.9007974478165
20
424.29899349201548
30
0
11
312.9007974478165
21
443.15469010188502
31
0
0
SPLINE
5
680
100
AcDbEntity
8
0
100
AcDbSpline
70
1064
71
3
72
8
73
4
74
0
42
0.000000001
43
0.0000000001
44
0.0000000001
40
3
40
3
40
3
40
3
40
4
40
4
40
4
40
4
10
312.9007974478165
20
443.15469010188502
30
0
10
314.33430167922887
20
443.58911664257482
30
0
10
315.38092168764786
20
444.92099055717262
30
0
10
315.38092168764786
20
446.49367664618916
30
0
0
SPLINE
5
681
100
AcDbEntity
8
0
100
AcDbSpline
70
1064
71
3
72
8
73
4
74
0
42
0.000000001
43
0.0000000001
44
0.0000000001
40
4
40
4
40
4
40
4
40
5
40
5
40
5
40
5
10
315.38092168764786
20
446.49367664618916
30
0
10
315.38229972584202
20
448.41707345560417
30
0
10
313.81650382779588
20
449.98338611797294
30
0
10
311.89035094199266
20
449.98493641094126
30
0
0
SPLINE
5
682
100
AcDbEntity
8
0
100
AcDbSpline
70
1064
71
3
72
11
73
7
74
0
42
0.000000001
43
0.0000000001
44
0.0000000001
40
5
40
5
40
5
40
5
40
6
40
6
40
6
40
7
40
7
40
7
40
7
10
311.89035094199266
20
449.98493641094126
30
0
10
309.96660962302917
20
449.98459190139278
30
0
10
308.40150274408018
20
448.41845149379822
30
0
10
308.40150274408018
20
446.49436566528607
30
0
10
308.40150274408018
20
444.92099055717262
30
0
10
309.4481227524991
20
443.58877213302657
30
0
10
310.88093796481451
20
443.15434559233637
30
0
0
LINE
5
683
100
AcDbEntity
8
0
100
AcDbLine
10
310.88093796481451
20
443.15434559233637
30
0
11
310.88093796481451
21
423.34608008079545
31
0
0
LINE
5
684
100
AcDbEntity
8
0
100
AcDbLine
10
310.88093796481451
20
423.34608008079545
30
0
11
320.09243427327544
21
415.78581803841473
31
0
0
LINE
5
685
100
AcDbEntity
8
0
100
AcDbLine
10
320.09243427327544
20
415.78581803841473
30
0
11
320.09277878282398
21
376.85417199780028
31
0
0
LINE
5
686
100
AcDbEntity
8
0
100
AcDbLine
10
320.09277878282398
20
376.85417199780028
30
0
11
322.11263826582604
21
376.85417199780028
31
0
0
SPLINE
5
687
100
AcDbEntity
8
0
100
AcDbSpline
70
1064
71
3
72
13
73
9
74
0
42
0.000000001
43
0.0000000001
44
0.0000000001
40
0
40
0
40
0
40
0
40
1
40
1
40
2
40
2
40
2
40
3
40
3
40
3
40
3
10
241.96455885877967
20
180.38106549309919
30
0
10
242.62360562510796
20
181.04045676897599
30
0
10
242.98671868925334
20
181.91688906042359
30
0
10
242.98671868925334
20
183.78137473704084
30
0
10
242.62360562510796
20
184.65780702848832
30
0
10
241.96455885877967
20
185.31685379481658
30
0
10
241.30516758290293
20
185.97624507069341
30
0
10
240.42907980100395
20
186.33901362529019
30
0
10
239.49718147224377
20
186.3383246061932
30
0
0
SPLINE
5
688
100
AcDbEntity
8
0
100
AcDbSpline
70
1064
71
3
72
14
73
10
74
0
42
0.000000001
43
0.0000000001
44
0.0000000001
40
3
40
3
40
3
40
3
40
4
40
4
40
4
40
5
40
5
40
5
40
6
40
6
40
6
40
6
10
239.49718147224377
20
186.3383246061932
30
0
10
238.56459412438656
20
186.33901362529019
30
0
10
237.68850634248761
20
185.97624507069341
30
0
10
237.02911506661079
20
185.31685379481658
30
0
10
236.37006830028255
20
184.65780702848832
30
0
10
236.0069552361372
20
183.78206375613783
30
0
10
236.0069552361372
20
182.84982091782919
30
0
10
236.0069552361372
20
181.27610130016708
30
0
10
237.05357524455607
20
179.94422738556949
30
0
10
238.48673496641999
20
179.50945633533098
30
0
0
LINE
5
689
100
AcDbEntity
8
0
100
AcDbLine
10
238.48673496641999
20
179.50945633533098
30
0
11
238.48639045687148
21
159.16582298538219
31
0
0
LINE
5
690
100
AcDbEntity
8
0
100
AcDbLine
10
238.48639045687148
20
159.16582298538219
30
0
11
264.49858391825029
21
159.16547847583368
31
0
0
SPLINE
5
691
100
AcDbEntity
8
0
100
AcDbSpline
70
1064
71
3
72
14
73
10
74
0
42
0.000000001
43
0.0000000001
44
0.0000000001
40
8
40
8
40
8
40
8
40
9
40
9
40
9
40
10
40
10
40
10
40
11
40
11
40
11
40
11
10
264.49858391825029
20
159.16547847583368
30
0
10
264.93335496848891
20
157.73231875396965
30
0
10
266.26522888308654
20
156.68569874555081
30
0
10
267.83757046255454
20
156.68569874555081
30
0
10
269.76268981971208
20
156.68569874555081
30
0
10
271.32779669866107
20
158.25115013404832
30
0
10
271.32779669866107
20
160.17385792436636
30
0
10
271.32779669866107
20
161.10816781996601
30
0
10
270.96502814406432
20
161.98425560186502
30
0
10
270.30563686818749
20
162.6436468777419
30
0
0
SPLINE
5
692
100
AcDbEntity
8
0
100
AcDbSpline
70
1064
71
3
72
14
73
10
74
0
42
0.000000001
43
0.0000000001
44
0.0000000001
40
11
40
11
40
11
40
11
40
12
40
12
40
12
40
13
40
13
40
13
40
14
40
14
40
14
40
14
10
270.30563686818749
20
162.6436468777419
30
0
10
269.64659010185915
20
163.30303815361867
30
0
10
268.76946879131458
20
163.66511768911849
30
0
10
267.83757046255454
20
163.66511768911849
30
0
10
266.90601664334304
20
163.66511768911849
30
0
10
266.02992886144392
20
163.30303815361867
30
0
10
265.37053758556709
20
162.6436468777419
30
0
10
264.95678161778858
20
162.22989090996339
30
0
10
264.6605034060571
20
161.7306965741507
30
0
10
264.49720588005624
20
161.1856824683841
30
0
0
LINE
5
693
100
AcDbEntity
8
0
100
AcDbLine
10
264.49720588005624
20
161.1856824683841
30
0
11
240.50693895897052
21
161.18637148748118
31
0
0
LINE
5
694
100
AcDbEntity
8
0
100
AcDbLine
10
240.50693895897052
20
161.18637148748118
30
0
11
240.50728346851898
21
179.5067002589428
31
0
0
ELLIPSE
5
695
100
AcDbEntity
8
0
100
AcDbEllipse
10
239.16088801184682
20
183.66655728233323
30
0
11
1.6606126987479175
21
-4.0484117923968359
31
0.0
40
0.88691409885612282
41
6.1972741441696675
42
6.6376647310428751
0
ELLIPSE
5
696
100
AcDbEntity
8
0
100
AcDbEllipse
10
464.86155171178433
20
209.91342785525893
30
0
11
-1.9012704037701791
21
-4.5616248728923372
31
0.0
40
0.90157550377369411
41
5.9275462689536287
42
6.6427011800184612
0
LINE
5
697
100
AcDbEntity
8
0
100
AcDbLine
10
464.52875151147197
20
205.04036995742052
30
0
11
464.52909602102045
21
205.04036995742052
31
0
0
SPLINE
5
698
100
AcDbEntity
8
0
100
AcDbSpline
70
1064
71
3
72
19
73
15
74
0
42
0.000000001
43
0.0000000001
44
0.0000000001
40
2
40
2
40
2
40
2
40
3
40
3
40
4
40
4
40
4
40
5
40
5
40
5
40
6
40
6
40
6
40
7
40
7
40
7
40
7
10
464.52909602102045
20
205.04036995742052
30
0
10
465.61809070390802
20
205.04071446696901
30
0
10
466.64197308212431
20
205.46480572120316
30
0
10
468.18124174493391
20
207.00407438401288
30
0
10
468.6046439800711
20
208.02795676222905
30
0
10
468.6046439800711
20
209.11591791647098
30
0
10
468.6046439800711
20
210.20456808981004
30
0
10
468.18124174493391
20
211.22776144892921
30
0
10
467.41091839443197
20
211.99808479943101
30
0
10
466.64162857257566
20
212.76737462128733
30
0
10
465.61809070390802
20
213.19146587552157
30
0
10
464.5277179828264
20
213.19146587552157
30
0
10
462.65772015343288
20
213.19146587552157
30
0
10
461.08158896893099
20
211.92229269875548
30
0
10
460.60478775377243
20
210.19974495613059
30
0
0
LINE
5
699
100
AcDbEntity
8
0
100
AcDbLine
10
460.60478775377243
20
210.19974495613059
30
0
11
383.08152659693803
21
210.19836691793654
31
0
0
LINE
5
700
100
AcDbEntity
8
0
100
AcDbLine
10
383.08152659693803
20
210.19836691793654
30
0
11
383.082215616035
21
243.75015184878467
31
0
0
SPLINE
5
701
100
AcDbEntity
8
0
100
AcDbSpline
70
1064
71
3
72
8
73
4
74
0
42
0.000000001
43
0.0000000001
44
0.0000000001
40
9
40
9
40
9
40
9
40
10
40
10
40
10
40
10
10
383.082215616035
20
243.75015184878467
30
0
10
384.80407433956293
20
244.22557502574921
30
0
10
386.0746255545231
20
245.80273973889649
30
0
10
386.07531457362023
20
247.67480462558132
30
0
0
SPLINE
5
702
100
AcDbEntity
8
0
100
AcDbSpline
70
1064
71
3
72
8
73
4
74
0
42
0.000000001
43
0.0000000001
44
0.0000000001
40
10
40
10
40
10
40
10
40
11
40
11
40
11
40
11
10
386.07531457362023
20
247.67480462558132
30
0
10
386.0746255545231
20
249.92169590106118
30
0
10
384.24631338050108
20
251.74966356553483
30
0
10
381.99838857637536
20
251.75069709418042
30
0
0
SPLINE
5
703
100
AcDbEntity
8
0
100
AcDbSpline
70
1064
71
3
72
8
73
4
74
0
42
0.000000001
43
0.0000000001
44
0.0000000001
40
11
40
11
40
11
40
11
40
12
40
12
40
12
40
12
10
381.99838857637536
20
251.75069709418042
30
0
10
379.75184181044403
20
251.74931905598635
30
0
10
377.92352963642196
20
249.92066237241571
30
0
10
377.92352963642196
20
247.67480462558132
30
0
0
SPLINE
5
704
100
AcDbEntity
8
0
100
AcDbSpline
70
1064
71
3
72
8
73
4
74
0
42
0.000000001
43
0.0000000001
44
0.0000000001
40
12
40
12
40
12
40
12
40
13
40
13
40
13
40
13
10
377.92352963642196
20
247.67480462558132
30
0
10
377.9242186555191
20
245.80342875799357
30
0
10
379.19408085138218
20
244.22695306394334
30
0
10
380.91593957490988
20
243.75084086788166
30
0
0
LINE
5
705
100
AcDbEntity
8
0
100
AcDbLine
10
380.91593957490988
20
243.75084086788166
30
0
11
380.91559506536134
21
208.0327798959085
31
0
0
LINE
5
706
100
AcDbEntity
8
0
100
AcDbLine
10
380.91559506536134
20
208.0327798959085
30
0
11
381.57119673620451
21
208.0327798959085
31
0
0
LINE
5
707
100
AcDbEntity
8
0
100
AcDbLine
10
381.57119673620451
20
208.0327798959085
30
0
11
460.60203167738416
21
208.0327798959085
31
0
0
ELLIPSE
5
708
100
AcDbEntity
8
0
100
AcDbEllipse
10
465.54393134606312
20
209.74122918694695
30
0
11
4.4768382233387554
21
2.775703661525406
31
0.0
40
0.87522744383923523
41
2.8890123825818375
42
3.3441268037932272
0
SPLINE
5
709
100
AcDbEntity
8
0
100
AcDbSpline
70
1064
71
3
72
8
73
4
74
0
42
0.000000001
43
0.0000000001
44
0.0000000001
40
0
40
0
40
0
40
0
40
1
40
1
40
1
40
1
10
287.52319057482066
20
216.4367458226269
30
0
10
287.52319057482066
20
215.77184239397371
30
0
10
287.71301533605788
20
215.15241422572583
30
0
10
288.03719882121987
20
214.6229030496429
30
0
0
LINE
5
710
100
AcDbEntity
8
0
100
AcDbLine
10
288.03719882121987
20
214.6229030496429
30
0
11
276.21742072087619
21
202.80243593020217
31
0
0
LINE
5
711
100
AcDbEntity
8
0
100
AcDbLine
10
276.21742072087619
20
202.80243593020217
30
0
11
255.56200622951235
21
202.80312494929919
31
0
0
SPLINE
5
712
100
AcDbEntity
8
0
100
AcDbSpline
70
1064
71
3
72
8
73
4
74
0
42
0.000000001
43
0.0000000001
44
0.0000000001
40
3
40
3
40
3
40
3
40
4
40
4
40
4
40
4
10
255.56200622951235
20
202.80312494929919
30
0
10
255.2092284518227
20
204.35548497495279
30
0
10
253.82016595217004
20
205.51889372032167
30
0
10
252.16169698557067
20
205.51923822987021
30
0
0
SPLINE
5
713
100
AcDbEntity
8
0
100
AcDbSpline
70
1064
71
3
72
8
73
4
74
0
42
0.000000001
43
0.0000000001
44
0.0000000001
40
4
40
4
40
4
40
4
40
5
40
5
40
5
40
5
10
252.16169698557067
20
205.51923822987021
30
0
10
250.2372666475101
20
205.51889372032167
30
0
10
248.6725042781097
20
203.95344233182411
30
0
10
248.67112623991559
20
202.0293565033121
30
0
0
ELLIPSE
5
714
100
AcDbEntity
8
0
100
AcDbEllipse
10
252.81092649387062
20
202.31644194065473
30
0
11
3.8444397658655576
21
1.6949548867447508
31
0.0
40
0.90601968408289046
41
2.7628889947523363
42
3.479991459035646
0
ELLIPSE
5
715
100
AcDbEntity
8
0
100
AcDbEllipse
10
252.45366563951765
20
202.73587403595687
30
0
11
-1.6256859103062429
21
-3.9338045067040279
31
0.0
40
0.89878827275573958
41
5.9259768097002725
42
6.6392363826559802
0
SPLINE
5
716
100
AcDbEntity
8
0
100
AcDbSpline
70
1064
71
3
72
8
73
4
74
0
42
0.000000001
43
0.0000000001
44
0.0000000001
40
7
40
7
40
7
40
7
40
8
40
8
40
8
40
8
10
252.16238600466781
20
198.53947477675399
30
0
10
253.64653313971343
20
198.53947477675399
30
0
10
254.91432827828532
20
199.47344016280516
30
0
10
255.41800123822881
20
200.78292095674868
30
0
0
LINE
5
717
100
AcDbEntity
8
0
100
AcDbLine
10
255.41800123822881
20
200.78292095674868
30
0
11
277.05423441424341
21
200.78188742810309
31
0
0
LINE
5
718
100
AcDbEntity
8
0
100
AcDbLine
10
277.05423441424341
20
200.78188742810309
30
0
11
289.54546162466232
21
213.27414816716757
31
0
0
ELLIPSE
5
719
100
AcDbEntity
8
0
100
AcDbEllipse
10
291.12392070465381
20
217.78294910054092
30
0
11
-0.37423968486570947
21
-4.826851750033974
31
0.0
40
0.84169963142993676
41
5.9777938729052567
42
6.3478684085366748
0
ELLIPSE
5
720
100
AcDbEntity
8
0
100
AcDbEllipse
10
290.73644248925973
20
217.10582113324421
30
0
11
1.6073213918708471
21
-3.8983260915839963
31
0.0
40
0.9034244270055537
41
5.9265508908579259
42
6.6428431018453393
0
ELLIPSE
5
721
100
AcDbEntity
8
0
100
AcDbEllipse
10
290.3961443295027
20
216.70694749810218
30
0
11
3.8159185782231768
21
-1.6701151168083364
31
0.0
40
0.91010260885052296
41
5.9408682051790533
42
6.6612640101241389
0
SPLINE
5
722
100
AcDbEntity
8
0
100
AcDbSpline
70
1064
71
3
72
8
73
4
74
0
42
0.000000001
43
0.0000000001
44
0.0000000001
40
13
40
13
40
13
40
13
40
14
40
14
40
14
40
14
10
294.50364304703379
20
216.4367458226269
30
0
10
294.50260951838817
20
218.00977642119199
30
0
10
293.45598950996936
20
219.34165033578961
30
0
10
292.02248527855681
20
219.77642138602806
30
0
0
LINE
5
723
100
AcDbEntity
8
0
100
AcDbLine
10
292.02248527855681
20
219.77642138602806
30
0
11
292.02248527855681
21
236.24191074823119
31
0
0
SPLINE
5
724
100
AcDbEntity
8
0
100
AcDbSpline
70
1064
71
3
72
11
73
7
74
0
42
0.000000001
43
0.0000000001
44
0.0000000001
40
15
40
15
40
15
40
15
40
16
40
16
40
16
40
17
40
17
40
17
40
17
10
292.02248527855681
20
236.24191074823119
30
0
10
293.45633401951784
20
236.67599277937268
30
0
10
294.50364304703379
20
238.0078666939703
30
0
10
294.50364304703379
20
239.58089729253541
30
0
10
294.50364304703379
20
241.50567214014441
30
0
10
292.93715812989069
20
243.071812547739
30
0
10
291.01238328228163
20
243.071812547739
30
0
0
SPLINE
5
725
100
AcDbEntity
8
0
100
AcDbSpline
70
1064
71
3
72
8
73
4
74
0
42
0.000000001
43
0.0000000001
44
0.0000000001
40
17
40
17
40
17
40
17
40
18
40
18
40
18
40
18
10
291.01238328228163
20
243.071812547739
30
0
10
289.08829745376966
20
243.07112352864186
30
0
10
287.52319057482066
20
241.50498312104742
30
0
10
287.52319057482066
20
239.58158631163241
30
0
0
SPLINE
5
726
100
AcDbEntity
8
0
100
AcDbSpline
70
1064
71
3
72
8
73
4
74
0
42
0.000000001
43
0.0000000001
44
0.0000000001
40
18
40
18
40
18
40
18
40
19
40
19
40
19
40
19
10
287.52319057482066
20
239.58158631163241
30
0
10
287.52387959391763
20
238.00924473216443
30
0
10
288.57015509278801
20
236.6766817984697
30
0
10
290.00297030510336
20
236.24191074823119
30
0
0
LINE
5
727
100
AcDbEntity
8
0
100
AcDbLine
10
290.00297030510336
20
236.24191074823119
30
0
11
290.00297030510336
21
219.77607687647961
31
0
0
SPLINE
5
728
100
AcDbEntity
8
0
100
AcDbSpline
70
1064
71
3
72
8
73
4
74
0
42
0.000000001
43
0.0000000001
44
0.0000000001
40
20
40
20
40
20
40
20
40
21
40
21
40
21
40
21
10
290.00297030510336
20
219.77607687647961
30
0
10
288.57015509278801
20
219.34096131669259
30
0
10
287.52387959391763
20
218.00839838299788
30
0
10
287.52319057482066
20
216.4367458226269
30
0
0
SPLINE
5
729
100
AcDbEntity
8
0
100
AcDbSpline
70
1064
71
3
72
8
73
4
74
0
42
0.000000001
43
0.0000000001
44
0.0000000001
40
0
40
0
40
0
40
0
40
1
40
1
40
1
40
1
10
264.60693217126146
20
243.02116964410578
30
0
10
264.60693217126146
20
242.35626621545259
30
0
10
264.79675693249868
20
241.73683804720471
30
0
10
265.12094041766068
20
241.20732687112181
30
0
0
LINE
5
730
100
AcDbEntity
8
0
100
AcDbLine
10
265.12094041766068
20
241.20732687112181
30
0
11
253.30116231731708
21
229.3868597516811
31
0
0
LINE
5
731
100
AcDbEntity
8
0
100
AcDbLine
10
253.30116231731708
20
229.3868597516811
30
0
11
232.64574782595318
21
229.3875487707781
31
0
0
SPLINE
5
732
100
AcDbEntity
8
0
100
AcDbSpline
70
1064
71
3
72
8
73
4
74
0
42
0.000000001
43
0.0000000001
44
0.0000000001
40
3
40
3
40
3
40
3
40
4
40
4
40
4
40
4
10
232.64574782595318
20
229.3875487707781
30
0
10
232.29297004826356
20
230.93990879643172
30
0
10
230.90390754861079
20
232.10331754180058
30
0
10
229.24543858201162
20
232.10366205134909
30
0
0
SPLINE
5
733
100
AcDbEntity
8
0
100
AcDbSpline
70
1064
71
3
72
8
73
4
74
0
42
0.000000001
43
0.0000000001
44
0.0000000001
40
4
40
4
40
4
40
4
40
5
40
5
40
5
40
5
10
229.24543858201162
20
232.10366205134909
30
0
10
227.32100824395101
20
232.10331754180058
30
0
10
225.7562458745505
20
230.53786615330296
30
0
10
225.7548678363564
20
228.61378032479098
30
0
0
ELLIPSE
5
734
100
AcDbEntity
8
0
100
AcDbEllipse
10
229.89466809028926
20
228.90086576212161
30
0
11
3.844439765847393
21
1.6949548867235864
31
0.0
40
0.90601968408578537
41
2.7628889947538116
42
3.479991459039244
0
ELLIPSE
5
735
100
AcDbEntity
8
0
100
AcDbEllipse
10
229.53740723598824
20
229.32029785751243
30
0
11
-1.6256859103289678
21
-3.933804506783638
31
0.0
40
0.89878827274671025
41
5.9259768097017869
42
6.6392363826505587
0
SPLINE
5
736
100
AcDbEntity
8
0
100
AcDbSpline
70
1064
71
3
72
8
73
4
74
0
42
0.000000001
43
0.0000000001
44
0.0000000001
40
7
40
7
40
7
40
7
40
8
40
8
40
8
40
8
10
229.24612760110861
20
225.1238985982329
30
0
10
230.73027473615429
20
225.1238985982329
30
0
10
231.99806987472618
20
226.05786398428418
30
0
10
232.5017428346697
20
227.36734477822762
30
0
0
LINE
5
737
100
AcDbEntity
8
0
100
AcDbLine
10
232.5017428346697
20
227.36734477822762
30
0
11
254.13797601068433
21
227.36631124958211
31
0
0
LINE
5
738
100
AcDbEntity
8
0
100
AcDbLine
10
254.13797601068433
20
227.36631124958211
30
0
11
266.62920322110307
21
239.8585719886465
31
0
0
ELLIPSE
5
739
100
AcDbEntity
8
0
100
AcDbEllipse
10
268.20766230125321
20
244.36737292287657
30
0
11
-0.37423968524778373
21
-4.8268517508733204
31
0.0
40
0.84169963135571446
41
5.9777938729877524
42
6.3478684085857831
0
ELLIPSE
5
740
100
AcDbEntity
8
0
100
AcDbEllipse
10
267.82018408568354
20
243.6902449547614
30
0
11
1.6073213918935152
21
-3.898326091620004
31
0.0
40
0.90342442700088388
41
5.9265508908581657
42
6.6428431018419793
0
ELLIPSE
5
741
100
AcDbEntity
8
0
100
AcDbEllipse
10
267.47988592600785
20
243.29137131955008
30
0
11
3.8159185781646188
21
-1.6701151167644255
31
0.0
40
0.91010260885856542
41
5.9408682051724142
42
6.6612640101237401
0
SPLINE
5
742
100
AcDbEntity
8
0
100
AcDbSpline
70
1064
71
3
72
8
73
4
74
0
42
0.000000001
43
0.0000000001
44
0.0000000001
40
13
40
13
40
13
40
13
40
14
40
14
40
14
40
14
10
271.58738464347471
20
243.02116964410578
30
0
10
271.58635111482909
20
244.59420024267092
30
0
10
270.53973110641016
20
245.92607415726849
30
0
10
269.10622687499779
20
246.36084520750703
30
0
0
LINE
5
743
100
AcDbEntity
8
0
100
AcDbLine
10
269.10622687499779
20
246.36084520750703
30
0
11
269.10622687499779
21
262.82633456971007
31
0
0
SPLINE
5
744
100
AcDbEntity
8
0
100
AcDbSpline
70
1064
71
3
72
11
73
7
74
0
42
0.000000001
43
0.0000000001
44
0.0000000001
40
15
40
15
40
15
40
15
40
16
40
16
40
16
40
17
40
17
40
17
40
17
10
269.10622687499779
20
262.82633456971007
30
0
10
270.54007561595876
20
263.26041660085161
30
0
10
271.58738464347471
20
264.59229051544918
30
0
10
271.58738464347471
20
266.16532111401432
30
0
10
271.58738464347471
20
268.09009596162332
30
0
10
270.02089972633155
20
269.65623636921794
30
0
10
268.09612487872249
20
269.65623636921794
30
0
0
SPLINE
5
745
100
AcDbEntity
8
0
100
AcDbSpline
70
1064
71
3
72
8
73
4
74
0
42
0.000000001
43
0.0000000001
44
0.0000000001
40
17
40
17
40
17
40
17
40
18
40
18
40
18
40
18
10
268.09612487872249
20
269.65623636921794
30
0
10
266.17203905021051
20
269.65554735012091
30
0
10
264.60693217126146
20
268.0894069425263
30
0
10
264.60693217126146
20
266.16601013311129
30
0
0
SPLINE
5
746
100
AcDbEntity
8
0
100
AcDbSpline
70
1064
71
3
72
8
73
4
74
0
42
0.000000001
43
0.0000000001
44
0.0000000001
40
18
40
18
40
18
40
18
40
19
40
19
40
19
40
19
10
264.60693217126146
20
266.16601013311129
30
0
10
264.60762119035849
20
264.59366855364328
30
0
10
265.65389668922887
20
263.26110561994858
30
0
10
267.08671190154428
20
262.82633456971007
30
0
0
LINE
5
747
100
AcDbEntity
8
0
100
AcDbLine
10
267.08671190154428
20
262.82633456971007
30
0
11
267.08671190154428
21
246.36050069795851
31
0
0
SPLINE
5
748
100
AcDbEntity
8
0
100
AcDbSpline
70
1064
71
3
72
8
73
4
74
0
42
0.000000001
43
0.0000000001
44
0.0000000001
40
20
40
20
40
20
40
20
40
21
40
21
40
21
40
21
10
267.08671190154428
20
246.36050069795851
30
0
10
265.65389668922887
20
245.92538513817144
30
0
10
264.60762119035849
20
244.59282220447682
30
0
10
264.60693217126146
20
243.02116964410578
30
0
0
LINE
5
749
100
AcDbEntity
8
0
100
AcDbLine
10
467.06813139364965
20
285.32969827936193
30
0
11
467.06813139364965
21
278.48084845468543
31
0
0
LINE
5
750
100
AcDbEntity
8
0
100
AcDbLine
10
467.06813139364965
20
278.48084845468543
30
0
11
452.42544205269235
21
263.83712558508239
31
0
0
LINE
5
751
100
AcDbEntity
8
0
100
AcDbLine
10
452.42544205269235
20
263.83712558508239
30
0
11
452.42613107178931
21
260.27420783423696
31
0
0
SPLINE
5
752
100
AcDbEntity
8
0
100
AcDbSpline
70
1064
71
3
72
8
73
4
74
0
42
0.000000001
43
0.0000000001
44
0.0000000001
40
3
40
3
40
3
40
3
40
4
40
4
40
4
40
4
10
452.42613107178931
20
260.27420783423696
30
0
10
453.85791275545921
20
259.83943678399851
30
0
10
454.90453276387814
20
258.50756286940089
30
0
10
454.9052217829751
20
256.93522128993288
30
0
0
SPLINE
5
753
100
AcDbEntity
8
0
100
AcDbSpline
70
1064
71
3
72
11
73
7
74
0
42
0.000000001
43
0.0000000001
44
0.0000000001
40
4
40
4
40
4
40
4
40
5
40
5
40
5
40
6
40
6
40
6
40
6
10
454.9052217829751
20
256.93522128993288
30
0
10
454.90453276387814
20
255.01010193277534
30
0
10
453.33908137538054
20
253.44465054427772
30
0
10
451.41534005641694
20
253.44465054427772
30
0
10
450.48240819901139
20
253.44465054427772
30
0
10
449.60597590756379
20
253.80707458932596
30
0
10
448.94727365078404
20
254.46715488429987
30
0
0
SPLINE
5
754
100
AcDbEntity
8
0
100
AcDbSpline
70
1064
71
3
72
11
73
7
74
0
42
0.000000001
43
0.0000000001
44
0.0000000001
40
6
40
6
40
6
40
6
40
7
40
7
40
7
40
8
40
8
40
8
40
8
10
448.94727365078404
20
254.46715488429987
30
0
10
448.2878823749071
20
255.1265461601767
30
0
10
447.92545832985888
20
256.00297845162419
30
0
10
447.92545832985888
20
256.93591030902991
30
0
10
447.92545832985888
20
257.86677510914438
30
0
10
448.2878823749071
20
258.74320740059198
30
0
10
448.94727365078404
20
259.40190965737168
30
0
0
ELLIPSE
5
755
100
AcDbEntity
8
0
100
AcDbEllipse
10
451.75046832759892
20
256.21332216094771
30
0
11
-1.8017689642493029
21
3.8900891579139794
31
0.0
40
0.89639423863413914
41
5.9646491364669068
42
6.4104702213622637
0
LINE
5
756
100
AcDbEntity
8
0
100
AcDbLine
10
450.40592707923884
20
260.27696391062517
30
0
11
450.40592707923884
21
264.67428378799804
31
0
0
LINE
5
757
100
AcDbEntity
8
0
100
AcDbLine
10
450.40592707923884
20
264.67428378799804
30
0
11
465.04792740109912
21
279.31662861940703
31
0
0
LINE
5
758
100
AcDbEntity
8
0
100
AcDbLine
10
465.04792740109912
20
279.31662861940703
30
0
11
465.04792740109912
21
285.32969827936193
31
0
0
LINE
5
759
100
AcDbEntity
8
0
100
AcDbLine
10
465.04792740109912
20
285.32969827936193
30
0
11
467.06813139364965
21
285.32969827936193
31
0
0
SPLINE
5
760
100
AcDbEntity
8
0
100
AcDbSpline
70
1064
71
3
72
16
73
12
74
0
42
0.000000001
43
0.0000000001
44
0.0000000001
40
0
40
0
40
0
40
0
40
1
40
1
40
1
40
2
40
2
40
3
40
3
40
3
40
4
40
4
40
4
40
4
10
405.95833865719101
20
185.5821261471809
30
0
10
405.95815058845301
20
184.64988332784259
30
0
10
406.32108683557539
20
183.77337780055259
30
0
10
406.97965619372326
20
183.11454267194887
30
0
10
407.63891443195257
20
182.45501838526076
30
0
10
408.51527359089016
20
182.09241753795357
30
0
10
410.37975922956662
20
182.09204140047768
30
0
10
411.25557559877223
20
182.45428876751831
30
0
10
411.91509988546039
20
183.11354700574785
30
0
10
412.32859473604844
20
183.52687505479457
30
0
10
412.62566273676521
20
184.02635398043697
30
0
10
412.78907020945923
20
184.57133513180855
30
0
0
LINE
5
761
100
AcDbEntity
8
0
100
AcDbLine
10
412.78907020945928
20
184.57133513180855
30
0
11
419.07657324592537
21
184.57133513180855
31
0
0
LINE
5
762
100
AcDbEntity
8
0
100
AcDbLine
10
419.07657324592537
20
184.57133513180855
30
0
11
424.15533301028063
21
189.64940587706681
31
0
0
LINE
5
763
100
AcDbEntity
8
0
100
AcDbLine
10
424.15533301028063
20
189.64940587706681
30
0
11
454.37571060689214
21
189.64871685796982
31
0
0
LINE
5
764
100
AcDbEntity
8
0
100
AcDbLine
10
454.37571060689214
20
189.64871685796982
30
0
11
461.87361642098983
21
182.15081104387198
31
0
0
LINE
5
765
100
AcDbEntity
8
0
100
AcDbLine
10
461.87361642098983
20
182.15081104387198
30
0
11
481.6043672841127
21
182.15081104387198
31
0
0
LINE
5
766
100
AcDbEntity
8
0
100
AcDbLine
10
481.6043672841127
20
182.15081104387198
30
0
11
481.6043672841127
21
184.17101503642249
31
0
0
LINE
5
767
100
AcDbEntity
8
0
100
AcDbLine
10
481.6043672841127
20
184.17101503642249
30
0
11
462.71077462390565
21
184.17032601732552
31
0
0
LINE
5
768
100
AcDbEntity
8
0
100
AcDbLine
10
462.71077462390565
20
184.17032601732552
30
0
11
455.21217979071093
21
191.66892085052029
31
0
0
LINE
5
769
100
AcDbEntity
8
0
100
AcDbLine
10
455.21217979071093
20
191.66892085052029
30
0
11
423.31886382646189
21
191.66892085052029
31
0
0
LINE
5
770
100
AcDbEntity
8
0
100
AcDbLine
10
423.31886382646189
20
191.66892085052029
30
0
11
418.24079308120366
21
186.59085010526201
31
0
0
LINE
5
771
100
AcDbEntity
8
0
100
AcDbLine
10
418.24079308120366
20
186.59085010526201
30
0
11
412.78789594715033
21
186.59153912435909
31
0
0
SPLINE
5
772
100
AcDbEntity
8
0
100
AcDbSpline
70
1064
71
3
72
8
73
4
74
0
42
0.000000001
43
0.0000000001
44
0.0000000001
40
15
40
15
40
15
40
15
40
16
40
16
40
16
40
16
10
412.78789594715033
20
186.59153912435909
30
0
10
412.35312489691182
20
188.02400982712601
30
0
10
411.02125098231409
20
189.07062983554482
30
0
10
409.44822038374917
20
189.0713188546419
30
0
0
SPLINE
5
773
100
AcDbEntity
8
0
100
AcDbSpline
70
1064
71
3
72
8
73
4
74
0
42
0.000000001
43
0.0000000001
44
0.0000000001
40
16
40
16
40
16
40
16
40
17
40
17
40
17
40
17
10
409.44822038374917
20
189.0713188546419
30
0
10
407.52379004568854
20
189.0713188546419
30
0
10
405.95833865719101
20
187.50586746614442
30
0
10
405.95833865719101
20
185.5821261471809
30
0
0
SPLINE
5
774
100
AcDbEntity
8
0
100
AcDbSpline
70
1064
71
3
72
8
73
4
74
0
42
0.000000001
43
0.0000000001
44
0.0000000001
40
0
40
0
40
0
40
0
40
1
40
1
40
1
40
1
10
410.8469291507605
20
481.59351523333436
30
0
10
408.92249881269993
20
481.59351523333436
30
0
10
407.35704742420234
20
480.02771933528823
30
0
10
407.35635840510542
20
478.10363350677619
30
0
0
SPLINE
5
775
100
AcDbEntity
8
0
100
AcDbSpline
70
1064
71
3
72
8
73
4
74
0
42
0.000000001
43
0.0000000001
44
0.0000000001
40
1
40
1
40
1
40
1
40
2
40
2
40
2
40
2
10
407.35635840510542
20
478.10363350677619
30
0
10
407.35704742420234
20
476.17885865916713
30
0
10
408.92249881269993
20
474.61306276112111
30
0
10
410.8469291507605
20
474.61306276112111
30
0
0
SPLINE
5
776
100
AcDbEntity
8
0
100
AcDbSpline
70
1064
71
3
72
8
73
4
74
0
42
0.000000001
43
0.0000000001
44
0.0000000001
40
2
40
2
40
2
40
2
40
3
40
3
40
3
40
3
10
410.8469291507605
20
474.61306276112111
30
0
10
412.41995974932564
20
474.6134072706696
30
0
10
413.75252268302012
20
475.66002727908852
30
0
10
414.18660471416166
20
477.09284249140387
30
0
0
LINE
5
777
100
AcDbEntity
8
0
100
AcDbLine
10
414.18660471416166
20
477.09284249140387
30
0
11
432.35466026517531
21
477.09284249140387
31
0
0
SPLINE
5
778
100
AcDbEntity
8
0
100
AcDbSpline
70
1064
71
3
72
8
73
4
74
0
42
0.000000001
43
0.0000000001
44
0.0000000001
40
4
40
4
40
4
40
4
40
5
40
5
40
5
40
5
10
432.35466026517531
20
477.09284249140387
30
0
10
432.78943131541382
20
475.66037178863701
30
0
10
434.12164973955981
20
474.61375178021808
30
0
10
435.69433582857641
20
474.61306276112111
30
0
0
SPLINE
5
779
100
AcDbEntity
8
0
100
AcDbSpline
70
1064
71
3
72
8
73
4
74
0
42
0.000000001
43
0.0000000001
44
0.0000000001
40
5
40
5
40
5
40
5
40
6
40
6
40
6
40
6
10
435.69433582857641
20
474.61306276112111
30
0
10
437.61807714753991
20
474.61306276112111
30
0
10
439.1835285360375
20
476.17885865916713
30
0
10
439.18490657423149
20
478.10397801632462
30
0
0
SPLINE
5
780
100
AcDbEntity
8
0
100
AcDbSpline
70
1064
71
3
72
8
73
4
74
0
42
0.000000001
43
0.0000000001
44
0.0000000001
40
6
40
6
40
6
40
6
40
7
40
7
40
7
40
7
10
439.18490657423149
20
478.10397801632462
30
0
10
439.18421755513458
20
480.02737482573968
30
0
10
437.61876616663699
20
481.59351523333436
30
0
10
435.69433582857641
20
481.59420425243127
30
0
0
SPLINE
5
781
100
AcDbEntity
8
0
100
AcDbSpline
70
1064
71
3
72
8
73
4
74
0
42
0.000000001
43
0.0000000001
44
0.0000000001
40
7
40
7
40
7
40
7
40
8
40
8
40
8
40
8
10
435.69433582857641
20
481.59420425243127
30
0
10
434.12061621091431
20
481.59351523333436
30
0
10
432.78874229631674
20
480.54655071536683
30
0
10
432.35397124607812
20
479.11373550305137
30
0
0
LINE
5
782
100
AcDbEntity
8
0
100
AcDbLine
10
432.35397124607812
20
479.11373550305137
30
0
11
414.18660471416166
21
479.11304648395435
31
0
0
SPLINE
5
783
100
AcDbEntity
8
0
100
AcDbSpline
70
1064
71
3
72
8
73
4
74
0
42
0.000000001
43
0.0000000001
44
0.0000000001
40
9
40
9
40
9
40
9
40
10
40
10
40
10
40
10
10
414.18660471416166
20
479.11304648395435
30
0
10
413.75252268302012
20
480.54620620581835
30
0
10
412.41995974932564
20
481.59282621423722
30
0
10
410.8469291507605
20
481.59351523333436
30
0
0
LINE
5
784
100
AcDbEntity
8
0
100
AcDbLine
10
251.9021090407571
20
397.96709516960539
30
0
11
251.90279805985423
21
397.96709516960539
31
0
0
SPLINE
5
785
100
AcDbEntity
8
0
100
AcDbSpline
70
1064
71
3
72
8
73
4
74
0
42
0.000000001
43
0.0000000001
44
0.0000000001
40
1
40
1
40
1
40
1
40
2
40
2
40
2
40
2
10
251.90279805985423
20
397.96709516960539
30
0
10
254.14968933533413
20
397.96778418870247
30
0
10
255.97765699980769
20
399.7971298913701
30
0
10
255.97731249025918
20
402.04264312865598
30
0
0
ELLIPSE
5
786
100
AcDbEntity
8
0
100
AcDbEllipse
10
251.09412539414552
20
401.71450166845256
30
0
11
4.5839190499289746
21
1.8680137460772814
31
0.0
40
0.9010709163307572
41
5.9309065360275506
42
6.6453681246092273
0
SPLINE
5
787
100
AcDbEntity
8
0
100
AcDbSpline
70
1064
71
3
72
11
73
7
74
0
42
0.000000001
43
0.0000000001
44
0.0000000001
40
3
40
3
40
3
40
3
40
4
40
4
40
4
40
5
40
5
40
5
40
5
10
254.78427592371708
20
404.92481001161599
30
0
10
254.01464159231236
20
405.69444434302079
30
0
10
252.9907592140961
20
406.11819108770658
30
0
10
251.9021090407571
20
406.11819108770658
30
0
10
250.03107768271789
20
406.11819108770658
30
0
10
248.45425747911915
20
404.84832889184355
30
0
10
247.97814528305761
20
403.12647016831568
30
0
0
LINE
5
788
100
AcDbEntity
8
0
100
AcDbLine
10
247.97814528305761
20
403.12647016831568
30
0
11
231.38966601203109
21
403.12647016831568
31
0
0
LINE
5
789
100
AcDbEntity
8
0
100
AcDbLine
10
231.38966601203109
20
403.12647016831568
30
0
11
223.90691861806843
21
410.60818403363265
31
0
0
LINE
5
790
100
AcDbEntity
8
0
100
AcDbLine
10
223.90691861806843
20
410.60818403363265
30
0
11
223.90760763716546
21
426.32229807050271
31
0
0
ELLIPSE
5
791
100
AcDbEntity
8
0
100
AcDbEllipse
10
222.23564829716847
20
431.2432033623341
30
0
11
2.6817149696397906
21
-4.4907277641290309
31
0.0
40
0.87915320490276749
41
6.04443029079538
42
6.5008411682387397
0
ELLIPSE
5
792
100
AcDbEntity
8
0
100
AcDbEllipse
10
222.1177842634219
20
430.53356628055525
30
0
11
4.4847633742925233
21
-1.8182090453976263
31
0.0
40
0.91098139011933144
41
5.9152559715341608
42
6.6382292282414221
0
ELLIPSE
5
793
100
AcDbEntity
8
0
100
AcDbEllipse
10
222.06826926709513
20
429.94316234941505
30
0
11
4.5316429262813891
21
1.8465619868982897
31
0.0
40
0.90565138661152156
41
5.9284024301758587
42
6.6474953594116508
0
SPLINE
5
794
100
AcDbEntity
8
0
100
AcDbSpline
70
1064
71
3
72
14
73
10
74
0
42
0.000000001
43
0.0000000001
44
0.0000000001
40
11
40
11
40
11
40
11
40
12
40
12
40
12
40
13
40
13
40
13
40
14
40
14
40
14
40
14
10
225.7066364995629
20
433.13084027800198
30
0
10
224.9370021681581
20
433.90081911895538
30
0
10
223.91380880903893
20
434.32491037318977
30
0
10
222.82378059750587
20
434.32491037318977
30
0
10
220.57620030292892
20
434.32491037318977
30
0
10
218.74823263845531
20
432.49590918007044
30
0
10
218.74823263845531
20
430.24901790459046
30
0
10
218.74823263845531
20
428.37833105609991
30
0
10
220.01809483431839
20
426.80151085250117
30
0
10
221.74064257694334
20
426.32436512779407
30
0
0
LINE
5
795
100
AcDbEntity
8
0
100
AcDbLine
10
221.74064257694334
20
426.32436512779407
30
0
11
221.7413315960404
21
409.71073665972517
31
0
0
LINE
5
796
100
AcDbEntity
8
0
100
AcDbLine
10
221.7413315960404
20
409.71073665972517
30
0
11
230.492563147672
21
400.95984961764196
31
0
0
LINE
5
797
100
AcDbEntity
8
0
100
AcDbLine
10
230.492563147672
20
400.95984961764196
30
0
11
247.97814528305761
21
400.95984961764196
31
0
0
SPLINE
5
798
100
AcDbEntity
8
0
100
AcDbSpline
70
1064
71
3
72
8
73
4
74
0
42
0.000000001
43
0.0000000001
44
0.0000000001
40
17
40
17
40
17
40
17
40
18
40
18
40
18
40
18
10
247.97814528305761
20
400.95984961764196
30
0
10
248.45425747911915
20
399.2379908941142
30
0
10
250.03107768271789
20
397.96778418870247
30
0
10
251.9021090407571
20
397.96709516960539
30
0
0
SPLINE
5
799
100
AcDbEntity
8
0
100
AcDbSpline
70
1064
71
3
72
8
73
4
74
0
42
0.000000001
43
0.0000000001
44
0.0000000001
40
0
40
0
40
0
40
0
40
1
40
1
40
1
40
1
10
463.66541058286833
20
430.17873795669152
30
0
10
465.58880739228346
20
430.17873795669152
30
0
10
467.15391427123245
20
431.74418934518906
30
0
10
467.15425878078088
20
433.66827517370103
30
0
0
ELLIPSE
5
800
100
AcDbEntity
8
0
100
AcDbEllipse
10
463.0168627507208
20
433.40386612447435
30
0
11
3.8800564766650494
21
1.5844183613929752
31
0.0
40
0.90657055975070577
41
5.9285619031257557
42
6.6469005674206789
0
ELLIPSE
5
801
100
AcDbEntity
8
0
100
AcDbEllipse
10
463.33856229826301
20
432.99397570131526
30
0
11
-1.8397882614673575
21
-3.8206132234740231
31
0.0
40
0.90177606046532555
41
2.8351105157219592
42
3.2830758563522
0
LINE
5
802
100
AcDbEntity
8
0
100
AcDbLine
10
464.67413454094952
20
437.01036230394186
30
0
11
464.67413454094952
21
452.8114650018145
31
0
0
ELLIPSE
5
803
100
AcDbEntity
8
0
100
AcDbEllipse
10
463.38056997941209
20
456.79461467481099
30
0
11
1.7006628472985972
21
-3.8324462621764077
31
0.0
40
0.90572179603926262
41
6.1688539046466966
42
6.6197329720503895
0
ELLIPSE
5
804
100
AcDbEntity
8
0
100
AcDbEllipse
10
463.01307910444649
20
456.42020952875964
30
0
11
3.8826107582190872
21
-1.5896510165941549
31
0.0
40
0.90610007106464241
41
5.9205038741416089
42
6.6384997157422481
0
SPLINE
5
805
100
AcDbEntity
8
0
100
AcDbSpline
70
1064
71
3
72
14
73
10
74
0
42
0.000000001
43
0.0000000001
44
0.0000000001
40
6
40
6
40
6
40
6
40
7
40
7
40
7
40
8
40
8
40
8
40
9
40
9
40
9
40
9
10
467.15425878078088
20
456.15372438682977
30
0
10
467.15391427123245
20
458.07798247011596
30
0
10
465.58811837318626
20
459.64343385861355
30
0
10
463.66368803512557
20
459.64343385861355
30
0
10
461.73994671616242
20
459.64343385861355
30
0
10
460.17449532766477
20
458.07763796056742
30
0
10
460.17449532766477
20
456.15320762250684
30
0
10
460.17449532766477
20
454.58086604303878
30
0
10
461.22111533608353
20
453.248819873667
30
0
10
462.65358603885056
20
452.81422107820271
30
0
0
LINE
5
806
100
AcDbEntity
8
0
100
AcDbLine
10
462.65358603885056
20
452.81422107820271
30
0
11
462.65393054839899
21
437.01036230394186
31
0
0
ELLIPSE
5
807
100
AcDbEntity
8
0
100
AcDbEllipse
10
464.01325924791183
20
432.88983068020167
30
0
11
1.771884011798543
21
-3.9670263897459512
31
0.0
40
0.89061078380422887
41
3.02782027041986
42
3.4699532825155619
0
ELLIPSE
5
808
100
AcDbEntity
8
0
100
AcDbEllipse
10
464.30177542495647
20
433.40597771644548
30
0
11
3.866776876262171
21
-1.5913576982419666
31
0.0
40
0.90682326308754369
41
2.7795954973892769
42
3.4991907588731044
0
ELLIPSE
5
809
100
AcDbEntity
8
0
100
AcDbEllipse
10
464.30622102638097
20
433.93781247183176
30
0
11
3.8620822477001751
21
1.6197136608797715
31
0.0
40
0.90642909290538787
41
2.7779087599152685
42
3.4969753328491429
0
ELLIPSE
5
810
100
AcDbEntity
8
0
100
AcDbEllipse
10
463.94227638314652
20
434.32682051755535
30
0
11
-1.6360635208166774
21
-3.87541039172359
31
0.0
40
0.90406985987432764
41
5.9303605655431362
42
6.6478561488553414
0
LINE
5
811
100
AcDbEntity
8
0
100
AcDbLine
10
463.66334352557726
20
430.17873795669152
30
0
11
463.66541058286833
21
430.17873795669152
31
0
0
LINE
5
812
100
AcDbEntity
8
0
100
AcDbLine
10
287.81895202222933
20
288.21462123871032
30
0
11
287.81895202222933
21
271.92242017941533
31
0
0
SPLINE
5
813
100
AcDbEntity
8
0
100
AcDbSpline
70
1064
71
3
72
11
73
7
74
0
42
0.000000001
43
0.0000000001
44
0.0000000001
40
1
40
1
40
1
40
1
40
2
40
2
40
2
40
3
40
3
40
3
40
3
10
287.81895202222933
20
271.92242017941533
30
0
10
289.25211174409316
20
271.48799363872519
30
0
10
290.29873175251214
20
270.15611972412768
30
0
10
290.29873175251214
20
268.58308912556259
30
0
10
290.29873175251214
20
266.65865878750196
30
0
10
288.7332803640146
20
265.09286288945589
30
0
10
286.80885002595403
20
265.09286288945589
30
0
0
SPLINE
5
814
100
AcDbEntity
8
0
100
AcDbSpline
70
1064
71
3
72
11
73
7
74
0
42
0.000000001
43
0.0000000001
44
0.0000000001
40
4
40
4
40
4
40
4
40
5
40
5
40
5
40
6
40
6
40
6
40
6
10
286.80885002595403
20
265.09286288945589
30
0
10
284.88510870699054
20
265.09389641810162
30
0
10
283.319657318493
20
266.65934780659893
30
0
10
283.319657318493
20
268.58308912556259
30
0
10
283.319657318493
20
270.15577521457908
30
0
10
284.36489928871782
20
271.48696011007968
30
0
10
285.79874802967879
20
271.92138665076959
30
0
0
LINE
5
815
100
AcDbEntity
8
0
100
AcDbLine
10
285.79874802967879
20
271.92138665076959
30
0
11
285.79823126535598
21
288.21462123871032
31
0
0
LINE
5
816
100
AcDbEntity
8
0
100
AcDbLine
10
285.79823126535598
20
288.21462123871032
30
0
11
287.81895202222933
21
288.21462123871032
31
0
0
LINE
5
817
100
AcDbEntity
8
0
100
AcDbLine
10
389.90384918637824
20
288.21462123871032
30
0
11
389.90350467682964
21
281.96211744253031
31
0
0
LINE
5
818
100
AcDbEntity
8
0
100
AcDbLine
10
389.90350467682964
20
281.96211744253031
30
0
11
421.55084082343183
21
253.62069492357395
31
0
0
LINE
5
819
100
AcDbEntity
8
0
100
AcDbLine
10
421.55084082343183
20
253.62069492357395
30
0
11
421.55084082343183
21
242.81136332905413
31
0
0
SPLINE
5
820
100
AcDbEntity
8
0
100
AcDbSpline
70
1064
71
3
72
11
73
7
74
0
42
0.000000001
43
0.0000000001
44
0.0000000001
40
3
40
3
40
3
40
3
40
4
40
4
40
4
40
5
40
5
40
5
40
5
10
421.55084082343183
20
242.81136332905413
30
0
10
422.98400054529571
20
242.37659227881565
30
0
10
424.03062055371458
20
241.044718364218
30
0
10
424.03062055371458
20
239.47168776565292
30
0
10
424.03062055371458
20
237.54794644668945
30
0
10
422.46448014611991
20
235.98249505819189
30
0
10
420.54142784625367
20
235.98180603909481
30
0
0
LINE
5
821
100
AcDbEntity
8
0
100
AcDbLine
10
420.54142784625367
20
235.98180603909481
30
0
11
420.54073882715659
21
235.98180603909481
31
0
0
SPLINE
5
822
100
AcDbEntity
8
0
100
AcDbSpline
70
1064
71
3
72
11
73
7
74
0
42
0.000000001
43
0.0000000001
44
0.0000000001
40
6
40
6
40
6
40
6
40
7
40
7
40
7
40
8
40
8
40
8
40
8
10
420.54073882715659
20
235.98180603909481
30
0
10
418.61630848909601
20
235.98249505819189
30
0
10
417.05154611969533
20
237.54794644668945
30
0
10
417.05154611969533
20
239.47168776565292
30
0
10
417.05154611969533
20
241.044718364218
30
0
10
418.09816612811431
20
242.37728129791262
30
0
10
419.53132584997832
20
242.81136332905413
30
0
0
LINE
5
823
100
AcDbEntity
8
0
100
AcDbLine
10
419.53132584997832
20
242.81136332905413
30
0
11
419.53132584997832
21
252.71807990643862
31
0
0
LINE
5
824
100
AcDbEntity
8
0
100
AcDbLine
10
419.53132584997832
20
252.71807990643862
30
0
11
387.88330068427916
21
281.05950242539484
31
0
0
LINE
5
825
100
AcDbEntity
8
0
100
AcDbLine
10
387.88330068427916
20
281.05950242539484
30
0
11
387.88364519382765
21
288.21462123871032
31
0
0
LINE
5
826
100
AcDbEntity
8
0
100
AcDbLine
10
387.88364519382765
20
288.21462123871032
30
0
11
389.90384918637824
21
288.21462123871032
31
0
0
SPLINE
5
827
100
AcDbEntity
8
0
100
AcDbSpline
70
1064
71
3
72
8
73
4
74
0
42
0.000000001
43
0.0000000001
44
0.0000000001
40
0
40
0
40
0
40
0
40
1
40
1
40
1
40
1
10
231.78981385264282
20
431.45204524803972
30
0
10
231.78981385264282
20
429.20515397255997
30
0
10
233.61778151711636
20
427.37718630808627
30
0
10
235.86467279259631
20
427.37580826989222
30
0
0
LINE
5
828
100
AcDbEntity
8
0
100
AcDbLine
10
235.86467279259631
20
427.37580826989222
30
0
11
235.86536181169345
21
427.37580826989222
31
0
0
SPLINE
5
829
100
AcDbEntity
8
0
100
AcDbSpline
70
1064
71
3
72
10
73
6
74
0
42
0.000000001
43
0.0000000001
44
0.0000000001
40
2
40
2
40
2
40
2
40
3
40
3
40
4
40
4
40
4
40
4
10
235.86536181169345
20
427.37580826989222
30
0
10
236.95401198503231
20
427.37580826989222
30
0
10
237.97651632505452
20
427.79955501457783
30
0
10
239.5171630260582
20
429.34020171558166
30
0
10
239.94090977074399
20
430.36408409379794
30
0
10
239.93953173254994
20
431.45135622894281
30
0
0
SPLINE
5
830
100
AcDbEntity
8
0
100
AcDbSpline
70
1064
71
3
72
11
73
7
74
0
42
0.000000001
43
0.0000000001
44
0.0000000001
40
4
40
4
40
4
40
4
40
5
40
5
40
5
40
6
40
6
40
6
40
6
10
239.93953173254994
20
431.45135622894281
30
0
10
239.94090977074399
20
432.54000640228179
30
0
10
239.5171630260582
20
433.56319976140082
30
0
10
238.74683967555629
20
434.33352311190276
30
0
10
238.23972162012757
20
434.84064116733151
30
0
10
237.62167149007382
20
435.19410796411813
30
0
10
236.94849983225589
20
435.37876508212747
30
0
0
LINE
5
831
100
AcDbEntity
8
0
100
AcDbLine
10
236.94849983225589
20
435.37876508212747
30
0
11
236.94849983225589
21
445.62310101706652
31
0
0
SPLINE
5
832
100
AcDbEntity
8
0
100
AcDbSpline
70
1064
71
3
72
8
73
4
74
0
42
0.000000001
43
0.0000000001
44
0.0000000001
40
7
40
7
40
7
40
7
40
8
40
8
40
8
40
8
10
236.94849983225589
20
445.62310101706652
30
0
10
238.67035855578379
20
446.09990223222502
30
0
10
239.93953173254994
20
447.67637792627534
30
0
10
239.94090977074399
20
449.54740928431448
30
0
0
SPLINE
5
833
100
AcDbEntity
8
0
100
AcDbSpline
70
1064
71
3
72
8
73
4
74
0
42
0.000000001
43
0.0000000001
44
0.0000000001
40
8
40
8
40
8
40
8
40
9
40
9
40
9
40
9
10
239.94090977074399
20
449.54740928431448
30
0
10
239.93953173254994
20
451.79430055979446
30
0
10
238.11087504897921
20
453.62278498859087
30
0
10
235.86398377349926
20
453.62312949813935
30
0
0
SPLINE
5
834
100
AcDbEntity
8
0
100
AcDbSpline
70
1064
71
3
72
11
73
7
74
0
42
0.000000001
43
0.0000000001
44
0.0000000001
40
9
40
9
40
9
40
9
40
10
40
10
40
10
40
11
40
11
40
11
40
11
10
235.86398377349926
20
453.62312949813935
30
0
10
233.61778151711636
20
453.62312949813935
30
0
10
231.78981385264282
20
451.79516183366587
30
0
10
231.78981385264282
20
449.54792604863741
30
0
10
231.78981385264282
20
447.67603341672691
30
0
10
233.05898702940891
20
446.09852419403097
30
0
10
234.7822237911308
20
445.62241199796938
30
0
0
LINE
5
835
100
AcDbEntity
8
0
100
AcDbLine
10
234.7822237911308
20
445.62241199796938
30
0
11
234.7822237911308
21
435.37669802483634
31
0
0
SPLINE
5
836
100
AcDbEntity
8
0
100
AcDbSpline
70
1064
71
3
72
8
73
4
74
0
42
0.000000001
43
0.0000000001
44
0.0000000001
40
12
40
12
40
12
40
12
40
13
40
13
40
13
40
13
10
234.7822237911308
20
435.37669802483634
30
0
10
233.05898702940891
20
434.90127484787189
30
0
10
231.78981385264282
20
433.32411013472444
30
0
10
231.78981385264282
20
431.45204524803972
30
0
0
LINE
5
837
100
AcDbEntity
8
0
100
AcDbLine
10
369.44067102309123
20
169.87938092541211
30
0
11
369.44204906128533
21
197.16936030227021
31
0
0
LINE
5
838
100
AcDbEntity
8
0
100
AcDbLine
10
369.44204906128533
20
197.16936030227021
30
0
11
369.26359311514938
21
197.35987408260451
31
0
0
LINE
5
839
100
AcDbEntity
8
0
100
AcDbLine
10
369.26359311514938
20
197.35987408260451
30
0
11
353.34070629187318
21
214.31249994642189
31
0
0
LINE
5
840
100
AcDbEntity
8
0
100
AcDbLine
10
353.34070629187318
20
214.31249994642189
30
0
11
330.73640128450336
21
214.31249994642189
31
0
0
LINE
5
841
100
AcDbEntity
8
0
100
AcDbLine
10
330.73640128450336
20
214.31249994642189
30
0
11
317.51171324527479
21
227.53787700474754
31
0
0
SPLINE
5
842
100
AcDbEntity
8
0
100
AcDbSpline
70
1064
71
3
72
11
73
7
74
0
42
0.000000001
43
0.0000000001
44
0.0000000001
40
5
40
5
40
5
40
5
40
6
40
6
40
6
40
7
40
7
40
7
40
7
10
317.51171324527479
20
227.53787700474754
30
0
10
317.53513989457463
20
227.5599256158531
30
0
10
317.55994458206834
20
227.57990716966748
30
0
10
317.58302672181958
20
227.60298930941869
30
0
10
318.24207348814775
20
228.26203607574698
30
0
10
318.60518655229322
20
229.13812385764601
30
0
10
318.60518655229322
20
230.07071120550322
30
0
0
SPLINE
5
843
100
AcDbEntity
8
0
100
AcDbSpline
70
1064
71
3
72
8
73
4
74
0
42
0.000000001
43
0.0000000001
44
0.0000000001
40
7
40
7
40
7
40
7
40
8
40
8
40
8
40
8
10
318.60518655229322
20
230.07071120550322
30
0
10
318.60449753319608
20
231.09011495958862
30
0
10
318.16214727288997
20
232.00616584911648
30
0
10
317.46348190848136
20
232.64488655208191
30
0
0
LINE
5
844
100
AcDbEntity
8
0
100
AcDbLine
10
317.46348190848136
20
232.64488655208191
30
0
11
330.45734855019816
21
245.63875319379866
31
0
0
LINE
5
845
100
AcDbEntity
8
0
100
AcDbLine
10
330.45734855019816
20
245.63875319379866
30
0
11
351.43315692169028
21
245.63737515560459
31
0
0
LINE
5
846
100
AcDbEntity
8
0
100
AcDbLine
10
351.43315692169028
20
245.63737515560459
30
0
11
358.4969807046466
21
252.70257697675493
31
0
0
LINE
5
847
100
AcDbEntity
8
0
100
AcDbLine
10
358.4969807046466
20
252.70257697675493
30
0
11
358.4969807046466
21
264.79003899630248
31
0
0
SPLINE
5
848
100
AcDbEntity
8
0
100
AcDbSpline
70
1064
71
3
72
11
73
7
74
0
42
0.000000001
43
0.0000000001
44
0.0000000001
40
12
40
12
40
12
40
12
40
13
40
13
40
13
40
14
40
14
40
14
40
14
10
358.4969807046466
20
264.79003899630248
30
0
10
359.3792696584191
20
265.42393656558852
30
0
10
359.95735668084399
20
266.45608717296932
30
0
10
359.95735668084399
20
267.62294101382344
30
0
10
359.95735668084399
20
269.54771586143261
30
0
10
358.39087176370083
20
271.11385626902711
30
0
10
356.46609691609177
20
271.11385626902711
30
0
0
SPLINE
5
849
100
AcDbEntity
8
0
100
AcDbSpline
70
1064
71
3
72
14
73
10
74
0
42
0.000000001
43
0.0000000001
44
0.0000000001
40
14
40
14
40
14
40
14
40
15
40
15
40
15
40
16
40
16
40
16
40
17
40
17
40
17
40
17
10
356.46609691609177
20
271.11385626902711
30
0
10
354.54235559712828
20
271.11316724992997
30
0
10
352.97690420863086
20
269.54702684233553
30
0
10
352.97690420863086
20
267.623974542469
30
0
10
352.97690420863086
20
265.69988871395697
30
0
10
354.54304461622536
20
264.13374830636241
30
0
10
356.46713044473734
20
264.13374830636241
30
0
10
356.47057554022263
20
264.13374830636241
30
0
10
356.47333161661084
20
264.13409281591089
30
0
10
356.47677671209613
20
264.13409281591089
30
0
0
LINE
5
850
100
AcDbEntity
8
0
100
AcDbLine
10
356.47677671209613
20
264.13409281591089
30
0
11
356.47746573119315
21
253.53939067012209
31
0
0
LINE
5
851
100
AcDbEntity
8
0
100
AcDbLine
10
356.47746573119315
20
253.53939067012209
30
0
11
350.59599871877469
21
247.65826816725209
31
0
0
LINE
5
852
100
AcDbEntity
8
0
100
AcDbLine
10
350.59599871877469
20
247.65826816725209
30
0
11
329.62019034728246
21
247.6586126768006
31
0
0
LINE
5
853
100
AcDbEntity
8
0
100
AcDbLine
10
329.62019034728246
20
247.6586126768006
30
0
11
315.50046650098597
21
233.53854432095574
31
0
0
SPLINE
5
854
100
AcDbEntity
8
0
100
AcDbSpline
70
1064
71
3
72
8
73
4
74
0
42
0.000000001
43
0.0000000001
44
0.0000000001
40
21
40
21
40
21
40
21
40
22
40
22
40
22
40
22
10
315.50046650098597
20
233.53854432095574
30
0
10
315.37368698712885
20
233.55266921244518
30
0
10
315.24552943507751
20
233.56128195115826
30
0
10
315.11496031618657
20
233.56128195115826
30
0
0
SPLINE
5
855
100
AcDbEntity
8
0
100
AcDbSpline
70
1064
71
3
72
11
73
7
74
0
42
0.000000001
43
0.0000000001
44
0.0000000001
40
22
40
22
40
22
40
22
40
23
40
23
40
23
40
24
40
24
40
24
40
24
10
315.11496031618657
20
233.56128195115826
30
0
10
313.19121899722302
20
233.56093744160978
30
0
10
311.625423099177
20
231.99514154356365
30
0
10
311.625423099177
20
230.07105571505167
30
0
10
311.625423099177
20
229.13881287674309
30
0
10
311.98853616332235
20
228.26203607574698
30
0
10
312.64758292965064
20
227.60333381896717
30
0
0
ELLIPSE
5
856
100
AcDbEntity
8
0
100
AcDbEllipse
10
315.3888755313103
20
230.74077924596455
30
0
11
-1.5965218341674143
21
-3.9012178424141917
31
0.0
40
0.9033411977784761
41
5.9211170826040842
42
6.63769401205262
0
SPLINE
5
857
100
AcDbEntity
8
0
100
AcDbSpline
70
1064
71
3
72
8
73
4
74
0
42
0.000000001
43
0.0000000001
44
0.0000000001
40
25
40
25
40
25
40
25
40
26
40
26
40
26
40
26
10
315.11496031618657
20
226.5815184980421
30
0
10
315.27136765121691
20
226.5815184980421
30
0
10
315.42536341940763
20
226.59529887998309
30
0
10
315.57798114940408
20
226.61528043379761
30
0
0
LINE
5
858
100
AcDbEntity
8
0
100
AcDbLine
10
315.57798114940408
20
226.61528043379761
30
0
11
329.90062111978182
21
212.29298497296841
31
0
0
LINE
5
859
100
AcDbEntity
8
0
100
AcDbLine
10
329.90062111978182
20
212.29298497296841
30
0
11
352.4653075290712
21
212.29298497296841
31
0
0
LINE
5
860
100
AcDbEntity
8
0
100
AcDbLine
10
352.4653075290712
20
212.29298497296841
30
0
11
367.42081154008923
21
196.37078716878932
31
0
0
LINE
5
861
100
AcDbEntity
8
0
100
AcDbLine
10
367.42081154008923
20
196.37078716878932
30
0
11
367.42184506873491
21
169.87938092541211
31
0
0
SPLINE
5
862
100
AcDbEntity
8
0
100
AcDbSpline
70
1064
71
3
72
8
73
4
74
0
42
0.000000001
43
0.0000000001
44
0.0000000001
40
30
40
30
40
30
40
30
40
31
40
31
40
31
40
31
10
367.42184506873491
20
169.87938092541211
30
0
10
366.31907000390635
20
169.54555117289141
30
0
10
365.44573829839567
20
168.68048769654519
30
0
10
365.10053973077345
20
167.58253576539602
30
0
0
LINE
5
863
100
AcDbEntity
8
0
100
AcDbLine
10
365.10053973077345
20
167.58253576539602
30
0
11
308.09661179363565
21
168.13650711942418
31
0
0
LINE
5
864
100
AcDbEntity
8
0
100
AcDbLine
10
308.09661179363565
20
168.13650711942418
30
0
11
295.85859910138265
21
180.37383079258018
31
0
0
SPLINE
5
865
100
AcDbEntity
8
0
100
AcDbSpline
70
1064
71
3
72
11
73
7
74
0
42
0.000000001
43
0.0000000001
44
0.0000000001
40
33
40
33
40
33
40
33
40
34
40
34
40
34
40
35
40
35
40
35
40
35
10
295.85859910138265
20
180.37383079258018
30
0
10
296.51454528177413
20
181.0328775589085
30
0
10
296.87559128862841
20
181.90655377396783
30
0
10
296.87559128862841
20
182.83604053588817
30
0
10
296.87559128862841
20
183.76828337419681
30
0
10
296.51247822448295
20
184.64471566564441
30
0
10
295.85308694860618
20
185.30410694152121
30
0
0
ELLIPSE
5
866
100
AcDbEntity
8
0
100
AcDbEllipse
10
293.14188245059404
20
182.24827759821397
30
0
11
-1.581925351910981
21
-3.8133294943407163
31
0.0
40
0.91293817708686464
41
2.7799988381160485
42
3.504384215796581
0
SPLINE
5
867
100
AcDbEntity
8
0
100
AcDbSpline
70
1064
71
3
72
8
73
4
74
0
42
0.000000001
43
0.0000000001
44
0.0000000001
40
36
40
36
40
36
40
36
40
37
40
37
40
37
40
37
10
293.38536505252171
20
186.32592226244637
30
0
10
291.46231275265529
20
186.32592226244637
30
0
10
289.89617234506068
20
184.76081538349732
30
0
10
289.89548332596365
20
182.83672955498531
30
0
0
SPLINE
5
868
100
AcDbEntity
8
0
100
AcDbSpline
70
1064
71
3
72
8
73
4
74
0
42
0.000000001
43
0.0000000001
44
0.0000000001
40
38
40
38
40
38
40
38
40
39
40
39
40
39
40
39
10
289.89548332596365
20
182.83672955498531
30
0
10
289.89548332596365
20
180.91229921692471
30
0
10
291.46162373355821
20
179.3468478284272
30
0
10
293.38536505252171
20
179.34650331887866
30
0
0
SPLINE
5
869
100
AcDbEntity
8
0
100
AcDbSpline
70
1064
71
3
72
8
73
4
74
0
42
0.000000001
43
0.0000000001
44
0.0000000001
40
39
40
39
40
39
40
39
40
40
40
40
40
40
40
40
10
293.38536505252171
20
179.34650331887866
30
0
10
293.58621411931182
20
179.34650331887866
30
0
10
293.7832735810681
20
179.36648487269309
30
0
10
293.97723245688763
20
179.39921327980301
30
0
0
LINE
5
870
100
AcDbEntity
8
0
100
AcDbLine
10
293.97723245688763
20
179.39921327980301
30
0
11
307.25187438065234
21
166.1245713560383
31
0
0
LINE
5
871
100
AcDbEntity
8
0
100
AcDbLine
10
307.25187438065234
20
166.1245713560383
30
0
11
365.08296974379869
21
165.56233177284551
31
0
0
SPLINE
5
872
100
AcDbEntity
8
0
100
AcDbSpline
70
1064
71
3
72
8
73
4
74
0
42
0.000000001
43
0.0000000001
44
0.0000000001
40
42
40
42
40
42
40
42
40
43
40
43
40
43
40
43
10
365.08296974379869
20
165.56233177284551
30
0
10
365.50706099803301
20
164.11298010220091
30
0
10
366.84582510360093
20
163.05016814500141
30
0
10
368.43091353636453
20
163.04947912590427
30
0
0
SPLINE
5
873
100
AcDbEntity
8
0
100
AcDbSpline
70
1064
71
3
72
11
73
7
74
0
42
0.000000001
43
0.0000000001
44
0.0000000001
40
43
40
43
40
43
40
43
40
44
40
44
40
44
40
45
40
45
40
45
40
45
10
368.43091353636453
20
163.04947912590427
30
0
10
370.35499936487662
20
163.05016814500141
30
0
10
371.92113977247118
20
164.61561953349889
30
0
10
371.92113977247118
20
166.540394381108
30
0
10
371.92113977247118
20
168.113424979673
30
0
10
370.87383074495517
20
169.44495438472214
30
0
10
369.44067102309123
20
169.87938092541211
30
0
0
LINE
5
874
100
AcDbEntity
8
0
100
AcDbLine
10
481.6043672841127
20
420.29406999041265
30
0
11
447.47621787858236
21
420.29406999041265
31
0
0
LINE
5
875
100
AcDbEntity
8
0
100
AcDbLine
10
447.47621787858236
20
420.29406999041265
30
0
11
434.35626074210541
21
433.41471614598663
31
0
0
ELLIPSE
5
876
100
AcDbEntity
8
0
100
AcDbEllipse
10
432.43248133906803
20
437.26970551508202
30
0
11
-1.4442078864465295
21
4.067488113424174
31
0.0
40
0.89451172250983113
41
3.0057081090245976
42
3.4491550959547745
0
LINE
5
877
100
AcDbEntity
8
0
100
AcDbLine
10
432.70743804286485
20
433.0019937068538
30
0
11
432.70709353331642
21
433.0019937068538
31
0
0
SPLINE
5
878
100
AcDbEntity
8
0
100
AcDbSpline
70
1064
71
3
72
13
73
9
74
0
42
0.000000001
43
0.0000000001
44
0.0000000001
40
4
40
4
40
4
40
4
40
5
40
5
40
5
40
6
40
6
40
7
40
7
40
7
40
7
10
432.70709353331642
20
433.0019937068538
30
0
10
430.78300770480433
20
433.00233821640222
30
0
10
429.21755631630668
20
434.56778960489976
30
0
10
429.21755631630668
20
436.49153092386337
30
0
10
429.21755631630668
20
438.41596126192383
30
0
10
430.78231868570725
20
439.98210166951833
30
0
10
434.63117936182834
20
439.98210166951833
30
0
10
436.19663075032577
20
438.41665028102079
30
0
10
436.1973197694229
20
436.49221994296028
30
0
0
ELLIPSE
5
879
100
AcDbEntity
8
0
100
AcDbEllipse
10
431.96197394518919
20
436.76480260914445
30
0
11
4.0215516001264247
21
-1.479978229937819
31
0.0
40
0.89774109091742171
41
5.9640635103959783
42
6.4092300903519659
0
LINE
5
880
100
AcDbEntity
8
0
100
AcDbLine
10
435.78459733029007
20
434.84270822462264
30
0
11
448.3137205910466
21
422.31392947341453
31
0
0
LINE
5
881
100
AcDbEntity
8
0
100
AcDbLine
10
448.3137205910466
20
422.31392947341453
30
0
11
481.6043672841127
21
422.31427398296313
31
0
0
LINE
5
882
100
AcDbEntity
8
0
100
AcDbLine
10
481.6043672841127
20
422.31427398296313
30
0
11
481.6043672841127
21
420.29406999041265
31
0
0
ELLIPSE
5
883
100
AcDbEntity
8
0
100
AcDbEllipse
10
426.0111013116466
20
503.23543341020832
30
0
11
1.5892812451953695
21
-3.8977536888860702
31
0.0
40
0.90429353583767969
41
5.9291690578510705
42
6.6462966705306226
0
ELLIPSE
5
884
100
AcDbEntity
8
0
100
AcDbEllipse
10
425.64513378843628
20
502.83481362406735
30
0
11
3.8580124733422694
21
-1.6097196009531718
31
0.0
40
0.90757255527513292
41
5.9259383256806553
42
6.6452464566879161
0
LINE
5
885
100
AcDbEntity
8
0
100
AcDbLine
10
429.77049414168948
20
502.56966811437508
30
0
11
429.77049414168937
21
502.57173517166609
31
0
0
ELLIPSE
5
886
100
AcDbEntity
8
0
100
AcDbEllipse
10
425.62692183152018
20
502.3031015514041
30
0
11
3.8846253738810397
21
1.5923607114376259
31
0.0
40
0.9054677208293701
41
5.9277121425469304
42
6.6454914493329902
0
ELLIPSE
5
887
100
AcDbEntity
8
0
100
AcDbEllipse
10
426.01291082490059
20
501.9234682398303
30
0
11
-1.6089712080558225
21
-3.8709483347325309
31
0.0
40
0.90617313220269735
41
2.7838349896193395
42
3.5022263866911456
0
ELLIPSE
5
888
100
AcDbEntity
8
0
100
AcDbEllipse
10
426.55371057122147
20
501.9144520546472
30
0
11
1.6177337030634875
21
-3.8784755079658781
31
0.0
40
0.90472191927557066
41
2.7803410160574584
42
3.4981641333427422
0
ELLIPSE
5
889
100
AcDbEntity
8
0
100
AcDbEllipse
10
427.00296321196117
20
502.30235974680113
30
0
11
3.9881694532471776
21
-1.5028774670259679
31
0.0
40
0.89642311089354565
41
2.756520582585364
42
3.2036956327255406
0
LINE
5
890
100
AcDbEntity
8
0
100
AcDbLine
10
422.9388697944388
20
503.5804591297474
30
0
11
396.10364302163384
21
503.57977011065026
31
0
0
LINE
5
891
100
AcDbEntity
8
0
100
AcDbLine
10
396.10364302163384
20
503.57977011065026
30
0
11
385.73321659193482
21
493.21037720959674
31
0
0
LINE
5
892
100
AcDbEntity
8
0
100
AcDbLine
10
385.73321659193482
20
493.21037720959674
30
0
11
363.90440257829482
21
493.21003270004815
31
0
0
SPLINE
5
893
100
AcDbEntity
8
0
100
AcDbSpline
70
1064
71
3
72
11
73
7
74
0
42
0.000000001
43
0.0000000001
44
0.0000000001
40
10
40
10
40
10
40
10
40
11
40
11
40
11
40
12
40
12
40
12
40
12
10
363.90440257829482
20
493.21003270004815
30
0
10
363.47032054715334
20
494.64319242191215
30
0
10
362.13810212300723
20
495.68981243033102
30
0
10
360.56438250534495
20
495.68981243033102
30
0
10
358.6413302054786
20
495.68981243033102
30
0
10
357.07587881698112
20
494.12436104183348
30
0
10
357.07450077878707
20
492.19924168467583
30
0
0
SPLINE
5
894
100
AcDbEntity
8
0
100
AcDbSpline
70
1064
71
3
72
8
73
4
74
0
42
0.000000001
43
0.0000000001
44
0.0000000001
40
12
40
12
40
12
40
12
40
13
40
13
40
13
40
13
10
357.07450077878707
20
492.19924168467583
30
0
10
357.07518979788398
20
490.27481134661537
30
0
10
358.64098569593011
20
488.70970446766637
30
0
10
360.56507152444215
20
488.71004897721491
30
0
0
SPLINE
5
895
100
AcDbEntity
8
0
100
AcDbSpline
70
1064
71
3
72
8
73
4
74
0
42
0.000000001
43
0.0000000001
44
0.0000000001
40
13
40
13
40
13
40
13
40
14
40
14
40
14
40
14
10
360.56507152444215
20
488.71004897721491
30
0
10
362.13844663255571
20
488.71039348676339
30
0
10
363.47032054715334
20
489.75735800473092
30
0
10
363.90440257829482
20
491.19051772659469
30
0
0
LINE
5
896
100
AcDbEntity
8
0
100
AcDbLine
10
363.90440257829482
20
491.19051772659469
30
0
11
386.5693412662049
21
491.19051772659469
31
0
0
LINE
5
897
100
AcDbEntity
8
0
100
AcDbLine
10
386.5693412662049
20
491.19051772659469
30
0
11
396.94080122454949
21
501.56025513719669
31
0
0
LINE
5
898
100
AcDbEntity
8
0
100
AcDbLine
10
396.94080122454949
20
501.56025513719669
30
0
11
422.9388697944388
21
501.56094415629383
31
0
0
ELLIPSE
5
899
100
AcDbEntity
8
0
100
AcDbEllipse
10
426.97165275766008
20
502.92565162663328
30
0
11
3.8001112005736406
21
1.9429836034736101
31
0.0
40
0.90012803122345986
41
2.9792886499633897
42
3.425256601150263
0
ELLIPSE
5
900
100
AcDbEntity
8
0
100
AcDbEllipse
10
426.53340272929654
20
503.20658317467849
30
0
11
-1.5457423495218248
21
-3.8795874543082047
31
0.0
40
0.90753502877463577
41
5.910914995173858
42
6.6309057923322658
0
LINE
5
901
100
AcDbEntity
8
0
100
AcDbLine
10
57.35567218618192
20
369.29838857955042
30
0
11
59.400336356677698
21
369.29838857955042
31
0
0
ENDSEC
0
SECTION
2
OBJECTS
0
DICTIONARY
5
C
100
AcDbDictionary
3
ACAD_GROUP
350
D
3
ACAD_MLINESTYLE
350
17
0
DICTIONARY
5
D
100
AcDbDictionary
0
DICTIONARY
5
1A
330
C
100
AcDbDictionary
0
DICTIONARY
5
17
100
AcDbDictionary
0
ENDSEC
0
EOF
