  0
SECTION
  2
HEADER
  9
$ACADVER
  1
AC1014
  9
$HANDSEED
  5
FFFF
  9
$MEASUREMENT
 70
     1
  0
ENDSEC
  0
SECTION
  2
TABLES
  0
TABLE
  2
VPORT
  5
8
330
0
100
AcDbSymbolTable
 70
     4
  0
VPORT
  5
2E
330
8
100
AcDbSymbolTableRecord
100
AcDbViewportTableRecord
  2
*ACTIVE
 70
     0
 10
0.0
 20
0.0
 11
1.0
 21
1.0
 12
210.0
 22
148.5
 13
0.0
 23
0.0
 14
10.0
 24
10.0
 15
10.0
 25
10.0
 16
0.0
 26
0.0
 36
1.0
 17
0.0
 27
0.0
 37
0.0
 40
341.0
 41
1.24
 42
50.0
 43
0.0
 44
0.0
 50
0.0
 51
0.0
 71
     0
 72
   100
 73
     1
 74
     3
 75
     0
 76
     0
 77
     0
 78
     0
  0
ENDTAB
  0
TABLE
  2
LTYPE
  5
5
330
0
100
AcDbSymbolTable
 70
     1
  0
LTYPE
  5
14
330
5
100
AcDbSymbolTableRecord
100
AcDbLinetypeTableRecord
  2
BYBLOCK
 70
     0
  3

 72
    65
 73
     0
 40
0.0
  0
LTYPE
  5
15
330
5
100
AcDbSymbolTableRecord
100
AcDbLinetypeTableRecord
  2
BYLAYER
 70
     0
  3

 72
    65
 73
     0
 40
0.0
  0
LTYPE
  5
16
330
5
100
AcDbSymbolTableRecord
100
AcDbLinetypeTableRecord
  2
CONTINUOUS
 70
     0
  3
Solid line
 72
    65
 73
     0
 40
0.0
  0
ENDTAB
  0
TABLE
  2
LAYER
  5
2
100
AcDbSymbolTable
 70
2
  0
LAYER
  5
50
100
AcDbSymbolTableRecord
100
AcDbLayerTableRecord
  2
0
 70
0
  6
CONTINUOUS
  0
LAYER
  5
51
100
AcDbSymbolTableRecord
100
AcDbLayerTableRecord
  2
Layer_1
 70
0
  6
CONTINUOUS
  0
ENDTAB
  0
TABLE
  2
STYLE
  5
3
330
0
100
AcDbSymbolTable
 70
     1
  0
STYLE
  5
11
330
3
100
AcDbSymbolTableRecord
100
AcDbTextStyleTableRecord
  2
STANDARD
 70
     0
 40
0.0
 41
1.0
 50
0.0
 71
     0
 42
2.5
  3
txt
  4

  0
ENDTAB
  0
TABLE
  2
VIEW
  5
6
330
0
100
AcDbSymbolTable
 70
     0
  0
ENDTAB
  0
TABLE
  2
UCS
  5
7
330
0
100
AcDbSymbolTable
 70
     0
  0
ENDTAB
  0
TABLE
  2
APPID
  5
9
330
0
100
AcDbSymbolTable
 70
     2
  0
APPID
  5
12
330
9
100
AcDbSymbolTableRecord
100
AcDbRegAppTableRecord
  2
ACAD
 70
     0
  0
ENDTAB
  0
TABLE
  2
DIMSTYLE
  5
A
330
0
100
AcDbSymbolTable
 70
     1
  0
DIMSTYLE
105
27
330
A
100
AcDbSymbolTableRecord
100
AcDbDimStyleTableRecord
  2
ISO-25
 70
     0
  3

  4

  5

  6

  7

 40
1.0
 41
2.5
 42
0.625
 43
3.75
 44
1.25
 45
0.0
 46
0.0
 47
0.0
 48
0.0
140
2.5
141
2.5
142
0.0
143
0.03937007874016
144
1.0
145
0.0
146
1.0
147
0.625
 71
     0
 72
     0
 73
     0
 74
     0
 75
     0
 76
     0
 77
     1
 78
     8
170
     0
171
     3
172
     1
173
     0
174
     0
175
     0
176
     0
177
     0
178
     0
270
     2
271
     2
272
     2
273
     2
274
     3
340
11
275
     0
280
     0
281
     0
282
     0
283
     0
284
     8
285
     0
286
     0
287
     3
288
     0
  0
ENDTAB
  0
TABLE
  2
BLOCK_RECORD
  5
1
330
0
100
AcDbSymbolTable
 70
     1
  0
BLOCK_RECORD
  5
1F
330
1
100
AcDbSymbolTableRecord
100
AcDbBlockTableRecord
  2
*MODEL_SPACE
  0
BLOCK_RECORD
  5
1B
330
1
100
AcDbSymbolTableRecord
100
AcDbBlockTableRecord
  2
*PAPER_SPACE
  0
ENDTAB
  0
ENDSEC
  0
SECTION
  2
BLOCKS
  0
BLOCK
  5
20
330
1F
100
AcDbEntity
  8
0
100
AcDbBlockBegin
  2
*MODEL_SPACE
 70
     0
 10
0.0
 20
0.0
 30
0.0
  3
*MODEL_SPACE
  1

  0
ENDBLK
  5
21
330
1F
100
AcDbEntity
  8
0
100
AcDbBlockEnd
  0
BLOCK
  5
1C
330
1B
100
AcDbEntity
 67
     1
  8
0
100
AcDbBlockBegin
  2
*PAPER_SPACE
  1

  0
ENDBLK
  5
1D
330
1B
100
AcDbEntity
 67
     1
  8
0
100
AcDbBlockEnd
  0
ENDSEC
  0
SECTION
  2
ENTITIES
  0
SPLINE
  5
100
100
AcDbEntity
  8
Layer_1
 62
5
100
AcDbSpline
 70
0
 71
3
 72
10
 73
6
 74
4
 40
0.000000
 40
0.000000
 40
0.000000
 40
0.000000
 40
0.356955
 40
0.713936
 40
1.070797
 40
1.070797
 40
1.070797
 40
1.070797
 10
75.120423
 20
173.753168
 30
0.0
 10
75.001438
 20
173.752934
 30
0.0
 10
74.763459
 20
173.752464
 30
0.0
 10
74.406545
 20
173.748320
 30
0.0
 10
74.168638
 20
173.743960
 30
0.0
 10
74.049704
 20
173.741780
 30
0.0
 11
75.120423
 21
173.753168
 31
0.0
 11
74.763471
 21
173.751891
 31
0.0
 11
74.406512
 21
173.747920
 31
0.0
 11
74.049704
 21
173.741780
 31
0.0
  0
SPLINE
  5
101
100
AcDbEntity
  8
Layer_1
 62
5
100
AcDbSpline
 70
0
 71
3
 72
10
 73
6
 74
4
 40
0.000000
 40
0.000000
 40
0.000000
 40
0.000000
 40
6.138844
 40
12.166988
 40
17.935434
 40
17.935434
 40
17.935434
 40
17.935434
 10
74.049704
 20
173.741780
 30
0.0
 10
72.016271
 20
173.517678
 30
0.0
 10
67.986073
 20
173.073516
 30
0.0
 10
62.286951
 20
170.580841
 30
0.0
 10
59.894456
 20
167.389996
 30
0.0
 10
58.724543
 20
165.829697
 30
0.0
 11
74.049704
 21
173.741780
 31
0.0
 11
67.991166
 21
172.752074
 31
0.0
 11
62.558510
 21
170.139647
 31
0.0
 11
58.724543
 21
165.829697
 31
0.0
  0
SPLINE
  5
102
100
AcDbEntity
  8
Layer_1
 62
5
100
AcDbSpline
 70
0
 71
3
 72
10
 73
6
 74
4
 40
0.000000
 40
0.000000
 40
0.000000
 40
0.000000
 40
3.849650
 40
7.732205
 40
11.773204
 40
11.773204
 40
11.773204
 40
11.773204
 10
58.724543
 20
165.829697
 30
0.0
 10
58.328651
 20
164.573992
 30
0.0
 10
57.533482
 20
162.051850
 30
0.0
 10
59.130076
 20
158.134421
 30
0.0
 10
61.146695
 20
156.410969
 30
0.0
 10
62.175167
 20
155.532011
 30
0.0
 11
58.724543
 21
165.829697
 31
0.0
 11
57.993889
 21
162.050021
 31
0.0
 11
59.334785
 21
158.406365
 31
0.0
 11
62.175167
 21
155.532011
 31
0.0
  0
SPLINE
  5
103
100
AcDbEntity
  8
Layer_1
 62
5
100
AcDbSpline
 70
0
 71
3
 72
10
 73
6
 74
4
 40
0.000000
 40
0.000000
 40
0.000000
 40
0.000000
 40
6.745999
 40
13.630082
 40
20.424605
 40
20.424605
 40
20.424605
 40
20.424605
 10
62.175167
 20
155.532011
 30
0.0
 10
64.188688
 20
154.491281
 30
0.0
 10
68.256945
 20
152.388517
 30
0.0
 10
75.327111
 20
152.069761
 30
0.0
 10
79.634970
 20
153.636254
 30
0.0
 10
81.774796
 20
154.414373
 30
0.0
 11
62.175167
 21
155.532011
 31
0.0
 11
68.374935
 21
152.872806
 31
0.0
 11
75.249931
 21
152.519202
 31
0.0
 11
81.774796
 21
154.414373
 31
0.0
  0
SPLINE
  5
104
100
AcDbEntity
  8
Layer_1
 62
5
100
AcDbSpline
 70
0
 71
3
 72
10
 73
6
 74
4
 40
0.000000
 40
0.000000
 40
0.000000
 40
0.000000
 40
3.731849
 40
7.285928
 40
10.772511
 40
10.772511
 40
10.772511
 40
10.772511
 10
81.774796
 20
154.414373
 30
0.0
 10
82.833035
 20
155.069129
 30
0.0
 10
84.899102
 20
156.347451
 30
0.0
 10
87.014121
 20
159.615633
 30
0.0
 10
86.574334
 20
161.999277
 30
0.0
 10
86.356549
 20
163.179673
 30
0.0
 11
81.774796
 21
154.414373
 31
0.0
 11
84.782768
 21
156.623175
 31
0.0
 11
86.563068
 21
159.699212
 31
0.0
 11
86.356549
 21
163.179673
 31
0.0
  0
SPLINE
  5
105
100
AcDbEntity
  8
Layer_1
 62
5
100
AcDbSpline
 70
0
 71
3
 72
10
 73
6
 74
4
 40
0.000000
 40
0.000000
 40
0.000000
 40
0.000000
 40
4.309826
 40
8.844049
 40
13.489818
 40
13.489818
 40
13.489818
 40
13.489818
 10
86.356549
 20
163.179673
 30
0.0
 10
85.583107
 20
164.428455
 30
0.0
 10
83.995952
 20
166.991038
 30
0.0
 10
79.594201
 20
168.773548
 30
0.0
 10
76.547743
 20
168.969436
 30
0.0
 10
75.006006
 20
169.068569
 30
0.0
 11
86.356549
 21
163.179673
 31
0.0
 11
83.727820
 21
166.594990
 31
0.0
 11
79.618155
 21
168.510667
 31
0.0
 11
75.006006
 21
169.068569
 31
0.0
  0
SPLINE
  5
106
100
AcDbEntity
  8
Layer_1
 62
5
100
AcDbSpline
 70
0
 71
3
 72
10
 73
6
 74
4
 40
0.000000
 40
0.000000
 40
0.000000
 40
0.000000
 40
3.932460
 40
7.804543
 40
11.454081
 40
11.454081
 40
11.454081
 40
11.454081
 10
75.006006
 20
169.068569
 30
0.0
 10
73.703706
 20
168.956584
 30
0.0
 10
71.119101
 20
168.734333
 30
0.0
 10
67.387068
 20
167.275230
 30
0.0
 10
65.943991
 20
165.163358
 30
0.0
 10
65.243801
 20
164.138664
 30
0.0
 11
75.006006
 21
169.068569
 31
0.0
 11
71.109689
 21
168.536629
 31
0.0
 11
67.581600
 21
166.941131
 31
0.0
 11
65.243801
 21
164.138664
 31
0.0
  0
SPLINE
  5
107
100
AcDbEntity
  8
Layer_1
 62
5
100
AcDbSpline
 70
0
 71
3
 72
10
 73
6
 74
4
 40
0.000000
 40
0.000000
 40
0.000000
 40
0.000000
 40
3.046723
 40
6.208536
 40
9.565663
 40
9.565663
 40
9.565663
 40
9.565663
 10
65.243801
 20
164.138664
 30
0.0
 10
65.133356
 20
163.089810
 30
0.0
 10
64.908293
 20
160.952483
 30
0.0
 10
67.249964
 20
158.306490
 30
0.0
 10
69.334381
 20
157.656053
 30
0.0
 10
70.407815
 20
157.321091
 30
0.0
 11
65.243801
 21
164.138664
 31
0.0
 11
65.332669
 21
161.093237
 31
0.0
 11
67.317088
 21
158.631704
 31
0.0
 11
70.407815
 21
157.321091
 31
0.0
  0
SPLINE
  5
108
100
AcDbEntity
  8
Layer_1
 62
5
100
AcDbSpline
 70
0
 71
3
 72
10
 73
6
 74
4
 40
0.000000
 40
0.000000
 40
0.000000
 40
0.000000
 40
3.496280
 40
6.986957
 40
10.247467
 40
10.247467
 40
10.247467
 40
10.247467
 10
70.407815
 20
157.321091
 30
0.0
 10
71.559788
 20
157.176365
 30
0.0
 10
73.861889
 20
156.887145
 30
0.0
 10
77.426283
 20
157.599033
 30
0.0
 10
78.900622
 20
159.376888
 30
0.0
 10
79.612660
 20
160.235509
 30
0.0
 11
70.407815
 21
157.321091
 31
0.0
 11
73.895833
 21
157.080874
 31
0.0
 11
77.272707
 21
157.964927
 31
0.0
 11
79.612660
 21
160.235509
 31
0.0
  0
SPLINE
  5
109
100
AcDbEntity
  8
Layer_1
 62
5
100
AcDbSpline
 70
0
 71
3
 72
10
 73
6
 74
4
 40
0.000000
 40
0.000000
 40
0.000000
 40
0.000000
 40
1.369633
 40
2.805432
 40
4.196867
 40
4.196867
 40
4.196867
 40
4.196867
 10
79.612660
 20
160.235509
 30
0.0
 10
79.700083
 20
160.686889
 30
0.0
 10
79.879153
 20
161.611453
 30
0.0
 10
79.310297
 20
163.053650
 30
0.0
 10
78.415077
 20
163.436755
 30
0.0
 10
77.974491
 20
163.625302
 30
0.0
 11
79.612660
 21
160.235509
 31
0.0
 11
79.741616
 21
161.599058
 31
0.0
 11
79.172233
 21
162.917133
 31
0.0
 11
77.974491
 21
163.625302
 31
0.0
  0
SPLINE
  5
10a
100
AcDbEntity
  8
Layer_1
 62
5
100
AcDbSpline
 70
0
 71
3
 72
10
 73
6
 74
4
 40
0.000000
 40
0.000000
 40
0.000000
 40
0.000000
 40
0.544009
 40
1.014719
 40
1.573253
 40
1.573253
 40
1.573253
 40
1.573253
 10
77.974491
 20
163.625302
 30
0.0
 10
77.803753
 20
163.518133
 30
0.0
 10
77.485283
 20
163.318234
 30
0.0
 10
77.644329
 20
162.703358
 30
0.0
 10
77.950050
 20
162.532597
 30
0.0
 10
78.115953
 20
162.439931
 30
0.0
 11
77.974491
 21
163.625302
 31
0.0
 11
77.583298
 21
163.247263
 31
0.0
 11
77.677631
 21
162.786102
 31
0.0
 11
78.115953
 21
162.439931
 31
0.0
  0
SPLINE
  5
10b
100
AcDbEntity
  8
Layer_1
 62
5
100
AcDbSpline
 70
0
 71
3
 72
10
 73
6
 74
4
 40
0.000000
 40
0.000000
 40
0.000000
 40
0.000000
 40
1.895248
 40
3.908206
 40
6.024206
 40
6.024206
 40
6.024206
 40
6.024206
 10
78.115953
 20
162.439931
 30
0.0
 10
78.340495
 20
161.804151
 30
0.0
 10
78.803525
 20
160.493105
 30
0.0
 10
77.301905
 20
158.747835
 30
0.0
 10
76.025981
 20
158.258654
 30
0.0
 10
75.372099
 20
158.007959
 30
0.0
 11
78.115953
 21
162.439931
 31
0.0
 11
78.451595
 21
160.574640
 31
0.0
 11
77.268949
 21
158.945730
 31
0.0
 11
75.372099
 21
158.007959
 31
0.0
  0
SPLINE
  5
10c
100
AcDbEntity
  8
Layer_1
 62
5
100
AcDbSpline
 70
0
 71
3
 72
10
 73
6
 74
4
 40
0.000000
 40
0.000000
 40
0.000000
 40
0.000000
 40
3.705665
 40
7.378339
 40
10.794307
 40
10.794307
 40
10.794307
 40
10.794307
 10
75.372099
 20
158.007959
 30
0.0
 10
74.144295
 20
157.846424
 30
0.0
 10
71.699619
 20
157.524793
 30
0.0
 10
68.019811
 20
158.813015
 30
0.0
 10
66.814365
 20
160.918874
 30
0.0
 10
66.233468
 20
161.933673
 30
0.0
 11
75.372099
 21
158.007959
 31
0.0
 11
71.670875
 21
157.826594
 31
0.0
 11
68.257398
 21
159.181847
 31
0.0
 11
66.233468
 21
161.933673
 31
0.0
  0
SPLINE
  5
10d
100
AcDbEntity
  8
Layer_1
 62
5
100
AcDbSpline
 70
0
 71
3
 72
10
 73
6
 74
4
 40
0.000000
 40
0.000000
 40
0.000000
 40
0.000000
 40
2.887918
 40
5.970208
 40
9.158037
 40
9.158037
 40
9.158037
 40
9.158037
 10
66.233468
 20
161.933673
 30
0.0
 10
66.326523
 20
162.927923
 30
0.0
 10
66.518895
 20
164.983340
 30
0.0
 10
69.101520
 20
167.061369
 30
0.0
 10
71.080932
 20
167.696382
 30
0.0
 10
72.087297
 20
168.019232
 30
0.0
 11
66.233468
 21
161.933673
 31
0.0
 11
66.861568
 21
164.752461
 31
0.0
 11
69.122794
 21
166.847064
 31
0.0
 11
72.087297
 21
168.019232
 31
0.0
  0
SPLINE
  5
10e
100
AcDbEntity
  8
Layer_1
 62
5
100
AcDbSpline
 70
0
 71
3
 72
10
 73
6
 74
4
 40
0.000000
 40
0.000000
 40
0.000000
 40
0.000000
 40
5.298700
 40
10.528551
 40
15.446881
 40
15.446881
 40
15.446881
 40
15.446881
 10
72.087297
 20
168.019232
 30
0.0
 10
73.842711
 20
168.231983
 30
0.0
 10
77.330729
 20
168.654720
 30
0.0
 10
82.605290
 20
166.954200
 30
0.0
 10
84.459666
 20
164.020415
 30
0.0
 10
85.358391
 20
162.598552
 30
0.0
 11
72.087297
 21
168.019232
 31
0.0
 11
77.380666
 21
168.256844
 31
0.0
 11
82.283843
 21
166.437448
 31
0.0
 11
85.358391
 21
162.598552
 31
0.0
  0
SPLINE
  5
10f
100
AcDbEntity
  8
Layer_1
 62
5
100
AcDbSpline
 70
0
 71
3
 72
10
 73
6
 74
4
 40
0.000000
 40
0.000000
 40
0.000000
 40
0.000000
 40
3.295281
 40
6.723758
 40
10.283354
 40
10.283354
 40
10.283354
 40
10.283354
 10
85.358391
 20
162.598552
 30
0.0
 10
85.450046
 20
161.466172
 30
0.0
 10
85.637059
 20
159.155641
 30
0.0
 10
83.294647
 20
156.288838
 30
0.0
 10
81.268378
 20
155.157171
 30
0.0
 10
80.236234
 20
154.580721
 30
0.0
 11
85.358391
 21
162.598552
 31
0.0
 11
85.220559
 21
159.306155
 31
0.0
 11
83.219932
 21
156.521922
 31
0.0
 11
80.236234
 21
154.580721
 31
0.0
  0
SPLINE
  5
110
100
AcDbEntity
  8
Layer_1
 62
5
100
AcDbSpline
 70
0
 71
3
 72
10
 73
6
 74
4
 40
0.000000
 40
0.000000
 40
0.000000
 40
0.000000
 40
7.252539
 40
14.537350
 40
21.491447
 40
21.491447
 40
21.491447
 40
21.491447
 10
80.236234
 20
154.580721
 30
0.0
 10
77.904030
 20
153.897770
 30
0.0
 10
73.229246
 20
152.528829
 30
0.0
 10
65.725260
 20
153.785208
 30
0.0
 10
62.178213
 20
157.053475
 30
0.0
 10
60.445881
 20
158.649655
 30
0.0
 11
80.236234
 21
154.580721
 31
0.0
 11
73.139794
 21
153.084104
 31
0.0
 11
65.982682
 21
154.442125
 31
0.0
 11
60.445881
 21
158.649655
 31
0.0
  0
SPLINE
  5
111
100
AcDbEntity
  8
Layer_1
 62
5
100
AcDbSpline
 70
0
 71
3
 72
10
 73
6
 74
4
 40
0.000000
 40
0.000000
 40
0.000000
 40
0.000000
 40
3.833747
 40
7.668637
 40
11.654327
 40
11.654327
 40
11.654327
 40
11.654327
 10
60.445881
 20
158.649655
 30
0.0
 10
59.868685
 20
159.830907
 30
0.0
 10
58.714119
 20
162.193764
 30
0.0
 10
59.850959
 20
166.261309
 30
0.0
 10
61.710250
 20
168.111021
 30
0.0
 10
62.657821
 20
169.053711
 30
0.0
 11
60.445881
 21
158.649655
 31
0.0
 11
59.189803
 21
162.271793
 31
0.0
 11
60.099885
 21
165.997130
 31
0.0
 11
62.657821
 21
169.053711
 31
0.0
  0
SPLINE
  5
112
100
AcDbEntity
  8
Layer_1
 62
5
100
AcDbSpline
 70
0
 71
3
 72
10
 73
6
 74
4
 40
0.000000
 40
0.000000
 40
0.000000
 40
0.000000
 40
5.887498
 40
11.916170
 40
17.969818
 40
17.969818
 40
17.969818
 40
17.969818
 10
62.657821
 20
169.053711
 30
0.0
 10
64.321523
 20
170.130438
 30
0.0
 10
67.688820
 20
172.309710
 30
0.0
 10
73.766509
 20
173.233780
 30
0.0
 10
77.777731
 20
172.903232
 30
0.0
 10
79.787487
 20
172.737616
 30
0.0
 11
62.657821
 21
169.053711
 31
0.0
 11
67.810760
 21
171.901491
 31
0.0
 11
73.739335
 21
172.995513
 31
0.0
 11
79.787487
 21
172.737616
 31
0.0
  0
SPLINE
  5
113
100
AcDbEntity
  8
Layer_1
 62
5
100
AcDbSpline
 70
0
 71
3
 72
10
 73
6
 74
4
 40
0.000000
 40
0.000000
 40
0.000000
 40
0.000000
 40
0.577526
 40
1.288682
 40
2.003088
 40
2.003088
 40
2.003088
 40
2.003088
 10
79.787487
 20
172.737616
 30
0.0
 10
79.793980
 20
172.953038
 30
0.0
 10
79.808468
 20
173.433726
 30
0.0
 10
79.008339
 20
173.598113
 30
0.0
 10
78.552213
 20
173.588133
 30
0.0
 10
78.323630
 20
173.583132
 30
0.0
 11
79.787487
 21
172.737616
 31
0.0
 11
79.700671
 21
173.308579
 31
0.0
 11
79.037836
 21
173.566248
 31
0.0
 11
78.323630
 21
173.583132
 31
0.0
  0
SPLINE
  5
114
100
AcDbEntity
  8
Layer_1
 62
5
100
AcDbSpline
 70
0
 71
3
 72
10
 73
6
 74
4
 40
0.000000
 40
0.000000
 40
0.000000
 40
0.000000
 40
1.069504
 40
2.139068
 40
3.209396
 40
3.209396
 40
3.209396
 40
3.209396
 10
78.323630
 20
173.583132
 30
0.0
 10
77.968985
 20
173.620035
 30
0.0
 10
77.259675
 20
173.693843
 30
0.0
 10
76.190471
 20
173.743794
 30
0.0
 10
75.477191
 20
173.749971
 30
0.0
 10
75.120423
 20
173.753060
 30
0.0
 11
78.323630
 21
173.583132
 31
0.0
 11
77.258866
 21
173.683713
 31
0.0
 11
76.190630
 21
173.737005
 31
0.0
 11
75.120423
 21
173.753060
 31
0.0
  0
SPLINE
  5
115
100
AcDbEntity
  8
Layer_1
 62
5
100
AcDbSpline
 70
0
 71
3
 72
10
 73
6
 74
4
 40
0.000000
 40
0.000000
 40
0.000000
 40
0.000000
 40
0.341649
 40
0.683245
 40
1.024712
 40
1.024712
 40
1.024712
 40
1.024712
 10
-18.623381
 20
173.753168
 30
0.0
 10
-18.737265
 20
173.752852
 30
0.0
 10
-18.965013
 20
173.752221
 30
0.0
 10
-19.306563
 20
173.748044
 30
0.0
 10
-19.534218
 20
173.744229
 30
0.0
 10
-19.648025
 20
173.742323
 30
0.0
 11
-18.623381
 21
173.753168
 31
0.0
 11
-18.965027
 21
173.751682
 31
0.0
 11
-19.306601
 21
173.747786
 31
0.0
 11
-19.648025
 21
173.742323
 31
0.0
  0
SPLINE
  5
116
100
AcDbEntity
  8
Layer_1
 62
5
100
AcDbSpline
 70
0
 71
3
 72
10
 73
6
 74
4
 40
0.000000
 40
0.000000
 40
0.000000
 40
0.000000
 40
6.082400
 40
12.075980
 40
17.821739
 40
17.821739
 40
17.821739
 40
17.821739
 10
-19.648025
 20
173.742323
 30
0.0
 10
-21.662925
 20
173.518829
 30
0.0
 10
-25.663303
 20
173.075106
 30
0.0
 10
-31.321050
 20
170.601180
 30
0.0
 10
-33.728596
 20
167.448676
 30
0.0
 10
-34.906957
 20
165.905699
 30
0.0
 11
-19.648025
 21
173.742323
 31
0.0
 11
-25.650436
 21
172.759141
 31
0.0
 11
-31.055836
 21
170.169808
 31
0.0
 11
-34.906957
 21
165.905699
 31
0.0
  0
SPLINE
  5
117
100
AcDbEntity
  8
Layer_1
 62
5
100
AcDbSpline
 70
0
 71
3
 72
10
 73
6
 74
4
 40
0.000000
 40
0.000000
 40
0.000000
 40
0.000000
 40
4.053806
 40
8.143078
 40
12.432672
 40
12.432672
 40
12.432672
 40
12.432672
 10
-34.906957
 20
165.905699
 30
0.0
 10
-35.324863
 20
164.579697
 30
0.0
 10
-36.164332
 20
161.916092
 30
0.0
 10
-34.340938
 20
157.813180
 30
0.0
 10
-32.135924
 20
156.079987
 30
0.0
 10
-31.007058
 20
155.192672
 30
0.0
 11
-34.906957
 21
165.905699
 31
0.0
 11
-35.656659
 21
161.921820
 31
0.0
 11
-34.137808
 21
158.125080
 31
0.0
 11
-31.007058
 21
155.192672
 31
0.0
  0
SPLINE
  5
118
100
AcDbEntity
  8
Layer_1
 62
5
100
AcDbSpline
 70
0
 71
3
 72
10
 73
6
 74
4
 40
0.000000
 40
0.000000
 40
0.000000
 40
0.000000
 40
6.848778
 40
13.829706
 40
20.707971
 40
20.707971
 40
20.707971
 40
20.707971
 10
-31.007058
 20
155.192672
 30
0.0
 10
-28.923645
 20
154.221462
 30
0.0
 10
-24.716618
 20
152.260304
 30
0.0
 10
-17.535990
 20
152.138603
 30
0.0
 10
-13.251445
 20
153.947393
 30
0.0
 10
-11.125041
 20
154.845089
 30
0.0
 11
-31.007058
 21
155.192672
 31
0.0
 11
-24.612487
 21
152.740076
 31
0.0
 11
-17.632634
 21
152.617587
 31
0.0
 11
-11.125041
 21
154.845089
 31
0.0
  0
SPLINE
  5
119
100
AcDbEntity
  8
Layer_1
 62
5
100
AcDbSpline
 70
0
 71
3
 72
10
 73
6
 74
4
 40
0.000000
 40
0.000000
 40
0.000000
 40
0.000000
 40
3.504476
 40
6.856775
 40
10.176094
 40
10.176094
 40
10.176094
 40
10.176094
 10
-11.125041
 20
154.845089
 30
0.0
 10
-10.170756
 20
155.524560
 30
0.0
 10
-8.303623
 20
156.853996
 30
0.0
 10
-6.592071
 20
160.099427
 30
0.0
 10
-7.136870
 20
162.322927
 30
0.0
 10
-7.407923
 20
163.429182
 30
0.0
 11
-11.125041
 21
154.845089
 31
0.0
 11
-8.448661
 21
157.107464
 31
0.0
 11
-7.007385
 21
160.134118
 31
0.0
 11
-7.407923
 21
163.429182
 31
0.0
  0
SPLINE
  5
11a
100
AcDbEntity
  8
Layer_1
 62
5
100
AcDbSpline
 70
0
 71
3
 72
10
 73
6
 74
4
 40
0.000000
 40
0.000000
 40
0.000000
 40
0.000000
 40
4.469961
 40
9.215654
 40
14.046629
 40
14.046629
 40
14.046629
 40
14.046629
 10
-7.407923
 20
163.429182
 30
0.0
 10
-8.268442
 20
164.685463
 30
0.0
 10
-10.042560
 20
167.275518
 30
0.0
 10
-14.699651
 20
168.937187
 30
0.0
 10
-17.883860
 20
169.004727
 30
0.0
 10
-19.490143
 20
169.038798
 30
0.0
 11
-7.407923
 21
163.429182
 31
0.0
 11
-10.290919
 21
166.845158
 31
0.0
 11
-14.673613
 21
168.665484
 31
0.0
 11
-19.490143
 21
169.038798
 31
0.0
  0
SPLINE
  5
11b
100
AcDbEntity
  8
Layer_1
 62
5
100
AcDbSpline
 70
0
 71
3
 72
10
 73
6
 74
4
 40
0.000000
 40
0.000000
 40
0.000000
 40
0.000000
 40
3.805201
 40
7.547648
 40
11.054603
 40
11.054603
 40
11.054603
 40
11.054603
 10
-19.490143
 20
169.038798
 30
0.0
 10
-20.741244
 20
168.866904
 30
0.0
 10
-23.222815
 20
168.525950
 30
0.0
 10
-26.777741
 20
166.940357
 30
0.0
 10
-27.963489
 20
164.767365
 30
0.0
 10
-28.537104
 20
163.716164
 30
0.0
 11
-19.490143
 21
169.038798
 31
0.0
 11
-23.229619
 21
168.334613
 31
0.0
 11
-26.548186
 21
166.604578
 31
0.0
 11
-28.537104
 21
163.716164
 31
0.0
  0
SPLINE
  5
11c
100
AcDbEntity
  8
Layer_1
 62
5
100
AcDbSpline
 70
0
 71
3
 72
10
 73
6
 74
4
 40
0.000000
 40
0.000000
 40
0.000000
 40
0.000000
 40
2.845165
 40
5.796485
 40
8.902935
 40
8.902935
 40
8.902935
 40
8.902935
 10
-28.537104
 20
163.716164
 30
0.0
 10
-28.560987
 20
162.736996
 30
0.0
 10
-28.609643
 20
160.742128
 30
0.0
 10
-26.409746
 20
158.358152
 30
0.0
 10
-24.490696
 20
157.707939
 30
0.0
 10
-23.506599
 20
157.374507
 30
0.0
 11
-28.537104
 21
163.716164
 31
0.0
 11
-28.251950
 21
160.885324
 31
0.0
 11
-26.347868
 21
158.630382
 31
0.0
 11
-23.506599
 21
157.374507
 31
0.0
  0
SPLINE
  5
11d
100
AcDbEntity
  8
Layer_1
 62
5
100
AcDbSpline
 70
0
 71
3
 72
10
 73
6
 74
4
 40
0.000000
 40
0.000000
 40
0.000000
 40
0.000000
 40
3.454317
 40
6.900269
 40
10.151898
 40
10.151898
 40
10.151898
 40
10.151898
 10
-23.506599
 20
157.374507
 30
0.0
 10
-22.370182
 20
157.207892
 30
0.0
 10
-20.100098
 20
156.875066
 30
0.0
 10
-16.579379
 20
157.479726
 30
0.0
 10
-14.984433
 20
159.111239
 30
0.0
 10
-14.210098
 20
159.903328
 30
0.0
 11
-23.506599
 21
157.374507
 31
0.0
 11
-20.066532
 21
157.061067
 31
0.0
 11
-16.704649
 21
157.817590
 31
0.0
 11
-14.210098
 21
159.903328
 31
0.0
  0
SPLINE
  5
11e
100
AcDbEntity
  8
Layer_1
 62
5
100
AcDbSpline
 70
0
 71
3
 72
10
 73
6
 74
4
 40
0.000000
 40
0.000000
 40
0.000000
 40
0.000000
 40
1.475731
 40
2.995154
 40
4.488741
 40
4.488741
 40
4.488741
 40
4.488741
 10
-14.210098
 20
159.903328
 30
0.0
 10
-14.048956
 20
160.376543
 30
0.0
 10
-13.721902
 20
161.336985
 30
0.0
 10
-14.258290
 20
162.909737
 30
0.0
 10
-15.159784
 20
163.408778
 30
0.0
 10
-15.606666
 20
163.656159
 30
0.0
 11
-14.210098
 21
159.903328
 31
0.0
 11
-13.892954
 21
161.344578
 31
0.0
 11
-14.399071
 21
162.777230
 31
0.0
 11
-15.606666
 21
163.656159
 31
0.0
  0
SPLINE
  5
11f
100
AcDbEntity
  8
Layer_1
 62
5
100
AcDbSpline
 70
0
 71
3
 72
10
 73
6
 74
4
 40
0.000000
 40
0.000000
 40
0.000000
 40
0.000000
 40
0.626046
 40
1.176399
 40
1.810958
 40
1.810958
 40
1.810958
 40
1.810958
 10
-15.606666
 20
163.656159
 30
0.0
 10
-15.812989
 20
163.532007
 30
0.0
 10
-16.200688
 20
163.298713
 30
0.0
 10
-15.904392
 20
162.624777
 30
0.0
 10
-15.591465
 20
162.396401
 30
0.0
 10
-15.423883
 20
162.274098
 30
0.0
 11
-15.606666
 21
163.656159
 31
0.0
 11
-16.061325
 21
163.225788
 31
0.0
 11
-15.892484
 21
162.701974
 31
0.0
 11
-15.423883
 21
162.274098
 31
0.0
  0
SPLINE
  5
120
100
AcDbEntity
  8
Layer_1
 62
5
100
AcDbSpline
 70
0
 71
3
 72
10
 73
6
 74
4
 40
0.000000
 40
0.000000
 40
0.000000
 40
0.000000
 40
1.946407
 40
4.046678
 40
6.233241
 40
6.233241
 40
6.233241
 40
6.233241
 10
-15.423883
 20
162.274098
 30
0.0
 10
-15.275089
 20
161.600876
 30
0.0
 10
-14.965739
 20
160.201214
 30
0.0
 10
-16.663468
 20
158.557599
 30
0.0
 10
-18.012241
 20
158.123928
 30
0.0
 10
-18.700202
 20
157.902727
 30
0.0
 11
-15.423883
 21
162.274098
 31
0.0
 11
-15.304059
 21
160.331383
 31
0.0
 11
-16.683455
 21
158.747588
 31
0.0
 11
-18.700202
 21
157.902727
 31
0.0
  0
SPLINE
  5
121
100
AcDbEntity
  8
Layer_1
 62
5
100
AcDbSpline
 70
0
 71
3
 72
10
 73
6
 74
4
 40
0.000000
 40
0.000000
 40
0.000000
 40
0.000000
 40
3.618081
 40
7.181133
 40
10.504196
 40
10.504196
 40
10.504196
 40
10.504196
 10
-18.700202
 20
157.902727
 30
0.0
 10
-19.903582
 20
157.801679
 30
0.0
 10
-22.292039
 20
157.601120
 30
0.0
 10
-25.831286
 20
158.957302
 30
0.0
 10
-26.927363
 20
161.046989
 30
0.0
 10
-27.456302
 20
162.055418
 30
0.0
 11
-18.700202
 21
157.902727
 31
0.0
 11
-22.318244
 21
157.885847
 31
0.0
 11
-25.584418
 21
159.309731
 31
0.0
 11
-27.456302
 21
162.055418
 31
0.0
  0
SPLINE
  5
122
100
AcDbEntity
  8
Layer_1
 62
5
100
AcDbSpline
 70
0
 71
3
 72
10
 73
6
 74
4
 40
0.000000
 40
0.000000
 40
0.000000
 40
0.000000
 40
3.013266
 40
6.237156
 40
9.560179
 40
9.560179
 40
9.560179
 40
9.560179
 10
-27.456302
 20
162.055418
 30
0.0
 10
-27.308633
 20
163.086540
 30
0.0
 10
-27.002974
 20
165.220858
 30
0.0
 10
-24.212943
 20
167.262407
 30
0.0
 10
-22.122563
 20
167.844801
 30
0.0
 10
-21.061547
 20
168.140408
 30
0.0
 11
-27.456302
 21
162.055418
 31
0.0
 11
-26.659791
 21
164.961506
 31
0.0
 11
-24.198290
 21
167.043446
 31
0.0
 11
-21.061547
 21
168.140408
 31
0.0
  0
SPLINE
  5
123
100
AcDbEntity
  8
Layer_1
 62
5
100
AcDbSpline
 70
0
 71
3
 72
10
 73
6
 74
4
 40
0.000000
 40
0.000000
 40
0.000000
 40
0.000000
 40
5.187593
 40
10.281885
 40
15.058918
 40
15.058918
 40
15.058918
 40
15.058918
 10
-21.061547
 20
168.140408
 30
0.0
 10
-19.336940
 20
168.285257
 30
0.0
 10
-15.918745
 20
168.572352
 30
0.0
 10
-10.834485
 20
166.770847
 30
0.0
 10
-9.096977
 20
163.877884
 30
0.0
 10
-8.256144
 20
162.477891
 30
0.0
 11
-21.061547
 21
168.140408
 31
0.0
 11
-15.874179
 21
168.188762
 31
0.0
 11
-11.152242
 21
166.276926
 31
0.0
 11
-8.256144
 21
162.477891
 31
0.0
  0
SPLINE
  5
124
100
AcDbEntity
  8
Layer_1
 62
5
100
AcDbSpline
 70
0
 71
3
 72
10
 73
6
 74
4
 40
0.000000
 40
0.000000
 40
0.000000
 40
0.000000
 40
3.448479
 40
7.072316
 40
10.823220
 40
10.823220
 40
10.823220
 40
10.823220
 10
-8.256144
 20
162.477891
 30
0.0
 10
-8.218877
 20
161.290532
 30
0.0
 10
-8.142446
 20
158.855434
 30
0.0
 10
-10.739574
 20
155.949845
 30
0.0
 10
-12.935040
 20
154.862288
 30
0.0
 10
-14.051687
 20
154.309141
 30
0.0
 11
-8.256144
 21
162.477891
 31
0.0
 11
-8.566001
 21
159.043361
 31
0.0
 11
-10.811904
 21
156.199401
 31
0.0
 11
-14.051687
 21
154.309141
 31
0.0
  0
SPLINE
  5
125
100
AcDbEntity
  8
Layer_1
 62
5
100
AcDbSpline
 70
0
 71
3
 72
10
 73
6
 74
4
 40
0.000000
 40
0.000000
 40
0.000000
 40
0.000000
 40
6.968063
 40
13.950970
 40
20.640756
 40
20.640756
 40
20.640756
 40
20.640756
 10
-14.051687
 20
154.309141
 30
0.0
 10
-16.312634
 20
153.730138
 30
0.0
 10
-20.839343
 20
152.570898
 30
0.0
 10
-27.989486
 20
153.880581
 30
0.0
 10
-31.428348
 20
156.971897
 30
0.0
 10
-33.110917
 20
158.484418
 30
0.0
 11
-14.051687
 21
154.309141
 31
0.0
 11
-20.910872
 21
153.082156
 31
0.0
 11
-27.752598
 21
154.479214
 31
0.0
 11
-33.110917
 21
158.484418
 31
0.0
  0
SPLINE
  5
126
100
AcDbEntity
  8
Layer_1
 62
5
100
AcDbSpline
 70
0
 71
3
 72
10
 73
6
 74
4
 40
0.000000
 40
0.000000
 40
0.000000
 40
0.000000
 40
3.804334
 40
7.579098
 40
11.494012
 40
11.494012
 40
11.494012
 40
11.494012
 10
-33.110917
 20
158.484418
 30
0.0
 10
-33.714502
 20
159.639214
 30
0.0
 10
-34.916980
 20
161.939829
 30
0.0
 10
-33.957004
 20
165.988626
 30
0.0
 10
-32.184104
 20
167.864906
 30
0.0
 10
-31.281498
 20
168.820145
 30
0.0
 11
-33.110917
 21
158.484418
 31
0.0
 11
-34.459213
 21
162.041812
 31
0.0
 11
-33.696254
 21
165.738667
 31
0.0
 11
-31.281498
 21
168.820145
 31
0.0
  0
SPLINE
  5
127
100
AcDbEntity
  8
Layer_1
 62
5
100
AcDbSpline
 70
0
 71
3
 72
10
 73
6
 74
4
 40
0.000000
 40
0.000000
 40
0.000000
 40
0.000000
 40
5.997745
 40
12.145365
 40
18.318645
 40
18.318645
 40
18.318645
 40
18.318645
 10
-31.281498
 20
168.820145
 30
0.0
 10
-29.609302
 20
169.953215
 30
0.0
 10
-26.223124
 20
172.247669
 30
0.0
 10
-20.024041
 20
173.243982
 30
0.0
 10
-15.934405
 20
172.891953
 30
0.0
 10
-13.885329
 20
172.715572
 30
0.0
 11
-31.281498
 21
168.820145
 31
0.0
 11
-26.088386
 21
171.820901
 31
0.0
 11
-20.052589
 21
172.988115
 31
0.0
 11
-13.885329
 21
172.715572
 31
0.0
  0
SPLINE
  5
128
100
AcDbEntity
  8
Layer_1
 62
5
100
AcDbSpline
 70
0
 71
3
 72
10
 73
6
 74
4
 40
0.000000
 40
0.000000
 40
0.000000
 40
0.000000
 40
0.641824
 40
1.444155
 40
2.225694
 40
2.225694
 40
2.225694
 40
2.225694
 10
-13.885329
 20
172.715572
 30
0.0
 10
-13.886246
 20
172.958505
 30
0.0
 10
-13.888311
 20
173.505123
 30
0.0
 10
-14.804357
 20
173.580983
 30
0.0
 10
-15.307170
 20
173.601086
 30
0.0
 10
-15.555276
 20
173.611006
 30
0.0
 11
-13.885329
 21
172.715572
 31
0.0
 11
-14.005074
 21
173.346126
 31
0.0
 11
-14.774662
 21
173.572998
 31
0.0
 11
-15.555276
 21
173.611006
 31
0.0
  0
LWPOLYLINE
  5
129
100
AcDbEntity
  8
Layer_1
 62
5
100
AcDbPolyline
 90
2
 70
1
 10
75.120423
 20
173.753060
 30
0.0
 10
75.120423
 20
173.753168
 30
0.0
  0
SPLINE
  5
12a
100
AcDbEntity
  8
Layer_1
 62
5
100
AcDbSpline
 70
0
 71
3
 72
10
 73
6
 74
4
 40
0.000000
 40
0.000000
 40
0.000000
 40
0.000000
 40
1.023840
 40
2.048006
 40
3.072810
 40
3.072810
 40
3.072810
 40
3.072810
 10
-15.555276
 20
173.611006
 30
0.0
 10
-15.895093
 20
173.643159
 30
0.0
 10
-16.574834
 20
173.707474
 30
0.0
 10
-17.598804
 20
173.747597
 30
0.0
 10
-18.281785
 20
173.751203
 30
0.0
 10
-18.623381
 20
173.753006
 30
0.0
 11
-15.555276
 21
173.611006
 31
0.0
 11
-16.575407
 21
173.698073
 31
0.0
 11
-17.598639
 21
173.741805
 31
0.0
 11
-18.623381
 21
173.753006
 31
0.0
  0
SPLINE
  5
12b
100
AcDbEntity
  8
Layer_1
 62
5
100
AcDbSpline
 70
0
 71
3
 72
10
 73
6
 74
4
 40
0.000000
 40
0.000000
 40
0.000000
 40
0.000000
 40
0.359634
 40
0.719234
 40
1.078751
 40
1.078751
 40
1.078751
 40
1.078751
 10
12.663233
 20
173.753168
 30
0.0
 10
12.543355
 20
173.752851
 30
0.0
 10
12.303610
 20
173.752216
 30
0.0
 10
11.944043
 20
173.748352
 30
0.0
 10
11.704371
 20
173.744332
 30
0.0
 10
11.584549
 20
173.742323
 30
0.0
 11
12.663233
 21
173.753168
 31
0.0
 11
12.303601
 21
173.751730
 31
0.0
 11
11.944021
 21
173.747991
 31
0.0
 11
11.584549
 21
173.742323
 31
0.0
  0
SPLINE
  5
12c
100
AcDbEntity
  8
Layer_1
 62
5
100
AcDbSpline
 70
0
 71
3
 72
10
 73
6
 74
4
 40
0.000000
 40
0.000000
 40
0.000000
 40
0.000000
 40
6.231962
 40
12.361695
 40
18.177642
 40
18.177642
 40
18.177642
 40
18.177642
 10
11.584549
 20
173.742323
 30
0.0
 10
9.521425
 20
173.509432
 30
0.0
 10
5.429021
 20
173.047472
 30
0.0
 10
-0.343459
 20
170.475903
 30
0.0
 10
-2.689875
 20
167.183992
 30
0.0
 10
-3.832265
 20
165.581272
 30
0.0
 11
11.584549
 21
173.742323
 31
0.0
 11
5.437578
 21
172.716600
 31
0.0
 11
-0.062088
 21
170.009703
 31
0.0
 11
-3.832265
 21
165.581272
 31
0.0
  0
SPLINE
  5
12d
100
AcDbEntity
  8
Layer_1
 62
5
100
AcDbSpline
 70
0
 71
3
 72
10
 73
6
 74
4
 40
0.000000
 40
0.000000
 40
0.000000
 40
0.000000
 40
4.062028
 40
8.192380
 40
12.507747
 40
12.507747
 40
12.507747
 40
12.507747
 10
-3.832265
 20
165.581272
 30
0.0
 10
-4.184288
 20
164.232474
 30
0.0
 10
-4.894255
 20
161.512191
 30
0.0
 10
-2.844101
 20
157.495394
 30
0.0
 10
-0.575841
 20
155.816434
 30
0.0
 10
0.583134
 20
154.958564
 30
0.0
 11
-3.832265
 21
165.581272
 31
0.0
 11
-4.383662
 21
161.556843
 31
0.0
 11
-2.663024
 21
157.801951
 31
0.0
 11
0.583134
 21
154.958564
 31
0.0
  0
SPLINE
  5
12e
100
AcDbEntity
  8
Layer_1
 62
5
100
AcDbSpline
 70
0
 71
3
 72
10
 73
6
 74
4
 40
0.000000
 40
0.000000
 40
0.000000
 40
0.000000
 40
6.834660
 40
13.771880
 40
20.579595
 40
20.579595
 40
20.579595
 40
20.579595
 10
0.583134
 20
154.958564
 30
0.0
 10
2.685669
 20
154.044727
 30
0.0
 10
6.922290
 20
152.203342
 30
0.0
 10
14.055288
 20
152.194728
 30
0.0
 10
18.269714
 20
154.073300
 30
0.0
 10
20.357073
 20
155.003737
 30
0.0
 11
0.583134
 21
154.958564
 31
0.0
 11
7.022945
 21
152.669151
 31
0.0
 11
13.960163
 21
152.674674
 31
0.0
 11
20.357073
 21
155.003737
 31
0.0
  0
SPLINE
  5
12f
100
AcDbEntity
  8
Layer_1
 62
5
100
AcDbSpline
 70
0
 71
3
 72
10
 73
6
 74
4
 40
0.000000
 40
0.000000
 40
0.000000
 40
0.000000
 40
3.440590
 40
6.707828
 40
9.971433
 40
9.971433
 40
9.971433
 40
9.971433
 10
20.357073
 20
155.003737
 30
0.0
 10
21.278014
 20
155.695293
 30
0.0
 10
23.073496
 20
157.043562
 30
0.0
 10
24.631382
 20
160.274783
 30
0.0
 10
24.065907
 20
162.438709
 30
0.0
 10
23.783326
 20
163.520070
 30
0.0
 11
20.357073
 21
155.003737
 31
0.0
 11
22.923242
 21
157.295556
 31
0.0
 11
24.235053
 21
160.287879
 31
0.0
 11
23.783326
 21
163.520070
 31
0.0
  0
SPLINE
  5
130
100
AcDbEntity
  8
Layer_1
 62
5
100
AcDbSpline
 70
0
 71
3
 72
10
 73
6
 74
4
 40
0.000000
 40
0.000000
 40
0.000000
 40
0.000000
 40
4.352090
 40
8.963056
 40
13.657395
 40
13.657395
 40
13.657395
 40
13.657395
 10
23.783326
 20
163.520070
 30
0.0
 10
22.935007
 20
164.733631
 30
0.0
 10
21.187909
 20
167.232938
 30
0.0
 10
16.687033
 20
168.883291
 30
0.0
 10
13.593779
 20
168.996926
 30
0.0
 10
12.033295
 20
169.054253
 30
0.0
 11
23.783326
 21
163.520070
 31
0.0
 11
20.953862
 21
166.826854
 31
0.0
 11
16.707969
 21
168.625021
 31
0.0
 11
12.033295
 21
169.054253
 31
0.0
  0
SPLINE
  5
131
100
AcDbEntity
  8
Layer_1
 62
5
100
AcDbSpline
 70
0
 71
3
 72
10
 73
6
 74
4
 40
0.000000
 40
0.000000
 40
0.000000
 40
0.000000
 40
3.903989
 40
7.747472
 40
11.333766
 40
11.333766
 40
11.333766
 40
11.333766
 10
12.033295
 20
169.054253
 30
0.0
 10
10.746359
 20
168.900866
 30
0.0
 10
8.192433
 20
168.596469
 30
0.0
 10
4.529255
 20
167.011572
 30
0.0
 10
3.281026
 20
164.804221
 30
0.0
 10
2.678516
 20
163.738750
 30
0.0
 11
12.033295
 21
169.054253
 31
0.0
 11
8.185151
 21
168.396289
 31
0.0
 11
4.754719
 21
166.662939
 31
0.0
 11
2.678516
 21
163.738750
 31
0.0
  0
SPLINE
  5
132
100
AcDbEntity
  8
Layer_1
 62
5
100
AcDbSpline
 70
0
 71
3
 72
10
 73
6
 74
4
 40
0.000000
 40
0.000000
 40
0.000000
 40
0.000000
 40
3.019604
 40
6.180773
 40
9.524922
 40
9.524922
 40
9.524922
 40
9.524922
 10
2.678516
 20
163.738750
 30
0.0
 10
2.671437
 20
162.696255
 30
0.0
 10
2.656946
 20
160.562391
 30
0.0
 10
5.148217
 20
158.115911
 30
0.0
 10
7.246171
 20
157.541454
 30
0.0
 10
8.324654
 20
157.246146
 30
0.0
 11
2.678516
 21
163.738750
 31
0.0
 11
3.046585
 21
160.741663
 31
0.0
 11
5.193978
 21
158.421815
 31
0.0
 11
8.324654
 21
157.246146
 31
0.0
  0
SPLINE
  5
133
100
AcDbEntity
  8
Layer_1
 62
5
100
AcDbSpline
 70
0
 71
3
 72
10
 73
6
 74
4
 40
0.000000
 40
0.000000
 40
0.000000
 40
0.000000
 40
3.404071
 40
6.801333
 40
9.965316
 40
9.965316
 40
9.965316
 40
9.965316
 10
8.324654
 20
157.246146
 30
0.0
 10
9.449526
 20
157.137187
 30
0.0
 10
11.697021
 20
156.919486
 30
0.0
 10
15.145680
 20
157.698314
 30
0.0
 10
16.529838
 20
159.466151
 30
0.0
 10
17.197311
 20
160.318643
 30
0.0
 11
8.324654
 21
157.246146
 31
0.0
 11
11.725878
 21
157.106956
 31
0.0
 11
14.988754
 21
158.053016
 31
0.0
 11
17.197311
 21
160.318643
 31
0.0
  0
SPLINE
  5
134
100
AcDbEntity
  8
Layer_1
 62
5
100
AcDbSpline
 70
0
 71
3
 72
10
 73
6
 74
4
 40
0.000000
 40
0.000000
 40
0.000000
 40
0.000000
 40
1.328788
 40
2.701298
 40
4.042058
 40
4.042058
 40
4.042058
 40
4.042058
 10
17.197311
 20
160.318643
 30
0.0
 10
17.276003
 20
160.760485
 30
0.0
 10
17.435977
 20
161.658706
 30
0.0
 10
16.836854
 20
162.999402
 30
0.0
 10
16.026395
 20
163.438954
 30
0.0
 10
15.625907
 20
163.656159
 30
0.0
 11
17.197311
 21
160.318643
 31
0.0
 11
17.297794
 21
161.643627
 31
0.0
 11
16.727672
 21
162.892123
 31
0.0
 11
15.625907
 21
163.656159
 31
0.0
  0
SPLINE
  5
135
100
AcDbEntity
  8
Layer_1
 62
5
100
AcDbSpline
 70
0
 71
3
 72
10
 73
6
 74
4
 40
0.000000
 40
0.000000
 40
0.000000
 40
0.000000
 40
0.571470
 40
1.057176
 40
1.637968
 40
1.637968
 40
1.637968
 40
1.637968
 10
15.625907
 20
163.656159
 30
0.0
 10
15.441947
 20
163.563564
 30
0.0
 10
15.101635
 20
163.392270
 30
0.0
 10
15.124390
 20
162.719566
 30
0.0
 10
15.470351
 20
162.558483
 30
0.0
 10
15.658754
 20
162.470760
 30
0.0
 11
15.625907
 21
163.656159
 31
0.0
 11
15.177760
 21
163.301557
 31
0.0
 11
15.191751
 21
162.816052
 31
0.0
 11
15.658754
 21
162.470760
 31
0.0
  0
SPLINE
  5
136
100
AcDbEntity
  8
Layer_1
 62
5
100
AcDbSpline
 70
0
 71
3
 72
10
 73
6
 74
4
 40
0.000000
 40
0.000000
 40
0.000000
 40
0.000000
 40
1.921669
 40
3.962080
 40
6.106533
 40
6.106533
 40
6.106533
 40
6.106533
 10
15.658754
 20
162.470760
 30
0.0
 10
15.889539
 20
161.826913
 30
0.0
 10
16.365369
 20
160.499436
 30
0.0
 10
14.840457
 20
158.725919
 30
0.0
 10
13.539973
 20
158.246462
 30
0.0
 10
12.873565
 20
158.000774
 30
0.0
 11
15.658754
 21
162.470760
 31
0.0
 11
16.006427
 21
160.580804
 31
0.0
 11
14.805712
 21
158.931089
 31
0.0
 11
12.873565
 21
158.000774
 31
0.0
  0
SPLINE
  5
137
100
AcDbEntity
  8
Layer_1
 62
5
100
AcDbSpline
 70
0
 71
3
 72
10
 73
6
 74
4
 40
0.000000
 40
0.000000
 40
0.000000
 40
0.000000
 40
3.705034
 40
7.361706
 40
10.762536
 40
10.762536
 40
10.762536
 40
10.762536
 10
12.873565
 20
158.000774
 30
0.0
 10
11.645476
 20
157.846260
 30
0.0
 10
9.205329
 20
157.539250
 30
0.0
 10
5.538374
 20
158.834005
 30
0.0
 10
4.354993
 20
160.941736
 30
0.0
 10
3.784751
 20
161.957399
 30
0.0
 11
12.873565
 21
158.000774
 31
0.0
 11
9.172051
 21
157.839323
 31
0.0
 11
5.779045
 21
159.202686
 31
0.0
 11
3.784751
 21
161.957399
 31
0.0
  0
SPLINE
  5
138
100
AcDbEntity
  8
Layer_1
 62
5
100
AcDbSpline
 70
0
 71
3
 72
10
 73
6
 74
4
 40
0.000000
 40
0.000000
 40
0.000000
 40
0.000000
 40
2.829796
 40
5.837370
 40
8.953315
 40
8.953315
 40
8.953315
 40
8.953315
 10
3.784751
 20
161.957399
 30
0.0
 10
3.879133
 20
162.928788
 30
0.0
 10
4.073825
 20
164.932594
 30
0.0
 10
6.548824
 20
167.011562
 30
0.0
 10
8.481055
 20
167.644720
 30
0.0
 10
9.464268
 20
167.966901
 30
0.0
 11
3.784751
 21
161.957399
 31
0.0
 11
4.401356
 21
164.719200
 31
0.0
 11
6.576637
 21
166.796133
 31
0.0
 11
9.464268
 21
167.966901
 31
0.0
  0
SPLINE
  5
139
100
AcDbEntity
  8
Layer_1
 62
5
100
AcDbSpline
 70
0
 71
3
 72
10
 73
6
 74
4
 40
0.000000
 40
0.000000
 40
0.000000
 40
0.000000
 40
5.150377
 40
10.252488
 40
15.044515
 40
15.044515
 40
15.044515
 40
15.044515
 10
9.464268
 20
167.966901
 30
0.0
 10
11.167892
 20
168.199705
 30
0.0
 10
14.559173
 20
168.663132
 30
0.0
 10
19.705108
 20
167.179347
 30
0.0
 10
21.724123
 20
164.479907
 30
0.0
 10
22.701992
 20
163.172488
 30
0.0
 11
9.464268
 21
167.966901
 31
0.0
 11
14.604300
 21
168.293187
 31
0.0
 11
19.448131
 21
166.690427
 31
0.0
 11
22.701992
 21
163.172488
 31
0.0
  0
SPLINE
  5
13a
100
AcDbEntity
  8
Layer_1
 62
5
100
AcDbSpline
 70
0
 71
3
 72
10
 73
6
 74
4
 40
0.000000
 40
0.000000
 40
0.000000
 40
0.000000
 40
3.280714
 40
6.671873
 40
10.192494
 40
10.192494
 40
10.192494
 40
10.192494
 10
22.701992
 20
163.172488
 30
0.0
 10
22.938691
 20
162.063055
 30
0.0
 10
23.420058
 20
159.806841
 30
0.0
 10
21.358732
 20
156.729699
 30
0.0
 10
19.406185
 20
155.516118
 30
0.0
 10
18.411625
 20
154.897962
 30
0.0
 11
22.701992
 21
163.172488
 31
0.0
 11
22.969446
 21
159.902693
 31
0.0
 11
21.251383
 21
156.978960
 31
0.0
 11
18.411625
 21
154.897962
 31
0.0
  0
SPLINE
  5
13b
100
AcDbEntity
  8
Layer_1
 62
5
100
AcDbSpline
 70
0
 71
3
 72
10
 73
6
 74
4
 40
0.000000
 40
0.000000
 40
0.000000
 40
0.000000
 40
7.265378
 40
14.591416
 40
21.612797
 40
21.612797
 40
21.612797
 40
21.612797
 10
18.411625
 20
154.897962
 30
0.0
 10
16.103571
 20
154.125128
 30
0.0
 10
11.468193
 20
152.573006
 30
0.0
 10
3.880171
 20
153.516609
 30
0.0
 10
0.164622
 20
156.649029
 30
0.0
 10
-1.653704
 20
158.181981
 30
0.0
 11
18.411625
 21
154.897962
 31
0.0
 11
11.366596
 21
153.122212
 31
0.0
 11
4.117809
 21
154.183304
 31
0.0
 11
-1.653704
 21
158.181981
 31
0.0
  0
SPLINE
  5
13c
100
AcDbEntity
  8
Layer_1
 62
5
100
AcDbSpline
 70
0
 71
3
 72
10
 73
6
 74
4
 40
0.000000
 40
0.000000
 40
0.000000
 40
0.000000
 40
3.689948
 40
7.318779
 40
11.074313
 40
11.074313
 40
11.074313
 40
11.074313
 10
-1.653704
 20
158.181981
 30
0.0
 10
-2.300650
 20
159.261236
 30
0.0
 10
-3.583827
 20
161.401871
 30
0.0
 10
-3.053874
 20
165.367283
 30
0.0
 10
-1.469703
 20
167.285466
 30
0.0
 10
-0.664027
 20
168.261014
 30
0.0
 11
-1.653704
 21
158.181981
 31
0.0
 11
-3.179341
 21
161.541765
 31
0.0
 11
-2.762707
 21
165.146599
 31
0.0
 11
-0.664027
 21
168.261014
 31
0.0
  0
SPLINE
  5
13d
100
AcDbEntity
  8
Layer_1
 62
5
100
AcDbSpline
 70
0
 71
3
 72
10
 73
6
 74
4
 40
0.000000
 40
0.000000
 40
0.000000
 40
0.000000
 40
6.227758
 40
12.652826
 40
19.120653
 40
19.120653
 40
19.120653
 40
19.120653
 10
-0.664027
 20
168.261014
 30
0.0
 10
1.018660
 20
169.515096
 30
0.0
 10
4.437345
 20
172.062992
 30
0.0
 10
10.903242
 20
173.278963
 30
0.0
 10
15.183210
 20
172.883597
 30
0.0
 10
17.330291
 20
172.685258
 30
0.0
 11
-0.664027
 21
168.261014
 31
0.0
 11
4.592388
 21
171.600935
 31
0.0
 11
10.868932
 21
172.974435
 31
0.0
 11
17.330291
 21
172.685258
 31
0.0
  0
SPLINE
  5
13e
100
AcDbEntity
  8
Layer_1
 62
5
100
AcDbSpline
 70
0
 71
3
 72
10
 73
6
 74
4
 40
0.000000
 40
0.000000
 40
0.000000
 40
0.000000
 40
0.603929
 40
1.318459
 40
2.047686
 40
2.047686
 40
2.047686
 40
2.047686
 10
17.330291
 20
172.685258
 30
0.0
 10
17.352826
 20
172.911138
 30
0.0
 10
17.402023
 20
173.404265
 30
0.0
 10
16.587384
 20
173.607412
 30
0.0
 10
16.125276
 20
173.596775
 30
0.0
 10
15.891870
 20
173.591402
 30
0.0
 11
17.330291
 21
172.685258
 31
0.0
 11
17.277520
 21
173.286877
 31
0.0
 11
16.620729
 21
173.568266
 31
0.0
 11
15.891870
 21
173.591402
 31
0.0
  0
LWPOLYLINE
  5
13f
100
AcDbEntity
  8
Layer_1
 62
5
100
AcDbPolyline
 90
2
 70
1
 10
-18.623381
 20
173.753006
 30
0.0
 10
-18.623381
 20
173.753168
 30
0.0
  0
SPLINE
  5
140
100
AcDbEntity
  8
Layer_1
 62
5
100
AcDbSpline
 70
0
 71
3
 72
10
 73
6
 74
4
 40
0.000000
 40
0.000000
 40
0.000000
 40
0.000000
 40
1.077778
 40
2.155696
 40
3.234347
 40
3.234347
 40
3.234347
 40
3.234347
 10
15.891870
 20
173.591402
 30
0.0
 10
15.534370
 20
173.627551
 30
0.0
 10
14.819324
 20
173.699852
 30
0.0
 10
13.741617
 20
173.745785
 30
0.0
 10
13.022775
 20
173.750598
 30
0.0
 10
12.663233
 20
173.753006
 30
0.0
 11
15.891870
 21
173.591402
 31
0.0
 11
14.818559
 21
173.689427
 31
0.0
 11
13.741797
 21
173.739326
 31
0.0
 11
12.663233
 21
173.753006
 31
0.0
  0
SPLINE
  5
141
100
AcDbEntity
  8
Layer_1
 62
5
100
AcDbSpline
 70
0
 71
3
 72
10
 73
6
 74
4
 40
0.000000
 40
0.000000
 40
0.000000
 40
0.000000
 40
0.358943
 40
0.717813
 40
1.076621
 40
1.076621
 40
1.076621
 40
1.076621
 10
43.877263
 20
173.753168
 30
0.0
 10
43.757615
 20
173.752923
 30
0.0
 10
43.518343
 20
173.752433
 30
0.0
 10
43.159486
 20
173.748569
 30
0.0
 10
42.920296
 20
173.744405
 30
0.0
 10
42.800711
 20
173.742323
 30
0.0
 11
43.877263
 21
173.753168
 31
0.0
 11
43.518322
 21
173.751911
 31
0.0
 11
43.159471
 21
173.748171
 31
0.0
 11
42.800711
 21
173.742323
 31
0.0
  0
SPLINE
  5
142
100
AcDbEntity
  8
Layer_1
 62
5
100
AcDbSpline
 70
0
 71
3
 72
10
 73
6
 74
4
 40
0.000000
 40
0.000000
 40
0.000000
 40
0.000000
 40
6.247799
 40
12.402760
 40
18.263707
 40
18.263707
 40
18.263707
 40
18.263707
 10
42.800711
 20
173.742323
 30
0.0
 10
40.732377
 20
173.509486
 30
0.0
 10
36.626444
 20
173.047272
 30
0.0
 10
30.826354
 20
170.452671
 30
0.0
 10
28.490068
 20
167.122451
 30
0.0
 10
27.350508
 20
165.498084
 30
0.0
 11
42.800711
 21
173.742323
 31
0.0
 11
36.638121
 21
172.713989
 31
0.0
 11
31.121222
 21
169.985001
 31
0.0
 11
27.350508
 21
165.498084
 31
0.0
  0
SPLINE
  5
143
100
AcDbEntity
  8
Layer_1
 62
5
100
AcDbSpline
 70
0
 71
3
 72
10
 73
6
 74
4
 40
0.000000
 40
0.000000
 40
0.000000
 40
0.000000
 40
4.201211
 40
8.489973
 40
12.990849
 40
12.990849
 40
12.990849
 40
12.990849
 10
27.350508
 20
165.498084
 30
0.0
 10
27.014596
 20
164.093345
 30
0.0
 10
26.335774
 20
161.254591
 30
0.0
 10
28.635935
 20
157.159394
 30
0.0
 10
31.063325
 20
155.508977
 30
0.0
 10
32.306310
 20
154.663854
 30
0.0
 11
27.350508
 21
165.498084
 31
0.0
 11
26.877095
 21
161.323632
 31
0.0
 11
28.805768
 21
157.493005
 31
0.0
 11
32.306310
 21
154.663854
 31
0.0
  0
SPLINE
  5
144
100
AcDbEntity
  8
Layer_1
 62
5
100
AcDbSpline
 70
0
 71
3
 72
10
 73
6
 74
4
 40
0.000000
 40
0.000000
 40
0.000000
 40
0.000000
 40
6.775091
 40
13.653501
 40
20.406565
 40
20.406565
 40
20.406565
 40
20.406565
 10
32.306310
 20
154.663854
 30
0.0
 10
34.416889
 20
153.825754
 30
0.0
 10
38.670234
 20
152.136772
 30
0.0
 10
45.739417
 20
152.270335
 30
0.0
 10
49.868393
 20
154.249589
 30
0.0
 10
51.913897
 20
155.230117
 30
0.0
 11
32.306310
 21
154.663854
 31
0.0
 11
38.755367
 21
152.587436
 31
0.0
 11
45.631799
 21
152.752394
 31
0.0
 11
51.913897
 21
155.230117
 31
0.0
  0
SPLINE
  5
145
100
AcDbEntity
  8
Layer_1
 62
5
100
AcDbSpline
 70
0
 71
3
 72
10
 73
6
 74
4
 40
0.000000
 40
0.000000
 40
0.000000
 40
0.000000
 40
3.492529
 40
6.841756
 40
10.180124
 40
10.180124
 40
10.180124
 40
10.180124
 10
51.913897
 20
155.230117
 30
0.0
 10
52.822204
 20
155.969656
 30
0.0
 10
54.601547
 20
157.418391
 30
0.0
 10
55.936526
 20
160.860224
 30
0.0
 10
55.128077
 20
163.006974
 30
0.0
 10
54.724509
 20
164.078605
 30
0.0
 11
51.913897
 21
155.230117
 31
0.0
 11
54.408945
 21
157.673987
 31
0.0
 11
55.515222
 21
160.835232
 31
0.0
 11
54.724509
 21
164.078605
 31
0.0
  0
SPLINE
  5
146
100
AcDbEntity
  8
Layer_1
 62
5
100
AcDbSpline
 70
0
 71
3
 72
10
 73
6
 74
4
 40
0.000000
 40
0.000000
 40
0.000000
 40
0.000000
 40
4.756194
 40
9.756048
 40
14.805968
 40
14.805968
 40
14.805968
 40
14.805968
 10
54.724509
 20
164.078605
 30
0.0
 10
53.668489
 20
165.301264
 30
0.0
 10
51.502348
 20
167.809219
 30
0.0
 10
46.497129
 20
169.185986
 30
0.0
 10
43.156801
 20
168.977687
 30
0.0
 10
41.478316
 20
168.873019
 30
0.0
 11
54.724509
 21
164.078605
 31
0.0
 11
51.287423
 21
167.366131
 31
0.0
 11
46.528172
 21
168.898470
 31
0.0
 11
41.478316
 21
168.873019
 31
0.0
  0
SPLINE
  5
147
100
AcDbEntity
  8
Layer_1
 62
5
100
AcDbSpline
 70
0
 71
3
 72
10
 73
6
 74
4
 40
0.000000
 40
0.000000
 40
0.000000
 40
0.000000
 40
3.603716
 40
7.127681
 40
10.401990
 40
10.401990
 40
10.401990
 40
10.401990
 10
41.478316
 20
168.873019
 30
0.0
 10
40.314757
 20
168.604482
 30
0.0
 10
38.013390
 20
168.073353
 30
0.0
 10
34.818847
 20
166.183572
 30
0.0
 10
34.122145
 20
163.952800
 30
0.0
 10
33.786586
 20
162.878375
 30
0.0
 11
41.478316
 21
168.873019
 31
0.0
 11
38.016371
 21
167.872165
 31
0.0
 11
35.115965
 21
165.870673
 31
0.0
 11
33.786586
 21
162.878375
 31
0.0
  0
SPLINE
  5
148
100
AcDbEntity
  8
Layer_1
 62
5
100
AcDbSpline
 70
0
 71
3
 72
10
 73
6
 74
4
 40
0.000000
 40
0.000000
 40
0.000000
 40
0.000000
 40
2.893127
 40
5.927415
 40
9.091437
 40
9.091437
 40
9.091437
 40
9.091437
 10
33.786586
 20
162.878375
 30
0.0
 10
33.962660
 20
161.901550
 30
0.0
 10
34.323399
 20
159.900240
 30
0.0
 10
36.897715
 20
157.877642
 30
0.0
 10
38.911690
 20
157.409603
 30
0.0
 10
39.939754
 20
157.170686
 30
0.0
 11
33.786586
 21
162.878375
 31
0.0
 11
34.628719
 21
160.110525
 31
0.0
 11
36.923017
 21
158.124800
 31
0.0
 11
39.939754
 21
157.170686
 31
0.0
  0
SPLINE
  5
149
100
AcDbEntity
  8
Layer_1
 62
5
100
AcDbSpline
 70
0
 71
3
 72
10
 73
6
 74
4
 40
0.000000
 40
0.000000
 40
0.000000
 40
0.000000
 40
3.291009
 40
6.549101
 40
9.594360
 40
9.594360
 40
9.594360
 40
9.594360
 10
39.939754
 20
157.170686
 30
0.0
 10
41.029959
 20
157.102824
 30
0.0
 10
43.199466
 20
156.967780
 30
0.0
 10
46.495373
 20
157.787599
 30
0.0
 10
47.799726
 20
159.504590
 30
0.0
 10
48.429882
 20
160.334098
 30
0.0
 11
39.939754
 21
157.170686
 31
0.0
 11
43.230642
 21
157.142515
 31
0.0
 11
46.338453
 21
158.120610
 31
0.0
 11
48.429882
 21
160.334098
 31
0.0
  0
SPLINE
  5
14a
100
AcDbEntity
  8
Layer_1
 62
5
100
AcDbSpline
 70
0
 71
3
 72
10
 73
6
 74
4
 40
0.000000
 40
0.000000
 40
0.000000
 40
0.000000
 40
1.331215
 40
2.697725
 40
4.053285
 40
4.053285
 40
4.053285
 40
4.053285
 10
48.429882
 20
160.334098
 30
0.0
 10
48.501733
 20
160.776407
 30
0.0
 10
48.647340
 20
161.672752
 30
0.0
 10
48.064500
 20
163.028941
 30
0.0
 10
47.231459
 20
163.442489
 30
0.0
 10
46.816614
 20
163.648431
 30
0.0
 11
48.429882
 21
160.334098
 31
0.0
 11
48.515521
 21
161.662556
 31
0.0
 11
47.951629
 21
162.907295
 31
0.0
 11
46.816614
 21
163.648431
 31
0.0
  0
SPLINE
  5
14b
100
AcDbEntity
  8
Layer_1
 62
5
100
AcDbSpline
 70
0
 71
3
 72
10
 73
6
 74
4
 40
0.000000
 40
0.000000
 40
0.000000
 40
0.000000
 40
0.558991
 40
1.036652
 40
1.601170
 40
1.601170
 40
1.601170
 40
1.601170
 10
46.816614
 20
163.648431
 30
0.0
 10
46.637708
 20
163.551345
 30
0.0
 10
46.305925
 20
163.371299
 30
0.0
 10
46.378322
 20
162.721658
 30
0.0
 10
46.705921
 20
162.558914
 30
0.0
 10
46.883371
 20
162.470760
 30
0.0
 11
46.816614
 21
163.648431
 31
0.0
 11
46.389995
 21
163.287229
 31
0.0
 11
46.433313
 21
162.811536
 31
0.0
 11
46.883371
 21
162.470760
 31
0.0
  0
SPLINE
  5
14c
100
AcDbEntity
  8
Layer_1
 62
5
100
AcDbSpline
 70
0
 71
3
 72
10
 73
6
 74
4
 40
0.000000
 40
0.000000
 40
0.000000
 40
0.000000
 40
1.966718
 40
4.061163
 40
6.266403
 40
6.266403
 40
6.266403
 40
6.266403
 10
46.883371
 20
162.470760
 30
0.0
 10
47.111708
 20
161.807553
 30
0.0
 10
47.583210
 20
160.438066
 30
0.0
 10
45.965702
 20
158.657516
 30
0.0
 10
44.620983
 20
158.193558
 30
0.0
 10
43.931298
 20
157.955601
 30
0.0
 11
46.883371
 21
162.470760
 31
0.0
 11
47.211958
 21
160.531686
 31
0.0
 11
45.938571
 21
158.868801
 31
0.0
 11
43.931298
 21
157.955601
 31
0.0
  0
SPLINE
  5
14d
100
AcDbEntity
  8
Layer_1
 62
5
100
AcDbSpline
 70
0
 71
3
 72
10
 73
6
 74
4
 40
0.000000
 40
0.000000
 40
0.000000
 40
0.000000
 40
3.659718
 40
7.267516
 40
10.638630
 40
10.638630
 40
10.638630
 40
10.638630
 10
43.931298
 20
157.955601
 30
0.0
 10
42.715986
 20
157.824409
 30
0.0
 10
40.302605
 20
157.563886
 30
0.0
 10
36.697727
 20
158.889986
 30
0.0
 10
35.553218
 20
160.988751
 30
0.0
 10
35.000371
 20
162.002544
 30
0.0
 11
43.931298
 21
157.955601
 31
0.0
 11
40.272886
 21
157.857810
 31
0.0
 11
36.943640
 21
159.247891
 31
0.0
 11
35.000371
 21
162.002544
 31
0.0
  0
SPLINE
  5
14e
100
AcDbEntity
  8
Layer_1
 62
5
100
AcDbSpline
 70
0
 71
3
 72
10
 73
6
 74
4
 40
0.000000
 40
0.000000
 40
0.000000
 40
0.000000
 40
2.910108
 40
6.017515
 40
9.230132
 40
9.230132
 40
9.230132
 40
9.230132
 10
35.000371
 20
162.002544
 30
0.0
 10
35.116750
 20
163.000813
 30
0.0
 10
35.357398
 20
165.065030
 30
0.0
 10
37.979727
 20
167.127225
 30
0.0
 10
39.984866
 20
167.739072
 30
0.0
 10
41.004126
 20
168.050089
 30
0.0
 11
35.000371
 21
162.002544
 31
0.0
 11
35.693061
 21
164.829010
 31
0.0
 11
38.000503
 21
166.910281
 31
0.0
 11
41.004126
 21
168.050089
 31
0.0
  0
SPLINE
  5
14f
100
AcDbEntity
  8
Layer_1
 62
5
100
AcDbSpline
 70
0
 71
3
 72
10
 73
6
 74
4
 40
0.000000
 40
0.000000
 40
0.000000
 40
0.000000
 40
5.111753
 40
10.155171
 40
14.920612
 40
14.920612
 40
14.920612
 40
14.920612
 10
41.004126
 20
168.050089
 30
0.0
 10
42.699364
 20
168.244312
 30
0.0
 10
46.067179
 20
168.630161
 30
0.0
 10
51.140884
 20
167.047167
 30
0.0
 10
53.066033
 20
164.312639
 30
0.0
 10
54.001328
 20
162.984122
 30
0.0
 11
41.004126
 21
168.050089
 31
0.0
 11
46.111484
 21
168.262004
 31
0.0
 11
50.862562
 21
166.569868
 31
0.0
 11
54.001328
 21
162.984122
 31
0.0
  0
SPLINE
  5
150
100
AcDbEntity
  8
Layer_1
 62
5
100
AcDbSpline
 70
0
 71
3
 72
10
 73
6
 74
4
 40
0.000000
 40
0.000000
 40
0.000000
 40
0.000000
 40
3.214903
 40
6.565895
 40
10.054773
 40
10.054773
 40
10.054773
 40
10.054773
 10
54.001328
 20
162.984122
 30
0.0
 10
54.196450
 20
161.890999
 30
0.0
 10
54.594954
 20
159.658481
 30
0.0
 10
52.505633
 20
156.677781
 30
0.0
 10
50.577409
 20
155.474376
 30
0.0
 10
49.593861
 20
154.860544
 30
0.0
 11
54.001328
 21
162.984122
 31
0.0
 11
54.164060
 21
159.773340
 31
0.0
 11
52.412608
 21
156.916495
 31
0.0
 11
49.593861
 21
154.860544
 31
0.0
  0
SPLINE
  5
151
100
AcDbEntity
  8
Layer_1
 62
5
100
AcDbSpline
 70
0
 71
3
 72
10
 73
6
 74
4
 40
0.000000
 40
0.000000
 40
0.000000
 40
0.000000
 40
7.331046
 40
14.707155
 40
21.765012
 40
21.765012
 40
21.765012
 40
21.765012
 10
49.593861
 20
154.860544
 30
0.0
 10
47.261472
 20
154.081316
 30
0.0
 10
42.582357
 20
152.518071
 30
0.0
 10
34.954720
 20
153.610751
 30
0.0
 10
31.249280
 20
156.792540
 30
0.0
 10
29.437410
 20
158.348357
 30
0.0
 11
49.593861
 21
154.860544
 31
0.0
 11
42.478654
 21
153.094739
 31
0.0
 11
35.196518
 21
154.268404
 31
0.0
 11
29.437410
 21
158.348357
 31
0.0
  0
SPLINE
  5
152
100
AcDbEntity
  8
Layer_1
 62
5
100
AcDbSpline
 70
0
 71
3
 72
10
 73
6
 74
4
 40
0.000000
 40
0.000000
 40
0.000000
 40
0.000000
 40
3.722050
 40
7.409725
 40
11.216580
 40
11.216580
 40
11.216580
 40
11.216580
 10
29.437410
 20
158.348357
 30
0.0
 10
28.813464
 20
159.457893
 30
0.0
 10
27.571334
 20
161.666718
 30
0.0
 10
28.327966
 20
165.651210
 30
0.0
 10
29.984563
 20
167.547403
 30
0.0
 10
30.826033
 20
168.510577
 30
0.0
 11
29.437410
 21
158.348357
 31
0.0
 11
28.005113
 21
161.783786
 31
0.0
 11
28.598608
 21
165.423390
 31
0.0
 11
30.826033
 21
168.510577
 31
0.0
  0
SPLINE
  5
153
100
AcDbEntity
  8
Layer_1
 62
5
100
AcDbSpline
 70
0
 71
3
 72
10
 73
6
 74
4
 40
0.000000
 40
0.000000
 40
0.000000
 40
0.000000
 40
6.122180
 40
12.426622
 40
18.766093
 40
18.766093
 40
18.766093
 40
18.766093
 10
30.826033
 20
168.510577
 30
0.0
 10
32.501905
 20
169.713165
 30
0.0
 10
35.903540
 20
172.154142
 30
0.0
 10
42.255009
 20
173.267670
 30
0.0
 10
46.451083
 20
172.879753
 30
0.0
 10
48.554933
 20
172.685258
 30
0.0
 11
30.826033
 21
168.510577
 31
0.0
 11
36.048846
 21
171.704838
 31
0.0
 11
42.222440
 21
172.982623
 31
0.0
 11
48.554933
 21
172.685258
 31
0.0
  0
SPLINE
  5
154
100
AcDbEntity
  8
Layer_1
 62
5
100
AcDbSpline
 70
0
 71
3
 72
10
 73
6
 74
4
 40
0.000000
 40
0.000000
 40
0.000000
 40
0.000000
 40
0.604534
 40
1.322105
 40
2.058850
 40
2.058850
 40
2.058850
 40
2.058850
 10
48.554933
 20
172.685258
 30
0.0
 10
48.576427
 20
172.911899
 30
0.0
 10
48.623433
 20
173.407561
 30
0.0
 10
47.799799
 20
173.598595
 30
0.0
 10
47.335001
 20
173.588692
 30
0.0
 10
47.099539
 20
173.583675
 30
0.0
 11
48.554933
 21
172.685258
 31
0.0
 11
48.499004
 21
173.287199
 31
0.0
 11
47.835952
 21
173.561553
 31
0.0
 11
47.099539
 21
173.583675
 31
0.0
  0
LWPOLYLINE
  5
155
100
AcDbEntity
  8
Layer_1
 62
5
100
AcDbPolyline
 90
2
 70
1
 10
12.663233
 20
173.753006
 30
0.0
 10
12.663233
 20
173.753168
 30
0.0
  0
SPLINE
  5
156
100
AcDbEntity
  8
Layer_1
 62
5
100
AcDbSpline
 70
0
 71
3
 72
10
 73
6
 74
4
 40
0.000000
 40
0.000000
 40
0.000000
 40
0.000000
 40
1.075758
 40
2.151736
 40
3.228460
 40
3.228460
 40
3.228460
 40
3.228460
 10
47.099539
 20
173.583675
 30
0.0
 10
46.742832
 20
173.620953
 30
0.0
 10
46.029346
 20
173.695518
 30
0.0
 10
44.953711
 20
173.744434
 30
0.0
 10
44.236162
 20
173.750148
 30
0.0
 10
43.877263
 20
173.753006
 30
0.0
 11
47.099539
 21
173.583675
 31
0.0
 11
46.028565
 21
173.685022
 31
0.0
 11
44.953878
 21
173.737702
 31
0.0
 11
43.877263
 21
173.753006
 31
0.0
  0
SPLINE
  5
157
100
AcDbEntity
  8
Layer_1
 62
5
100
AcDbSpline
 70
0
 71
3
 72
10
 73
6
 74
4
 40
0.000000
 40
0.000000
 40
0.000000
 40
0.000000
 40
0.338270
 40
0.676563
 40
1.014637
 40
1.014637
 40
1.014637
 40
1.014637
 10
106.288364
 20
173.753168
 30
0.0
 10
106.175607
 20
173.752796
 30
0.0
 10
105.950086
 20
173.752051
 30
0.0
 10
105.611895
 20
173.747996
 30
0.0
 10
105.386470
 20
173.744213
 30
0.0
 10
105.273795
 20
173.742323
 30
0.0
 11
106.288364
 21
173.753168
 31
0.0
 11
105.950098
 21
173.751562
 31
0.0
 11
105.611826
 21
173.747725
 31
0.0
 11
105.273795
 21
173.742323
 31
0.0
  0
SPLINE
  5
158
100
AcDbEntity
  8
Layer_1
 62
5
100
AcDbSpline
 70
0
 71
3
 72
10
 73
6
 74
4
 40
0.000000
 40
0.000000
 40
0.000000
 40
0.000000
 40
6.203604
 40
12.293322
 40
18.107597
 40
18.107597
 40
18.107597
 40
18.107597
 10
105.273795
 20
173.742323
 30
0.0
 10
103.219391
 20
173.514814
 30
0.0
 10
99.148299
 20
173.063973
 30
0.0
 10
93.393833
 20
170.524062
 30
0.0
 10
91.028991
 20
167.263936
 30
0.0
 10
89.873929
 20
165.671591
 30
0.0
 11
105.273795
 21
173.742323
 31
0.0
 11
99.152439
 21
172.735491
 31
0.0
 11
93.677437
 21
170.069219
 31
0.0
 11
89.873929
 21
165.671591
 31
0.0
  0
SPLINE
  5
159
100
AcDbEntity
  8
Layer_1
 62
5
100
AcDbSpline
 70
0
 71
3
 72
10
 73
6
 74
4
 40
0.000000
 40
0.000000
 40
0.000000
 40
0.000000
 40
4.052117
 40
8.151304
 40
12.425284
 40
12.425284
 40
12.425284
 40
12.425284
 10
89.873929
 20
165.671591
 30
0.0
 10
89.500634
 20
164.331863
 30
0.0
 10
88.749706
 20
161.636844
 30
0.0
 10
90.724699
 20
157.614343
 30
0.0
 10
92.952457
 20
155.920971
 30
0.0
 10
94.089589
 20
155.056610
 30
0.0
 11
89.873929
 21
165.671591
 31
0.0
 11
89.259794
 21
161.666284
 31
0.0
 11
90.911865
 21
157.914751
 31
0.0
 11
94.089589
 21
155.056610
 31
0.0
  0
SPLINE
  5
15a
100
AcDbEntity
  8
Layer_1
 62
5
100
AcDbSpline
 70
0
 71
3
 72
10
 73
6
 74
4
 40
0.000000
 40
0.000000
 40
0.000000
 40
0.000000
 40
6.691625
 40
13.500302
 40
20.183225
 40
20.183225
 40
20.183225
 40
20.183225
 10
94.089589
 20
155.056610
 30
0.0
 10
96.135394
 20
154.131331
 30
0.0
 10
100.262792
 20
152.264588
 30
0.0
 10
107.245989
 20
152.155508
 30
0.0
 10
111.437948
 20
153.858391
 30
0.0
 10
113.514391
 20
154.701896
 30
0.0
 11
94.089589
 21
155.056610
 31
0.0
 11
100.360553
 21
152.721476
 31
0.0
 11
107.168269
 21
152.607092
 31
0.0
 11
113.514391
 21
154.701896
 31
0.0
  0
SPLINE
  5
15b
100
AcDbEntity
  8
Layer_1
 62
5
100
AcDbSpline
 70
0
 71
3
 72
10
 73
6
 74
4
 40
0.000000
 40
0.000000
 40
0.000000
 40
0.000000
 40
3.628640
 40
7.083541
 40
10.482316
 40
10.482316
 40
10.482316
 40
10.482316
 10
113.514391
 20
154.701896
 30
0.0
 10
114.515941
 20
155.385076
 30
0.0
 10
116.471086
 20
156.718725
 30
0.0
 10
118.304008
 20
160.035437
 30
0.0
 10
117.748198
 20
162.324373
 30
0.0
 10
117.472570
 20
163.459469
 30
0.0
 11
113.514391
 21
154.701896
 31
0.0
 11
116.331013
 21
156.989617
 31
0.0
 11
117.868051
 21
160.083782
 31
0.0
 11
117.472570
 21
163.459469
 31
0.0
  0
SPLINE
  5
15c
100
AcDbEntity
  8
Layer_1
 62
5
100
AcDbSpline
 70
0
 71
3
 72
10
 73
6
 74
4
 40
0.000000
 40
0.000000
 40
0.000000
 40
0.000000
 40
4.435841
 40
9.166545
 40
13.977659
 40
13.977659
 40
13.977659
 40
13.977659
 10
117.472570
 20
163.459469
 30
0.0
 10
116.614595
 20
164.702395
 30
0.0
 10
114.841613
 20
167.270868
 30
0.0
 10
110.213234
 20
168.933750
 30
0.0
 10
107.040098
 20
169.003585
 30
0.0
 10
105.440159
 20
169.038798
 30
0.0
 11
117.472570
 21
163.459469
 31
0.0
 11
114.603043
 21
166.842147
 31
0.0
 11
110.236521
 21
168.662322
 31
0.0
 11
105.440159
 21
169.038798
 31
0.0
  0
SPLINE
  5
15d
100
AcDbEntity
  8
Layer_1
 62
5
100
AcDbSpline
 70
0
 71
3
 72
10
 73
6
 74
4
 40
0.000000
 40
0.000000
 40
0.000000
 40
0.000000
 40
3.807737
 40
7.560214
 40
11.063852
 40
11.063852
 40
11.063852
 40
11.063852
 10
105.440159
 20
169.038798
 30
0.0
 10
104.187072
 20
168.872021
 30
0.0
 10
101.699084
 20
168.540889
 30
0.0
 10
98.142795
 20
166.958302
 30
0.0
 10
96.934676
 20
164.797519
 30
0.0
 10
96.351332
 20
163.754178
 30
0.0
 11
105.440159
 21
169.038798
 31
0.0
 11
101.695582
 21
168.348144
 31
0.0
 11
98.363477
 21
166.622410
 31
0.0
 11
96.351332
 21
163.754178
 31
0.0
  0
SPLINE
  5
15e
100
AcDbEntity
  8
Layer_1
 62
5
100
AcDbSpline
 70
0
 71
3
 72
10
 73
6
 74
4
 40
0.000000
 40
0.000000
 40
0.000000
 40
0.000000
 40
2.887342
 40
5.887082
 40
9.037623
 40
9.037623
 40
9.037623
 40
9.037623
 10
96.351332
 20
163.754178
 30
0.0
 10
96.327563
 20
162.760357
 30
0.0
 10
96.279099
 20
160.734028
 30
0.0
 10
98.523717
 20
158.318481
 30
0.0
 10
100.479904
 20
157.679331
 30
0.0
 10
101.481980
 20
157.351920
 30
0.0
 11
96.351332
 21
163.754178
 31
0.0
 11
96.643392
 21
160.881646
 31
0.0
 11
98.588242
 21
158.597790
 31
0.0
 11
101.481980
 21
157.351920
 31
0.0
  0
SPLINE
  5
15f
100
AcDbEntity
  8
Layer_1
 62
5
100
AcDbSpline
 70
0
 71
3
 72
10
 73
6
 74
4
 40
0.000000
 40
0.000000
 40
0.000000
 40
0.000000
 40
3.467356
 40
6.905074
 40
10.159032
 40
10.159032
 40
10.159032
 40
10.159032
 10
101.481980
 20
157.351920
 30
0.0
 10
102.623715
 20
157.192577
 30
0.0
 10
104.897427
 20
156.875253
 30
0.0
 10
108.419318
 20
157.525393
 30
0.0
 10
109.973116
 20
159.196477
 30
0.0
 10
110.728681
 20
160.009075
 30
0.0
 11
101.481980
 21
157.351920
 31
0.0
 11
104.937472
 21
157.065329
 31
0.0
 11
108.280849
 21
157.865162
 31
0.0
 11
110.728681
 21
160.009075
 31
0.0
  0
SPLINE
  5
160
100
AcDbEntity
  8
Layer_1
 62
5
100
AcDbSpline
 70
0
 71
3
 72
10
 73
6
 74
4
 40
0.000000
 40
0.000000
 40
0.000000
 40
0.000000
 40
1.440335
 40
2.912856
 40
4.376642
 40
4.376642
 40
4.376642
 40
4.376642
 10
110.728681
 20
160.009075
 30
0.0
 10
110.867971
 20
160.475971
 30
0.0
 10
111.149663
 20
161.420197
 30
0.0
 10
110.600492
 20
162.937571
 30
0.0
 10
109.715172
 20
163.411948
 30
0.0
 10
109.273830
 20
163.648431
 30
0.0
 11
110.728681
 21
160.009075
 31
0.0
 11
110.988308
 21
161.425817
 31
0.0
 11
110.469406
 21
162.803881
 31
0.0
 11
109.273830
 21
163.648431
 31
0.0
  0
SPLINE
  5
161
100
AcDbEntity
  8
Layer_1
 62
5
100
AcDbSpline
 70
0
 71
3
 72
10
 73
6
 74
4
 40
0.000000
 40
0.000000
 40
0.000000
 40
0.000000
 40
0.555956
 40
1.011396
 40
1.570758
 40
1.570758
 40
1.570758
 40
1.570758
 10
109.273830
 20
163.648431
 30
0.0
 10
109.090388
 20
163.557783
 30
0.0
 10
108.756670
 20
163.392877
 30
0.0
 10
108.830372
 20
162.756009
 30
0.0
 10
109.148358
 20
162.596260
 30
0.0
 10
109.323633
 20
162.508206
 30
0.0
 11
109.273830
 21
163.648431
 31
0.0
 11
108.838679
 21
163.302408
 31
0.0
 11
108.879953
 21
162.848842
 31
0.0
 11
109.323633
 21
162.508206
 31
0.0
  0
SPLINE
  5
162
100
AcDbEntity
  8
Layer_1
 62
5
100
AcDbSpline
 70
0
 71
3
 72
10
 73
6
 74
4
 40
0.000000
 40
0.000000
 40
0.000000
 40
0.000000
 40
1.928665
 40
3.960764
 40
6.103121
 40
6.103121
 40
6.103121
 40
6.103121
 10
109.323633
 20
162.508206
 30
0.0
 10
109.554321
 20
161.862557
 30
0.0
 10
110.028070
 20
160.536635
 30
0.0
 10
108.528829
 20
158.754281
 30
0.0
 10
107.240802
 20
158.251614
 30
0.0
 10
106.579779
 20
157.993643
 30
0.0
 11
109.323633
 21
162.508206
 31
0.0
 11
109.672663
 21
160.611386
 31
0.0
 11
108.493694
 21
158.956254
 31
0.0
 11
106.579779
 21
157.993643
 31
0.0
  0
SPLINE
  5
163
100
AcDbEntity
  8
Layer_1
 62
5
100
AcDbSpline
 70
0
 71
3
 72
10
 73
6
 74
4
 40
0.000000
 40
0.000000
 40
0.000000
 40
0.000000
 40
3.704235
 40
7.374313
 40
10.788616
 40
10.788616
 40
10.788616
 40
10.788616
 10
106.579779
 20
157.993643
 30
0.0
 10
105.352260
 20
157.841719
 30
0.0
 10
102.908540
 20
157.539272
 30
0.0
 10
99.227451
 20
158.818311
 30
0.0
 10
98.033150
 20
160.931314
 30
0.0
 10
97.457559
 20
161.949671
 30
0.0
 11
106.579779
 21
157.993643
 31
0.0
 11
102.878952
 21
157.834779
 31
0.0
 11
99.468379
 21
159.190311
 31
0.0
 11
97.457559
 21
161.949671
 31
0.0
  0
SPLINE
  5
164
100
AcDbEntity
  8
Layer_1
 62
5
100
AcDbSpline
 70
0
 71
3
 72
10
 73
6
 74
4
 40
0.000000
 40
0.000000
 40
0.000000
 40
0.000000
 40
2.893041
 40
5.972952
 40
9.160792
 40
9.160792
 40
9.160792
 40
9.160792
 10
97.457559
 20
161.949671
 30
0.0
 10
97.555913
 20
162.944627
 30
0.0
 10
97.758975
 20
164.998806
 30
0.0
 10
100.339594
 20
167.077193
 30
0.0
 10
102.320721
 20
167.706721
 30
0.0
 10
103.328342
 20
168.026906
 30
0.0
 11
97.457559
 21
161.949671
 31
0.0
 11
98.099723
 21
164.770542
 31
0.0
 11
100.361222
 21
166.861348
 31
0.0
 11
103.328342
 21
168.026906
 31
0.0
  0
SPLINE
  5
165
100
AcDbEntity
  8
Layer_1
 62
5
100
AcDbSpline
 70
0
 71
3
 72
10
 73
6
 74
4
 40
0.000000
 40
0.000000
 40
0.000000
 40
0.000000
 40
5.208452
 40
10.347640
 40
15.194322
 40
15.194322
 40
15.194322
 40
15.194322
 10
103.328342
 20
168.026906
 30
0.0
 10
105.054696
 20
168.235442
 30
0.0
 10
108.484447
 20
168.649741
 30
0.0
 10
113.659226
 20
167.016338
 30
0.0
 10
115.577350
 20
164.200083
 30
0.0
 10
116.508320
 20
162.833202
 30
0.0
 11
103.328342
 21
168.026906
 31
0.0
 11
108.531316
 21
168.265718
 31
0.0
 11
113.366112
 21
166.523304
 31
0.0
 11
116.508320
 21
162.833202
 31
0.0
  0
SPLINE
  5
166
100
AcDbEntity
  8
Layer_1
 62
5
100
AcDbSpline
 70
0
 71
3
 72
10
 73
6
 74
4
 40
0.000000
 40
0.000000
 40
0.000000
 40
0.000000
 40
3.520634
 40
7.208331
 40
11.048677
 40
11.048677
 40
11.048677
 40
11.048677
 10
116.508320
 20
162.833202
 30
0.0
 10
116.637362
 20
161.621949
 30
0.0
 10
116.901568
 20
159.141966
 30
0.0
 10
114.318590
 20
156.073150
 30
0.0
 10
112.090134
 20
154.940052
 30
0.0
 10
110.953312
 20
154.362014
 30
0.0
 11
116.508320
 21
162.833202
 31
0.0
 11
116.430427
 21
159.313429
 31
0.0
 11
114.241844
 21
156.345398
 31
0.0
 11
110.953312
 21
154.362014
 31
0.0
  0
SPLINE
  5
167
100
AcDbEntity
  8
Layer_1
 62
5
100
AcDbSpline
 70
0
 71
3
 72
10
 73
6
 74
4
 40
0.000000
 40
0.000000
 40
0.000000
 40
0.000000
 40
7.035331
 40
14.091274
 40
20.841138
 40
20.841138
 40
20.841138
 40
20.841138
 10
110.953312
 20
154.362014
 30
0.0
 10
108.674276
 20
153.761847
 30
0.0
 10
104.109528
 20
152.559755
 30
0.0
 10
96.878517
 20
153.871596
 30
0.0
 10
93.419454
 20
157.010025
 30
0.0
 10
91.728266
 20
158.544450
 30
0.0
 11
110.953312
 21
154.362014
 31
0.0
 11
104.035357
 21
153.082253
 31
0.0
 11
97.119983
 21
154.483654
 31
0.0
 11
91.728266
 21
158.544450
 31
0.0
  0
SPLINE
  5
168
100
AcDbEntity
  8
Layer_1
 62
5
100
AcDbSpline
 70
0
 71
3
 72
10
 73
6
 74
4
 40
0.000000
 40
0.000000
 40
0.000000
 40
0.000000
 40
3.856555
 40
7.695835
 40
11.687666
 40
11.687666
 40
11.687666
 40
11.687666
 10
91.728266
 20
158.544450
 30
0.0
 10
91.132478
 20
159.724876
 30
0.0
 10
89.943569
 20
162.080440
 30
0.0
 10
91.022097
 20
166.176730
 30
0.0
 10
92.866858
 20
168.047681
 30
0.0
 10
93.807207
 20
169.001379
 30
0.0
 11
91.728266
 21
158.544450
 31
0.0
 11
90.417803
 21
162.171529
 31
0.0
 11
91.277725
 21
165.913267
 31
0.0
 11
93.807207
 21
169.001379
 31
0.0
  0
SPLINE
  5
169
100
AcDbEntity
  8
Layer_1
 62
5
100
AcDbSpline
 70
0
 71
3
 72
10
 73
6
 74
4
 40
0.000000
 40
0.000000
 40
0.000000
 40
0.000000
 40
5.903216
 40
11.956015
 40
18.046120
 40
18.046120
 40
18.046120
 40
18.046120
 10
93.807207
 20
169.001379
 30
0.0
 10
95.471049
 20
170.086916
 30
0.0
 10
98.840894
 20
172.285497
 30
0.0
 10
104.942684
 20
173.244301
 30
0.0
 10
108.973545
 20
172.892175
 30
0.0
 10
110.995167
 20
172.715572
 30
0.0
 11
93.807207
 21
169.001379
 31
0.0
 11
98.962739
 21
171.876871
 31
0.0
 11
104.911454
 21
172.994526
 31
0.0
 11
110.995167
 21
172.715572
 31
0.0
  0
SPLINE
  5
16a
100
AcDbEntity
  8
Layer_1
 62
5
100
AcDbSpline
 70
0
 71
3
 72
10
 73
6
 74
4
 40
0.000000
 40
0.000000
 40
0.000000
 40
0.000000
 40
0.632466
 40
1.445056
 40
2.226315
 40
2.226315
 40
2.226315
 40
2.226315
 10
110.995167
 20
172.715572
 30
0.0
 10
110.995613
 20
172.954106
 30
0.0
 10
110.996630
 20
173.499106
 30
0.0
 10
110.079525
 20
173.588451
 30
0.0
 10
109.573329
 20
173.603987
 30
0.0
 10
109.325206
 20
173.611603
 30
0.0
 11
110.995167
 21
172.715572
 31
0.0
 11
110.882278
 21
173.337881
 31
0.0
 11
110.105704
 21
173.577121
 31
0.0
 11
109.325206
 21
173.611603
 31
0.0
  0
LWPOLYLINE
  5
16b
100
AcDbEntity
  8
Layer_1
 62
5
100
AcDbPolyline
 90
2
 70
1
 10
43.877263
 20
173.753006
 30
0.0
 10
43.877263
 20
173.753168
 30
0.0
  0
SPLINE
  5
16c
100
AcDbEntity
  8
Layer_1
 62
5
100
AcDbSpline
 70
0
 71
3
 72
10
 73
6
 74
4
 40
0.000000
 40
0.000000
 40
0.000000
 40
0.000000
 40
1.013372
 40
2.027119
 40
3.041534
 40
3.041534
 40
3.041534
 40
3.041534
 10
109.325206
 20
173.611603
 30
0.0
 10
108.988869
 20
173.643475
 30
0.0
 10
108.316071
 20
173.707232
 30
0.0
 10
107.302542
 20
173.747376
 30
0.0
 10
106.626497
 20
173.751129
 30
0.0
 10
106.288364
 20
173.753006
 30
0.0
 11
109.325206
 21
173.611603
 31
0.0
 11
108.315521
 21
173.697973
 31
0.0
 11
107.302714
 21
173.741617
 31
0.0
 11
106.288364
 21
173.753006
 31
0.0
  0
SPLINE
  5
16d
100
AcDbEntity
  8
Layer_1
 62
1
100
AcDbSpline
 70
0
 71
3
 72
10
 73
6
 74
4
 40
0.000000
 40
0.000000
 40
0.000000
 40
0.000000
 40
0.817290
 40
1.634403
 40
2.451457
 40
2.451457
 40
2.451457
 40
2.451457
 10
102.355792
 20
177.869281
 30
0.0
 10
102.083362
 20
177.869827
 30
0.0
 10
101.538561
 20
177.870918
 30
0.0
 10
100.721409
 20
177.868458
 30
0.0
 10
100.176700
 20
177.864487
 30
0.0
 10
99.904356
 20
177.862502
 30
0.0
 11
102.355792
 21
177.869281
 31
0.0
 11
101.538502
 21
177.870235
 31
0.0
 11
100.721393
 21
177.867875
 31
0.0
 11
99.904356
 21
177.862502
 31
0.0
  0
SPLINE
  5
16e
100
AcDbEntity
  8
Layer_1
 62
1
100
AcDbSpline
 70
0
 71
3
 72
10
 73
6
 74
4
 40
0.000000
 40
0.000000
 40
0.000000
 40
0.000000
 40
42.483862
 40
84.968221
 40
127.450868
 40
127.450868
 40
127.450868
 40
127.450868
 10
99.904356
 20
177.862502
 30
0.0
 10
85.743094
 20
177.833877
 30
0.0
 10
57.420402
 20
177.776628
 30
0.0
 10
14.936543
 20
177.945054
 30
0.0
 10
-13.385132
 20
177.715960
 30
0.0
 10
-27.545685
 20
177.601415
 30
0.0
 11
99.904356
 21
177.862502
 31
0.0
 11
57.420517
 21
177.819011
 31
0.0
 11
14.936176
 21
177.859708
 31
0.0
 11
-27.545685
 21
177.601415
 31
0.0
  0
SPLINE
  5
16f
100
AcDbEntity
  8
Layer_1
 62
1
100
AcDbSpline
 70
0
 71
3
 72
10
 73
6
 74
4
 40
0.000000
 40
0.000000
 40
0.000000
 40
0.000000
 40
3.982543
 40
7.969995
 40
11.913095
 40
11.913095
 40
11.913095
 40
11.913095
 10
-27.545685
 20
177.601415
 30
0.0
 10
-28.866396
 20
177.503120
 30
0.0
 10
-31.509448
 20
177.306408
 30
0.0
 10
-35.470042
 20
176.466808
 30
0.0
 10
-37.650866
 20
174.926894
 30
0.0
 10
-38.735180
 20
174.161243
 30
0.0
 11
-27.545685
 21
177.601415
 31
0.0
 11
-31.509476
 21
177.215394
 31
0.0
 11
-35.369573
 21
176.215684
 31
0.0
 11
-38.735180
 21
174.161243
 31
0.0
  0
SPLINE
  5
170
100
AcDbEntity
  8
Layer_1
 62
1
100
AcDbSpline
 70
0
 71
3
 72
10
 73
6
 74
4
 40
0.000000
 40
0.000000
 40
0.000000
 40
0.000000
 40
3.241867
 40
6.542253
 40
9.814530
 40
9.814530
 40
9.814530
 40
9.814530
 10
-38.735180
 20
174.161243
 30
0.0
 10
-39.163278
 20
173.145812
 30
0.0
 10
-40.027200
 20
171.096620
 30
0.0
 10
-39.528714
 20
167.774854
 30
0.0
 10
-39.589627
 20
165.590669
 30
0.0
 10
-39.619953
 20
164.503247
 30
0.0
 11
-38.735180
 21
174.161243
 31
0.0
 11
-39.725746
 21
171.074420
 31
0.0
 11
-39.626818
 21
167.775517
 31
0.0
 11
-39.619953
 21
164.503247
 31
0.0
  0
SPLINE
  5
171
100
AcDbEntity
  8
Layer_1
 62
1
100
AcDbSpline
 70
0
 71
3
 72
10
 73
6
 74
4
 40
0.000000
 40
0.000000
 40
0.000000
 40
0.000000
 40
4.074464
 40
8.159366
 40
12.209562
 40
12.209562
 40
12.209562
 40
12.209562
 10
-39.619953
 20
164.503247
 30
0.0
 10
-39.638512
 20
163.146613
 30
0.0
 10
-39.675676
 20
160.429868
 30
0.0
 10
-39.847759
 20
156.341353
 30
0.0
 10
-39.291386
 20
153.676207
 30
0.0
 10
-39.014386
 20
152.349320
 30
0.0
 11
-39.619953
 21
164.503247
 31
0.0
 11
-39.695038
 21
160.429475
 31
0.0
 11
-39.679056
 21
156.344604
 31
0.0
 11
-39.014386
 21
152.349320
 31
0.0
  0
SPLINE
  5
172
100
AcDbEntity
  8
Layer_1
 62
1
100
AcDbSpline
 70
0
 71
3
 72
10
 73
6
 74
4
 40
0.000000
 40
0.000000
 40
0.000000
 40
0.000000
 40
4.097820
 40
8.272427
 40
12.427246
 40
12.427246
 40
12.427246
 40
12.427246
 10
-39.014386
 20
152.349320
 30
0.0
 10
-37.960616
 20
151.435887
 30
0.0
 10
-35.833328
 20
149.591905
 30
0.0
 10
-31.602286
 20
148.981340
 30
0.0
 10
-28.856504
 20
148.709156
 30
0.0
 10
-27.486875
 20
148.573387
 30
0.0
 11
-39.014386
 21
152.349320
 31
0.0
 11
-35.683962
 21
149.961768
 31
0.0
 11
-31.618180
 21
149.014793
 31
0.0
 11
-27.486875
 21
148.573387
 31
0.0
  0
SPLINE
  5
173
100
AcDbEntity
  8
Layer_1
 62
1
100
AcDbSpline
 70
0
 71
3
 72
10
 73
6
 74
4
 40
0.000000
 40
0.000000
 40
0.000000
 40
0.000000
 40
12.681281
 40
25.366165
 40
38.049650
 40
38.049650
 40
38.049650
 40
38.049650
 10
-27.486875
 20
148.573387
 30
0.0
 10
-23.261372
 20
148.429254
 30
0.0
 10
-14.809164
 20
148.140948
 30
0.0
 10
-2.125322
 20
148.423104
 30
0.0
 10
6.330695
 20
148.364418
 30
0.0
 10
10.558471
 20
148.335076
 30
0.0
 11
-27.486875
 21
148.573387
 31
0.0
 11
-14.809466
 21
148.260057
 31
0.0
 11
-2.124986
 21
148.361407
 31
0.0
 11
10.558471
 21
148.335076
 31
0.0
  0
SPLINE
  5
174
100
AcDbEntity
  8
Layer_1
 62
1
100
AcDbSpline
 70
0
 71
3
 72
10
 73
6
 74
4
 40
0.000000
 40
0.000000
 40
0.000000
 40
0.000000
 40
33.432171
 40
66.864996
 40
100.294741
 40
100.294741
 40
100.294741
 40
100.294741
 10
10.558471
 20
148.335076
 30
0.0
 10
21.702479
 20
148.333662
 30
0.0
 10
43.990715
 20
148.330834
 30
0.0
 10
77.422945
 20
148.178169
 30
0.0
 10
99.708797
 20
148.489664
 30
0.0
 10
110.851209
 20
148.645403
 30
0.0
 11
10.558471
 21
148.335076
 31
0.0
 11
43.990629
 21
148.306097
 31
0.0
 11
77.423445
 21
148.281492
 31
0.0
 11
110.851209
 21
148.645403
 31
0.0
  0
SPLINE
  5
175
100
AcDbEntity
  8
Layer_1
 62
1
100
AcDbSpline
 70
0
 71
3
 72
10
 73
6
 74
4
 40
0.000000
 40
0.000000
 40
0.000000
 40
0.000000
 40
3.775222
 40
7.551217
 40
11.287084
 40
11.287084
 40
11.287084
 40
11.287084
 10
110.851209
 20
148.645403
 30
0.0
 10
112.100213
 20
148.757312
 30
0.0
 10
114.598477
 20
148.981151
 30
0.0
 10
118.356395
 20
149.862955
 30
0.0
 10
120.288350
 20
151.509689
 30
0.0
 10
121.249167
 20
152.328658
 30
0.0
 11
110.851209
 21
148.645403
 31
0.0
 11
114.602179
 21
149.072634
 31
0.0
 11
118.225971
 21
150.133896
 31
0.0
 11
121.249167
 21
152.328658
 31
0.0
  0
SPLINE
  5
176
100
AcDbEntity
  8
Layer_1
 62
1
100
AcDbSpline
 70
0
 71
3
 72
10
 73
6
 74
4
 40
0.000000
 40
0.000000
 40
0.000000
 40
0.000000
 40
3.260104
 40
6.570020
 40
9.858883
 40
9.858883
 40
9.858883
 40
9.858883
 10
121.249167
 20
152.328658
 30
0.0
 10
121.591039
 20
153.376660
 30
0.0
 10
122.280007
 20
155.488677
 30
0.0
 10
121.766048
 20
158.800918
 30
0.0
 10
121.851409
 20
160.996998
 30
0.0
 10
121.893953
 20
162.091534
 30
0.0
 11
121.249167
 21
152.328658
 31
0.0
 11
122.020811
 21
155.496125
 31
0.0
 11
121.872978
 21
158.802738
 31
0.0
 11
121.893953
 21
162.091534
 31
0.0
  0
SPLINE
  5
177
100
AcDbEntity
  8
Layer_1
 62
1
100
AcDbSpline
 70
0
 71
3
 72
10
 73
6
 74
4
 40
0.000000
 40
0.000000
 40
0.000000
 40
0.000000
 40
3.923449
 40
7.856333
 40
11.755845
 40
11.755845
 40
11.755845
 40
11.755845
 10
121.893953
 20
162.091534
 30
0.0
 10
121.918531
 20
163.397741
 30
0.0
 10
121.967745
 20
166.013295
 30
0.0
 10
122.106136
 20
169.950596
 30
0.0
 10
121.562660
 20
172.514556
 30
0.0
 10
121.292080
 20
173.791074
 30
0.0
 11
121.893953
 21
162.091534
 31
0.0
 11
121.978478
 21
166.014073
 31
0.0
 11
121.946252
 21
169.946824
 31
0.0
 11
121.292080
 21
173.791074
 31
0.0
  0
SPLINE
  5
178
100
AcDbEntity
  8
Layer_1
 62
1
100
AcDbSpline
 70
0
 71
3
 72
10
 73
6
 74
4
 40
0.000000
 40
0.000000
 40
0.000000
 40
0.000000
 40
4.117955
 40
8.314868
 40
12.490925
 40
12.490925
 40
12.490925
 40
12.490925
 10
121.292080
 20
173.791074
 30
0.0
 10
120.232344
 20
174.708862
 30
0.0
 10
118.092551
 20
176.562034
 30
0.0
 10
113.837323
 20
177.157236
 30
0.0
 10
111.080313
 20
177.458559
 30
0.0
 10
109.705242
 20
177.608845
 30
0.0
 11
121.292080
 21
173.791074
 31
0.0
 11
117.942945
 21
176.187081
 31
0.0
 11
113.854180
 21
177.133694
 31
0.0
 11
109.705242
 21
177.608845
 31
0.0
  0
LWPOLYLINE
  5
179
100
AcDbEntity
  8
Layer_1
 62
5
100
AcDbPolyline
 90
2
 70
1
 10
106.288364
 20
173.753006
 30
0.0
 10
106.288364
 20
173.753168
 30
0.0
  0
LWPOLYLINE
  5
17a
100
AcDbEntity
  8
Layer_1
 62
1
100
AcDbPolyline
 90
3
 70
1
 10
102.355792
 20
177.868874
 30
0.0
 10
102.355792
 20
177.868874
 30
0.0
 10
102.355792
 20
177.869281
 30
0.0
  0
SPLINE
  5
17b
100
AcDbEntity
  8
Layer_1
 62
1
100
AcDbSpline
 70
0
 71
3
 72
10
 73
6
 74
4
 40
0.000000
 40
0.000000
 40
0.000000
 40
0.000000
 40
2.451757
 40
4.903502
 40
7.355653
 40
7.355653
 40
7.355653
 40
7.355653
 10
109.705242
 20
177.608845
 30
0.0
 10
108.889846
 20
177.664831
 30
0.0
 10
107.259057
 20
177.776804
 30
0.0
 10
104.807735
 20
177.850679
 30
0.0
 10
103.173151
 20
177.862809
 30
0.0
 10
102.355792
 20
177.868874
 30
0.0
 11
109.705242
 21
177.608845
 31
0.0
 11
107.258218
 21
177.761123
 31
0.0
 11
104.807789
 21
177.841396
 31
0.0
 11
102.355792
 21
177.868874
 31
0.0
  0
SPLINE
  5
17c
100
AcDbEntity
  8
Layer_1
 62
1
100
AcDbSpline
 70
0
 71
3
 72
10
 73
6
 74
4
 40
0.000000
 40
0.000000
 40
0.000000
 40
0.000000
 40
4.663817
 40
9.266964
 40
13.909912
 40
13.909912
 40
13.909912
 40
13.909912
 10
5.997372
 20
174.571569
 30
0.0
 10
4.516447
 20
174.091822
 30
0.0
 10
1.573861
 20
173.138568
 30
0.0
 10
-2.393928
 20
170.534349
 30
0.0
 10
-4.193232
 20
168.005657
 30
0.0
 10
-5.096757
 20
166.735868
 30
0.0
 11
5.997372
 21
174.571569
 31
0.0
 11
1.630377
 21
172.934332
 31
0.0
 11
-2.174841
 21
170.344105
 31
0.0
 11
-5.096757
 21
166.735868
 31
0.0
  0
SPLINE
  5
17d
100
AcDbEntity
  8
Layer_1
 62
1
100
AcDbSpline
 70
0
 71
3
 72
10
 73
6
 74
4
 40
0.000000
 40
0.000000
 40
0.000000
 40
0.000000
 40
0.889770
 40
1.820654
 40
2.486157
 40
2.486157
 40
2.486157
 40
2.486157
 10
-5.096757
 20
166.735868
 30
0.0
 10
-5.237885
 20
166.473770
 30
0.0
 10
-5.526663
 20
165.937463
 30
0.0
 10
-5.734239
 20
165.130230
 30
0.0
 10
-5.925974
 20
164.633831
 30
0.0
 10
-6.005905
 20
164.426892
 30
0.0
 11
-5.096757
 21
166.735868
 31
0.0
 11
-5.487477
 21
165.936476
 31
0.0
 11
-5.776270
 21
165.051521
 31
0.0
 11
-6.005905
 21
164.426892
 31
0.0
  0
SPLINE
  5
17e
100
AcDbEntity
  8
Layer_1
 62
1
100
AcDbSpline
 70
0
 71
3
 72
10
 73
6
 74
4
 40
0.000000
 40
0.000000
 40
0.000000
 40
0.000000
 40
5.528326
 40
11.099056
 40
16.679918
 40
16.679918
 40
16.679918
 40
16.679918
 10
-6.005905
 20
164.426892
 30
0.0
 10
-7.157340
 20
165.908774
 30
0.0
 10
-9.469041
 20
168.883904
 30
0.0
 10
-15.011771
 20
170.772012
 30
0.0
 10
-18.730080
 20
170.622589
 30
0.0
 10
-20.590923
 20
170.547809
 30
0.0
 11
-6.005905
 21
164.426892
 31
0.0
 11
-9.801713
 21
168.446126
 31
0.0
 11
-15.011558
 21
170.418570
 31
0.0
 11
-20.590923
 21
170.547809
 31
0.0
  0
SPLINE
  5
17f
100
AcDbEntity
  8
Layer_1
 62
1
100
AcDbSpline
 70
0
 71
3
 72
10
 73
6
 74
4
 40
0.000000
 40
0.000000
 40
0.000000
 40
0.000000
 40
4.190323
 40
8.379253
 40
12.502783
 40
12.502783
 40
12.502783
 40
12.502783
 10
-20.590923
 20
170.547809
 30
0.0
 10
-21.963277
 20
170.300042
 30
0.0
 10
-24.707527
 20
169.804590
 30
0.0
 10
-28.531672
 20
167.593721
 30
0.0
 10
-29.631594
 20
164.978179
 30
0.0
 10
-30.177229
 20
163.680697
 30
0.0
 11
-20.590923
 21
170.547809
 31
0.0
 11
-24.662632
 21
169.557863
 31
0.0
 11
-28.185339
 21
167.291220
 31
0.0
 11
-30.177229
 21
163.680697
 31
0.0
  0
SPLINE
  5
180
100
AcDbEntity
  8
Layer_1
 62
1
100
AcDbSpline
 70
0
 71
3
 72
10
 73
6
 74
4
 40
0.000000
 40
0.000000
 40
0.000000
 40
0.000000
 40
3.888385
 40
7.834632
 40
11.785327
 40
11.785327
 40
11.785327
 40
11.785327
 10
-30.177229
 20
163.680697
 30
0.0
 10
-30.116164
 20
162.346564
 30
0.0
 10
-29.993126
 20
159.658446
 30
0.0
 10
-26.940109
 20
156.648134
 30
0.0
 10
-24.389401
 20
155.948308
 30
0.0
 10
-23.113329
 20
155.598198
 30
0.0
 11
-30.177229
 21
163.680697
 31
0.0
 11
-29.524414
 21
159.847504
 31
0.0
 11
-26.815157
 21
156.978219
 31
0.0
 11
-23.113329
 21
155.598198
 31
0.0
  0
SPLINE
  5
181
100
AcDbEntity
  8
Layer_1
 62
1
100
AcDbSpline
 70
0
 71
3
 72
10
 73
6
 74
4
 40
0.000000
 40
0.000000
 40
0.000000
 40
0.000000
 40
4.006698
 40
8.004575
 40
11.947015
 40
11.947015
 40
11.947015
 40
11.947015
 10
-23.113329
 20
155.598198
 30
0.0
 10
-21.784973
 20
155.484102
 30
0.0
 10
-19.131186
 20
155.256161
 30
0.0
 10
-15.049277
 20
156.345331
 30
0.0
 10
-13.398720
 20
158.497339
 30
0.0
 10
-12.579204
 20
159.565831
 30
0.0
 11
-23.113329
 21
155.598198
 31
0.0
 11
-19.107938
 21
155.495861
 31
0.0
 11
-15.299655
 21
156.712417
 31
0.0
 11
-12.579204
 21
159.565831
 31
0.0
  0
SPLINE
  5
182
100
AcDbEntity
  8
Layer_1
 62
1
100
AcDbSpline
 70
0
 71
3
 72
10
 73
6
 74
4
 40
0.000000
 40
0.000000
 40
0.000000
 40
0.000000
 40
2.717529
 40
5.475976
 40
8.118418
 40
8.118418
 40
8.118418
 40
8.118418
 10
-12.579204
 20
159.565831
 30
0.0
 10
-12.385902
 20
160.468461
 30
0.0
 10
-11.996387
 20
162.287312
 30
0.0
 10
-13.676774
 20
164.995343
 30
0.0
 10
-15.576964
 20
165.020091
 30
0.0
 10
-16.506652
 20
165.032200
 30
0.0
 11
-12.579204
 21
159.565831
 31
0.0
 11
-12.374368
 21
162.275629
 31
0.0
 11
-13.904849
 21
164.570550
 31
0.0
 11
-16.506652
 21
165.032200
 31
0.0
  0
SPLINE
  5
183
100
AcDbEntity
  8
Layer_1
 62
1
100
AcDbSpline
 70
0
 71
3
 72
10
 73
6
 74
4
 40
0.000000
 40
0.000000
 40
0.000000
 40
0.000000
 40
1.473122
 40
2.959910
 40
4.450960
 40
4.450960
 40
4.450960
 40
4.450960
 10
-16.506652
 20
165.032200
 30
0.0
 10
-16.911195
 20
164.711102
 30
0.0
 10
-17.724034
 20
164.065927
 30
0.0
 10
-17.665192
 20
162.391502
 30
0.0
 10
-17.111376
 20
161.565171
 30
0.0
 10
-16.834071
 20
161.151415
 30
0.0
 11
-16.506652
 21
165.032200
 31
0.0
 11
-17.509251
 21
163.952903
 31
0.0
 11
-17.537004
 21
162.466374
 31
0.0
 11
-16.834071
 21
161.151415
 31
0.0
  0
SPLINE
  5
184
100
AcDbEntity
  8
Layer_1
 62
1
100
AcDbSpline
 70
0
 71
3
 72
10
 73
6
 74
4
 40
0.000000
 40
0.000000
 40
0.000000
 40
0.000000
 40
1.923436
 40
3.923031
 40
5.914261
 40
5.914261
 40
5.914261
 40
5.914261
 10
-16.834071
 20
161.151415
 30
0.0
 10
-17.225621
 20
160.609855
 30
0.0
 10
-18.024223
 20
159.505293
 30
0.0
 10
-20.135843
 20
159.251729
 30
0.0
 10
-21.442183
 20
159.412870
 30
0.0
 10
-22.093983
 20
159.493272
 30
0.0
 11
-16.834071
 21
161.151415
 31
0.0
 11
-18.153450
 21
159.751827
 31
0.0
 11
-20.109071
 21
159.334779
 31
0.0
 11
-22.093983
 21
159.493272
 31
0.0
  0
SPLINE
  5
185
100
AcDbEntity
  8
Layer_1
 62
1
100
AcDbSpline
 70
0
 71
3
 72
10
 73
6
 74
4
 40
0.000000
 40
0.000000
 40
0.000000
 40
0.000000
 40
2.026837
 40
4.063069
 40
5.958005
 40
5.958005
 40
5.958005
 40
5.958005
 10
-22.093983
 20
159.493272
 30
0.0
 10
-22.734310
 20
159.679020
 30
0.0
 10
-24.017931
 20
160.051377
 30
0.0
 10
-25.794944
 20
161.422666
 30
0.0
 10
-25.642116
 20
162.809057
 30
0.0
 10
-25.568448
 20
163.477337
 30
0.0
 11
-22.093983
 21
159.493272
 31
0.0
 11
-23.997099
 21
160.190565
 31
0.0
 11
-25.481510
 21
161.584397
 31
0.0
 11
-25.568448
 21
163.477337
 31
0.0
  0
SPLINE
  5
186
100
AcDbEntity
  8
Layer_1
 62
1
100
AcDbSpline
 70
0
 71
3
 72
10
 73
6
 74
4
 40
0.000000
 40
0.000000
 40
0.000000
 40
0.000000
 40
3.097004
 40
6.271861
 40
9.432658
 40
9.432658
 40
9.432658
 40
9.432658
 10
-25.568448
 20
163.477337
 30
0.0
 10
-24.900155
 20
164.297722
 30
0.0
 10
-23.546770
 20
165.959116
 30
0.0
 10
-20.335653
 20
166.750294
 30
0.0
 10
-18.234592
 20
166.741375
 30
0.0
 10
-17.186393
 20
166.736925
 30
0.0
 11
-25.568448
 21
163.477337
 31
0.0
 11
-23.372962
 21
165.661662
 31
0.0
 11
-20.344868
 21
166.615790
 31
0.0
 11
-17.186393
 21
166.736925
 31
0.0
  0
SPLINE
  5
187
100
AcDbEntity
  8
Layer_1
 62
1
100
AcDbSpline
 70
0
 71
3
 72
10
 73
6
 74
4
 40
0.000000
 40
0.000000
 40
0.000000
 40
0.000000
 40
3.275764
 40
6.555732
 40
9.766079
 40
9.766079
 40
9.766079
 40
9.766079
 10
-17.186393
 20
166.736925
 30
0.0
 10
-16.112581
 20
166.552813
 30
0.0
 10
-13.963580
 20
166.184354
 30
0.0
 10
-10.954236
 20
164.468807
 30
0.0
 10
-10.136861
 20
162.404457
 30
0.0
 10
-9.732558
 20
161.383353
 30
0.0
 11
-17.186393
 21
166.736925
 31
0.0
 11
-13.997142
 21
165.989055
 31
0.0
 11
-11.234801
 21
164.220535
 31
0.0
 11
-9.732558
 21
161.383353
 31
0.0
  0
SPLINE
  5
188
100
AcDbEntity
  8
Layer_1
 62
1
100
AcDbSpline
 70
0
 71
3
 72
10
 73
6
 74
4
 40
0.000000
 40
0.000000
 40
0.000000
 40
0.000000
 40
3.181408
 40
6.450471
 40
9.709159
 40
9.709159
 40
9.709159
 40
9.709159
 10
-9.732558
 20
161.383353
 30
0.0
 10
-9.996239
 20
160.321370
 30
0.0
 10
-10.530866
 20
158.168141
 30
0.0
 10
-13.381223
 20
156.219294
 30
0.0
 10
-15.442269
 20
155.563037
 30
0.0
 10
-16.471155
 20
155.235431
 30
0.0
 11
-9.732558
 21
161.383353
 31
0.0
 11
-10.854195
 21
158.406227
 31
0.0
 11
-13.420551
 21
156.381234
 31
0.0
 11
-16.471155
 21
155.235431
 31
0.0
  0
SPLINE
  5
189
100
AcDbEntity
  8
Layer_1
 62
1
100
AcDbSpline
 70
0
 71
3
 72
10
 73
6
 74
4
 40
0.000000
 40
0.000000
 40
0.000000
 40
0.000000
 40
5.833829
 40
11.696721
 40
17.501094
 40
17.501094
 40
17.501094
 40
17.501094
 10
-16.471155
 20
155.235431
 30
0.0
 10
-18.400258
 20
154.942985
 30
0.0
 10
-22.268076
 20
154.356637
 30
0.0
 10
-28.218483
 20
155.898506
 30
0.0
 10
-30.940267
 20
158.762308
 30
0.0
 10
-32.294333
 20
160.187028
 30
0.0
 11
-16.471155
 21
155.235431
 31
0.0
 11
-22.285603
 21
154.760299
 31
0.0
 11
-27.923972
 21
156.367253
 31
0.0
 11
-32.294333
 21
160.187028
 31
0.0
  0
SPLINE
  5
18a
100
AcDbEntity
  8
Layer_1
 62
1
100
AcDbSpline
 70
0
 71
3
 72
10
 73
6
 74
4
 40
0.000000
 40
0.000000
 40
0.000000
 40
0.000000
 40
3.355203
 40
6.766298
 40
10.193283
 40
10.193283
 40
10.193283
 40
10.193283
 10
-32.294333
 20
160.187028
 30
0.0
 10
-32.575682
 20
161.306756
 30
0.0
 10
-33.143065
 20
163.564864
 30
0.0
 10
-31.359384
 20
166.785636
 30
0.0
 10
-29.518393
 20
168.129383
 30
0.0
 10
-28.595758
 20
168.802818
 30
0.0
 11
-32.294333
 21
160.187028
 31
0.0
 11
-32.707735
 21
163.516665
 31
0.0
 11
-31.201806
 21
166.577343
 31
0.0
 11
-28.595758
 21
168.802818
 31
0.0
  0
SPLINE
  5
18b
100
AcDbEntity
  8
Layer_1
 62
1
100
AcDbSpline
 70
0
 71
3
 72
10
 73
6
 74
4
 40
0.000000
 40
0.000000
 40
0.000000
 40
0.000000
 40
5.302522
 40
10.627274
 40
15.935618
 40
15.935618
 40
15.935618
 40
15.935618
 10
-28.595758
 20
168.802818
 30
0.0
 10
-26.993962
 20
169.580908
 30
0.0
 10
-23.783654
 20
171.140350
 30
0.0
 10
-18.385329
 20
171.589670
 30
0.0
 10
-14.867739
 20
171.169913
 30
0.0
 10
-13.111658
 20
170.960358
 30
0.0
 11
-28.595758
 21
168.802818
 31
0.0
 11
-23.693334
 21
170.823455
 31
0.0
 11
-18.400951
 21
171.409685
 31
0.0
 11
-13.111658
 21
170.960358
 31
0.0
  0
LWPOLYLINE
  5
18c
100
AcDbEntity
  8
Layer_1
 62
1
100
AcDbPolyline
 90
2
 70
1
 10
-12.967551
 20
174.571569
 30
0.0
 10
5.997372
 20
174.571569
 30
0.0
  0
LWPOLYLINE
  5
18d
100
AcDbEntity
  8
Layer_1
 62
1
100
AcDbPolyline
 90
2
 70
1
 10
-12.967551
 20
174.571569
 30
0.0
 10
-12.967551
 20
174.571569
 30
0.0
  0
SPLINE
  5
18e
100
AcDbEntity
  8
Layer_1
 62
1
100
AcDbSpline
 70
0
 71
3
 72
10
 73
6
 74
4
 40
0.000000
 40
0.000000
 40
0.000000
 40
0.000000
 40
1.378920
 40
2.712549
 40
4.070381
 40
4.070381
 40
4.070381
 40
4.070381
 10
-13.111658
 20
170.960358
 30
0.0
 10
-12.774409
 20
171.298162
 30
0.0
 10
-12.110988
 20
171.962675
 30
0.0
 10
-12.169496
 20
173.468259
 30
0.0
 10
-12.699943
 20
174.201601
 30
0.0
 10
-12.967551
 20
174.571569
 30
0.0
 11
-13.111658
 21
170.960358
 31
0.0
 11
-12.281427
 21
172.061329
 31
0.0
 11
-12.289887
 21
173.394931
 31
0.0
 11
-12.967551
 21
174.571569
 31
0.0
  0
SPLINE
  5
18f
100
AcDbEntity
  8
Layer_1
 62
1
100
AcDbSpline
 70
0
 71
3
 72
10
 73
6
 74
4
 40
0.000000
 40
0.000000
 40
0.000000
 40
0.000000
 40
3.428117
 40
6.841034
 40
10.296149
 40
10.296149
 40
10.296149
 40
10.296149
 10
37.235775
 20
174.571569
 30
0.0
 10
36.140688
 20
174.241331
 30
0.0
 10
33.955371
 20
173.582319
 30
0.0
 10
30.889192
 20
171.957355
 30
0.0
 10
29.181091
 20
170.423427
 30
0.0
 10
28.321794
 20
169.651751
 30
0.0
 11
37.235775
 21
174.571569
 31
0.0
 11
33.987697
 21
173.475222
 31
0.0
 11
30.985023
 21
171.852893
 31
0.0
 11
28.321794
 21
169.651751
 31
0.0
  0
SPLINE
  5
190
100
AcDbEntity
  8
Layer_1
 62
1
100
AcDbSpline
 70
0
 71
3
 72
10
 73
6
 74
4
 40
0.000000
 40
0.000000
 40
0.000000
 40
0.000000
 40
2.103185
 40
4.205351
 40
6.301432
 40
6.301432
 40
6.301432
 40
6.301432
 10
28.321794
 20
169.651751
 30
0.0
 10
27.856643
 20
169.127879
 30
0.0
 10
26.926565
 20
168.080388
 30
0.0
 10
25.778275
 20
166.287124
 30
0.0
 10
25.425203
 20
164.924856
 30
0.0
 10
25.248922
 20
164.244709
 30
0.0
 11
28.321794
 21
169.651751
 31
0.0
 11
26.967297
 21
168.042799
 31
0.0
 11
25.880455
 21
166.243388
 31
0.0
 11
25.248922
 21
164.244709
 31
0.0
  0
SPLINE
  5
191
100
AcDbEntity
  8
Layer_1
 62
1
100
AcDbSpline
 70
0
 71
3
 72
10
 73
6
 74
4
 40
0.000000
 40
0.000000
 40
0.000000
 40
0.000000
 40
4.979463
 40
10.020758
 40
15.063286
 40
15.063286
 40
15.063286
 40
15.063286
 10
25.248922
 20
164.244709
 30
0.0
 10
24.288308
 20
165.637646
 30
0.0
 10
22.355152
 20
168.440816
 30
0.0
 10
17.461343
 20
170.397564
 30
0.0
 10
14.109906
 20
170.600447
 30
0.0
 10
12.433982
 20
170.701901
 30
0.0
 11
25.248922
 21
164.244709
 31
0.0
 11
22.040543
 21
168.052773
 31
0.0
 11
17.442905
 21
170.120716
 31
0.0
 11
12.433982
 21
170.701901
 31
0.0
  0
SPLINE
  5
192
100
AcDbEntity
  8
Layer_1
 62
1
100
AcDbSpline
 70
0
 71
3
 72
10
 73
6
 74
4
 40
0.000000
 40
0.000000
 40
0.000000
 40
0.000000
 40
4.304634
 40
8.615895
 40
12.869579
 40
12.869579
 40
12.869579
 40
12.869579
 10
12.433982
 20
170.701901
 30
0.0
 10
11.006191
 20
170.571183
 30
0.0
 10
8.148409
 20
170.309545
 30
0.0
 10
4.015822
 20
168.591783
 30
0.0
 10
2.298280
 20
166.252676
 30
0.0
 10
1.445282
 20
165.090984
 30
0.0
 11
12.433982
 21
170.701901
 31
0.0
 11
8.173349
 21
170.087996
 31
0.0
 11
4.259009
 21
168.281089
 31
0.0
 11
1.445282
 21
165.090984
 31
0.0
  0
SPLINE
  5
193
100
AcDbEntity
  8
Layer_1
 62
1
100
AcDbSpline
 70
0
 71
3
 72
10
 73
6
 74
4
 40
0.000000
 40
0.000000
 40
0.000000
 40
0.000000
 40
3.130887
 40
6.245351
 40
9.382246
 40
9.382246
 40
9.382246
 40
9.382246
 10
1.445282
 20
165.090984
 30
0.0
 10
1.184795
 20
164.059221
 30
0.0
 10
0.665188
 20
162.001106
 30
0.0
 10
1.939676
 20
158.880222
 30
0.0
 10
3.626622
 20
157.621196
 30
0.0
 10
4.473121
 20
156.989424
 30
0.0
 11
1.445282
 21
165.090984
 31
0.0
 11
1.007617
 21
161.990838
 31
0.0
 11
2.144568
 21
159.091316
 31
0.0
 11
4.473121
 21
156.989424
 31
0.0
  0
SPLINE
  5
194
100
AcDbEntity
  8
Layer_1
 62
1
100
AcDbSpline
 70
0
 71
3
 72
10
 73
6
 74
4
 40
0.000000
 40
0.000000
 40
0.000000
 40
0.000000
 40
4.551919
 40
9.132920
 40
13.666736
 40
13.666736
 40
13.666736
 40
13.666736
 10
4.473121
 20
156.989424
 30
0.0
 10
5.872544
 20
156.372774
 30
0.0
 10
8.680331
 20
155.135536
 30
0.0
 10
13.472022
 20
155.367175
 30
0.0
 10
16.094039
 20
156.966178
 30
0.0
 10
17.398261
 20
157.761540
 30
0.0
 11
4.473121
 21
156.989424
 31
0.0
 11
8.769339
 21
155.485271
 31
0.0
 11
13.343645
 21
155.732852
 31
0.0
 11
17.398261
 21
157.761540
 31
0.0
  0
SPLINE
  5
195
100
AcDbEntity
  8
Layer_1
 62
1
100
AcDbSpline
 70
0
 71
3
 72
10
 73
6
 74
4
 40
0.000000
 40
0.000000
 40
0.000000
 40
0.000000
 40
2.689629
 40
5.355278
 40
8.007767
 40
8.007767
 40
8.007767
 40
8.007767
 10
17.398261
 20
157.761540
 30
0.0
 10
17.951910
 20
158.483542
 30
0.0
 10
19.054273
 20
159.921107
 30
0.0
 10
19.044306
 20
162.911843
 30
0.0
 10
17.711670
 20
164.171466
 30
0.0
 10
17.047000
 20
164.799719
 30
0.0
 11
17.398261
 21
157.761540
 31
0.0
 11
18.779464
 21
160.069436
 31
0.0
 11
18.711143
 21
162.734210
 31
0.0
 11
17.047000
 21
164.799719
 31
0.0
  0
SPLINE
  5
196
100
AcDbEntity
  8
Layer_1
 62
1
100
AcDbSpline
 70
0
 71
3
 72
10
 73
6
 74
4
 40
0.000000
 40
0.000000
 40
0.000000
 40
0.000000
 40
1.663901
 40
3.283048
 40
4.923485
 40
4.923485
 40
4.923485
 40
4.923485
 10
17.047000
 20
164.799719
 30
0.0
 10
16.515285
 20
165.004279
 30
0.0
 10
15.466156
 20
165.407898
 30
0.0
 10
13.730726
 20
164.573359
 30
0.0
 10
13.562409
 20
163.441946
 30
0.0
 10
13.477700
 20
162.872545
 30
0.0
 11
17.047000
 21
164.799719
 31
0.0
 11
15.424092
 21
165.166786
 31
0.0
 11
13.980194
 21
164.434125
 31
0.0
 11
13.477700
 21
162.872545
 31
0.0
  0
SPLINE
  5
197
100
AcDbEntity
  8
Layer_1
 62
1
100
AcDbSpline
 70
0
 71
3
 72
10
 73
6
 74
4
 40
0.000000
 40
0.000000
 40
0.000000
 40
0.000000
 40
0.934043
 40
1.872437
 40
2.699864
 40
2.699864
 40
2.699864
 40
2.699864
 10
13.477700
 20
162.872545
 30
0.0
 10
13.569532
 20
162.579232
 30
0.0
 10
13.753623
 20
161.991241
 30
0.0
 10
14.590002
 20
161.282785
 30
0.0
 10
14.205628
 20
160.731031
 30
0.0
 10
14.025519
 20
160.472491
 30
0.0
 11
13.477700
 21
162.872545
 31
0.0
 11
13.851727
 21
162.016658
 31
0.0
 11
14.361343
 21
161.228704
 31
0.0
 11
14.025519
 21
160.472491
 31
0.0
  0
SPLINE
  5
198
100
AcDbEntity
  8
Layer_1
 62
1
100
AcDbSpline
 70
0
 71
3
 72
10
 73
6
 74
4
 40
0.000000
 40
0.000000
 40
0.000000
 40
0.000000
 40
2.898251
 40
5.875547
 40
8.796076
 40
8.796076
 40
8.796076
 40
8.796076
 10
14.025519
 20
160.472491
 30
0.0
 10
13.164044
 20
159.992922
 30
0.0
 10
11.417599
 20
159.020705
 30
0.0
 10
8.287496
 20
159.454913
 30
0.0
 10
6.711186
 20
160.654005
 30
0.0
 10
5.930617
 20
161.247780
 30
0.0
 11
14.025519
 21
160.472491
 31
0.0
 11
11.357300
 21
159.340915
 31
0.0
 11
8.400433
 21
159.689094
 31
0.0
 11
5.930617
 21
161.247780
 31
0.0
  0
SPLINE
  5
199
100
AcDbEntity
  8
Layer_1
 62
1
100
AcDbSpline
 70
0
 71
3
 72
10
 73
6
 74
4
 40
0.000000
 40
0.000000
 40
0.000000
 40
0.000000
 40
1.861531
 40
3.737546
 40
5.646658
 40
5.646658
 40
5.646658
 40
5.646658
 10
5.930617
 20
161.247780
 30
0.0
 10
5.667251
 20
161.859884
 30
0.0
 10
5.138469
 20
163.088854
 30
0.0
 10
6.450108
 20
164.772624
 30
0.0
 10
7.518780
 20
165.408782
 30
0.0
 10
8.057788
 20
165.729643
 30
0.0
 11
5.930617
 21
161.247780
 31
0.0
 11
5.487057
 21
163.055694
 31
0.0
 11
6.488955
 21
164.641768
 31
0.0
 11
8.057788
 21
165.729643
 31
0.0
  0
SPLINE
  5
19a
100
AcDbEntity
  8
Layer_1
 62
1
100
AcDbSpline
 70
0
 71
3
 72
10
 73
6
 74
4
 40
0.000000
 40
0.000000
 40
0.000000
 40
0.000000
 40
4.080068
 40
8.192952
 40
12.262209
 40
12.262209
 40
12.262209
 40
12.262209
 10
8.057788
 20
165.729643
 30
0.0
 10
9.355162
 20
166.162935
 30
0.0
 10
11.960344
 20
167.033004
 30
0.0
 10
16.210913
 20
166.649817
 30
0.0
 10
18.553322
 20
165.202714
 30
0.0
 10
19.718281
 20
164.483020
 30
0.0
 11
8.057788
 21
165.729643
 31
0.0
 11
12.008146
 21
166.750247
 31
0.0
 11
16.101254
 21
166.347415
 31
0.0
 11
19.718281
 21
164.483020
 31
0.0
  0
SPLINE
  5
19b
100
AcDbEntity
  8
Layer_1
 62
1
100
AcDbSpline
 70
0
 71
3
 72
10
 73
6
 74
4
 40
0.000000
 40
0.000000
 40
0.000000
 40
0.000000
 40
2.214665
 40
4.378475
 40
6.574223
 40
6.574223
 40
6.574223
 40
6.574223
 10
19.718281
 20
164.483020
 30
0.0
 10
20.245989
 20
163.952426
 30
0.0
 10
21.289286
 20
162.903422
 30
0.0
 10
21.694845
 20
160.529458
 30
0.0
 10
20.908156
 20
159.261708
 30
0.0
 10
20.511930
 20
158.623190
 30
0.0
 11
19.718281
 21
164.483020
 31
0.0
 11
21.103590
 21
162.755112
 31
0.0
 11
21.432821
 21
160.616496
 31
0.0
 11
20.511930
 21
158.623190
 31
0.0
  0
SPLINE
  5
19c
100
AcDbEntity
  8
Layer_1
 62
1
100
AcDbSpline
 70
0
 71
3
 72
10
 73
6
 74
4
 40
0.000000
 40
0.000000
 40
0.000000
 40
0.000000
 40
3.997890
 40
8.035513
 40
12.070515
 40
12.070515
 40
12.070515
 40
12.070515
 10
20.511930
 20
158.623190
 30
0.0
 10
19.515119
 20
157.710815
 30
0.0
 10
17.511591
 20
155.876997
 30
0.0
 10
13.489103
 20
154.850127
 30
0.0
 10
10.805338
 20
154.771236
 30
0.0
 10
9.463891
 20
154.731803
 30
0.0
 11
20.511930
 21
158.623190
 31
0.0
 11
17.354586
 21
156.170782
 31
0.0
 11
13.489838
 21
155.001969
 31
0.0
 11
9.463891
 21
154.731803
 31
0.0
  0
SPLINE
  5
19d
100
AcDbEntity
  8
Layer_1
 62
1
100
AcDbSpline
 70
0
 71
3
 72
10
 73
6
 74
4
 40
0.000000
 40
0.000000
 40
0.000000
 40
0.000000
 40
4.409487
 40
8.863211
 40
13.251039
 40
13.251039
 40
13.251039
 40
13.251039
 10
9.463891
 20
154.731803
 30
0.0
 10
8.007253
 20
154.923510
 30
0.0
 10
5.079364
 20
155.308847
 30
0.0
 10
0.922838
 20
157.339131
 30
0.0
 10
-0.654566
 20
159.889448
 30
0.0
 10
-1.437390
 20
161.155102
 30
0.0
 11
9.463891
 21
154.731803
 31
0.0
 11
5.130539
 21
155.547667
 31
0.0
 11
1.205634
 21
157.652610
 31
0.0
 11
-1.437390
 21
161.155102
 31
0.0
  0
SPLINE
  5
19e
100
AcDbEntity
  8
Layer_1
 62
1
100
AcDbSpline
 70
0
 71
3
 72
10
 73
6
 74
4
 40
0.000000
 40
0.000000
 40
0.000000
 40
0.000000
 40
3.475403
 40
7.003422
 40
10.546178
 40
10.546178
 40
10.546178
 40
10.546178
 10
-1.437390
 20
161.155102
 30
0.0
 10
-1.485717
 20
162.345298
 30
0.0
 10
-1.583103
 20
164.743707
 30
0.0
 10
0.735195
 20
167.714640
 30
0.0
 10
2.785278
 20
168.873555
 30
0.0
 10
3.812455
 20
169.454220
 30
0.0
 11
-1.437390
 21
161.155102
 31
0.0
 11
-1.179272
 21
164.620907
 31
0.0
 11
0.855380
 21
167.503113
 31
0.0
 11
3.812455
 21
169.454220
 31
0.0
  0
SPLINE
  5
19f
100
AcDbEntity
  8
Layer_1
 62
1
100
AcDbSpline
 70
0
 71
3
 72
10
 73
6
 74
4
 40
0.000000
 40
0.000000
 40
0.000000
 40
0.000000
 40
4.832947
 40
9.675791
 40
14.522191
 40
14.522191
 40
14.522191
 40
14.522191
 10
3.812455
 20
169.454220
 30
0.0
 10
5.316523
 20
170.054559
 30
0.0
 10
8.327739
 20
171.256466
 30
0.0
 10
13.234239
 20
171.570019
 30
0.0
 10
16.435826
 20
171.141036
 30
0.0
 10
18.037207
 20
170.926465
 30
0.0
 11
3.812455
 21
169.454220
 31
0.0
 11
8.388994
 21
171.007496
 31
0.0
 11
13.215040
 21
171.410513
 31
0.0
 11
18.037207
 21
170.926465
 31
0.0
  0
LWPOLYLINE
  5
1a0
100
AcDbEntity
  8
Layer_1
 62
1
100
AcDbPolyline
 90
2
 70
1
 10
18.258667
 20
174.571569
 30
0.0
 10
37.235775
 20
174.571569
 30
0.0
  0
LWPOLYLINE
  5
1a1
100
AcDbEntity
  8
Layer_1
 62
1
100
AcDbPolyline
 90
2
 70
1
 10
18.258667
 20
174.571569
 30
0.0
 10
18.258667
 20
174.571569
 30
0.0
  0
SPLINE
  5
1a2
100
AcDbEntity
  8
Layer_1
 62
1
100
AcDbSpline
 70
0
 71
3
 72
10
 73
6
 74
4
 40
0.000000
 40
0.000000
 40
0.000000
 40
0.000000
 40
1.402882
 40
2.753295
 40
4.135189
 40
4.135189
 40
4.135189
 40
4.135189
 10
18.037207
 20
170.926465
 30
0.0
 10
18.393918
 20
171.257681
 30
0.0
 10
19.094000
 20
171.907724
 30
0.0
 10
19.060770
 20
173.443909
 30
0.0
 10
18.528080
 20
174.192806
 30
0.0
 10
18.258667
 20
174.571569
 30
0.0
 11
18.037207
 21
170.926465
 31
0.0
 11
18.919843
 21
172.016893
 31
0.0
 11
18.936265
 21
173.367206
 31
0.0
 11
18.258667
 21
174.571569
 31
0.0
  0
SPLINE
  5
1a3
100
AcDbEntity
  8
Layer_1
 62
1
100
AcDbSpline
 70
0
 71
3
 72
10
 73
6
 74
4
 40
0.000000
 40
0.000000
 40
0.000000
 40
0.000000
 40
3.029900
 40
6.053241
 40
9.111023
 40
9.111023
 40
9.111023
 40
9.111023
 10
68.469414
 20
174.571569
 30
0.0
 10
67.499837
 20
174.286079
 30
0.0
 10
65.562781
 20
173.715717
 30
0.0
 10
62.813891
 20
172.366323
 30
0.0
 10
61.216442
 20
171.111862
 30
0.0
 10
60.413194
 20
170.481080
 30
0.0
 11
68.469414
 21
174.571569
 31
0.0
 11
65.588425
 21
173.633383
 31
0.0
 11
62.882935
 21
172.283970
 31
0.0
 11
60.413194
 21
170.481080
 31
0.0
  0
SPLINE
  5
1a4
100
AcDbEntity
  8
Layer_1
 62
1
100
AcDbSpline
 70
0
 71
3
 72
10
 73
6
 74
4
 40
0.000000
 40
0.000000
 40
0.000000
 40
0.000000
 40
2.525546
 40
5.051622
 40
7.565978
 40
7.565978
 40
7.565978
 40
7.565978
 10
60.413194
 20
170.481080
 30
0.0
 10
59.812838
 20
169.891795
 30
0.0
 10
58.611998
 20
168.713103
 30
0.0
 10
57.130020
 20
166.619418
 30
0.0
 10
56.683903
 20
164.987708
 30
0.0
 10
56.461363
 20
164.173750
 30
0.0
 11
60.413194
 21
170.481080
 31
0.0
 11
58.664953
 21
168.658435
 31
0.0
 11
57.263647
 21
166.556673
 31
0.0
 11
56.461363
 21
164.173750
 31
0.0
  0
SPLINE
  5
1a5
100
AcDbEntity
  8
Layer_1
 62
1
100
AcDbSpline
 70
0
 71
3
 72
10
 73
6
 74
4
 40
0.000000
 40
0.000000
 40
0.000000
 40
0.000000
 40
5.282002
 40
10.591603
 40
15.915237
 40
15.915237
 40
15.915237
 40
15.915237
 10
56.461363
 20
164.173750
 30
0.0
 10
55.430360
 20
165.636764
 30
0.0
 10
53.362967
 20
168.570436
 30
0.0
 10
48.195200
 20
170.708050
 30
0.0
 10
44.639735
 20
170.671484
 30
0.0
 10
42.859656
 20
170.653176
 30
0.0
 11
56.461363
 21
164.173750
 31
0.0
 11
53.027199
 21
168.186986
 31
0.0
 11
48.174125
 21
170.340946
 31
0.0
 11
42.859656
 21
170.653176
 31
0.0
  0
SPLINE
  5
1a6
100
AcDbEntity
  8
Layer_1
 62
1
100
AcDbSpline
 70
0
 71
3
 72
10
 73
6
 74
4
 40
0.000000
 40
0.000000
 40
0.000000
 40
0.000000
 40
4.367871
 40
8.730587
 40
13.038264
 40
13.038264
 40
13.038264
 40
13.038264
 10
42.859656
 20
170.653176
 30
0.0
 10
41.417585
 20
170.466191
 30
0.0
 10
38.535143
 20
170.092442
 30
0.0
 10
34.433692
 20
168.049965
 30
0.0
 10
33.033415
 20
165.451139
 30
0.0
 10
32.337721
 20
164.159976
 30
0.0
 11
42.859656
 21
170.653176
 31
0.0
 11
38.567496
 21
169.843448
 31
0.0
 11
34.752397
 21
167.727246
 31
0.0
 11
32.337721
 21
164.159976
 31
0.0
  0
SPLINE
  5
1a7
100
AcDbEntity
  8
Layer_1
 62
1
100
AcDbSpline
 70
0
 71
3
 72
10
 73
6
 74
4
 40
0.000000
 40
0.000000
 40
0.000000
 40
0.000000
 40
3.702674
 40
7.444676
 40
11.194215
 40
11.194215
 40
11.194215
 40
11.194215
 10
32.337721
 20
164.159976
 30
0.0
 10
32.287566
 20
162.893905
 30
0.0
 10
32.186722
 20
160.348318
 30
0.0
 10
34.729202
 20
157.171822
 30
0.0
 10
37.092800
 20
156.305204
 30
0.0
 10
38.275787
 20
155.871459
 30
0.0
 11
32.337721
 21
164.159976
 31
0.0
 11
32.630463
 21
160.468892
 31
0.0
 11
34.892678
 21
157.488127
 31
0.0
 11
38.275787
 21
155.871459
 31
0.0
  0
SPLINE
  5
1a8
100
AcDbEntity
  8
Layer_1
 62
1
100
AcDbSpline
 70
0
 71
3
 72
10
 73
6
 74
4
 40
0.000000
 40
0.000000
 40
0.000000
 40
0.000000
 40
4.193194
 40
8.396923
 40
12.535414
 40
12.535414
 40
12.535414
 40
12.535414
 10
38.275787
 20
155.871459
 30
0.0
 10
39.653375
 20
155.626163
 30
0.0
 10
42.412011
 20
155.134954
 30
0.0
 10
46.738028
 20
156.030697
 30
0.0
 10
48.697642
 20
158.080345
 30
0.0
 10
49.669786
 20
159.097154
 30
0.0
 11
38.275787
 21
155.871459
 31
0.0
 11
42.443256
 21
155.407693
 31
0.0
 11
46.527104
 21
156.404449
 31
0.0
 11
49.669786
 21
159.097154
 31
0.0
  0
SPLINE
  5
1a9
100
AcDbEntity
  8
Layer_1
 62
1
100
AcDbSpline
 70
0
 71
3
 72
10
 73
6
 74
4
 40
0.000000
 40
0.000000
 40
0.000000
 40
0.000000
 40
2.714678
 40
5.428359
 40
8.079655
 40
8.079655
 40
8.079655
 40
8.079655
 10
49.669786
 20
159.097154
 30
0.0
 10
49.943426
 20
159.975173
 30
0.0
 10
50.490604
 20
161.730888
 30
0.0
 10
49.247927
 20
164.574408
 30
0.0
 10
47.423715
 20
164.999524
 30
0.0
 10
46.522215
 20
165.209611
 30
0.0
 11
49.669786
 21
159.097154
 31
0.0
 11
50.145058
 21
161.769904
 31
0.0
 11
48.982724
 21
164.222055
 31
0.0
 11
46.522215
 21
165.209611
 31
0.0
  0
SPLINE
  5
1aa
100
AcDbEntity
  8
Layer_1
 62
1
100
AcDbSpline
 70
0
 71
3
 72
10
 73
6
 74
4
 40
0.000000
 40
0.000000
 40
0.000000
 40
0.000000
 40
1.674226
 40
3.349059
 40
5.034249
 40
5.034249
 40
5.034249
 40
5.034249
 10
46.522215
 20
165.209611
 30
0.0
 10
45.987856
 20
164.970766
 30
0.0
 10
44.918944
 20
164.492988
 30
0.0
 10
44.552409
 20
162.533526
 30
0.0
 10
45.308192
 20
161.651853
 30
0.0
 10
45.687248
 20
161.209657
 30
0.0
 11
46.522215
 21
165.209611
 31
0.0
 11
45.125331
 21
164.286708
 31
0.0
 11
44.801728
 21
162.643436
 31
0.0
 11
45.687248
 21
161.209657
 31
0.0
  0
SPLINE
  5
1ab
100
AcDbEntity
  8
Layer_1
 62
1
100
AcDbSpline
 70
0
 71
3
 72
10
 73
6
 74
4
 40
0.000000
 40
0.000000
 40
0.000000
 40
0.000000
 40
2.030607
 40
4.179033
 40
6.306221
 40
6.306221
 40
6.306221
 40
6.306221
 10
45.687248
 20
161.209657
 30
0.0
 10
45.256623
 20
160.655070
 30
0.0
 10
44.370386
 20
159.513719
 30
0.0
 10
42.126185
 20
159.234670
 30
0.0
 10
40.728876
 20
159.444856
 30
0.0
 10
40.033691
 20
159.549427
 30
0.0
 11
45.687248
 21
161.209657
 31
0.0
 11
44.253484
 21
159.771713
 31
0.0
 11
42.150001
 21
159.334570
 31
0.0
 11
40.033691
 21
159.549427
 31
0.0
  0
SPLINE
  5
1ac
100
AcDbEntity
  8
Layer_1
 62
1
100
AcDbSpline
 70
0
 71
3
 72
10
 73
6
 74
4
 40
0.000000
 40
0.000000
 40
0.000000
 40
0.000000
 40
2.087583
 40
4.159307
 40
6.149099
 40
6.149099
 40
6.149099
 40
6.149099
 10
40.033691
 20
159.549427
 30
0.0
 10
39.385627
 20
159.778028
 30
0.0
 10
38.094422
 20
160.233495
 30
0.0
 10
36.417857
 20
161.897989
 30
0.0
 10
36.871534
 20
163.283956
 30
0.0
 10
37.093797
 20
163.962960
 30
0.0
 11
40.033691
 21
159.549427
 31
0.0
 11
38.129089
 21
160.404116
 31
0.0
 11
36.801687
 21
161.994727
 31
0.0
 11
37.093797
 21
163.962960
 31
0.0
  0
SPLINE
  5
1ad
100
AcDbEntity
  8
Layer_1
 62
1
100
AcDbSpline
 70
0
 71
3
 72
10
 73
6
 74
4
 40
0.000000
 40
0.000000
 40
0.000000
 40
0.000000
 40
4.118593
 40
8.313085
 40
12.456117
 40
12.456117
 40
12.456117
 40
12.456117
 10
37.093797
 20
163.962960
 30
0.0
 10
38.179772
 20
164.843031
 30
0.0
 10
40.371734
 20
166.619391
 30
0.0
 10
44.733338
 20
167.041087
 30
0.0
 10
47.403566
 20
166.254507
 30
0.0
 10
48.730438
 20
165.863644
 30
0.0
 11
37.093797
 21
163.962960
 31
0.0
 11
40.528186
 21
166.236235
 31
0.0
 11
44.688281
 21
166.772310
 31
0.0
 11
48.730438
 21
165.863644
 31
0.0
  0
SPLINE
  5
1ae
100
AcDbEntity
  8
Layer_1
 62
1
100
AcDbSpline
 70
0
 71
3
 72
10
 73
6
 74
4
 40
0.000000
 40
0.000000
 40
0.000000
 40
0.000000
 40
2.735062
 40
5.418112
 40
8.081114
 40
8.081114
 40
8.081114
 40
8.081114
 10
48.730438
 20
165.863644
 30
0.0
 10
49.525239
 20
165.430169
 30
0.0
 10
51.099724
 20
164.571463
 30
0.0
 10
52.957529
 20
162.244688
 30
0.0
 10
52.520934
 20
160.422974
 30
0.0
 10
52.303455
 20
159.515533
 30
0.0
 11
48.730438
 21
165.863644
 31
0.0
 11
51.031030
 21
164.384508
 31
0.0
 11
52.542603
 21
162.167775
 31
0.0
 11
52.303455
 21
159.515533
 31
0.0
  0
SPLINE
  5
1af
100
AcDbEntity
  8
Layer_1
 62
1
100
AcDbSpline
 70
0
 71
3
 72
10
 73
6
 74
4
 40
0.000000
 40
0.000000
 40
0.000000
 40
0.000000
 40
3.327004
 40
6.709212
 40
10.078949
 40
10.078949
 40
10.078949
 40
10.078949
 10
52.303455
 20
159.515533
 30
0.0
 10
51.621877
 20
158.619350
 30
0.0
 10
50.247412
 20
156.812113
 30
0.0
 10
47.059938
 20
155.430076
 30
0.0
 10
44.854605
 20
155.011265
 30
0.0
 10
43.753975
 20
154.802247
 30
0.0
 11
52.303455
 21
159.515533
 31
0.0
 11
50.074951
 21
157.045163
 31
0.0
 11
47.038423
 21
155.555591
 31
0.0
 11
43.753975
 21
154.802247
 31
0.0
  0
SPLINE
  5
1b0
100
AcDbEntity
  8
Layer_1
 62
1
100
AcDbSpline
 70
0
 71
3
 72
10
 73
6
 74
4
 40
0.000000
 40
0.000000
 40
0.000000
 40
0.000000
 40
5.055921
 40
10.116173
 40
15.124874
 40
15.124874
 40
15.124874
 40
15.124874
 10
43.753975
 20
154.802247
 30
0.0
 10
42.067854
 20
154.766213
 30
0.0
 10
38.694169
 20
154.694114
 30
0.0
 10
33.683324
 20
156.294436
 30
0.0
 10
31.395673
 20
158.817901
 30
0.0
 10
30.257704
 20
160.073173
 30
0.0
 11
43.753975
 21
154.802247
 31
0.0
 11
38.701163
 21
154.979517
 31
0.0
 11
33.930979
 21
156.668157
 31
0.0
 11
30.257704
 21
160.073173
 31
0.0
  0
SPLINE
  5
1b1
100
AcDbEntity
  8
Layer_1
 62
1
100
AcDbSpline
 70
0
 71
3
 72
10
 73
6
 74
4
 40
0.000000
 40
0.000000
 40
0.000000
 40
0.000000
 40
3.349917
 40
6.742761
 40
10.160171
 40
10.160171
 40
10.160171
 40
10.160171
 10
30.257704
 20
160.073173
 30
0.0
 10
29.922094
 20
161.180024
 30
0.0
 10
29.246572
 20
163.407908
 30
0.0
 10
30.978151
 20
166.660102
 30
0.0
 10
32.781620
 20
168.034325
 30
0.0
 10
33.686608
 20
168.723914
 30
0.0
 11
30.257704
 21
160.073173
 31
0.0
 11
29.701252
 21
163.376551
 31
0.0
 11
31.133510
 21
166.452268
 31
0.0
 11
33.686608
 21
168.723914
 31
0.0
  0
SPLINE
  5
1b2
100
AcDbEntity
  8
Layer_1
 62
1
100
AcDbSpline
 70
0
 71
3
 72
10
 73
6
 74
4
 40
0.000000
 40
0.000000
 40
0.000000
 40
0.000000
 40
5.343821
 40
10.697842
 40
16.051032
 40
16.051032
 40
16.051032
 40
16.051032
 10
33.686608
 20
168.723914
 30
0.0
 10
35.296097
 20
169.516306
 30
0.0
 10
38.518148
 20
171.102603
 30
0.0
 10
43.954243
 20
171.608016
 30
0.0
 10
47.494485
 20
171.155047
 30
0.0
 10
49.264469
 20
170.928580
 30
0.0
 11
33.686608
 21
168.723914
 31
0.0
 11
38.615147
 21
170.789325
 31
0.0
 11
43.933014
 21
171.410483
 31
0.0
 11
49.264469
 21
170.928580
 31
0.0
  0
LWPOLYLINE
  5
1b3
100
AcDbEntity
  8
Layer_1
 62
1
100
AcDbPolyline
 90
2
 70
1
 10
49.480637
 20
174.571569
 30
0.0
 10
68.469414
 20
174.571569
 30
0.0
  0
LWPOLYLINE
  5
1b4
100
AcDbEntity
  8
Layer_1
 62
1
100
AcDbPolyline
 90
2
 70
1
 10
49.480637
 20
174.571569
 30
0.0
 10
49.480637
 20
174.571569
 30
0.0
  0
SPLINE
  5
1b5
100
AcDbEntity
  8
Layer_1
 62
1
100
AcDbSpline
 70
0
 71
3
 72
10
 73
6
 74
4
 40
0.000000
 40
0.000000
 40
0.000000
 40
0.000000
 40
1.400899
 40
2.753141
 40
4.133859
 40
4.133859
 40
4.133859
 40
4.133859
 10
49.264469
 20
170.928580
 30
0.0
 10
49.620863
 20
171.259290
 30
0.0
 10
50.321271
 20
171.909222
 30
0.0
 10
50.284541
 20
173.445688
 30
0.0
 10
49.750460
 20
174.193678
 30
0.0
 10
49.480637
 20
174.571569
 30
0.0
 11
49.264469
 21
170.928580
 31
0.0
 11
50.145970
 21
172.017375
 31
0.0
 11
50.159986
 21
173.369544
 31
0.0
 11
49.480637
 21
174.571569
 31
0.0
  0
SPLINE
  5
1b6
100
AcDbEntity
  8
Layer_1
 62
1
100
AcDbSpline
 70
0
 71
3
 72
10
 73
6
 74
4
 40
0.000000
 40
0.000000
 40
0.000000
 40
0.000000
 40
3.534330
 40
7.050609
 40
10.611748
 40
10.611748
 40
10.611748
 40
10.611748
 10
99.674436
 20
174.571569
 30
0.0
 10
98.545914
 20
174.229247
 30
0.0
 10
96.294633
 20
173.546350
 30
0.0
 10
93.145885
 20
171.843852
 30
0.0
 10
91.414445
 20
170.230872
 30
0.0
 10
90.543238
 20
169.419270
 30
0.0
 11
99.674436
 21
174.571569
 31
0.0
 11
96.328874
 21
173.431960
 31
0.0
 11
93.250179
 21
171.733179
 31
0.0
 11
90.543238
 21
169.419270
 31
0.0
  0
SPLINE
  5
1b7
100
AcDbEntity
  8
Layer_1
 62
1
100
AcDbSpline
 70
0
 71
3
 72
10
 73
6
 74
4
 40
0.000000
 40
0.000000
 40
0.000000
 40
0.000000
 40
2.002193
 40
4.035273
 40
5.852541
 40
5.852541
 40
5.852541
 40
5.852541
 10
90.543238
 20
169.419270
 30
0.0
 10
90.105239
 20
168.914674
 30
0.0
 10
89.222486
 20
167.897699
 30
0.0
 10
88.241762
 20
166.188994
 30
0.0
 10
87.846912
 20
164.965626
 30
0.0
 10
87.660552
 20
164.388227
 30
0.0
 11
90.543238
 21
169.419270
 31
0.0
 11
89.280094
 21
167.865808
 31
0.0
 11
88.275401
 21
166.098321
 31
0.0
 11
87.660552
 21
164.388227
 31
0.0
  0
SPLINE
  5
1b8
100
AcDbEntity
  8
Layer_1
 62
1
100
AcDbSpline
 70
0
 71
3
 72
10
 73
6
 74
4
 40
0.000000
 40
0.000000
 40
0.000000
 40
0.000000
 40
5.450518
 40
10.941422
 40
16.445384
 40
16.445384
 40
16.445384
 40
16.445384
 10
87.660552
 20
164.388227
 30
0.0
 10
86.541895
 20
165.863559
 30
0.0
 10
84.296292
 20
168.825154
 30
0.0
 10
78.842540
 20
170.714908
 30
0.0
 10
75.176991
 20
170.628597
 30
0.0
 10
73.342039
 20
170.585390
 30
0.0
 11
87.660552
 21
164.388227
 31
0.0
 11
83.961408
 21
168.391286
 31
0.0
 11
78.842046
 21
170.376774
 31
0.0
 11
73.342039
 21
170.585390
 31
0.0
  0
SPLINE
  5
1b9
100
AcDbEntity
  8
Layer_1
 62
1
100
AcDbSpline
 70
0
 71
3
 72
10
 73
6
 74
4
 40
0.000000
 40
0.000000
 40
0.000000
 40
0.000000
 40
4.300349
 40
8.594782
 40
12.828798
 40
12.828798
 40
12.828798
 40
12.828798
 10
73.342039
 20
170.585390
 30
0.0
 10
71.930608
 20
170.346591
 30
0.0
 10
69.109688
 20
169.869322
 30
0.0
 10
65.170379
 20
167.626176
 30
0.0
 10
64.021477
 20
164.951761
 30
0.0
 10
63.451095
 20
163.624027
 30
0.0
 11
73.342039
 21
170.585390
 31
0.0
 11
69.153244
 21
169.612253
 31
0.0
 11
65.524529
 21
167.315607
 31
0.0
 11
63.451095
 21
163.624027
 31
0.0
  0
SPLINE
  5
1ba
100
AcDbEntity
  8
Layer_1
 62
1
100
AcDbSpline
 70
0
 71
3
 72
10
 73
6
 74
4
 40
0.000000
 40
0.000000
 40
0.000000
 40
0.000000
 40
4.072759
 40
8.198252
 40
12.329114
 40
12.329114
 40
12.329114
 40
12.329114
 10
63.451095
 20
163.624027
 30
0.0
 10
63.562248
 20
162.230474
 30
0.0
 10
63.785994
 20
159.425324
 30
0.0
 10
67.093917
 20
156.373836
 30
0.0
 10
69.808476
 20
155.814855
 30
0.0
 10
71.166639
 20
155.535183
 30
0.0
 11
63.451095
 21
163.624027
 31
0.0
 11
64.272185
 21
159.634895
 31
0.0
 11
67.217155
 21
156.745804
 31
0.0
 11
71.166639
 21
155.535183
 31
0.0
  0
SPLINE
  5
1bb
100
AcDbEntity
  8
Layer_1
 62
1
100
AcDbSpline
 70
0
 71
3
 72
10
 73
6
 74
4
 40
0.000000
 40
0.000000
 40
0.000000
 40
0.000000
 40
3.987094
 40
7.966453
 40
11.887285
 40
11.887285
 40
11.887285
 40
11.887285
 10
71.166639
 20
155.535183
 30
0.0
 10
72.492482
 20
155.460431
 30
0.0
 10
75.141597
 20
155.311072
 30
0.0
 10
79.150224
 20
156.669561
 30
0.0
 10
80.587125
 20
158.959475
 30
0.0
 10
81.300253
 20
160.095950
 30
0.0
 11
71.166639
 21
155.535183
 31
0.0
 11
75.153520
 21
155.576384
 31
0.0
 11
78.858598
 21
157.028174
 31
0.0
 11
81.300253
 21
160.095950
 31
0.0
  0
SPLINE
  5
1bc
100
AcDbEntity
  8
Layer_1
 62
1
100
AcDbSpline
 70
0
 71
3
 72
10
 73
6
 74
4
 40
0.000000
 40
0.000000
 40
0.000000
 40
0.000000
 40
2.576008
 40
5.165378
 40
7.664433
 40
7.664433
 40
7.664433
 40
7.664433
 10
81.300253
 20
160.095950
 30
0.0
 10
81.364481
 20
160.963686
 30
0.0
 10
81.493271
 20
162.703660
 30
0.0
 10
79.745535
 20
165.102884
 30
0.0
 10
77.958870
 20
165.032041
 30
0.0
 10
77.081393
 20
164.997249
 30
0.0
 11
81.300253
 21
160.095950
 31
0.0
 11
81.167960
 21
162.668558
 31
0.0
 11
79.562747
 21
164.700337
 31
0.0
 11
77.081393
 21
164.997249
 31
0.0
  0
SPLINE
  5
1bd
100
AcDbEntity
  8
Layer_1
 62
1
100
AcDbSpline
 70
0
 71
3
 72
10
 73
6
 74
4
 40
0.000000
 40
0.000000
 40
0.000000
 40
0.000000
 40
1.460057
 40
2.931941
 40
4.406881
 40
4.406881
 40
4.406881
 40
4.406881
 10
77.081393
 20
164.997249
 30
0.0
 10
76.688911
 20
164.670214
 30
0.0
 10
75.900767
 20
164.013494
 30
0.0
 10
75.975298
 20
162.357094
 30
0.0
 10
76.545437
 20
161.552520
 30
0.0
 10
76.830802
 20
161.149815
 30
0.0
 11
77.081393
 21
164.997249
 31
0.0
 11
76.111693
 21
163.905714
 31
0.0
 11
76.105052
 21
162.433846
 31
0.0
 11
76.830802
 21
161.149815
 31
0.0
  0
SPLINE
  5
1be
100
AcDbEntity
  8
Layer_1
 62
1
100
AcDbSpline
 70
0
 71
3
 72
10
 73
6
 74
4
 40
0.000000
 40
0.000000
 40
0.000000
 40
0.000000
 40
1.953337
 40
4.012473
 40
6.060749
 40
6.060749
 40
6.060749
 40
6.060749
 10
76.830802
 20
161.149815
 30
0.0
 10
76.431171
 20
160.600341
 30
0.0
 10
75.610263
 20
159.471631
 30
0.0
 10
73.436729
 20
159.247089
 30
0.0
 10
72.095579
 20
159.431855
 30
0.0
 10
71.426778
 20
159.523993
 30
0.0
 11
76.830802
 21
161.149815
 31
0.0
 11
75.485433
 21
159.733656
 31
0.0
 11
73.465976
 21
159.331368
 31
0.0
 11
71.426778
 21
159.523993
 31
0.0
  0
SPLINE
  5
1bf
100
AcDbEntity
  8
Layer_1
 62
1
100
AcDbSpline
 70
0
 71
3
 72
10
 73
6
 74
4
 40
0.000000
 40
0.000000
 40
0.000000
 40
0.000000
 40
2.075829
 40
4.143391
 40
6.086451
 40
6.086451
 40
6.086451
 40
6.086451
 10
71.426778
 20
159.523993
 30
0.0
 10
70.774060
 20
159.725869
 30
0.0
 10
69.471223
 20
160.128818
 30
0.0
 10
67.730298
 20
161.669820
 30
0.0
 10
68.056884
 20
163.065099
 30
0.0
 10
68.215107
 20
163.741081
 30
0.0
 11
71.426778
 21
159.523993
 31
0.0
 11
69.498164
 21
160.291792
 31
0.0
 11
68.086355
 21
161.802291
 31
0.0
 11
68.215107
 21
163.741081
 31
0.0
  0
SPLINE
  5
1c0
100
AcDbEntity
  8
Layer_1
 62
1
100
AcDbSpline
 70
0
 71
3
 72
10
 73
6
 74
4
 40
0.000000
 40
0.000000
 40
0.000000
 40
0.000000
 40
3.185367
 40
6.418738
 40
9.657437
 40
9.657437
 40
9.657437
 40
9.657437
 10
68.215107
 20
163.741081
 30
0.0
 10
68.963345
 20
164.525542
 30
0.0
 10
70.471095
 20
166.106287
 30
0.0
 10
73.761965
 20
166.817601
 30
0.0
 10
75.909695
 20
166.726424
 30
0.0
 10
76.984444
 20
166.680798
 30
0.0
 11
68.215107
 21
163.741081
 31
0.0
 11
70.627163
 21
165.821599
 31
0.0
 11
73.745749
 21
166.675473
 31
0.0
 11
76.984444
 21
166.680798
 31
0.0
  0
SPLINE
  5
1c1
100
AcDbEntity
  8
Layer_1
 62
1
100
AcDbSpline
 70
0
 71
3
 72
10
 73
6
 74
4
 40
0.000000
 40
0.000000
 40
0.000000
 40
0.000000
 40
3.176552
 40
6.365192
 40
9.473290
 40
9.473290
 40
9.473290
 40
9.473290
 10
76.984444
 20
166.680798
 30
0.0
 10
78.017100
 20
166.459858
 30
0.0
 10
80.086341
 20
166.017136
 30
0.0
 10
82.938404
 20
164.221811
 30
0.0
 10
83.605269
 20
162.170019
 30
0.0
 10
83.934437
 20
161.157244
 30
0.0
 11
76.984444
 21
166.680798
 31
0.0
 11
80.044328
 21
165.827808
 31
0.0
 11
82.647530
 21
163.986405
 31
0.0
 11
83.934437
 21
161.157244
 31
0.0
  0
SPLINE
  5
1c2
100
AcDbEntity
  8
Layer_1
 62
1
100
AcDbSpline
 70
0
 71
3
 72
10
 73
6
 74
4
 40
0.000000
 40
0.000000
 40
0.000000
 40
0.000000
 40
3.224477
 40
6.514755
 40
9.816747
 40
9.816747
 40
9.816747
 40
9.816747
 10
83.934437
 20
161.157244
 30
0.0
 10
83.608660
 20
160.098706
 30
0.0
 10
82.950459
 20
157.960027
 30
0.0
 10
80.011929
 20
156.103470
 30
0.0
 10
77.919615
 20
155.476432
 30
0.0
 10
76.871600
 20
155.162357
 30
0.0
 11
83.934437
 21
161.157244
 31
0.0
 11
82.640619
 21
158.203723
 31
0.0
 11
79.985792
 21
156.260060
 31
0.0
 11
76.871600
 21
155.162357
 31
0.0
  0
SPLINE
  5
1c3
100
AcDbEntity
  8
Layer_1
 62
1
100
AcDbSpline
 70
0
 71
3
 72
10
 73
6
 74
4
 40
0.000000
 40
0.000000
 40
0.000000
 40
0.000000
 40
5.587997
 40
11.160656
 40
16.738008
 40
16.738008
 40
16.738008
 40
16.738008
 10
76.871600
 20
155.162357
 30
0.0
 10
75.019604
 20
154.905178
 30
0.0
 10
71.320697
 20
154.391527
 30
0.0
 10
65.666202
 20
155.863132
 30
0.0
 10
62.958918
 20
158.480578
 30
0.0
 10
61.604706
 20
159.789852
 30
0.0
 11
76.871600
 21
155.162357
 31
0.0
 11
71.297708
 21
154.765573
 31
0.0
 11
65.932427
 21
156.271659
 31
0.0
 11
61.604706
 21
159.789852
 31
0.0
  0
SPLINE
  5
1c4
100
AcDbEntity
  8
Layer_1
 62
1
100
AcDbSpline
 70
0
 71
3
 72
10
 73
6
 74
4
 40
0.000000
 40
0.000000
 40
0.000000
 40
0.000000
 40
3.313292
 40
6.686530
 40
10.071958
 40
10.071958
 40
10.071958
 40
10.071958
 10
61.604706
 20
159.789852
 30
0.0
 10
61.220652
 20
160.864386
 30
0.0
 10
60.445595
 20
163.032894
 30
0.0
 10
61.951432
 20
166.368747
 30
0.0
 10
63.712716
 20
167.779498
 30
0.0
 10
64.594946
 20
168.486146
 30
0.0
 11
61.604706
 21
159.789852
 31
0.0
 11
60.888310
 21
163.024768
 31
0.0
 11
62.136636
 21
166.158522
 31
0.0
 11
64.594946
 21
168.486146
 31
0.0
  0
SPLINE
  5
1c5
100
AcDbEntity
  8
Layer_1
 62
1
100
AcDbSpline
 70
0
 71
3
 72
10
 73
6
 74
4
 40
0.000000
 40
0.000000
 40
0.000000
 40
0.000000
 40
5.468248
 40
10.975441
 40
16.491455
 40
16.491455
 40
16.491455
 40
16.491455
 10
64.594946
 20
168.486146
 30
0.0
 10
66.219208
 20
169.348052
 30
0.0
 10
69.479300
 20
171.078004
 30
0.0
 10
75.073040
 20
171.595011
 30
0.0
 10
78.721981
 20
171.193545
 30
0.0
 10
80.547912
 20
170.992652
 30
0.0
 11
64.594946
 21
168.486146
 31
0.0
 11
69.582580
 21
170.727852
 31
0.0
 11
75.047578
 21
171.408272
 31
0.0
 11
80.547912
 21
170.992652
 31
0.0
  0
LWPOLYLINE
  5
1c6
100
AcDbEntity
  8
Layer_1
 62
1
100
AcDbPolyline
 90
2
 70
1
 10
80.690975
 20
174.571569
 30
0.0
 10
99.674436
 20
174.571569
 30
0.0
  0
SPLINE
  5
1c7
100
AcDbEntity
  8
Layer_1
 62
1
100
AcDbSpline
 70
0
 71
3
 72
10
 73
6
 74
4
 40
0.000000
 40
0.000000
 40
0.000000
 40
0.000000
 40
1.376189
 40
2.693816
 40
4.046952
 40
4.046952
 40
4.046952
 40
4.046952
 10
80.547912
 20
170.992652
 30
0.0
 10
80.888624
 20
171.326928
 30
0.0
 10
81.555550
 20
171.981257
 30
0.0
 10
81.491030
 20
173.480401
 30
0.0
 10
80.960013
 20
174.204637
 30
0.0
 10
80.690975
 20
174.571569
 30
0.0
 11
80.547912
 21
170.992652
 31
0.0
 11
81.384781
 21
172.085147
 31
0.0
 11
81.372713
 21
173.402719
 31
0.0
 11
80.690975
 21
174.571569
 31
0.0
  0
SPLINE
  5
1c8
100
AcDbEntity
  8
Layer_1
 62
1
100
AcDbSpline
 70
0
 71
3
 72
10
 73
6
 74
4
 40
0.000000
 40
0.000000
 40
0.000000
 40
0.000000
 40
3.414419
 40
6.814774
 40
10.260355
 40
10.260355
 40
10.260355
 40
10.260355
 10
-25.546728
 20
174.480491
 30
0.0
 10
-26.632059
 20
174.134078
 30
0.0
 10
-28.798250
 20
173.442680
 30
0.0
 10
-31.823857
 20
171.766751
 30
0.0
 10
-33.495426
 20
170.203795
 30
0.0
 10
-34.336732
 20
169.417155
 30
0.0
 11
-25.546728
 21
174.480491
 31
0.0
 11
-28.763402
 21
173.335385
 31
0.0
 11
-31.724868
 21
171.664417
 31
0.0
 11
-34.336732
 21
169.417155
 31
0.0
  0
LWPOLYLINE
  5
1c9
100
AcDbEntity
  8
Layer_1
 62
1
100
AcDbPolyline
 90
2
 70
1
 10
80.690975
 20
174.571569
 30
0.0
 10
80.690975
 20
174.571569
 30
0.0
  0
SPLINE
  5
1ca
100
AcDbEntity
  8
Layer_1
 62
1
100
AcDbSpline
 70
0
 71
3
 72
10
 73
6
 74
4
 40
0.000000
 40
0.000000
 40
0.000000
 40
0.000000
 40
1.197091
 40
2.398233
 40
3.598095
 40
3.598095
 40
3.598095
 40
3.598095
 10
-34.336732
 20
169.417155
 30
0.0
 10
-34.609849
 20
169.125886
 30
0.0
 10
-35.157007
 20
168.542364
 30
0.0
 10
-35.856704
 20
167.562038
 30
0.0
 10
-36.229074
 20
166.852963
 30
0.0
 10
-36.415160
 20
166.498615
 30
0.0
 11
-34.336732
 21
169.417155
 31
0.0
 11
-35.135954
 21
168.525935
 31
0.0
 11
-35.833293
 21
167.547949
 31
0.0
 11
-36.415160
 21
166.498615
 31
0.0
  0
LWPOLYLINE
  5
1cb
100
AcDbEntity
  8
Layer_1
 62
1
100
AcDbPolyline
 90
2
 70
1
 10
-36.415160
 20
166.498615
 30
0.0
 10
-36.415160
 20
171.689065
 30
0.0
  0
SPLINE
  5
1cc
100
AcDbEntity
  8
Layer_1
 62
1
100
AcDbSpline
 70
0
 71
3
 72
10
 73
6
 74
4
 40
0.000000
 40
0.000000
 40
0.000000
 40
0.000000
 40
1.900137
 40
5.864157
 40
11.490943
 40
11.490943
 40
11.490943
 40
11.490943
 10
-36.415160
 20
171.689065
 30
0.0
 10
-35.962858
 20
172.149556
 30
0.0
 10
-34.566976
 20
173.570714
 30
0.0
 10
-30.516772
 20
173.981219
 30
0.0
 10
-27.384428
 20
174.295883
 30
0.0
 10
-25.546728
 20
174.480491
 30
0.0
 11
-36.415160
 21
171.689065
 31
0.0
 11
-34.987799
 21
172.943323
 31
0.0
 11
-31.145232
 21
173.917042
 31
0.0
 11
-25.546728
 21
174.480491
 31
0.0
  0
LWPOLYLINE
  5
1cd
100
AcDbEntity
  8
Layer_1
 62
1
100
AcDbPolyline
 90
2
 70
1
 10
-25.546728
 20
174.480491
 30
0.0
 10
-25.546728
 20
174.480491
 30
0.0
  0
SPLINE
  5
1ce
100
AcDbEntity
  8
Layer_1
 62
1
100
AcDbSpline
 70
0
 71
3
 72
10
 73
6
 74
4
 40
0.000000
 40
0.000000
 40
0.000000
 40
0.000000
 40
3.435073
 40
5.803989
 40
7.048594
 40
7.048594
 40
7.048594
 40
7.048594
 10
112.286991
 20
174.087003
 30
0.0
 10
113.393739
 20
173.886379
 30
0.0
 10
115.263728
 20
173.547400
 30
0.0
 10
117.731971
 20
173.044340
 30
0.0
 10
118.443544
 20
172.036273
 30
0.0
 10
118.688631
 20
171.689065
 30
0.0
 11
112.286991
 21
174.087003
 31
0.0
 11
115.664128
 21
173.458772
 31
0.0
 11
117.887673
 21
172.641696
 31
0.0
 11
118.688631
 21
171.689065
 31
0.0
  0
SPLINE
  5
1cf
100
AcDbEntity
  8
Layer_1
 62
1
100
AcDbSpline
 70
0
 71
3
 72
10
 73
6
 74
4
 40
0.000000
 40
0.000000
 40
0.000000
 40
0.000000
 40
0.072715
 40
0.145478
 40
0.218559
 40
0.218559
 40
0.218559
 40
0.218559
 10
118.688631
 20
164.733505
 30
0.0
 10
118.676352
 20
164.754402
 30
0.0
 10
118.651786
 20
164.796211
 30
0.0
 10
118.614977
 20
164.859087
 30
0.0
 10
118.589212
 20
164.900316
 30
0.0
 10
118.576302
 20
164.920975
 30
0.0
 11
118.688631
 21
164.733505
 31
0.0
 11
118.651810
 21
164.796208
 31
0.0
 11
118.614731
 21
164.858815
 31
0.0
 11
118.576302
 21
164.920975
 31
0.0
  0
SPLINE
  5
1d0
100
AcDbEntity
  8
Layer_1
 62
1
100
AcDbSpline
 70
0
 71
3
 72
10
 73
6
 74
4
 40
0.000000
 40
0.000000
 40
0.000000
 40
0.000000
 40
5.375618
 40
10.812289
 40
16.250514
 40
16.250514
 40
16.250514
 40
16.250514
 10
118.576302
 20
164.920975
 30
0.0
 10
117.398295
 20
166.314620
 30
0.0
 10
115.028904
 20
169.117737
 30
0.0
 10
109.589003
 20
170.763980
 30
0.0
 10
105.967923
 20
170.626922
 30
0.0
 10
104.157124
 20
170.558383
 30
0.0
 11
118.576302
 21
164.920975
 31
0.0
 11
114.733290
 21
168.679770
 31
0.0
 11
109.594352
 21
170.454229
 31
0.0
 11
104.157124
 21
170.558383
 31
0.0
  0
SPLINE
  5
1d1
100
AcDbEntity
  8
Layer_1
 62
1
100
AcDbSpline
 70
0
 71
3
 72
10
 73
6
 74
4
 40
0.000000
 40
0.000000
 40
0.000000
 40
0.000000
 40
3.985262
 40
7.975919
 40
11.909871
 40
11.909871
 40
11.909871
 40
11.909871
 10
104.157124
 20
170.558383
 30
0.0
 10
102.855455
 20
170.300402
 30
0.0
 10
100.250354
 20
169.784091
 30
0.0
 10
96.623239
 20
167.737557
 30
0.0
 10
95.392237
 20
165.343611
 30
0.0
 10
94.781140
 20
164.155203
 30
0.0
 11
104.157124
 21
170.558383
 31
0.0
 11
100.296071
 21
169.571171
 31
0.0
 11
96.905818
 21
167.466051
 31
0.0
 11
94.781140
 21
164.155203
 31
0.0
  0
SPLINE
  5
1d2
100
AcDbEntity
  8
Layer_1
 62
1
100
AcDbSpline
 70
0
 71
3
 72
10
 73
6
 74
4
 40
0.000000
 40
0.000000
 40
0.000000
 40
0.000000
 40
3.412007
 40
6.833120
 40
10.277496
 40
10.277496
 40
10.277496
 40
10.277496
 10
94.781140
 20
164.155203
 30
0.0
 10
94.714040
 20
162.993647
 30
0.0
 10
94.579659
 20
160.667435
 30
0.0
 10
96.702412
 20
157.636948
 30
0.0
 10
98.787017
 20
156.651377
 30
0.0
 10
99.832852
 20
156.156922
 30
0.0
 11
94.781140
 21
164.155203
 31
0.0
 11
94.965239
 21
160.748167
 31
0.0
 11
96.863125
 21
157.901758
 31
0.0
 11
99.832852
 21
156.156922
 31
0.0
  0
SPLINE
  5
1d3
100
AcDbEntity
  8
Layer_1
 62
1
100
AcDbSpline
 70
0
 71
3
 72
10
 73
6
 74
4
 40
0.000000
 40
0.000000
 40
0.000000
 40
0.000000
 40
4.152254
 40
8.323137
 40
12.440075
 40
12.440075
 40
12.440075
 40
12.440075
 10
99.832852
 20
156.156922
 30
0.0
 10
101.177649
 20
155.812323
 30
0.0
 10
103.873278
 20
155.121580
 30
0.0
 10
108.180773
 20
155.690393
 30
0.0
 10
110.402088
 20
157.396494
 30
0.0
 10
111.505517
 20
158.243992
 30
0.0
 11
99.832852
 21
156.156922
 31
0.0
 11
103.913621
 21
155.389756
 31
0.0
 11
108.035229
 21
156.028979
 31
0.0
 11
111.505517
 21
158.243992
 31
0.0
  0
SPLINE
  5
1d4
100
AcDbEntity
  8
Layer_1
 62
1
100
AcDbSpline
 70
0
 71
3
 72
10
 73
6
 74
4
 40
0.000000
 40
0.000000
 40
0.000000
 40
0.000000
 40
2.712286
 40
5.413181
 40
8.074516
 40
8.074516
 40
8.074516
 40
8.074516
 10
111.505517
 20
158.243992
 30
0.0
 10
111.967995
 20
159.037394
 30
0.0
 10
112.891008
 20
160.620867
 30
0.0
 10
112.404766
 20
163.638985
 30
0.0
 10
110.812733
 20
164.599803
 30
0.0
 10
110.022590
 20
165.076668
 30
0.0
 11
111.505517
 21
158.243992
 31
0.0
 11
112.579387
 21
160.734633
 31
0.0
 11
112.080404
 21
163.389036
 31
0.0
 11
110.022590
 21
165.076668
 31
0.0
  0
SPLINE
  5
1d5
100
AcDbEntity
  8
Layer_1
 62
1
100
AcDbSpline
 70
0
 71
3
 72
10
 73
6
 74
4
 40
0.000000
 40
0.000000
 40
0.000000
 40
0.000000
 40
1.645641
 40
3.274827
 40
4.884722
 40
4.884722
 40
4.884722
 40
4.884722
 10
110.022590
 20
165.076668
 30
0.0
 10
109.455832
 20
165.137634
 30
0.0
 10
108.327984
 20
165.258958
 30
0.0
 10
106.983081
 20
163.825343
 30
0.0
 10
107.293120
 20
162.726870
 30
0.0
 10
107.447216
 20
162.180904
 30
0.0
 11
110.022590
 21
165.076668
 31
0.0
 11
108.379435
 21
164.986228
 31
0.0
 11
107.281822
 21
163.782280
 31
0.0
 11
107.447216
 21
162.180904
 31
0.0
  0
SPLINE
  5
1d6
100
AcDbEntity
  8
Layer_1
 62
1
100
AcDbSpline
 70
0
 71
3
 72
10
 73
6
 74
4
 40
0.000000
 40
0.000000
 40
0.000000
 40
0.000000
 40
0.791037
 40
1.444260
 40
2.224262
 40
2.224262
 40
2.224262
 40
2.224262
 10
107.447216
 20
162.180904
 30
0.0
 10
107.635027
 20
161.994474
 30
0.0
 10
107.977929
 20
161.654094
 30
0.0
 10
108.142766
 20
160.823970
 30
0.0
 10
107.740724
 20
160.498279
 30
0.0
 10
107.521921
 20
160.321028
 30
0.0
 11
107.447216
 21
162.180904
 31
0.0
 11
107.939891
 21
161.562026
 31
0.0
 11
108.027791
 21
160.914744
 31
0.0
 11
107.521921
 21
160.321028
 31
0.0
  0
SPLINE
  5
1d7
100
AcDbEntity
  8
Layer_1
 62
1
100
AcDbSpline
 70
0
 71
3
 72
10
 73
6
 74
4
 40
0.000000
 40
0.000000
 40
0.000000
 40
0.000000
 40
2.710341
 40
5.501562
 40
8.233370
 40
8.233370
 40
8.233370
 40
8.233370
 10
107.521921
 20
160.321028
 30
0.0
 10
106.704005
 20
159.898420
 30
0.0
 10
105.043765
 20
159.040591
 30
0.0
 10
102.143949
 20
159.438858
 30
0.0
 10
100.605114
 20
160.464193
 30
0.0
 10
99.843974
 20
160.971346
 30
0.0
 11
107.521921
 21
160.321028
 31
0.0
 11
105.000841
 21
159.325989
 31
0.0
 11
102.226819
 21
159.635375
 31
0.0
 11
99.843974
 21
160.971346
 31
0.0
  0
SPLINE
  5
1d8
100
AcDbEntity
  8
Layer_1
 62
1
100
AcDbSpline
 70
0
 71
3
 72
10
 73
6
 74
4
 40
0.000000
 40
0.000000
 40
0.000000
 40
0.000000
 40
1.481894
 40
2.898836
 40
4.372532
 40
4.372532
 40
4.372532
 40
4.372532
 10
99.843974
 20
160.971346
 30
0.0
 10
99.547242
 20
161.385594
 30
0.0
 10
98.966784
 20
162.195932
 30
0.0
 10
99.228057
 20
163.804954
 30
0.0
 10
99.975672
 20
164.444171
 30
0.0
 10
100.356819
 20
164.770055
 30
0.0
 11
99.843974
 21
160.971346
 31
0.0
 11
99.150734
 21
162.281091
 31
0.0
 11
99.362800
 21
163.682073
 31
0.0
 11
100.356819
 21
164.770055
 31
0.0
  0
SPLINE
  5
1d9
100
AcDbEntity
  8
Layer_1
 62
1
100
AcDbSpline
 70
0
 71
3
 72
10
 73
6
 74
4
 40
0.000000
 40
0.000000
 40
0.000000
 40
0.000000
 40
4.671929
 40
9.440127
 40
14.167087
 40
14.167087
 40
14.167087
 40
14.167087
 10
100.356819
 20
164.770055
 30
0.0
 10
101.733992
 20
165.546912
 30
0.0
 10
104.516715
 20
167.116632
 30
0.0
 10
109.538770
 20
166.814150
 30
0.0
 10
112.253967
 20
165.139002
 30
0.0
 10
113.605670
 20
164.305066
 30
0.0
 11
100.356819
 21
164.770055
 31
0.0
 11
104.626399
 21
166.666791
 31
0.0
 11
109.389293
 21
166.441961
 31
0.0
 11
113.605670
 21
164.305066
 31
0.0
  0
SPLINE
  5
1da
100
AcDbEntity
  8
Layer_1
 62
1
100
AcDbSpline
 70
0
 71
3
 72
10
 73
6
 74
4
 40
0.000000
 40
0.000000
 40
0.000000
 40
0.000000
 40
2.202504
 40
4.351045
 40
6.528065
 40
6.528065
 40
6.528065
 40
6.528065
 10
113.605670
 20
164.305066
 30
0.0
 10
114.090314
 20
163.741948
 30
0.0
 10
115.047730
 20
162.629509
 30
0.0
 10
115.316828
 20
160.252451
 30
0.0
 10
114.445702
 20
159.052047
 30
0.0
 10
114.007271
 20
158.447894
 30
0.0
 11
113.605670
 21
164.305066
 31
0.0
 11
114.860235
 21
162.494792
 31
0.0
 11
115.056739
 21
160.355256
 31
0.0
 11
114.007271
 21
158.447894
 31
0.0
  0
SPLINE
  5
1db
100
AcDbEntity
  8
Layer_1
 62
1
100
AcDbSpline
 70
0
 71
3
 72
10
 73
6
 74
4
 40
0.000000
 40
0.000000
 40
0.000000
 40
0.000000
 40
4.857393
 40
9.801456
 40
14.731247
 40
14.731247
 40
14.731247
 40
14.731247
 10
114.007271
 20
158.447894
 30
0.0
 10
112.736777
 20
157.404303
 30
0.0
 10
110.173118
 20
155.298500
 30
0.0
 10
105.125070
 20
154.488546
 30
0.0
 10
101.866959
 20
154.937970
 30
0.0
 10
100.240258
 20
155.162357
 30
0.0
 11
114.007271
 21
158.447894
 31
0.0
 11
110.000520
 21
155.701948
 31
0.0
 11
105.151626
 21
154.736556
 31
0.0
 11
100.240258
 21
155.162357
 31
0.0
  0
SPLINE
  5
1dc
100
AcDbEntity
  8
Layer_1
 62
1
100
AcDbSpline
 70
0
 71
3
 72
10
 73
6
 74
4
 40
0.000000
 40
0.000000
 40
0.000000
 40
0.000000
 40
3.617747
 40
7.246788
 40
10.815270
 40
10.815270
 40
10.815270
 40
10.815270
 10
100.240258
 20
155.162357
 30
0.0
 10
99.090920
 20
155.520993
 30
0.0
 10
96.788655
 20
156.239385
 30
0.0
 10
93.658158
 20
158.320292
 30
0.0
 10
92.632261
 20
160.534485
 30
0.0
 10
92.123628
 20
161.632266
 30
0.0
 11
100.240258
 21
155.162357
 31
0.0
 11
96.843252
 21
156.406720
 31
0.0
 11
93.909456
 21
158.542787
 31
0.0
 11
92.123628
 21
161.632266
 31
0.0
  0
SPLINE
  5
1dd
100
AcDbEntity
  8
Layer_1
 62
1
100
AcDbSpline
 70
0
 71
3
 72
10
 73
6
 74
4
 40
0.000000
 40
0.000000
 40
0.000000
 40
0.000000
 40
3.716747
 40
7.499218
 40
11.288087
 40
11.288087
 40
11.288087
 40
11.288087
 10
92.123628
 20
161.632266
 30
0.0
 10
92.216809
 20
162.901602
 30
0.0
 10
92.404818
 20
165.462719
 30
0.0
 10
95.179118
 20
168.367159
 30
0.0
 10
97.456225
 20
169.444958
 30
0.0
 10
98.595741
 20
169.984312
 30
0.0
 11
92.123628
 21
161.632266
 31
0.0
 11
92.809723
 21
165.285139
 31
0.0
 11
95.281440
 21
168.148301
 31
0.0
 11
98.595741
 21
169.984312
 31
0.0
  0
SPLINE
  5
1de
100
AcDbEntity
  8
Layer_1
 62
1
100
AcDbSpline
 70
0
 71
3
 72
10
 73
6
 74
4
 40
0.000000
 40
0.000000
 40
0.000000
 40
0.000000
 40
4.442230
 40
8.886902
 40
13.329006
 40
13.329006
 40
13.329006
 40
13.329006
 10
98.595741
 20
169.984312
 30
0.0
 10
100.010949
 20
170.439755
 30
0.0
 10
102.842141
 20
171.350892
 30
0.0
 10
107.332724
 20
171.518598
 30
0.0
 10
110.271694
 20
171.149566
 30
0.0
 10
111.740754
 20
170.965103
 30
0.0
 11
98.595741
 21
169.984312
 31
0.0
 11
102.882049
 21
171.150921
 31
0.0
 11
107.319829
 21
171.398349
 31
0.0
 11
111.740754
 21
170.965103
 31
0.0
  0
LWPOLYLINE
  5
1df
100
AcDbEntity
  8
Layer_1
 62
1
100
AcDbPolyline
 90
2
 70
1
 10
118.688631
 20
171.689065
 30
0.0
 10
118.688631
 20
164.733505
 30
0.0
  0
SPLINE
  5
1e0
100
AcDbEntity
  8
Layer_1
 62
1
100
AcDbSpline
 70
0
 71
3
 72
10
 73
6
 74
4
 40
0.000000
 40
0.000000
 40
0.000000
 40
0.000000
 40
1.195363
 40
2.326584
 40
3.488677
 40
3.488677
 40
3.488677
 40
3.488677
 10
111.740754
 20
170.965103
 30
0.0
 10
112.046905
 20
171.239057
 30
0.0
 10
112.642780
 20
171.772263
 30
0.0
 10
112.768994
 20
173.032089
 30
0.0
 10
112.449094
 20
173.732224
 30
0.0
 10
112.286991
 20
174.087003
 30
0.0
 11
111.740754
 21
170.965103
 31
0.0
 11
112.524131
 21
171.867994
 31
0.0
 11
112.669853
 21
172.989791
 31
0.0
 11
112.286991
 21
174.087003
 31
0.0
  0
LWPOLYLINE
  5
1e1
100
AcDbEntity
  8
Layer_1
 62
1
100
AcDbPolyline
 90
2
 70
1
 10
112.286991
 20
174.087003
 30
0.0
 10
112.286991
 20
174.087003
 30
0.0
  0
SPLINE
  5
1e2
100
AcDbEntity
  8
Layer_1
 62
1
100
AcDbSpline
 70
0
 71
3
 72
10
 73
6
 74
4
 40
0.000000
 40
0.000000
 40
0.000000
 40
0.000000
 40
4.390994
 40
8.797586
 40
13.253351
 40
13.253351
 40
13.253351
 40
13.253351
 10
-5.490405
 20
159.570061
 30
0.0
 10
-4.799530
 20
158.258638
 30
0.0
 10
-3.415327
 20
155.631133
 30
0.0
 10
0.334613
 20
153.025748
 30
0.0
 10
3.121312
 20
152.049763
 30
0.0
 10
4.522393
 20
151.559063
 30
0.0
 11
-5.490405
 21
159.570061
 31
0.0
 11
-3.142507
 21
155.859508
 31
0.0
 11
0.389717
 21
153.224846
 31
0.0
 11
4.522393
 21
151.559063
 31
0.0
  0
SPLINE
  5
1e3
100
AcDbEntity
  8
Layer_1
 62
1
100
AcDbSpline
 70
0
 71
3
 72
10
 73
6
 74
4
 40
0.000000
 40
0.000000
 40
0.000000
 40
0.000000
 40
2.731653
 40
5.461747
 40
8.209883
 40
8.209883
 40
8.209883
 40
8.209883
 10
-14.784253
 20
151.559063
 30
0.0
 10
-13.920038
 20
151.848551
 30
0.0
 10
-12.192101
 20
152.427362
 30
0.0
 10
-9.765297
 20
153.736501
 30
0.0
 10
-8.350223
 20
154.895161
 30
0.0
 10
-7.640356
 20
155.476399
 30
0.0
 11
-14.784253
 21
151.559063
 31
0.0
 11
-12.219991
 21
152.500597
 31
0.0
 11
-9.821361
 21
153.804432
 31
0.0
 11
-7.640356
 21
155.476399
 31
0.0
  0
LWPOLYLINE
  5
1e4
100
AcDbEntity
  8
Layer_1
 62
1
100
AcDbPolyline
 90
2
 70
1
 10
4.522393
 20
151.559063
 30
0.0
 10
-14.784253
 20
151.559063
 30
0.0
  0
SPLINE
  5
1e5
100
AcDbEntity
  8
Layer_1
 62
1
100
AcDbSpline
 70
0
 71
3
 72
10
 73
6
 74
4
 40
0.000000
 40
0.000000
 40
0.000000
 40
0.000000
 40
1.558176
 40
3.116547
 40
4.674562
 40
4.674562
 40
4.674562
 40
4.674562
 10
-7.640356
 20
155.476399
 30
0.0
 10
-7.304749
 20
155.874053
 30
0.0
 10
-6.633494
 20
156.669410
 30
0.0
 10
-5.902682
 20
158.064687
 30
0.0
 10
-5.627820
 20
159.068308
 30
0.0
 10
-5.490405
 20
159.570061
 30
0.0
 11
-7.640356
 21
155.476399
 31
0.0
 11
-6.679536
 21
156.703076
 31
0.0
 11
-5.955726
 21
158.083155
 31
0.0
 11
-5.490405
 21
159.570061
 31
0.0
  0
LWPOLYLINE
  5
1e6
100
AcDbEntity
  8
Layer_1
 62
1
100
AcDbPolyline
 90
2
 70
1
 10
-5.490405
 20
159.570061
 30
0.0
 10
-5.490405
 20
159.570061
 30
0.0
  0
SPLINE
  5
1e7
100
AcDbEntity
  8
Layer_1
 62
1
100
AcDbSpline
 70
0
 71
3
 72
10
 73
6
 74
4
 40
0.000000
 40
0.000000
 40
0.000000
 40
0.000000
 40
4.395126
 40
8.797687
 40
13.257635
 40
13.257635
 40
13.257635
 40
13.257635
 10
88.177656
 20
159.555148
 30
0.0
 10
88.868305
 20
158.241686
 30
0.0
 10
90.250771
 20
155.612540
 30
0.0
 10
94.009028
 20
153.014313
 30
0.0
 10
96.798399
 20
152.046164
 30
0.0
 10
98.202115
 20
151.558955
 30
0.0
 11
88.177656
 21
159.555148
 31
0.0
 11
90.527006
 21
155.840624
 31
0.0
 11
94.061126
 21
153.215259
 31
0.0
 11
98.202115
 21
151.558955
 31
0.0
  0
SPLINE
  5
1e8
100
AcDbEntity
  8
Layer_1
 62
1
100
AcDbSpline
 70
0
 71
3
 72
10
 73
6
 74
4
 40
0.000000
 40
0.000000
 40
0.000000
 40
0.000000
 40
2.784015
 40
5.560815
 40
8.351789
 40
8.351789
 40
8.351789
 40
8.351789
 10
78.889100
 20
151.558955
 30
0.0
 10
79.769911
 20
151.853949
 30
0.0
 10
81.529251
 20
152.443173
 30
0.0
 10
83.992147
 20
153.790303
 30
0.0
 10
85.409086
 20
154.994129
 30
0.0
 10
86.119359
 20
155.597574
 30
0.0
 11
78.889100
 21
151.558955
 31
0.0
 11
81.501585
 21
152.521069
 31
0.0
 11
83.932011
 21
153.864066
 31
0.0
 11
86.119359
 21
155.597574
 31
0.0
  0
LWPOLYLINE
  5
1e9
100
AcDbEntity
  8
Layer_1
 62
1
100
AcDbPolyline
 90
2
 70
1
 10
98.202115
 20
151.558955
 30
0.0
 10
78.889100
 20
151.558955
 30
0.0
  0
SPLINE
  5
1ea
100
AcDbEntity
  8
Layer_1
 62
1
100
AcDbSpline
 70
0
 71
3
 72
10
 73
6
 74
4
 40
0.000000
 40
0.000000
 40
0.000000
 40
0.000000
 40
1.501384
 40
3.002858
 40
4.503826
 40
4.503826
 40
4.503826
 40
4.503826
 10
86.119359
 20
155.597574
 30
0.0
 10
86.435205
 20
155.986706
 30
0.0
 10
87.066916
 20
156.764994
 30
0.0
 10
87.769439
 20
158.107956
 30
0.0
 10
88.041599
 20
159.072805
 30
0.0
 10
88.177656
 20
159.555148
 30
0.0
 11
86.119359
 21
155.597574
 31
0.0
 11
87.026071
 21
156.794247
 31
0.0
 11
87.720459
 21
158.125506
 31
0.0
 11
88.177656
 21
159.555148
 31
0.0
  0
LWPOLYLINE
  5
1eb
100
AcDbEntity
  8
Layer_1
 62
1
100
AcDbPolyline
 90
2
 70
1
 10
88.177656
 20
159.555148
 30
0.0
 10
88.177656
 20
159.555148
 30
0.0
  0
SPLINE
  5
1ec
100
AcDbEntity
  8
Layer_1
 62
1
100
AcDbSpline
 70
0
 71
3
 72
10
 73
6
 74
4
 40
0.000000
 40
0.000000
 40
0.000000
 40
0.000000
 40
4.401124
 40
8.809766
 40
13.272762
 40
13.272762
 40
13.272762
 40
13.272762
 10
56.966803
 20
159.526000
 30
0.0
 10
57.656484
 20
158.208453
 30
0.0
 10
59.037026
 20
155.571109
 30
0.0
 10
62.825843
 20
153.002905
 30
0.0
 10
65.619688
 20
152.042233
 30
0.0
 10
67.025169
 20
151.558955
 30
0.0
 11
56.966803
 21
159.526000
 31
0.0
 11
59.318933
 21
155.806138
 31
0.0
 11
62.874870
 21
153.200098
 31
0.0
 11
67.025169
 21
151.558955
 31
0.0
  0
SPLINE
  5
1ed
100
AcDbEntity
  8
Layer_1
 62
1
100
AcDbSpline
 70
0
 71
3
 72
10
 73
6
 74
4
 40
0.000000
 40
0.000000
 40
0.000000
 40
0.000000
 40
2.301041
 40
4.598184
 40
6.901303
 40
6.901303
 40
6.901303
 40
6.901303
 10
47.635848
 20
151.558955
 30
0.0
 10
48.367143
 20
151.791890
 30
0.0
 10
49.828493
 20
152.257366
 30
0.0
 10
51.911266
 20
153.261791
 30
0.0
 10
53.171738
 20
154.137896
 30
0.0
 10
53.802793
 20
154.576517
 30
0.0
 11
47.635848
 21
151.558955
 31
0.0
 11
49.811289
 21
152.308784
 31
0.0
 11
51.877581
 21
153.312431
 31
0.0
 11
53.802793
 21
154.576517
 31
0.0
  0
LWPOLYLINE
  5
1ee
100
AcDbEntity
  8
Layer_1
 62
1
100
AcDbPolyline
 90
2
 70
1
 10
67.025169
 20
151.558955
 30
0.0
 10
47.635848
 20
151.558955
 30
0.0
  0
SPLINE
  5
1ef
100
AcDbEntity
  8
Layer_1
 62
1
100
AcDbSpline
 70
0
 71
3
 72
10
 73
6
 74
4
 40
0.000000
 40
0.000000
 40
0.000000
 40
0.000000
 40
1.987509
 40
3.974855
 40
5.959501
 40
5.959501
 40
5.959501
 40
5.959501
 10
53.802793
 20
154.576517
 30
0.0
 10
54.282700
 20
155.034491
 30
0.0
 10
55.242474
 20
155.950400
 30
0.0
 10
56.357061
 20
157.629121
 30
0.0
 10
56.763648
 20
158.893993
 30
0.0
 10
56.966803
 20
159.526000
 30
0.0
 11
53.802793
 21
154.576517
 31
0.0
 11
55.188417
 21
156.001382
 31
0.0
 11
56.273381
 21
157.666433
 31
0.0
 11
56.966803
 21
159.526000
 31
0.0
  0
LWPOLYLINE
  5
1f0
100
AcDbEntity
  8
Layer_1
 62
1
100
AcDbPolyline
 90
2
 70
1
 10
56.966803
 20
159.526000
 30
0.0
 10
56.966803
 20
159.526000
 30
0.0
  0
SPLINE
  5
1f1
100
AcDbEntity
  8
Layer_1
 62
1
100
AcDbSpline
 70
0
 71
3
 72
10
 73
6
 74
4
 40
0.000000
 40
0.000000
 40
0.000000
 40
0.000000
 40
4.351698
 40
8.715917
 40
13.133415
 40
13.133415
 40
13.133415
 40
13.133415
 10
25.767071
 20
159.465100
 30
0.0
 10
26.464697
 20
158.173247
 30
0.0
 10
27.861957
 20
155.585825
 30
0.0
 10
31.576750
 20
153.009650
 30
0.0
 10
34.339334
 20
152.044471
 30
0.0
 10
35.729007
 20
151.558955
 30
0.0
 11
25.767071
 21
159.465100
 31
0.0
 11
28.126194
 21
155.808351
 31
0.0
 11
31.630505
 21
153.207158
 31
0.0
 11
35.729007
 21
151.558955
 31
0.0
  0
SPLINE
  5
1f2
100
AcDbEntity
  8
Layer_1
 62
1
100
AcDbSpline
 70
0
 71
3
 72
10
 73
6
 74
4
 40
0.000000
 40
0.000000
 40
0.000000
 40
0.000000
 40
2.256273
 40
4.509158
 40
6.767529
 40
6.767529
 40
6.767529
 40
6.767529
 10
16.404346
 20
151.558955
 30
0.0
 10
17.121803
 20
151.786050
 30
0.0
 10
18.555640
 20
152.239901
 30
0.0
 10
20.603091
 20
153.212709
 30
0.0
 10
21.848313
 20
154.058377
 30
0.0
 10
22.471681
 20
154.481725
 30
0.0
 11
16.404346
 21
151.558955
 31
0.0
 11
18.539283
 21
152.288896
 31
0.0
 11
20.571600
 21
153.261098
 31
0.0
 11
22.471681
 21
154.481725
 31
0.0
  0
LWPOLYLINE
  5
1f3
100
AcDbEntity
  8
Layer_1
 62
1
100
AcDbPolyline
 90
2
 70
1
 10
35.729007
 20
151.558955
 30
0.0
 10
16.404346
 20
151.558955
 30
0.0
  0
SPLINE
  5
1f4
100
AcDbEntity
  8
Layer_1
 62
1
100
AcDbSpline
 70
0
 71
3
 72
10
 73
6
 74
4
 40
0.000000
 40
0.000000
 40
0.000000
 40
0.000000
 40
2.044796
 40
4.110739
 40
6.055737
 40
6.055737
 40
6.055737
 40
6.055737
 10
22.471681
 20
154.481725
 30
0.0
 10
22.974027
 20
154.944846
 30
0.0
 10
23.983913
 20
155.875878
 30
0.0
 10
25.100250
 20
157.591278
 30
0.0
 10
25.549311
 20
158.853176
 30
0.0
 10
25.767071
 20
159.465100
 30
0.0
 11
22.471681
 21
154.481725
 31
0.0
 11
23.916341
 21
155.928843
 31
0.0
 11
25.045520
 21
157.658893
 31
0.0
 11
25.767071
 21
159.465100
 31
0.0
  0
SPLINE
  5
1f5
100
AcDbEntity
  8
Layer_1
 62
1
100
AcDbSpline
 70
0
 71
3
 72
10
 73
6
 74
4
 40
0.000000
 40
0.000000
 40
0.000000
 40
0.000000
 40
3.556134
 40
7.148142
 40
10.745372
 40
10.745372
 40
10.745372
 40
10.745372
 10
-36.415160
 20
158.801550
 30
0.0
 10
-35.803305
 20
157.775900
 30
0.0
 10
-34.573423
 20
155.714253
 30
0.0
 10
-31.655433
 20
153.492451
 30
0.0
 10
-29.443116
 20
152.566978
 30
0.0
 10
-28.336154
 20
152.103905
 30
0.0
 11
-36.415160
 21
158.801550
 31
0.0
 11
-34.403563
 21
155.869048
 31
0.0
 11
-31.591940
 21
153.633585
 31
0.0
 11
-28.336154
 21
152.103905
 31
0.0
  0
SPLINE
  5
1f6
100
AcDbEntity
  8
Layer_1
 62
1
100
AcDbSpline
 70
0
 71
3
 72
10
 73
6
 74
4
 40
0.000000
 40
0.000000
 40
0.000000
 40
0.000000
 40
0.347349
 40
0.695134
 40
1.043195
 40
1.043195
 40
1.043195
 40
1.043195
 10
-28.336154
 20
152.103905
 30
0.0
 10
-28.227468
 20
152.063983
 30
0.0
 10
-28.009960
 20
151.984088
 30
0.0
 10
-27.680807
 20
151.871845
 30
0.0
 10
-27.460069
 20
151.800606
 30
0.0
 10
-27.349656
 20
151.764972
 30
0.0
 11
-28.336154
 21
152.103905
 31
0.0
 11
-28.009641
 21
151.985412
 31
0.0
 11
-27.680599
 21
151.872782
 31
0.0
 11
-27.349656
 21
151.764972
 31
0.0
  0
LWPOLYLINE
  5
1f7
100
AcDbEntity
  8
Layer_1
 62
1
100
AcDbPolyline
 90
2
 70
1
 10
25.767071
 20
159.465100
 30
0.0
 10
25.767071
 20
159.465100
 30
0.0
  0
LWPOLYLINE
  5
1f8
100
AcDbEntity
  8
Layer_1
 62
1
100
AcDbPolyline
 90
3
 70
1
 10
-36.415160
 20
154.440944
 30
0.0
 10
-36.415160
 20
158.801550
 30
0.0
 10
-36.415160
 20
158.801550
 30
0.0
  0
SPLINE
  5
1f9
100
AcDbEntity
  8
Layer_1
 62
1
100
AcDbSpline
 70
0
 71
3
 72
10
 73
6
 74
4
 40
0.000000
 40
0.000000
 40
0.000000
 40
0.000000
 40
4.753976
 40
8.068080
 40
9.701044
 40
9.701044
 40
9.701044
 40
9.701044
 10
-27.349656
 20
151.764972
 30
0.0
 10
-28.895725
 20
151.963995
 30
0.0
 10
-31.519595
 20
152.301762
 30
0.0
 10
-34.938779
 20
152.757131
 30
0.0
 10
-36.048767
 20
154.023073
 30
0.0
 10
-36.415160
 20
154.440944
 30
0.0
 11
-27.349656
 21
151.764972
 31
0.0
 11
-32.064167
 21
152.376260
 31
0.0
 11
-35.246942
 21
153.299962
 31
0.0
 11
-36.415160
 21
154.440944
 31
0.0
  0
SPLINE
  5
1fa
100
AcDbEntity
  8
Layer_1
 62
1
100
AcDbSpline
 70
0
 71
3
 72
10
 73
6
 74
4
 40
0.000000
 40
0.000000
 40
0.000000
 40
0.000000
 40
1.400462
 40
4.147386
 40
8.117439
 40
8.117439
 40
8.117439
 40
8.117439
 10
118.688631
 20
154.440944
 30
0.0
 10
118.395661
 20
154.063832
 30
0.0
 10
117.528048
 20
152.947036
 30
0.0
 10
114.673975
 20
152.459033
 30
0.0
 10
112.500410
 20
152.115666
 30
0.0
 10
111.215729
 20
151.912719
 30
0.0
 11
118.688631
 21
154.440944
 31
0.0
 11
117.742379
 21
153.408519
 31
0.0
 11
115.135484
 21
152.542673
 31
0.0
 11
111.215729
 21
151.912719
 31
0.0
  0
SPLINE
  5
1fb
100
AcDbEntity
  8
Layer_1
 62
1
100
AcDbSpline
 70
0
 71
3
 72
10
 73
6
 74
4
 40
0.000000
 40
0.000000
 40
0.000000
 40
0.000000
 40
2.040037
 40
4.078644
 40
6.124799
 40
6.124799
 40
6.124799
 40
6.124799
 10
111.215729
 20
151.912719
 30
0.0
 10
111.850948
 20
152.156486
 30
0.0
 10
113.120941
 20
152.643849
 30
0.0
 10
114.923159
 20
153.622109
 30
0.0
 10
116.013983
 20
154.439004
 30
0.0
 10
116.560402
 20
154.848206
 30
0.0
 11
111.215729
 21
151.912719
 31
0.0
 11
113.103910
 21
152.685069
 31
0.0
 11
114.893262
 21
153.661870
 31
0.0
 11
116.560402
 21
154.848206
 31
0.0
  0
LWPOLYLINE
  5
1fc
100
AcDbEntity
  8
Layer_1
 62
1
100
AcDbPolyline
 90
2
 70
1
 10
118.688631
 20
157.594080
 30
0.0
 10
118.688631
 20
154.440944
 30
0.0
  0
SPLINE
  5
1fd
100
AcDbEntity
  8
Layer_1
 62
1
100
AcDbSpline
 70
0
 71
3
 72
10
 73
6
 74
4
 40
0.000000
 40
0.000000
 40
0.000000
 40
0.000000
 40
1.158378
 40
2.324518
 40
3.494033
 40
3.494033
 40
3.494033
 40
3.494033
 10
116.560402
 20
154.848206
 30
0.0
 10
116.842532
 20
155.112404
 30
0.0
 10
117.408682
 20
155.642570
 30
0.0
 10
118.124266
 20
156.569927
 30
0.0
 10
118.500328
 20
157.252367
 30
0.0
 10
118.688631
 20
157.594080
 30
0.0
 11
116.560402
 21
154.848206
 31
0.0
 11
117.384420
 21
155.662352
 31
0.0
 11
118.098077
 21
156.584619
 31
0.0
 11
118.688631
 21
157.594080
 31
0.0
  0
LWPOLYLINE
  5
1fe
100
AcDbEntity
  8
Layer_1
 62
1
100
AcDbPolyline
 90
2
 70
1
 10
118.688631
 20
157.594080
 30
0.0
 10
118.688631
 20
157.594080
 30
0.0
  0
ENDSEC
  0
SECTION
  2
OBJECTS
  0
DICTIONARY
  5
C
330
0
100
AcDbDictionary
  3
ACAD_GROUP
350
D
  3
ACAD_MLINESTYLE
350
17
  0
DICTIONARY
  5
D
330
C
100
AcDbDictionary
  0
DICTIONARY
  5
1A
330
C
100
AcDbDictionary
  0
DICTIONARY
  5
17
330
C
100
AcDbDictionary
  3
STANDARD
350
18
  0
DICTIONARY
  5
19
330
C
100
AcDbDictionary
  0
ENDSEC
  0
EOF
