  0
SECTION
  2
HEADER
  9
$ACADVER
  1
AC1014
  9
$HANDSEED
  5
FFFF
  9
$MEASUREMENT
 70
     1
  0
ENDSEC
  0
SECTION
  2
TABLES
  0
TABLE
  2
VPORT
  5
8
330
0
100
AcDbSymbolTable
 70
     4
  0
VPORT
  5
2E
330
8
100
AcDbSymbolTableRecord
100
AcDbViewportTableRecord
  2
*ACTIVE
 70
     0
 10
0.0
 20
0.0
 11
1.0
 21
1.0
 12
210.0
 22
148.5
 13
0.0
 23
0.0
 14
10.0
 24
10.0
 15
10.0
 25
10.0
 16
0.0
 26
0.0
 36
1.0
 17
0.0
 27
0.0
 37
0.0
 40
341.0
 41
1.24
 42
50.0
 43
0.0
 44
0.0
 50
0.0
 51
0.0
 71
     0
 72
   100
 73
     1
 74
     3
 75
     0
 76
     0
 77
     0
 78
     0
  0
ENDTAB
  0
TABLE
  2
LTYPE
  5
5
330
0
100
AcDbSymbolTable
 70
     1
  0
LTYPE
  5
14
330
5
100
AcDbSymbolTableRecord
100
AcDbLinetypeTableRecord
  2
BYBLOCK
 70
     0
  3

 72
    65
 73
     0
 40
0.0
  0
LTYPE
  5
15
330
5
100
AcDbSymbolTableRecord
100
AcDbLinetypeTableRecord
  2
BYLAYER
 70
     0
  3

 72
    65
 73
     0
 40
0.0
  0
LTYPE
  5
16
330
5
100
AcDbSymbolTableRecord
100
AcDbLinetypeTableRecord
  2
CONTINUOUS
 70
     0
  3
Solid line
 72
    65
 73
     0
 40
0.0
  0
ENDTAB
  0
TABLE
  2
LAYER
  5
2
100
AcDbSymbolTable
 70
1
  0
LAYER
  5
50
100
AcDbSymbolTableRecord
100
AcDbLayerTableRecord
  2
0
 70
0
  6
CONTINUOUS
  0
ENDTAB
  0
TABLE
  2
STYLE
  5
3
330
0
100
AcDbSymbolTable
 70
     1
  0
STYLE
  5
11
330
3
100
AcDbSymbolTableRecord
100
AcDbTextStyleTableRecord
  2
STANDARD
 70
     0
 40
0.0
 41
1.0
 50
0.0
 71
     0
 42
2.5
  3
txt
  4

  0
ENDTAB
  0
TABLE
  2
VIEW
  5
6
330
0
100
AcDbSymbolTable
 70
     0
  0
ENDTAB
  0
TABLE
  2
UCS
  5
7
330
0
100
AcDbSymbolTable
 70
     0
  0
ENDTAB
  0
TABLE
  2
APPID
  5
9
330
0
100
AcDbSymbolTable
 70
     2
  0
APPID
  5
12
330
9
100
AcDbSymbolTableRecord
100
AcDbRegAppTableRecord
  2
ACAD
 70
     0
  0
ENDTAB
  0
TABLE
  2
DIMSTYLE
  5
A
330
0
100
AcDbSymbolTable
 70
     1
  0
DIMSTYLE
105
27
330
A
100
AcDbSymbolTableRecord
100
AcDbDimStyleTableRecord
  2
ISO-25
 70
     0
  3

  4

  5

  6

  7

 40
1.0
 41
2.5
 42
0.625
 43
3.75
 44
1.25
 45
0.0
 46
0.0
 47
0.0
 48
0.0
140
2.5
141
2.5
142
0.0
143
0.03937007874016
144
1.0
145
0.0
146
1.0
147
0.625
 71
     0
 72
     0
 73
     0
 74
     0
 75
     0
 76
     0
 77
     1
 78
     8
170
     0
171
     3
172
     1
173
     0
174
     0
175
     0
176
     0
177
     0
178
     0
270
     2
271
     2
272
     2
273
     2
274
     3
340
11
275
     0
280
     0
281
     0
282
     0
283
     0
284
     8
285
     0
286
     0
287
     3
288
     0
  0
ENDTAB
  0
TABLE
  2
BLOCK_RECORD
  5
1
330
0
100
AcDbSymbolTable
 70
     1
  0
BLOCK_RECORD
  5
1F
330
1
100
AcDbSymbolTableRecord
100
AcDbBlockTableRecord
  2
*MODEL_SPACE
  0
BLOCK_RECORD
  5
1B
330
1
100
AcDbSymbolTableRecord
100
AcDbBlockTableRecord
  2
*PAPER_SPACE
  0
ENDTAB
  0
ENDSEC
  0
SECTION
  2
BLOCKS
  0
BLOCK
  5
20
330
1F
100
AcDbEntity
  8
0
100
AcDbBlockBegin
  2
*MODEL_SPACE
 70
     0
 10
0.0
 20
0.0
 30
0.0
  3
*MODEL_SPACE
  1

  0
ENDBLK
  5
21
330
1F
100
AcDbEntity
  8
0
100
AcDbBlockEnd
  0
BLOCK
  5
1C
330
1B
100
AcDbEntity
 67
     1
  8
0
100
AcDbBlockBegin
  2
*PAPER_SPACE
  1

  0
ENDBLK
  5
1D
330
1B
100
AcDbEntity
 67
     1
  8
0
100
AcDbBlockEnd
  0
ENDSEC
  0
SECTION
  2
ENTITIES
  0
LWPOLYLINE
  5
100
100
AcDbEntity
  8
0
 62
7
100
AcDbPolyline
 90
117
 70
1
 10
18.000014
 20
593.999993
 30
0.0
 10
43.228382
 20
593.999993
 30
0.0
 10
43.228382
 20
585.496049
 30
0.0
 10
68.456749
 20
585.496049
 30
0.0
 10
68.456749
 20
593.999993
 30
0.0
 10
85.464637
 20
593.999993
 30
0.0
 10
85.464637
 20
585.496049
 30
0.0
 10
102.472526
 20
585.496049
 30
0.0
 10
102.472526
 20
593.999993
 30
0.0
 10
119.480414
 20
593.999993
 30
0.0
 10
119.480414
 20
585.496049
 30
0.0
 10
136.488302
 20
585.496049
 30
0.0
 10
136.488302
 20
593.999993
 30
0.0
 10
153.496190
 20
593.999993
 30
0.0
 10
153.496190
 20
585.496049
 30
0.0
 10
170.504078
 20
585.496049
 30
0.0
 10
170.504078
 20
593.999993
 30
0.0
 10
187.511966
 20
593.999993
 30
0.0
 10
187.511966
 20
585.496049
 30
0.0
 10
204.519854
 20
585.496049
 30
0.0
 10
204.519854
 20
593.999993
 30
0.0
 10
221.527742
 20
593.999993
 30
0.0
 10
221.527742
 20
585.496049
 30
0.0
 10
238.535630
 20
585.496049
 30
0.0
 10
238.535630
 20
593.999993
 30
0.0
 10
255.543518
 20
593.999993
 30
0.0
 10
255.543518
 20
585.496049
 30
0.0
 10
280.771886
 20
585.496049
 30
0.0
 10
280.771886
 20
593.999993
 30
0.0
 10
306.000254
 20
593.999993
 30
0.0
 10
306.000254
 20
568.771626
 30
0.0
 10
297.496310
 20
568.771626
 30
0.0
 10
297.496310
 20
543.543258
 30
0.0
 10
306.000254
 20
543.543258
 30
0.0
 10
306.000254
 20
526.535370
 30
0.0
 10
297.496310
 20
526.535370
 30
0.0
 10
297.496310
 20
509.527481
 30
0.0
 10
306.000254
 20
509.527481
 30
0.0
 10
306.000254
 20
492.519593
 30
0.0
 10
297.496310
 20
492.519593
 30
0.0
 10
297.496310
 20
475.511705
 30
0.0
 10
306.000254
 20
475.511705
 30
0.0
 10
306.000254
 20
458.503817
 30
0.0
 10
297.496310
 20
458.503817
 30
0.0
 10
297.496310
 20
441.495929
 30
0.0
 10
306.000254
 20
441.495929
 30
0.0
 10
306.000254
 20
424.488041
 30
0.0
 10
297.496310
 20
424.488041
 30
0.0
 10
297.496310
 20
407.480153
 30
0.0
 10
306.000254
 20
407.480153
 30
0.0
 10
306.000254
 20
390.472265
 30
0.0
 10
297.496310
 20
390.472265
 30
0.0
 10
297.496310
 20
373.464377
 30
0.0
 10
306.000254
 20
373.464377
 30
0.0
 10
306.000254
 20
356.456489
 30
0.0
 10
297.496310
 20
356.456489
 30
0.0
 10
297.496310
 20
331.228121
 30
0.0
 10
306.000254
 20
331.228121
 30
0.0
 10
306.000254
 20
305.999753
 30
0.0
 10
280.771886
 20
305.999753
 30
0.0
 10
280.771886
 20
314.503697
 30
0.0
 10
255.543518
 20
314.503697
 30
0.0
 10
255.543518
 20
305.999753
 30
0.0
 10
238.535630
 20
305.999753
 30
0.0
 10
238.535630
 20
314.503697
 30
0.0
 10
221.527742
 20
314.503697
 30
0.0
 10
221.527742
 20
305.999753
 30
0.0
 10
204.519854
 20
305.999753
 30
0.0
 10
204.519854
 20
314.503697
 30
0.0
 10
187.511966
 20
314.503697
 30
0.0
 10
187.511966
 20
305.999753
 30
0.0
 10
170.504078
 20
305.999753
 30
0.0
 10
170.504078
 20
314.503697
 30
0.0
 10
153.496190
 20
314.503697
 30
0.0
 10
153.496190
 20
305.999753
 30
0.0
 10
136.488302
 20
305.999753
 30
0.0
 10
136.488302
 20
314.503697
 30
0.0
 10
119.480414
 20
314.503697
 30
0.0
 10
119.480414
 20
305.999753
 30
0.0
 10
102.472526
 20
305.999753
 30
0.0
 10
102.472526
 20
314.503697
 30
0.0
 10
85.464637
 20
314.503697
 30
0.0
 10
85.464637
 20
305.999753
 30
0.0
 10
68.456749
 20
305.999753
 30
0.0
 10
68.456749
 20
314.503697
 30
0.0
 10
43.228382
 20
314.503697
 30
0.0
 10
43.228382
 20
305.999753
 30
0.0
 10
18.000014
 20
305.999753
 30
0.0
 10
18.000014
 20
331.228121
 30
0.0
 10
26.503958
 20
331.228121
 30
0.0
 10
26.503958
 20
356.456489
 30
0.0
 10
18.000014
 20
356.456489
 30
0.0
 10
18.000014
 20
373.464377
 30
0.0
 10
26.503958
 20
373.464377
 30
0.0
 10
26.503958
 20
390.472265
 30
0.0
 10
18.000014
 20
390.472265
 30
0.0
 10
18.000014
 20
407.480153
 30
0.0
 10
26.503958
 20
407.480153
 30
0.0
 10
26.503958
 20
424.488041
 30
0.0
 10
18.000014
 20
424.488041
 30
0.0
 10
18.000014
 20
441.495929
 30
0.0
 10
26.503958
 20
441.495929
 30
0.0
 10
26.503958
 20
458.503817
 30
0.0
 10
18.000014
 20
458.503817
 30
0.0
 10
18.000014
 20
475.511705
 30
0.0
 10
26.503958
 20
475.511705
 30
0.0
 10
26.503958
 20
492.519593
 30
0.0
 10
18.000014
 20
492.519593
 30
0.0
 10
18.000014
 20
509.527481
 30
0.0
 10
26.503958
 20
509.527481
 30
0.0
 10
26.503958
 20
526.535370
 30
0.0
 10
18.000014
 20
526.535370
 30
0.0
 10
18.000014
 20
543.543258
 30
0.0
 10
26.503958
 20
543.543258
 30
0.0
 10
26.503958
 20
568.771626
 30
0.0
 10
18.000014
 20
568.771626
 30
0.0
 10
18.000014
 20
593.999993
 30
0.0
  0
LWPOLYLINE
  5
101
100
AcDbEntity
  8
0
 62
7
100
AcDbPolyline
 90
117
 70
1
 10
306.000248
 20
593.999993
 30
0.0
 10
331.228615
 20
593.999993
 30
0.0
 10
331.228615
 20
585.496049
 30
0.0
 10
356.456982
 20
585.496049
 30
0.0
 10
356.456982
 20
593.999993
 30
0.0
 10
373.464870
 20
593.999993
 30
0.0
 10
373.464870
 20
585.496049
 30
0.0
 10
390.472760
 20
585.496049
 30
0.0
 10
390.472760
 20
593.999993
 30
0.0
 10
407.480648
 20
593.999993
 30
0.0
 10
407.480648
 20
585.496049
 30
0.0
 10
424.488536
 20
585.496049
 30
0.0
 10
424.488536
 20
593.999993
 30
0.0
 10
441.496424
 20
593.999993
 30
0.0
 10
441.496424
 20
585.496049
 30
0.0
 10
458.504312
 20
585.496049
 30
0.0
 10
458.504312
 20
593.999993
 30
0.0
 10
475.512200
 20
593.999993
 30
0.0
 10
475.512200
 20
585.496049
 30
0.0
 10
492.520088
 20
585.496049
 30
0.0
 10
492.520088
 20
593.999993
 30
0.0
 10
509.527976
 20
593.999993
 30
0.0
 10
509.527976
 20
585.496049
 30
0.0
 10
526.535864
 20
585.496049
 30
0.0
 10
526.535864
 20
593.999993
 30
0.0
 10
543.543752
 20
593.999993
 30
0.0
 10
543.543752
 20
585.496049
 30
0.0
 10
568.772120
 20
585.496049
 30
0.0
 10
568.772120
 20
593.999993
 30
0.0
 10
594.000488
 20
593.999993
 30
0.0
 10
594.000488
 20
568.771626
 30
0.0
 10
585.496544
 20
568.771626
 30
0.0
 10
585.496544
 20
543.543258
 30
0.0
 10
594.000488
 20
543.543258
 30
0.0
 10
594.000488
 20
526.535370
 30
0.0
 10
585.496544
 20
526.535370
 30
0.0
 10
585.496544
 20
509.527481
 30
0.0
 10
594.000488
 20
509.527481
 30
0.0
 10
594.000488
 20
492.519593
 30
0.0
 10
585.496544
 20
492.519593
 30
0.0
 10
585.496544
 20
475.511705
 30
0.0
 10
594.000488
 20
475.511705
 30
0.0
 10
594.000488
 20
458.503817
 30
0.0
 10
585.496544
 20
458.503817
 30
0.0
 10
585.496544
 20
441.495929
 30
0.0
 10
594.000488
 20
441.495929
 30
0.0
 10
594.000488
 20
424.488041
 30
0.0
 10
585.496544
 20
424.488041
 30
0.0
 10
585.496544
 20
407.480153
 30
0.0
 10
594.000488
 20
407.480153
 30
0.0
 10
594.000488
 20
390.472265
 30
0.0
 10
585.496544
 20
390.472265
 30
0.0
 10
585.496544
 20
373.464377
 30
0.0
 10
594.000488
 20
373.464377
 30
0.0
 10
594.000488
 20
356.456489
 30
0.0
 10
585.496544
 20
356.456489
 30
0.0
 10
585.496544
 20
331.228121
 30
0.0
 10
594.000488
 20
331.228121
 30
0.0
 10
594.000488
 20
305.999753
 30
0.0
 10
568.772120
 20
305.999753
 30
0.0
 10
568.772120
 20
314.503697
 30
0.0
 10
543.543752
 20
314.503697
 30
0.0
 10
543.543752
 20
305.999753
 30
0.0
 10
526.535864
 20
305.999753
 30
0.0
 10
526.535864
 20
314.503697
 30
0.0
 10
509.527976
 20
314.503697
 30
0.0
 10
509.527976
 20
305.999753
 30
0.0
 10
492.520088
 20
305.999753
 30
0.0
 10
492.520088
 20
314.503697
 30
0.0
 10
475.512200
 20
314.503697
 30
0.0
 10
475.512200
 20
305.999753
 30
0.0
 10
458.504312
 20
305.999753
 30
0.0
 10
458.504312
 20
314.503697
 30
0.0
 10
441.496424
 20
314.503697
 30
0.0
 10
441.496424
 20
305.999753
 30
0.0
 10
424.488536
 20
305.999753
 30
0.0
 10
424.488536
 20
314.503697
 30
0.0
 10
407.480648
 20
314.503697
 30
0.0
 10
407.480648
 20
305.999753
 30
0.0
 10
390.472760
 20
305.999753
 30
0.0
 10
390.472760
 20
314.503697
 30
0.0
 10
373.464870
 20
314.503697
 30
0.0
 10
373.464870
 20
305.999753
 30
0.0
 10
356.456982
 20
305.999753
 30
0.0
 10
356.456982
 20
314.503697
 30
0.0
 10
331.228615
 20
314.503697
 30
0.0
 10
331.228615
 20
305.999753
 30
0.0
 10
306.000248
 20
305.999753
 30
0.0
 10
306.000248
 20
331.228121
 30
0.0
 10
314.504192
 20
331.228121
 30
0.0
 10
314.504192
 20
356.456489
 30
0.0
 10
306.000248
 20
356.456489
 30
0.0
 10
306.000248
 20
373.464377
 30
0.0
 10
314.504192
 20
373.464377
 30
0.0
 10
314.504192
 20
390.472265
 30
0.0
 10
306.000248
 20
390.472265
 30
0.0
 10
306.000248
 20
407.480153
 30
0.0
 10
314.504192
 20
407.480153
 30
0.0
 10
314.504192
 20
424.488041
 30
0.0
 10
306.000248
 20
424.488041
 30
0.0
 10
306.000248
 20
441.495929
 30
0.0
 10
314.504192
 20
441.495929
 30
0.0
 10
314.504192
 20
458.503817
 30
0.0
 10
306.000248
 20
458.503817
 30
0.0
 10
306.000248
 20
475.511705
 30
0.0
 10
314.504192
 20
475.511705
 30
0.0
 10
314.504192
 20
492.519593
 30
0.0
 10
306.000248
 20
492.519593
 30
0.0
 10
306.000248
 20
509.527481
 30
0.0
 10
314.504192
 20
509.527481
 30
0.0
 10
314.504192
 20
526.535370
 30
0.0
 10
306.000248
 20
526.535370
 30
0.0
 10
306.000248
 20
543.543258
 30
0.0
 10
314.504192
 20
543.543258
 30
0.0
 10
314.504192
 20
568.771626
 30
0.0
 10
306.000248
 20
568.771626
 30
0.0
 10
306.000248
 20
593.999993
 30
0.0
  0
LWPOLYLINE
  5
102
100
AcDbEntity
  8
0
 62
7
100
AcDbPolyline
 90
117
 70
1
 10
602.504432
 20
593.999993
 30
0.0
 10
619.228855
 20
593.999993
 30
0.0
 10
619.228855
 20
585.496049
 30
0.0
 10
644.457222
 20
585.496049
 30
0.0
 10
644.457222
 20
593.999993
 30
0.0
 10
661.465110
 20
593.999993
 30
0.0
 10
661.465110
 20
585.496049
 30
0.0
 10
678.473000
 20
585.496049
 30
0.0
 10
678.473000
 20
593.999993
 30
0.0
 10
695.480888
 20
593.999993
 30
0.0
 10
695.480888
 20
585.496049
 30
0.0
 10
712.488776
 20
585.496049
 30
0.0
 10
712.488776
 20
593.999993
 30
0.0
 10
729.496664
 20
593.999993
 30
0.0
 10
729.496664
 20
585.496049
 30
0.0
 10
746.504552
 20
585.496049
 30
0.0
 10
746.504552
 20
593.999993
 30
0.0
 10
763.512440
 20
593.999993
 30
0.0
 10
763.512440
 20
585.496049
 30
0.0
 10
780.520328
 20
585.496049
 30
0.0
 10
780.520328
 20
593.999993
 30
0.0
 10
797.528216
 20
593.999993
 30
0.0
 10
797.528216
 20
585.496049
 30
0.0
 10
814.536104
 20
585.496049
 30
0.0
 10
814.536104
 20
593.999993
 30
0.0
 10
831.543992
 20
593.999993
 30
0.0
 10
831.543992
 20
585.496049
 30
0.0
 10
856.772360
 20
585.496049
 30
0.0
 10
856.772360
 20
593.999993
 30
0.0
 10
873.496784
 20
593.999993
 30
0.0
 10
873.496784
 20
568.771626
 30
0.0
 10
882.000728
 20
568.771626
 30
0.0
 10
882.000728
 20
543.543258
 30
0.0
 10
873.496784
 20
543.543258
 30
0.0
 10
873.496784
 20
526.535370
 30
0.0
 10
882.000728
 20
526.535370
 30
0.0
 10
882.000728
 20
509.527481
 30
0.0
 10
873.496784
 20
509.527481
 30
0.0
 10
873.496784
 20
492.519593
 30
0.0
 10
882.000728
 20
492.519593
 30
0.0
 10
882.000728
 20
475.511705
 30
0.0
 10
873.496784
 20
475.511705
 30
0.0
 10
873.496784
 20
458.503817
 30
0.0
 10
882.000728
 20
458.503817
 30
0.0
 10
882.000728
 20
441.495929
 30
0.0
 10
873.496784
 20
441.495929
 30
0.0
 10
873.496784
 20
424.488041
 30
0.0
 10
882.000728
 20
424.488041
 30
0.0
 10
882.000728
 20
407.480153
 30
0.0
 10
873.496784
 20
407.480153
 30
0.0
 10
873.496784
 20
390.472265
 30
0.0
 10
882.000728
 20
390.472265
 30
0.0
 10
882.000728
 20
373.464377
 30
0.0
 10
873.496784
 20
373.464377
 30
0.0
 10
873.496784
 20
356.456489
 30
0.0
 10
882.000728
 20
356.456489
 30
0.0
 10
882.000728
 20
331.228121
 30
0.0
 10
873.496784
 20
331.228121
 30
0.0
 10
873.496784
 20
305.999753
 30
0.0
 10
856.772360
 20
305.999753
 30
0.0
 10
856.772360
 20
314.503697
 30
0.0
 10
831.543992
 20
314.503697
 30
0.0
 10
831.543992
 20
305.999753
 30
0.0
 10
814.536104
 20
305.999753
 30
0.0
 10
814.536104
 20
314.503697
 30
0.0
 10
797.528216
 20
314.503697
 30
0.0
 10
797.528216
 20
305.999753
 30
0.0
 10
780.520328
 20
305.999753
 30
0.0
 10
780.520328
 20
314.503697
 30
0.0
 10
763.512440
 20
314.503697
 30
0.0
 10
763.512440
 20
305.999753
 30
0.0
 10
746.504552
 20
305.999753
 30
0.0
 10
746.504552
 20
314.503697
 30
0.0
 10
729.496664
 20
314.503697
 30
0.0
 10
729.496664
 20
305.999753
 30
0.0
 10
712.488776
 20
305.999753
 30
0.0
 10
712.488776
 20
314.503697
 30
0.0
 10
695.480888
 20
314.503697
 30
0.0
 10
695.480888
 20
305.999753
 30
0.0
 10
678.473000
 20
305.999753
 30
0.0
 10
678.473000
 20
314.503697
 30
0.0
 10
661.465110
 20
314.503697
 30
0.0
 10
661.465110
 20
305.999753
 30
0.0
 10
644.457222
 20
305.999753
 30
0.0
 10
644.457222
 20
314.503697
 30
0.0
 10
619.228855
 20
314.503697
 30
0.0
 10
619.228855
 20
305.999753
 30
0.0
 10
602.504432
 20
305.999753
 30
0.0
 10
602.504432
 20
331.228121
 30
0.0
 10
594.000488
 20
331.228121
 30
0.0
 10
594.000488
 20
356.456489
 30
0.0
 10
602.504432
 20
356.456489
 30
0.0
 10
602.504432
 20
373.464377
 30
0.0
 10
594.000488
 20
373.464377
 30
0.0
 10
594.000488
 20
390.472265
 30
0.0
 10
602.504432
 20
390.472265
 30
0.0
 10
602.504432
 20
407.480153
 30
0.0
 10
594.000488
 20
407.480153
 30
0.0
 10
594.000488
 20
424.488041
 30
0.0
 10
602.504432
 20
424.488041
 30
0.0
 10
602.504432
 20
441.495929
 30
0.0
 10
594.000488
 20
441.495929
 30
0.0
 10
594.000488
 20
458.503817
 30
0.0
 10
602.504432
 20
458.503817
 30
0.0
 10
602.504432
 20
475.511705
 30
0.0
 10
594.000488
 20
475.511705
 30
0.0
 10
594.000488
 20
492.519593
 30
0.0
 10
602.504432
 20
492.519593
 30
0.0
 10
602.504432
 20
509.527481
 30
0.0
 10
594.000488
 20
509.527481
 30
0.0
 10
594.000488
 20
526.535370
 30
0.0
 10
602.504432
 20
526.535370
 30
0.0
 10
602.504432
 20
543.543258
 30
0.0
 10
594.000488
 20
543.543258
 30
0.0
 10
594.000488
 20
568.771626
 30
0.0
 10
602.504432
 20
568.771626
 30
0.0
 10
602.504432
 20
593.999993
 30
0.0
  0
LWPOLYLINE
  5
103
100
AcDbEntity
  8
0
 62
7
100
AcDbPolyline
 90
117
 70
1
 10
602.504432
 20
305.999760
 30
0.0
 10
619.228855
 20
305.999760
 30
0.0
 10
619.228855
 20
297.495816
 30
0.0
 10
644.457222
 20
297.495816
 30
0.0
 10
644.457222
 20
305.999760
 30
0.0
 10
661.465110
 20
305.999760
 30
0.0
 10
661.465110
 20
297.495816
 30
0.0
 10
678.473000
 20
297.495816
 30
0.0
 10
678.473000
 20
305.999760
 30
0.0
 10
695.480888
 20
305.999760
 30
0.0
 10
695.480888
 20
297.495816
 30
0.0
 10
712.488776
 20
297.495816
 30
0.0
 10
712.488776
 20
305.999760
 30
0.0
 10
729.496664
 20
305.999760
 30
0.0
 10
729.496664
 20
297.495816
 30
0.0
 10
746.504552
 20
297.495816
 30
0.0
 10
746.504552
 20
305.999760
 30
0.0
 10
763.512440
 20
305.999760
 30
0.0
 10
763.512440
 20
297.495816
 30
0.0
 10
780.520328
 20
297.495816
 30
0.0
 10
780.520328
 20
305.999760
 30
0.0
 10
797.528216
 20
305.999760
 30
0.0
 10
797.528216
 20
297.495816
 30
0.0
 10
814.536104
 20
297.495816
 30
0.0
 10
814.536104
 20
305.999760
 30
0.0
 10
831.543992
 20
305.999760
 30
0.0
 10
831.543992
 20
297.495816
 30
0.0
 10
856.772360
 20
297.495816
 30
0.0
 10
856.772360
 20
305.999760
 30
0.0
 10
873.496784
 20
305.999760
 30
0.0
 10
873.496784
 20
280.771393
 30
0.0
 10
882.000728
 20
280.771393
 30
0.0
 10
882.000728
 20
255.543026
 30
0.0
 10
873.496784
 20
255.543026
 30
0.0
 10
873.496784
 20
238.535138
 30
0.0
 10
882.000728
 20
238.535138
 30
0.0
 10
882.000728
 20
221.527248
 30
0.0
 10
873.496784
 20
221.527248
 30
0.0
 10
873.496784
 20
204.519360
 30
0.0
 10
882.000728
 20
204.519360
 30
0.0
 10
882.000728
 20
187.511472
 30
0.0
 10
873.496784
 20
187.511472
 30
0.0
 10
873.496784
 20
170.503584
 30
0.0
 10
882.000728
 20
170.503584
 30
0.0
 10
882.000728
 20
153.495696
 30
0.0
 10
873.496784
 20
153.495696
 30
0.0
 10
873.496784
 20
136.487808
 30
0.0
 10
882.000728
 20
136.487808
 30
0.0
 10
882.000728
 20
119.479920
 30
0.0
 10
873.496784
 20
119.479920
 30
0.0
 10
873.496784
 20
102.472032
 30
0.0
 10
882.000728
 20
102.472032
 30
0.0
 10
882.000728
 20
85.464144
 30
0.0
 10
873.496784
 20
85.464144
 30
0.0
 10
873.496784
 20
68.456256
 30
0.0
 10
882.000728
 20
68.456256
 30
0.0
 10
882.000728
 20
43.227888
 30
0.0
 10
873.496784
 20
43.227888
 30
0.0
 10
873.496784
 20
17.999520
 30
0.0
 10
856.772360
 20
17.999520
 30
0.0
 10
856.772360
 20
26.503464
 30
0.0
 10
831.543992
 20
26.503464
 30
0.0
 10
831.543992
 20
17.999520
 30
0.0
 10
814.536104
 20
17.999520
 30
0.0
 10
814.536104
 20
26.503464
 30
0.0
 10
797.528216
 20
26.503464
 30
0.0
 10
797.528216
 20
17.999520
 30
0.0
 10
780.520328
 20
17.999520
 30
0.0
 10
780.520328
 20
26.503464
 30
0.0
 10
763.512440
 20
26.503464
 30
0.0
 10
763.512440
 20
17.999520
 30
0.0
 10
746.504552
 20
17.999520
 30
0.0
 10
746.504552
 20
26.503464
 30
0.0
 10
729.496664
 20
26.503464
 30
0.0
 10
729.496664
 20
17.999520
 30
0.0
 10
712.488776
 20
17.999520
 30
0.0
 10
712.488776
 20
26.503464
 30
0.0
 10
695.480888
 20
26.503464
 30
0.0
 10
695.480888
 20
17.999520
 30
0.0
 10
678.473000
 20
17.999520
 30
0.0
 10
678.473000
 20
26.503464
 30
0.0
 10
661.465110
 20
26.503464
 30
0.0
 10
661.465110
 20
17.999520
 30
0.0
 10
644.457222
 20
17.999520
 30
0.0
 10
644.457222
 20
26.503464
 30
0.0
 10
619.228855
 20
26.503464
 30
0.0
 10
619.228855
 20
17.999520
 30
0.0
 10
602.504432
 20
17.999520
 30
0.0
 10
602.504432
 20
43.227888
 30
0.0
 10
594.000488
 20
43.227888
 30
0.0
 10
594.000488
 20
68.456256
 30
0.0
 10
602.504432
 20
68.456256
 30
0.0
 10
602.504432
 20
85.464144
 30
0.0
 10
594.000488
 20
85.464144
 30
0.0
 10
594.000488
 20
102.472032
 30
0.0
 10
602.504432
 20
102.472032
 30
0.0
 10
602.504432
 20
119.479920
 30
0.0
 10
594.000488
 20
119.479920
 30
0.0
 10
594.000488
 20
136.487808
 30
0.0
 10
602.504432
 20
136.487808
 30
0.0
 10
602.504432
 20
153.495696
 30
0.0
 10
594.000488
 20
153.495696
 30
0.0
 10
594.000488
 20
170.503584
 30
0.0
 10
602.504432
 20
170.503584
 30
0.0
 10
602.504432
 20
187.511472
 30
0.0
 10
594.000488
 20
187.511472
 30
0.0
 10
594.000488
 20
204.519360
 30
0.0
 10
602.504432
 20
204.519360
 30
0.0
 10
602.504432
 20
221.527248
 30
0.0
 10
594.000488
 20
221.527248
 30
0.0
 10
594.000488
 20
238.535138
 30
0.0
 10
602.504432
 20
238.535138
 30
0.0
 10
602.504432
 20
255.543026
 30
0.0
 10
594.000488
 20
255.543026
 30
0.0
 10
594.000488
 20
280.771393
 30
0.0
 10
602.504432
 20
280.771393
 30
0.0
 10
602.504432
 20
305.999760
 30
0.0
  0
LWPOLYLINE
  5
104
100
AcDbEntity
  8
0
 62
7
100
AcDbPolyline
 90
117
 70
1
 10
26.503958
 20
297.495816
 30
0.0
 10
43.228382
 20
297.495816
 30
0.0
 10
43.228382
 20
305.999760
 30
0.0
 10
68.456749
 20
305.999760
 30
0.0
 10
68.456749
 20
297.495816
 30
0.0
 10
85.464637
 20
297.495816
 30
0.0
 10
85.464637
 20
305.999760
 30
0.0
 10
102.472526
 20
305.999760
 30
0.0
 10
102.472526
 20
297.495816
 30
0.0
 10
119.480414
 20
297.495816
 30
0.0
 10
119.480414
 20
305.999760
 30
0.0
 10
136.488302
 20
305.999760
 30
0.0
 10
136.488302
 20
297.495816
 30
0.0
 10
153.496190
 20
297.495816
 30
0.0
 10
153.496190
 20
305.999760
 30
0.0
 10
170.504078
 20
305.999760
 30
0.0
 10
170.504078
 20
297.495816
 30
0.0
 10
187.511966
 20
297.495816
 30
0.0
 10
187.511966
 20
305.999760
 30
0.0
 10
204.519854
 20
305.999760
 30
0.0
 10
204.519854
 20
297.495816
 30
0.0
 10
221.527742
 20
297.495816
 30
0.0
 10
221.527742
 20
305.999760
 30
0.0
 10
238.535630
 20
305.999760
 30
0.0
 10
238.535630
 20
297.495816
 30
0.0
 10
255.543518
 20
297.495816
 30
0.0
 10
255.543518
 20
305.999760
 30
0.0
 10
280.771886
 20
305.999760
 30
0.0
 10
280.771886
 20
297.495816
 30
0.0
 10
297.496310
 20
297.495816
 30
0.0
 10
297.496310
 20
280.771393
 30
0.0
 10
306.000254
 20
280.771393
 30
0.0
 10
306.000254
 20
255.543026
 30
0.0
 10
297.496310
 20
255.543026
 30
0.0
 10
297.496310
 20
238.535138
 30
0.0
 10
306.000254
 20
238.535138
 30
0.0
 10
306.000254
 20
221.527248
 30
0.0
 10
297.496310
 20
221.527248
 30
0.0
 10
297.496310
 20
204.519360
 30
0.0
 10
306.000254
 20
204.519360
 30
0.0
 10
306.000254
 20
187.511472
 30
0.0
 10
297.496310
 20
187.511472
 30
0.0
 10
297.496310
 20
170.503584
 30
0.0
 10
306.000254
 20
170.503584
 30
0.0
 10
306.000254
 20
153.495696
 30
0.0
 10
297.496310
 20
153.495696
 30
0.0
 10
297.496310
 20
136.487808
 30
0.0
 10
306.000254
 20
136.487808
 30
0.0
 10
306.000254
 20
119.479920
 30
0.0
 10
297.496310
 20
119.479920
 30
0.0
 10
297.496310
 20
102.472032
 30
0.0
 10
306.000254
 20
102.472032
 30
0.0
 10
306.000254
 20
85.464144
 30
0.0
 10
297.496310
 20
85.464144
 30
0.0
 10
297.496310
 20
68.456256
 30
0.0
 10
306.000254
 20
68.456256
 30
0.0
 10
306.000254
 20
43.227888
 30
0.0
 10
297.496310
 20
43.227888
 30
0.0
 10
297.496310
 20
26.503464
 30
0.0
 10
280.771886
 20
26.503464
 30
0.0
 10
280.771886
 20
17.999520
 30
0.0
 10
255.543518
 20
17.999520
 30
0.0
 10
255.543518
 20
26.503464
 30
0.0
 10
238.535630
 20
26.503464
 30
0.0
 10
238.535630
 20
17.999520
 30
0.0
 10
221.527742
 20
17.999520
 30
0.0
 10
221.527742
 20
26.503464
 30
0.0
 10
204.519854
 20
26.503464
 30
0.0
 10
204.519854
 20
17.999520
 30
0.0
 10
187.511966
 20
17.999520
 30
0.0
 10
187.511966
 20
26.503464
 30
0.0
 10
170.504078
 20
26.503464
 30
0.0
 10
170.504078
 20
17.999520
 30
0.0
 10
153.496190
 20
17.999520
 30
0.0
 10
153.496190
 20
26.503464
 30
0.0
 10
136.488302
 20
26.503464
 30
0.0
 10
136.488302
 20
17.999520
 30
0.0
 10
119.480414
 20
17.999520
 30
0.0
 10
119.480414
 20
26.503464
 30
0.0
 10
102.472526
 20
26.503464
 30
0.0
 10
102.472526
 20
17.999520
 30
0.0
 10
85.464637
 20
17.999520
 30
0.0
 10
85.464637
 20
26.503464
 30
0.0
 10
68.456749
 20
26.503464
 30
0.0
 10
68.456749
 20
17.999520
 30
0.0
 10
43.228382
 20
17.999520
 30
0.0
 10
43.228382
 20
26.503464
 30
0.0
 10
26.503958
 20
26.503464
 30
0.0
 10
26.503958
 20
43.227888
 30
0.0
 10
18.000014
 20
43.227888
 30
0.0
 10
18.000014
 20
68.456256
 30
0.0
 10
26.503958
 20
68.456256
 30
0.0
 10
26.503958
 20
85.464144
 30
0.0
 10
18.000014
 20
85.464144
 30
0.0
 10
18.000014
 20
102.472032
 30
0.0
 10
26.503958
 20
102.472032
 30
0.0
 10
26.503958
 20
119.479920
 30
0.0
 10
18.000014
 20
119.479920
 30
0.0
 10
18.000014
 20
136.487808
 30
0.0
 10
26.503958
 20
136.487808
 30
0.0
 10
26.503958
 20
153.495696
 30
0.0
 10
18.000014
 20
153.495696
 30
0.0
 10
18.000014
 20
170.503584
 30
0.0
 10
26.503958
 20
170.503584
 30
0.0
 10
26.503958
 20
187.511472
 30
0.0
 10
18.000014
 20
187.511472
 30
0.0
 10
18.000014
 20
204.519360
 30
0.0
 10
26.503958
 20
204.519360
 30
0.0
 10
26.503958
 20
221.527248
 30
0.0
 10
18.000014
 20
221.527248
 30
0.0
 10
18.000014
 20
238.535138
 30
0.0
 10
26.503958
 20
238.535138
 30
0.0
 10
26.503958
 20
255.543026
 30
0.0
 10
18.000014
 20
255.543026
 30
0.0
 10
18.000014
 20
280.771393
 30
0.0
 10
26.503958
 20
280.771393
 30
0.0
 10
26.503958
 20
297.495816
 30
0.0
  0
LWPOLYLINE
  5
105
100
AcDbEntity
  8
0
 62
7
100
AcDbPolyline
 90
117
 70
1
 10
314.504192
 20
297.495816
 30
0.0
 10
331.228615
 20
297.495816
 30
0.0
 10
331.228615
 20
305.999760
 30
0.0
 10
356.456982
 20
305.999760
 30
0.0
 10
356.456982
 20
297.495816
 30
0.0
 10
373.464870
 20
297.495816
 30
0.0
 10
373.464870
 20
305.999760
 30
0.0
 10
390.472760
 20
305.999760
 30
0.0
 10
390.472760
 20
297.495816
 30
0.0
 10
407.480648
 20
297.495816
 30
0.0
 10
407.480648
 20
305.999760
 30
0.0
 10
424.488536
 20
305.999760
 30
0.0
 10
424.488536
 20
297.495816
 30
0.0
 10
441.496424
 20
297.495816
 30
0.0
 10
441.496424
 20
305.999760
 30
0.0
 10
458.504312
 20
305.999760
 30
0.0
 10
458.504312
 20
297.495816
 30
0.0
 10
475.512200
 20
297.495816
 30
0.0
 10
475.512200
 20
305.999760
 30
0.0
 10
492.520088
 20
305.999760
 30
0.0
 10
492.520088
 20
297.495816
 30
0.0
 10
509.527976
 20
297.495816
 30
0.0
 10
509.527976
 20
305.999760
 30
0.0
 10
526.535864
 20
305.999760
 30
0.0
 10
526.535864
 20
297.495816
 30
0.0
 10
543.543752
 20
297.495816
 30
0.0
 10
543.543752
 20
305.999760
 30
0.0
 10
568.772120
 20
305.999760
 30
0.0
 10
568.772120
 20
297.495816
 30
0.0
 10
585.496544
 20
297.495816
 30
0.0
 10
585.496544
 20
280.771393
 30
0.0
 10
594.000488
 20
280.771393
 30
0.0
 10
594.000488
 20
255.543026
 30
0.0
 10
585.496544
 20
255.543026
 30
0.0
 10
585.496544
 20
238.535138
 30
0.0
 10
594.000488
 20
238.535138
 30
0.0
 10
594.000488
 20
221.527248
 30
0.0
 10
585.496544
 20
221.527248
 30
0.0
 10
585.496544
 20
204.519360
 30
0.0
 10
594.000488
 20
204.519360
 30
0.0
 10
594.000488
 20
187.511472
 30
0.0
 10
585.496544
 20
187.511472
 30
0.0
 10
585.496544
 20
170.503584
 30
0.0
 10
594.000488
 20
170.503584
 30
0.0
 10
594.000488
 20
153.495696
 30
0.0
 10
585.496544
 20
153.495696
 30
0.0
 10
585.496544
 20
136.487808
 30
0.0
 10
594.000488
 20
136.487808
 30
0.0
 10
594.000488
 20
119.479920
 30
0.0
 10
585.496544
 20
119.479920
 30
0.0
 10
585.496544
 20
102.472032
 30
0.0
 10
594.000488
 20
102.472032
 30
0.0
 10
594.000488
 20
85.464144
 30
0.0
 10
585.496544
 20
85.464144
 30
0.0
 10
585.496544
 20
68.456256
 30
0.0
 10
594.000488
 20
68.456256
 30
0.0
 10
594.000488
 20
43.227888
 30
0.0
 10
585.496544
 20
43.227888
 30
0.0
 10
585.496544
 20
26.503464
 30
0.0
 10
568.772120
 20
26.503464
 30
0.0
 10
568.772120
 20
17.999520
 30
0.0
 10
543.543752
 20
17.999520
 30
0.0
 10
543.543752
 20
26.503464
 30
0.0
 10
526.535864
 20
26.503464
 30
0.0
 10
526.535864
 20
17.999520
 30
0.0
 10
509.527976
 20
17.999520
 30
0.0
 10
509.527976
 20
26.503464
 30
0.0
 10
492.520088
 20
26.503464
 30
0.0
 10
492.520088
 20
17.999520
 30
0.0
 10
475.512200
 20
17.999520
 30
0.0
 10
475.512200
 20
26.503464
 30
0.0
 10
458.504312
 20
26.503464
 30
0.0
 10
458.504312
 20
17.999520
 30
0.0
 10
441.496424
 20
17.999520
 30
0.0
 10
441.496424
 20
26.503464
 30
0.0
 10
424.488536
 20
26.503464
 30
0.0
 10
424.488536
 20
17.999520
 30
0.0
 10
407.480648
 20
17.999520
 30
0.0
 10
407.480648
 20
26.503464
 30
0.0
 10
390.472760
 20
26.503464
 30
0.0
 10
390.472760
 20
17.999520
 30
0.0
 10
373.464870
 20
17.999520
 30
0.0
 10
373.464870
 20
26.503464
 30
0.0
 10
356.456982
 20
26.503464
 30
0.0
 10
356.456982
 20
17.999520
 30
0.0
 10
331.228615
 20
17.999520
 30
0.0
 10
331.228615
 20
26.503464
 30
0.0
 10
314.504192
 20
26.503464
 30
0.0
 10
314.504192
 20
43.227888
 30
0.0
 10
306.000248
 20
43.227888
 30
0.0
 10
306.000248
 20
68.456256
 30
0.0
 10
314.504192
 20
68.456256
 30
0.0
 10
314.504192
 20
85.464144
 30
0.0
 10
306.000248
 20
85.464144
 30
0.0
 10
306.000248
 20
102.472032
 30
0.0
 10
314.504192
 20
102.472032
 30
0.0
 10
314.504192
 20
119.479920
 30
0.0
 10
306.000248
 20
119.479920
 30
0.0
 10
306.000248
 20
136.487808
 30
0.0
 10
314.504192
 20
136.487808
 30
0.0
 10
314.504192
 20
153.495696
 30
0.0
 10
306.000248
 20
153.495696
 30
0.0
 10
306.000248
 20
170.503584
 30
0.0
 10
314.504192
 20
170.503584
 30
0.0
 10
314.504192
 20
187.511472
 30
0.0
 10
306.000248
 20
187.511472
 30
0.0
 10
306.000248
 20
204.519360
 30
0.0
 10
314.504192
 20
204.519360
 30
0.0
 10
314.504192
 20
221.527248
 30
0.0
 10
306.000248
 20
221.527248
 30
0.0
 10
306.000248
 20
238.535138
 30
0.0
 10
314.504192
 20
238.535138
 30
0.0
 10
314.504192
 20
255.543026
 30
0.0
 10
306.000248
 20
255.543026
 30
0.0
 10
306.000248
 20
280.771393
 30
0.0
 10
314.504192
 20
280.771393
 30
0.0
 10
314.504192
 20
297.495816
 30
0.0
  0
SPLINE
  5
106
100
AcDbEntity
  8
0
 62
5
100
AcDbSpline
 70
0
 71
3
 72
25
 73
21
 74
19
 40
0.000000
 40
0.000000
 40
0.000000
 40
0.000000
 40
21.124038
 40
41.621543
 40
62.745581
 40
83.869617
 40
104.367122
 40
125.491158
 40
136.067129
 40
146.555580
 40
157.131551
 40
167.707522
 40
178.195972
 40
188.771943
 40
199.347915
 40
209.836366
 40
220.412337
 40
230.988309
 40
241.476760
 40
252.052732
 40
252.052732
 40
252.052732
 40
252.052732
 10
134.977200
 20
519.286375
 30
0.0
 10
133.866775
 20
512.164314
 30
0.0
 10
131.678861
 20
498.131429
 30
0.0
 10
115.594675
 20
482.682871
 30
0.0
 10
94.612837
 20
476.956865
 30
0.0
 10
73.413256
 20
482.687479
 30
0.0
 10
57.969389
 20
498.113413
 30
0.0
 10
53.227126
 20
515.785209
 30
0.0
 10
55.107736
 20
529.858738
 30
0.0
 10
59.185816
 20
539.719043
 30
0.0
 10
65.678535
 20
548.183905
 30
0.0
 10
74.144702
 20
554.676039
 30
0.0
 10
83.999229
 20
558.757750
 30
0.0
 10
94.576007
 20
560.154137
 30
0.0
 10
105.153844
 20
558.757773
 30
0.0
 10
115.005215
 20
554.675951
 30
0.0
 10
123.483031
 20
548.184243
 30
0.0
 10
129.932375
 20
539.717790
 30
0.0
 10
134.171460
 20
529.863392
 30
0.0
 10
134.707877
 20
522.821800
 30
0.0
 10
134.977200
 20
519.286375
 30
0.0
 11
134.977200
 21
519.286375
 31
0.0
 11
129.461275
 21
498.895212
 31
0.0
 11
114.967348
 21
484.401289
 31
0.0
 11
94.576184
 21
478.885368
 31
0.0
 11
74.185021
 21
484.401290
 31
0.0
 11
59.691096
 21
498.895213
 31
0.0
 11
54.175171
 21
519.286375
 31
0.0
 11
55.559331
 21
529.771377
 31
0.0
 11
59.573086
 21
539.461442
 31
0.0
 11
66.008353
 21
547.854207
 31
0.0
 11
74.401117
 21
554.289474
 31
0.0
 11
84.091182
 21
558.303231
 31
0.0
 11
94.576184
 21
559.687391
 31
0.0
 11
105.061186
 21
558.303232
 31
0.0
 11
114.751252
 21
554.289476
 31
0.0
 11
123.144017
 21
547.854209
 31
0.0
 11
129.579284
 21
539.461443
 31
0.0
 11
133.593041
 21
529.771377
 31
0.0
 11
134.977200
 21
519.286375
 31
0.0
  0
LWPOLYLINE
  5
107
100
AcDbEntity
  8
0
 62
5
100
AcDbPolyline
 90
2
 70
1
 10
134.977200
 20
519.286375
 30
0.0
 10
134.977200
 20
519.286375
 30
0.0
  0
SPLINE
  5
108
100
AcDbEntity
  8
0
 62
5
100
AcDbSpline
 70
0
 71
3
 72
22
 73
18
 74
16
 40
0.000000
 40
0.000000
 40
0.000000
 40
0.000000
 40
26.665621
 40
53.118353
 40
80.962581
 40
108.806809
 40
135.259542
 40
161.925163
 40
175.239883
 40
188.533918
 40
202.093647
 40
215.830646
 40
229.603781
 40
243.578389
 40
271.422619
 40
297.875353
 40
324.540974
 40
324.540974
 40
324.540974
 40
324.540974
 10
283.422088
 20
511.804712
 30
0.0
 10
281.921854
 20
502.812671
 30
0.0
 10
278.933362
 20
484.900378
 30
0.0
 10
257.481214
 20
465.628228
 30
0.0
 10
230.047056
 20
458.605821
 30
0.0
 10
202.302132
 20
465.634333
 30
0.0
 10
181.738286
 20
484.877296
 30
0.0
 10
175.297605
 20
507.371574
 30
0.0
 10
177.811315
 20
525.148254
 30
0.0
 10
183.232700
 20
537.574153
 30
0.0
 10
191.845667
 20
548.215343
 30
0.0
 10
203.043326
 20
556.355292
 30
0.0
 10
216.051728
 20
561.458940
 30
0.0
 10
234.622992
 20
563.800814
 30
0.0
 10
257.499204
 20
557.986644
 30
0.0
 10
278.928922
 20
538.707705
 30
0.0
 10
281.920370
 20
520.796305
 30
0.0
 10
283.422088
 20
511.804713
 30
0.0
 11
283.422088
 21
511.804712
 31
0.0
 11
276.127639
 21
486.156197
 31
0.0
 11
256.960368
 21
467.925377
 31
0.0
 11
229.994384
 21
460.987312
 31
0.0
 11
203.028400
 21
467.925377
 31
0.0
 11
183.861129
 21
486.156197
 31
0.0
 11
176.566680
 21
511.804713
 31
0.0
 11
178.397141
 21
524.993009
 31
0.0
 11
183.705072
 21
537.181415
 31
0.0
 11
192.215292
 21
547.738044
 31
0.0
 11
203.314176
 21
555.832483
 31
0.0
 11
216.128654
 21
560.881086
 31
0.0
 11
229.994384
 21
562.622117
 31
0.0
 11
256.960369
 21
555.684051
 31
0.0
 11
276.127640
 21
537.453230
 31
0.0
 11
283.422088
 21
511.804713
 31
0.0
  0
LWPOLYLINE
  5
109
100
AcDbEntity
  8
0
 62
5
100
AcDbPolyline
 90
2
 70
1
 10
283.422088
 20
511.804713
 30
0.0
 10
283.422088
 20
511.804712
 30
0.0
  0
SPLINE
  5
10a
100
AcDbEntity
  8
0
 62
5
100
AcDbSpline
 70
0
 71
3
 72
22
 73
18
 74
16
 40
0.000000
 40
0.000000
 40
0.000000
 40
0.000000
 40
34.164214
 40
67.315128
 40
101.479341
 40
135.643555
 40
168.794468
 40
202.958681
 40
237.122895
 40
270.273808
 40
304.438021
 40
321.542691
 40
338.505814
 40
355.610484
 40
372.715154
 40
389.678277
 40
406.782948
 40
406.782948
 40
406.782948
 40
406.782948
 10
180.491912
 20
396.212920
 30
0.0
 10
178.696023
 20
384.694354
 30
0.0
 10
175.157511
 20
361.998860
 30
0.0
 10
149.144097
 20
337.012979
 30
0.0
 10
115.210758
 20
327.754941
 30
0.0
 10
80.921038
 20
337.013024
 30
0.0
 10
55.955630
 20
361.998686
 30
0.0
 10
46.689489
 20
396.213597
 30
0.0
 10
55.959083
 20
430.424488
 30
0.0
 10
80.907535
 20
455.421968
 30
0.0
 10
109.487703
 20
463.086804
 30
0.0
 10
132.250615
 20
460.045914
 30
0.0
 10
148.192969
 20
453.450245
 30
0.0
 10
161.901678
 20
442.949518
 30
0.0
 10
172.332987
 20
429.257029
 30
0.0
 10
179.188740
 20
413.319258
 30
0.0
 10
180.056320
 20
401.930805
 30
0.0
 10
180.491912
 20
396.212920
 30
0.0
 11
180.491912
 21
396.212920
 31
0.0
 11
171.570930
 21
363.233993
 31
0.0
 11
148.129695
 21
339.792758
 31
0.0
 11
115.150768
 21
330.871776
 31
0.0
 11
82.171842
 21
339.792758
 31
0.0
 11
58.730607
 21
363.233994
 31
0.0
 11
49.809626
 21
396.212920
 31
0.0
 11
58.730607
 21
429.191846
 31
0.0
 11
82.171842
 21
452.633082
 31
0.0
 11
115.150768
 21
461.554064
 31
0.0
 11
132.108312
 21
459.315442
 31
0.0
 11
147.780194
 21
452.823936
 31
0.0
 11
161.353934
 21
442.416086
 31
0.0
 11
171.761784
 21
428.842346
 31
0.0
 11
178.253290
 21
413.170464
 31
0.0
 11
180.491912
 21
396.212920
 31
0.0
  0
LWPOLYLINE
  5
10b
100
AcDbEntity
  8
0
 62
5
100
AcDbPolyline
 90
2
 70
1
 10
180.491912
 20
396.212920
 30
0.0
 10
180.491912
 20
396.212920
 30
0.0
  0
SPLINE
  5
10c
100
AcDbEntity
  8
0
 62
5
100
AcDbSpline
 70
0
 71
3
 72
22
 73
18
 74
16
 40
0.000000
 40
0.000000
 40
0.000000
 40
0.000000
 40
21.124038
 40
41.621543
 40
62.745581
 40
73.321552
 40
83.810003
 40
94.385974
 40
104.961946
 40
115.450397
 40
126.026368
 40
147.150406
 40
167.647911
 40
188.771949
 40
209.895984
 40
230.393487
 40
251.517522
 40
251.517522
 40
251.517522
 40
251.517522
 10
333.058536
 20
531.631127
 30
0.0
 10
334.170228
 20
538.752677
 30
0.0
 10
336.360639
 20
552.784555
 30
0.0
 10
352.426318
 20
568.240576
 30
0.0
 10
369.940778
 20
572.979866
 30
0.0
 10
384.035179
 20
571.099616
 30
0.0
 10
393.891383
 20
567.021569
 30
0.0
 10
402.357099
 20
560.528448
 30
0.0
 10
408.849940
 20
552.063851
 30
0.0
 10
412.927988
 20
542.203476
 30
0.0
 10
414.808609
 20
528.129969
 30
0.0
 10
410.066340
 20
510.458161
 30
0.0
 10
394.622474
 20
495.032231
 30
0.0
 10
373.422891
 20
489.301616
 30
0.0
 10
352.441056
 20
495.027626
 30
0.0
 10
336.356875
 20
510.476184
 30
0.0
 10
334.168960
 20
524.509067
 30
0.0
 10
333.058536
 20
531.631127
 30
0.0
 11
333.058536
 21
531.631127
 31
0.0
 11
338.574457
 21
552.022292
 31
0.0
 11
353.068381
 21
566.516218
 31
0.0
 11
373.459544
 21
572.032142
 31
0.0
 11
383.944546
 21
570.647983
 31
0.0
 11
393.634612
 21
566.634227
 31
0.0
 11
402.027377
 21
560.198960
 31
0.0
 11
408.462644
 21
551.806195
 31
0.0
 11
412.476400
 21
542.116129
 31
0.0
 11
413.860560
 21
531.631127
 31
0.0
 11
408.344635
 21
511.239964
 31
0.0
 11
393.850708
 21
496.746041
 31
0.0
 11
373.459544
 21
491.230120
 31
0.0
 11
353.068383
 21
496.746043
 31
0.0
 11
338.574460
 21
511.239966
 31
0.0
 11
333.058536
 21
531.631127
 31
0.0
  0
LWPOLYLINE
  5
10d
100
AcDbEntity
  8
0
 62
5
100
AcDbPolyline
 90
2
 70
1
 10
333.058536
 20
531.631127
 30
0.0
 10
333.058536
 20
531.631127
 30
0.0
  0
LWPOLYLINE
  5
10e
100
AcDbEntity
  8
0
 62
5
100
AcDbPolyline
 90
2
 70
1
 10
380.727880
 20
387.536848
 30
0.0
 10
380.727880
 20
387.536848
 30
0.0
  0
SPLINE
  5
10f
100
AcDbEntity
  8
0
 62
5
100
AcDbSpline
 70
0
 71
3
 72
25
 73
21
 74
19
 40
0.000000
 40
0.000000
 40
0.000000
 40
0.000000
 40
28.228045
 40
56.230729
 40
85.706440
 40
100.499865
 40
115.080013
 40
129.621909
 40
143.976147
 40
158.049122
 40
172.143995
 40
186.238868
 40
200.311843
 40
214.666082
 40
229.207977
 40
243.788125
 40
258.581550
 40
288.057261
 40
316.059945
 40
344.287990
 40
344.287990
 40
344.287990
 40
344.287990
 10
380.727880
 20
387.536848
 30
0.0
 10
382.317588
 20
397.055286
 30
0.0
 10
385.484313
 20
416.016170
 30
0.0
 10
408.169672
 20
436.424733
 30
0.0
 10
432.386251
 20
442.579549
 30
0.0
 10
452.045711
 20
440.100512
 30
0.0
 10
465.816181
 20
434.697666
 30
0.0
 10
477.670455
 20
426.081359
 30
0.0
 10
486.786226
 20
414.814515
 30
0.0
 10
492.532057
 20
401.668403
 30
0.0
 10
494.500913
 20
387.536848
 30
0.0
 10
492.532057
 20
373.405293
 30
0.0
 10
486.786226
 20
360.259181
 30
0.0
 10
477.670455
 20
348.992337
 30
0.0
 10
465.816181
 20
340.376030
 30
0.0
 10
452.045711
 20
334.973184
 30
0.0
 10
432.386251
 20
332.494147
 30
0.0
 10
408.169672
 20
338.648963
 30
0.0
 10
385.484313
 20
359.057526
 30
0.0
 10
382.317588
 20
378.018410
 30
0.0
 10
380.727880
 20
387.536848
 30
0.0
 11
380.727880
 21
387.536848
 31
0.0
 11
388.449732
 21
414.688193
 31
0.0
 11
408.740073
 21
433.987218
 31
0.0
 11
437.286080
 21
441.331808
 31
0.0
 11
451.964249
 21
439.488765
 31
0.0
 11
465.529569
 21
434.144349
 31
0.0
 11
477.278773
 21
425.575631
 31
0.0
 11
486.287635
 21
414.400454
 31
0.0
 11
491.906574
 21
401.497890
 31
0.0
 11
493.844288
 21
387.536848
 31
0.0
 11
491.906574
 21
373.575806
 31
0.0
 11
486.287635
 21
360.673242
 31
0.0
 11
477.278773
 21
349.498065
 31
0.0
 11
465.529569
 21
340.929347
 31
0.0
 11
451.964249
 21
335.584931
 31
0.0
 11
437.286080
 21
333.741888
 31
0.0
 11
408.740073
 21
341.086478
 31
0.0
 11
388.449732
 21
360.385503
 31
0.0
 11
380.727880
 21
387.536848
 31
0.0
  0
LWPOLYLINE
  5
110
100
AcDbEntity
  8
0
 62
5
100
AcDbPolyline
 90
2
 70
1
 10
185.368536
 20
268.650448
 30
0.0
 10
235.715600
 20
268.650448
 30
0.0
  0
SPLINE
  5
111
100
AcDbEntity
  8
0
 62
5
100
AcDbSpline
 70
0
 71
3
 72
10
 73
6
 74
4
 40
0.000000
 40
0.000000
 40
0.000000
 40
0.000000
 40
6.013211
 40
11.834786
 40
17.847996
 40
17.847996
 40
17.847996
 40
17.847996
 10
235.715600
 20
268.650448
 30
0.0
 10
237.731534
 20
268.336987
 30
0.0
 10
241.699156
 20
267.720056
 30
0.0
 10
246.271856
 20
263.147356
 30
0.0
 10
246.888787
 20
259.179734
 30
0.0
 10
247.202248
 20
257.163800
 30
0.0
 11
235.715600
 21
268.650448
 31
0.0
 11
241.521887
 21
267.086561
 31
0.0
 11
245.638361
 21
262.970087
 31
0.0
 11
247.202248
 21
257.163800
 31
0.0
  0
LWPOLYLINE
  5
112
100
AcDbEntity
  8
0
 62
5
100
AcDbPolyline
 90
2
 70
1
 10
247.202248
 20
257.163800
 30
0.0
 10
247.202248
 20
206.816736
 30
0.0
  0
SPLINE
  5
113
100
AcDbEntity
  8
0
 62
5
100
AcDbSpline
 70
0
 71
3
 72
10
 73
6
 74
4
 40
0.000000
 40
0.000000
 40
0.000000
 40
0.000000
 40
6.013211
 40
11.834786
 40
17.847996
 40
17.847996
 40
17.847996
 40
17.847996
 10
247.202248
 20
206.816736
 30
0.0
 10
246.888787
 20
204.800802
 30
0.0
 10
246.271856
 20
200.833180
 30
0.0
 10
241.699156
 20
196.260480
 30
0.0
 10
237.731534
 20
195.643549
 30
0.0
 10
235.715600
 20
195.330088
 30
0.0
 11
247.202248
 21
206.816736
 31
0.0
 11
245.638361
 21
201.010449
 31
0.0
 11
241.521887
 21
196.893975
 31
0.0
 11
235.715600
 21
195.330088
 31
0.0
  0
LWPOLYLINE
  5
114
100
AcDbEntity
  8
0
 62
5
100
AcDbPolyline
 90
2
 70
1
 10
235.715600
 20
195.330088
 30
0.0
 10
185.368536
 20
195.330088
 30
0.0
  0
SPLINE
  5
115
100
AcDbEntity
  8
0
 62
5
100
AcDbSpline
 70
0
 71
3
 72
10
 73
6
 74
4
 40
0.000000
 40
0.000000
 40
0.000000
 40
0.000000
 40
6.013214
 40
11.834788
 40
17.847998
 40
17.847998
 40
17.847998
 40
17.847998
 10
185.368536
 20
195.330088
 30
0.0
 10
183.352600
 20
195.643548
 30
0.0
 10
179.384977
 20
196.260479
 30
0.0
 10
174.812278
 20
200.833180
 30
0.0
 10
174.195348
 20
204.800802
 30
0.0
 10
173.881888
 20
206.816736
 30
0.0
 11
185.368536
 21
195.330088
 31
0.0
 11
179.562246
 21
196.893975
 31
0.0
 11
175.445773
 21
201.010449
 31
0.0
 11
173.881888
 21
206.816736
 31
0.0
  0
LWPOLYLINE
  5
116
100
AcDbEntity
  8
0
 62
5
100
AcDbPolyline
 90
2
 70
1
 10
173.881888
 20
206.816736
 30
0.0
 10
173.881888
 20
257.163800
 30
0.0
  0
LWPOLYLINE
  5
117
100
AcDbEntity
  8
0
 62
5
100
AcDbPolyline
 90
2
 70
1
 10
185.368536
 20
268.650448
 30
0.0
 10
185.368536
 20
268.650448
 30
0.0
  0
SPLINE
  5
118
100
AcDbEntity
  8
0
 62
5
100
AcDbSpline
 70
0
 71
3
 72
10
 73
6
 74
4
 40
0.000000
 40
0.000000
 40
0.000000
 40
0.000000
 40
6.013210
 40
11.834784
 40
17.847998
 40
17.847998
 40
17.847998
 40
17.847998
 10
173.881888
 20
257.163800
 30
0.0
 10
174.195348
 20
259.179734
 30
0.0
 10
174.812278
 20
263.147356
 30
0.0
 10
179.384977
 20
267.720057
 30
0.0
 10
183.352600
 20
268.336988
 30
0.0
 10
185.368536
 20
268.650448
 30
0.0
 11
173.881888
 21
257.163800
 31
0.0
 11
175.445773
 21
262.970087
 31
0.0
 11
179.562246
 21
267.086561
 31
0.0
 11
185.368536
 21
268.650448
 31
0.0
  0
LWPOLYLINE
  5
119
100
AcDbEntity
  8
0
 62
5
100
AcDbPolyline
 90
2
 70
1
 10
67.915303
 20
215.492072
 30
0.0
 10
127.970576
 20
215.492072
 30
0.0
  0
SPLINE
  5
11a
100
AcDbEntity
  8
0
 62
5
100
AcDbSpline
 70
0
 71
3
 72
10
 73
6
 74
4
 40
0.000000
 40
0.000000
 40
0.000000
 40
0.000000
 40
7.172711
 40
14.116834
 40
21.289548
 40
21.289548
 40
21.289548
 40
21.289548
 10
127.970576
 20
215.492072
 30
0.0
 10
130.375234
 20
215.118169
 30
0.0
 10
135.107915
 20
214.382278
 30
0.0
 10
140.562349
 20
208.927846
 30
0.0
 10
141.298240
 20
204.195163
 30
0.0
 10
141.672144
 20
201.790504
 30
0.0
 11
127.970576
 21
215.492072
 31
0.0
 11
134.896463
 21
213.626630
 31
0.0
 11
139.806700
 21
208.716394
 31
0.0
 11
141.672144
 21
201.790504
 31
0.0
  0
LWPOLYLINE
  5
11b
100
AcDbEntity
  8
0
 62
5
100
AcDbPolyline
 90
2
 70
1
 10
141.672144
 20
201.790504
 30
0.0
 10
141.672144
 20
141.735232
 30
0.0
  0
SPLINE
  5
11c
100
AcDbEntity
  8
0
 62
5
100
AcDbSpline
 70
0
 71
3
 72
10
 73
6
 74
4
 40
0.000000
 40
0.000000
 40
0.000000
 40
0.000000
 40
7.172715
 40
14.116837
 40
21.289548
 40
21.289548
 40
21.289548
 40
21.289548
 10
141.672144
 20
141.735232
 30
0.0
 10
141.298240
 20
139.330573
 30
0.0
 10
140.562349
 20
134.597890
 30
0.0
 10
135.107915
 20
129.143458
 30
0.0
 10
130.375234
 20
128.407567
 30
0.0
 10
127.970576
 20
128.033664
 30
0.0
 11
141.672144
 21
141.735232
 31
0.0
 11
139.806700
 21
134.809342
 31
0.0
 11
134.896463
 21
129.899106
 31
0.0
 11
127.970576
 21
128.033664
 31
0.0
  0
LWPOLYLINE
  5
11d
100
AcDbEntity
  8
0
 62
5
100
AcDbPolyline
 90
2
 70
1
 10
127.970576
 20
128.033664
 30
0.0
 10
67.915303
 20
128.033664
 30
0.0
  0
SPLINE
  5
11e
100
AcDbEntity
  8
0
 62
5
100
AcDbSpline
 70
0
 71
3
 72
10
 73
6
 74
4
 40
0.000000
 40
0.000000
 40
0.000000
 40
0.000000
 40
7.172714
 40
14.116837
 40
21.289551
 40
21.289551
 40
21.289551
 40
21.289551
 10
67.915303
 20
128.033664
 30
0.0
 10
65.510644
 20
128.407567
 30
0.0
 10
60.777962
 20
129.143457
 30
0.0
 10
55.323527
 20
134.597890
 30
0.0
 10
54.587636
 20
139.330573
 30
0.0
 10
54.213733
 20
141.735232
 30
0.0
 11
67.915303
 21
128.033664
 31
0.0
 11
60.989413
 21
129.899106
 31
0.0
 11
56.079176
 21
134.809342
 31
0.0
 11
54.213733
 21
141.735232
 31
0.0
  0
LWPOLYLINE
  5
11f
100
AcDbEntity
  8
0
 62
5
100
AcDbPolyline
 90
2
 70
1
 10
54.213733
 20
141.735232
 30
0.0
 10
54.213733
 20
201.790504
 30
0.0
  0
LWPOLYLINE
  5
120
100
AcDbEntity
  8
0
 62
5
100
AcDbPolyline
 90
2
 70
1
 10
67.915303
 20
215.492072
 30
0.0
 10
67.915303
 20
215.492072
 30
0.0
  0
SPLINE
  5
121
100
AcDbEntity
  8
0
 62
5
100
AcDbSpline
 70
0
 71
3
 72
10
 73
6
 74
4
 40
0.000000
 40
0.000000
 40
0.000000
 40
0.000000
 40
7.172715
 40
14.116837
 40
21.289551
 40
21.289551
 40
21.289551
 40
21.289551
 10
54.213733
 20
201.790504
 30
0.0
 10
54.587636
 20
204.195163
 30
0.0
 10
55.323527
 20
208.927846
 30
0.0
 10
60.777962
 20
214.382279
 30
0.0
 10
65.510644
 20
215.118169
 30
0.0
 10
67.915303
 20
215.492072
 30
0.0
 11
54.213733
 21
201.790504
 31
0.0
 11
56.079176
 21
208.716394
 31
0.0
 11
60.989413
 21
213.626630
 31
0.0
 11
67.915303
 21
215.492072
 31
0.0
  0
LWPOLYLINE
  5
122
100
AcDbEntity
  8
0
 62
5
100
AcDbPolyline
 90
2
 70
1
 10
181.371912
 20
149.606648
 30
0.0
 10
253.179208
 20
149.606648
 30
0.0
  0
SPLINE
  5
123
100
AcDbEntity
  8
0
 62
5
100
AcDbSpline
 70
0
 71
3
 72
10
 73
6
 74
4
 40
0.000000
 40
0.000000
 40
0.000000
 40
0.000000
 40
8.576321
 40
16.879320
 40
25.455645
 40
25.455645
 40
25.455645
 40
25.455645
 10
253.179208
 20
149.606648
 30
0.0
 10
256.054427
 20
149.159577
 30
0.0
 10
261.713235
 20
148.279682
 30
0.0
 10
268.235033
 20
141.757886
 30
0.0
 10
269.114928
 20
136.099077
 30
0.0
 10
269.562000
 20
133.223856
 30
0.0
 11
253.179208
 21
149.606648
 31
0.0
 11
261.460405
 21
147.376162
 31
0.0
 11
267.331513
 21
141.505056
 31
0.0
 11
269.562000
 21
133.223856
 31
0.0
  0
LWPOLYLINE
  5
124
100
AcDbEntity
  8
0
 62
5
100
AcDbPolyline
 90
2
 70
1
 10
269.562000
 20
133.223856
 30
0.0
 10
269.562000
 20
61.416560
 30
0.0
  0
SPLINE
  5
125
100
AcDbEntity
  8
0
 62
5
100
AcDbSpline
 70
0
 71
3
 72
10
 73
6
 74
4
 40
0.000000
 40
0.000000
 40
0.000000
 40
0.000000
 40
8.576320
 40
16.879317
 40
25.455638
 40
25.455638
 40
25.455638
 40
25.455638
 10
269.562000
 20
61.416560
 30
0.0
 10
269.114928
 20
58.541341
 30
0.0
 10
268.235032
 20
52.882535
 30
0.0
 10
261.713234
 20
46.360742
 30
0.0
 10
256.054427
 20
45.480847
 30
0.0
 10
253.179208
 20
45.033776
 30
0.0
 11
269.562000
 21
61.416560
 31
0.0
 11
267.331513
 21
53.135365
 31
0.0
 11
261.460405
 21
47.264261
 31
0.0
 11
253.179208
 21
45.033776
 31
0.0
  0
LWPOLYLINE
  5
126
100
AcDbEntity
  8
0
 62
5
100
AcDbPolyline
 90
2
 70
1
 10
253.179208
 20
45.033776
 30
0.0
 10
181.371912
 20
45.033776
 30
0.0
  0
SPLINE
  5
127
100
AcDbEntity
  8
0
 62
5
100
AcDbSpline
 70
0
 71
3
 72
10
 73
6
 74
4
 40
0.000000
 40
0.000000
 40
0.000000
 40
0.000000
 40
8.576321
 40
16.879319
 40
25.455638
 40
25.455638
 40
25.455638
 40
25.455638
 10
181.371912
 20
45.033776
 30
0.0
 10
178.496693
 20
45.480847
 30
0.0
 10
172.837886
 20
46.360742
 30
0.0
 10
166.316088
 20
52.882535
 30
0.0
 10
165.436192
 20
58.541341
 30
0.0
 10
164.989120
 20
61.416560
 30
0.0
 11
181.371912
 21
45.033776
 31
0.0
 11
173.090715
 21
47.264261
 31
0.0
 11
167.219607
 21
53.135365
 31
0.0
 11
164.989120
 21
61.416560
 31
0.0
  0
LWPOLYLINE
  5
128
100
AcDbEntity
  8
0
 62
5
100
AcDbPolyline
 90
2
 70
1
 10
164.989120
 20
61.416560
 30
0.0
 10
164.989120
 20
133.223856
 30
0.0
  0
LWPOLYLINE
  5
129
100
AcDbEntity
  8
0
 62
5
100
AcDbPolyline
 90
2
 70
1
 10
181.371912
 20
149.606648
 30
0.0
 10
181.371912
 20
149.606648
 30
0.0
  0
SPLINE
  5
12a
100
AcDbEntity
  8
0
 62
5
100
AcDbSpline
 70
0
 71
3
 72
10
 73
6
 74
4
 40
0.000000
 40
0.000000
 40
0.000000
 40
0.000000
 40
8.576325
 40
16.879324
 40
25.455645
 40
25.455645
 40
25.455645
 40
25.455645
 10
164.989120
 20
133.223856
 30
0.0
 10
165.436192
 20
136.099077
 30
0.0
 10
166.316087
 20
141.757886
 30
0.0
 10
172.837885
 20
148.279682
 30
0.0
 10
178.496693
 20
149.159577
 30
0.0
 10
181.371912
 20
149.606648
 30
0.0
 11
164.989120
 21
133.223856
 31
0.0
 11
167.219607
 21
141.505056
 31
0.0
 11
173.090715
 21
147.376162
 31
0.0
 11
181.371912
 21
149.606648
 31
0.0
  0
LWPOLYLINE
  5
12b
100
AcDbEntity
  8
0
 62
5
100
AcDbPolyline
 90
2
 70
1
 10
376.151104
 20
156.799472
 30
0.0
 10
426.498168
 20
156.799472
 30
0.0
  0
SPLINE
  5
12c
100
AcDbEntity
  8
0
 62
5
100
AcDbSpline
 70
0
 71
3
 72
10
 73
6
 74
4
 40
0.000000
 40
0.000000
 40
0.000000
 40
0.000000
 40
6.013211
 40
11.834786
 40
17.847996
 40
17.847996
 40
17.847996
 40
17.847996
 10
426.498168
 20
156.799472
 30
0.0
 10
428.514102
 20
156.486011
 30
0.0
 10
432.481724
 20
155.869080
 30
0.0
 10
437.054424
 20
151.296380
 30
0.0
 10
437.671355
 20
147.328758
 30
0.0
 10
437.984816
 20
145.312824
 30
0.0
 11
426.498168
 21
156.799472
 31
0.0
 11
432.304455
 21
155.235585
 31
0.0
 11
436.420929
 21
151.119111
 31
0.0
 11
437.984816
 21
145.312824
 31
0.0
  0
LWPOLYLINE
  5
12d
100
AcDbEntity
  8
0
 62
5
100
AcDbPolyline
 90
2
 70
1
 10
437.984816
 20
145.312824
 30
0.0
 10
437.984816
 20
94.965760
 30
0.0
  0
SPLINE
  5
12e
100
AcDbEntity
  8
0
 62
5
100
AcDbSpline
 70
0
 71
3
 72
10
 73
6
 74
4
 40
0.000000
 40
0.000000
 40
0.000000
 40
0.000000
 40
6.013214
 40
11.834788
 40
17.847998
 40
17.847998
 40
17.847998
 40
17.847998
 10
437.984816
 20
94.965760
 30
0.0
 10
437.671356
 20
92.949824
 30
0.0
 10
437.054425
 20
88.982201
 30
0.0
 10
432.481724
 20
84.409502
 30
0.0
 10
428.514102
 20
83.792572
 30
0.0
 10
426.498168
 20
83.479112
 30
0.0
 11
437.984816
 21
94.965760
 31
0.0
 11
436.420929
 21
89.159470
 31
0.0
 11
432.304455
 21
85.042997
 31
0.0
 11
426.498168
 21
83.479112
 31
0.0
  0
LWPOLYLINE
  5
12f
100
AcDbEntity
  8
0
 62
5
100
AcDbPolyline
 90
2
 70
1
 10
426.498168
 20
83.479112
 30
0.0
 10
376.151104
 20
83.479112
 30
0.0
  0
SPLINE
  5
130
100
AcDbEntity
  8
0
 62
5
100
AcDbSpline
 70
0
 71
3
 72
10
 73
6
 74
4
 40
0.000000
 40
0.000000
 40
0.000000
 40
0.000000
 40
6.013214
 40
11.834786
 40
17.848000
 40
17.848000
 40
17.848000
 40
17.848000
 10
376.151104
 20
83.479112
 30
0.0
 10
374.135169
 20
83.792572
 30
0.0
 10
370.167546
 20
84.409501
 30
0.0
 10
365.594845
 20
88.982202
 30
0.0
 10
364.977916
 20
92.949825
 30
0.0
 10
364.664456
 20
94.965760
 30
0.0
 11
376.151104
 21
83.479112
 31
0.0
 11
370.344814
 21
85.042997
 31
0.0
 11
366.228341
 21
89.159470
 31
0.0
 11
364.664456
 21
94.965760
 31
0.0
  0
LWPOLYLINE
  5
131
100
AcDbEntity
  8
0
 62
5
100
AcDbPolyline
 90
2
 70
1
 10
364.664456
 20
94.965760
 30
0.0
 10
364.664456
 20
145.312824
 30
0.0
  0
LWPOLYLINE
  5
132
100
AcDbEntity
  8
0
 62
5
100
AcDbPolyline
 90
2
 70
1
 10
376.151104
 20
156.799472
 30
0.0
 10
376.151104
 20
156.799472
 30
0.0
  0
SPLINE
  5
133
100
AcDbEntity
  8
0
 62
5
100
AcDbSpline
 70
0
 71
3
 72
10
 73
6
 74
4
 40
0.000000
 40
0.000000
 40
0.000000
 40
0.000000
 40
6.013210
 40
11.834784
 40
17.847998
 40
17.847998
 40
17.847998
 40
17.847998
 10
364.664456
 20
145.312824
 30
0.0
 10
364.977916
 20
147.328758
 30
0.0
 10
365.594846
 20
151.296380
 30
0.0
 10
370.167545
 20
155.869081
 30
0.0
 10
374.135168
 20
156.486012
 30
0.0
 10
376.151104
 20
156.799472
 30
0.0
 11
364.664456
 21
145.312824
 31
0.0
 11
366.228341
 21
151.119111
 31
0.0
 11
370.344814
 21
155.235585
 31
0.0
 11
376.151104
 21
156.799472
 31
0.0
  0
LWPOLYLINE
  5
134
100
AcDbEntity
  8
0
 62
5
100
AcDbPolyline
 90
2
 70
1
 10
346.233408
 20
269.734160
 30
0.0
 10
406.288680
 20
269.734160
 30
0.0
  0
SPLINE
  5
135
100
AcDbEntity
  8
0
 62
5
100
AcDbSpline
 70
0
 71
3
 72
10
 73
6
 74
4
 40
0.000000
 40
0.000000
 40
0.000000
 40
0.000000
 40
7.172711
 40
14.116834
 40
21.289548
 40
21.289548
 40
21.289548
 40
21.289548
 10
406.288680
 20
269.734160
 30
0.0
 10
408.693338
 20
269.360257
 30
0.0
 10
413.426019
 20
268.624366
 30
0.0
 10
418.880453
 20
263.169934
 30
0.0
 10
419.616344
 20
258.437251
 30
0.0
 10
419.990248
 20
256.032592
 30
0.0
 11
406.288680
 21
269.734160
 31
0.0
 11
413.214567
 21
267.868718
 31
0.0
 11
418.124804
 21
262.958482
 31
0.0
 11
419.990248
 21
256.032592
 31
0.0
  0
LWPOLYLINE
  5
136
100
AcDbEntity
  8
0
 62
5
100
AcDbPolyline
 90
2
 70
1
 10
419.990248
 20
256.032592
 30
0.0
 10
419.990248
 20
195.977320
 30
0.0
  0
SPLINE
  5
137
100
AcDbEntity
  8
0
 62
5
100
AcDbSpline
 70
0
 71
3
 72
10
 73
6
 74
4
 40
0.000000
 40
0.000000
 40
0.000000
 40
0.000000
 40
7.172711
 40
14.116835
 40
21.289547
 40
21.289547
 40
21.289547
 40
21.289547
 10
419.990248
 20
195.977320
 30
0.0
 10
419.616344
 20
193.572662
 30
0.0
 10
418.880452
 20
188.839981
 30
0.0
 10
413.426019
 20
183.385548
 30
0.0
 10
408.693338
 20
182.649656
 30
0.0
 10
406.288680
 20
182.275752
 30
0.0
 11
419.990248
 21
195.977320
 31
0.0
 11
418.124804
 21
189.051433
 31
0.0
 11
413.214567
 21
184.141196
 31
0.0
 11
406.288680
 21
182.275752
 31
0.0
  0
LWPOLYLINE
  5
138
100
AcDbEntity
  8
0
 62
5
100
AcDbPolyline
 90
2
 70
1
 10
406.288680
 20
182.275752
 30
0.0
 10
346.233408
 20
182.275752
 30
0.0
  0
SPLINE
  5
139
100
AcDbEntity
  8
0
 62
5
100
AcDbSpline
 70
0
 71
3
 72
10
 73
6
 74
4
 40
0.000000
 40
0.000000
 40
0.000000
 40
0.000000
 40
7.172717
 40
14.116842
 40
21.289554
 40
21.289554
 40
21.289554
 40
21.289554
 10
346.233408
 20
182.275752
 30
0.0
 10
343.828748
 20
182.649656
 30
0.0
 10
339.096065
 20
183.385547
 30
0.0
 10
333.641628
 20
188.839980
 30
0.0
 10
332.905736
 20
193.572662
 30
0.0
 10
332.531832
 20
195.977320
 30
0.0
 11
346.233408
 21
182.275752
 31
0.0
 11
339.307516
 21
184.141196
 31
0.0
 11
334.397276
 21
189.051433
 31
0.0
 11
332.531832
 21
195.977320
 31
0.0
  0
LWPOLYLINE
  5
13a
100
AcDbEntity
  8
0
 62
5
100
AcDbPolyline
 90
2
 70
1
 10
332.531832
 20
195.977320
 30
0.0
 10
332.531832
 20
256.032592
 30
0.0
  0
LWPOLYLINE
  5
13b
100
AcDbEntity
  8
0
 62
5
100
AcDbPolyline
 90
2
 70
1
 10
346.233408
 20
269.734160
 30
0.0
 10
346.233408
 20
269.734160
 30
0.0
  0
SPLINE
  5
13c
100
AcDbEntity
  8
0
 62
5
100
AcDbSpline
 70
0
 71
3
 72
10
 73
6
 74
4
 40
0.000000
 40
0.000000
 40
0.000000
 40
0.000000
 40
7.172715
 40
14.116839
 40
21.289555
 40
21.289555
 40
21.289555
 40
21.289555
 10
332.531832
 20
256.032592
 30
0.0
 10
332.905736
 20
258.437251
 30
0.0
 10
333.641627
 20
263.169934
 30
0.0
 10
339.096065
 20
268.624367
 30
0.0
 10
343.828748
 20
269.360257
 30
0.0
 10
346.233408
 20
269.734160
 30
0.0
 11
332.531832
 21
256.032592
 31
0.0
 11
334.397276
 21
262.958482
 31
0.0
 11
339.307516
 21
267.868718
 31
0.0
 11
346.233408
 21
269.734160
 31
0.0
  0
LWPOLYLINE
  5
13d
100
AcDbEntity
  8
0
 62
5
100
AcDbPolyline
 90
2
 70
1
 10
475.401488
 20
239.012608
 30
0.0
 10
547.208784
 20
239.012608
 30
0.0
  0
SPLINE
  5
13e
100
AcDbEntity
  8
0
 62
5
100
AcDbSpline
 70
0
 71
3
 72
10
 73
6
 74
4
 40
0.000000
 40
0.000000
 40
0.000000
 40
0.000000
 40
8.576325
 40
16.879324
 40
25.455645
 40
25.455645
 40
25.455645
 40
25.455645
 10
547.208784
 20
239.012608
 30
0.0
 10
550.084005
 20
238.565536
 30
0.0
 10
555.742814
 20
237.685641
 30
0.0
 10
562.264610
 20
231.163843
 30
0.0
 10
563.144505
 20
225.505035
 30
0.0
 10
563.591576
 20
222.629816
 30
0.0
 11
547.208784
 21
239.012608
 31
0.0
 11
555.489984
 21
236.782121
 31
0.0
 11
561.361090
 21
230.911013
 31
0.0
 11
563.591576
 21
222.629816
 31
0.0
  0
LWPOLYLINE
  5
13f
100
AcDbEntity
  8
0
 62
5
100
AcDbPolyline
 90
2
 70
1
 10
563.591576
 20
222.629816
 30
0.0
 10
563.591576
 20
150.822520
 30
0.0
  0
SPLINE
  5
140
100
AcDbEntity
  8
0
 62
5
100
AcDbSpline
 70
0
 71
3
 72
10
 73
6
 74
4
 40
0.000000
 40
0.000000
 40
0.000000
 40
0.000000
 40
8.576321
 40
16.879320
 40
25.455645
 40
25.455645
 40
25.455645
 40
25.455645
 10
563.591576
 20
150.822520
 30
0.0
 10
563.144505
 20
147.947301
 30
0.0
 10
562.264610
 20
142.288493
 30
0.0
 10
555.742814
 20
135.766695
 30
0.0
 10
550.084005
 20
134.886800
 30
0.0
 10
547.208784
 20
134.439728
 30
0.0
 11
563.591576
 21
150.822520
 31
0.0
 11
561.361090
 21
142.541323
 31
0.0
 11
555.489984
 21
136.670215
 31
0.0
 11
547.208784
 21
134.439728
 31
0.0
  0
LWPOLYLINE
  5
141
100
AcDbEntity
  8
0
 62
5
100
AcDbPolyline
 90
2
 70
1
 10
547.208784
 20
134.439728
 30
0.0
 10
475.401488
 20
134.439728
 30
0.0
  0
SPLINE
  5
142
100
AcDbEntity
  8
0
 62
5
100
AcDbSpline
 70
0
 71
3
 72
10
 73
6
 74
4
 40
0.000000
 40
0.000000
 40
0.000000
 40
0.000000
 40
8.576320
 40
16.879317
 40
25.455638
 40
25.455638
 40
25.455638
 40
25.455638
 10
475.401488
 20
134.439728
 30
0.0
 10
472.526269
 20
134.886800
 30
0.0
 10
466.867463
 20
135.766696
 30
0.0
 10
460.345670
 20
142.288494
 30
0.0
 10
459.465775
 20
147.947301
 30
0.0
 10
459.018704
 20
150.822520
 30
0.0
 11
475.401488
 21
134.439728
 31
0.0
 11
467.120293
 21
136.670215
 31
0.0
 11
461.249189
 21
142.541323
 31
0.0
 11
459.018704
 21
150.822520
 31
0.0
  0
LWPOLYLINE
  5
143
100
AcDbEntity
  8
0
 62
5
100
AcDbPolyline
 90
2
 70
1
 10
459.018704
 20
150.822520
 30
0.0
 10
459.018704
 20
222.629816
 30
0.0
  0
LWPOLYLINE
  5
144
100
AcDbEntity
  8
0
 62
5
100
AcDbPolyline
 90
2
 70
1
 10
475.401488
 20
239.012608
 30
0.0
 10
475.401488
 20
239.012608
 30
0.0
  0
LWPOLYLINE
  5
145
100
AcDbEntity
  8
0
 62
5
100
AcDbPolyline
 90
7
 70
1
 10
699.852376
 20
200.558128
 30
0.0
 10
657.937296
 20
189.327016
 30
0.0
 10
627.253328
 20
220.010984
 30
0.0
 10
638.484440
 20
261.926064
 30
0.0
 10
680.399520
 20
273.157176
 30
0.0
 10
711.083488
 20
242.473208
 30
0.0
 10
699.852376
 20
200.558128
 30
0.0
  0
LWPOLYLINE
  5
146
100
AcDbEntity
  8
0
 62
5
100
AcDbPolyline
 90
7
 70
1
 10
827.400720
 20
147.452352
 30
0.0
 10
763.531528
 20
130.338656
 30
0.0
 10
716.776056
 20
177.094128
 30
0.0
 10
733.889744
 20
240.963296
 30
0.0
 10
797.758904
 20
258.076984
 30
0.0
 10
844.514400
 20
211.321512
 30
0.0
 10
827.400720
 20
147.452352
 30
0.0
  0
LWPOLYLINE
  5
147
100
AcDbEntity
  8
0
 62
5
100
AcDbPolyline
 90
7
 70
1
 10
726.590424
 20
66.084048
 30
0.0
 10
675.744872
 20
52.460024
 30
0.0
 10
638.523344
 20
89.681552
 30
0.0
 10
652.147368
 20
140.527104
 30
0.0
 10
702.992920
 20
154.151128
 30
0.0
 10
740.214448
 20
116.929600
 30
0.0
 10
726.590424
 20
66.084048
 30
0.0
  0
LWPOLYLINE
  5
148
100
AcDbEntity
  8
0
 62
5
100
AcDbPolyline
 90
7
 70
1
 10
686.946496
 20
553.337070
 30
0.0
 10
698.177608
 20
511.421992
 30
0.0
 10
667.493648
 20
480.738024
 30
0.0
 10
625.578568
 20
491.969136
 30
0.0
 10
614.347456
 20
533.884212
 30
0.0
 10
645.031416
 20
564.568183
 30
0.0
 10
686.946496
 20
553.337070
 30
0.0
  0
LWPOLYLINE
  5
149
100
AcDbEntity
  8
0
 62
5
100
AcDbPolyline
 90
7
 70
1
 10
750.152464
 20
440.349864
 30
0.0
 10
767.266160
 20
376.480720
 30
0.0
 10
720.510688
 20
329.725256
 30
0.0
 10
656.641520
 20
346.838936
 30
0.0
 10
639.527832
 20
410.708104
 30
0.0
 10
686.283304
 20
457.463560
 30
0.0
 10
750.152464
 20
440.349864
 30
0.0
  0
LWPOLYLINE
  5
14a
100
AcDbEntity
  8
0
 62
5
100
AcDbPolyline
 90
7
 70
1
 10
830.398560
 20
528.451670
 30
0.0
 10
844.022560
 20
477.606112
 30
0.0
 10
806.801040
 20
440.384584
 30
0.0
 10
755.955504
 20
454.008608
 30
0.0
 10
742.331480
 20
504.854160
 30
0.0
 10
779.553008
 20
542.075690
 30
0.0
 10
830.398560
 20
528.451670
 30
0.0
  0
LWPOLYLINE
  5
14b
100
AcDbEntity
  8
0
 62
5
100
AcDbPolyline
 90
5
 70
1
 10
153.611312
 20
482.960568
 30
0.0
 10
161.855384
 20
482.960568
 30
0.0
 10
161.855384
 20
454.873968
 30
0.0
 10
153.611312
 20
454.873968
 30
0.0
 10
153.611312
 20
482.960568
 30
0.0
  0
SPLINE
  5
14c
100
AcDbEntity
  8
0
 62
5
100
AcDbSpline
 70
0
 71
3
 72
10
 73
6
 74
4
 40
0.000000
 40
0.000000
 40
0.000000
 40
0.000000
 40
8.576321
 40
16.879319
 40
25.455638
 40
25.455638
 40
25.455638
 40
25.455638
 10
459.018704
 20
222.629816
 30
0.0
 10
459.465775
 20
225.505035
 30
0.0
 10
460.345670
 20
231.163842
 30
0.0
 10
466.867463
 20
237.685640
 30
0.0
 10
472.526269
 20
238.565536
 30
0.0
 10
475.401488
 20
239.012608
 30
0.0
 11
459.018704
 21
222.629816
 31
0.0
 11
461.249189
 21
230.911013
 31
0.0
 11
467.120293
 21
236.782121
 31
0.0
 11
475.401488
 21
239.012608
 31
0.0
  0
LWPOLYLINE
  5
14d
100
AcDbEntity
  8
0
 62
5
100
AcDbPolyline
 90
5
 70
1
 10
441.344432
 20
483.202488
 30
0.0
 10
449.588504
 20
483.202488
 30
0.0
 10
449.588504
 20
455.115880
 30
0.0
 10
441.344432
 20
455.115880
 30
0.0
 10
441.344432
 20
483.202488
 30
0.0
  0
LWPOLYLINE
  5
14e
100
AcDbEntity
  8
0
 62
5
100
AcDbPolyline
 90
2
 70
1
 10
453.209736
 20
521.727063
 30
0.0
 10
453.209736
 20
521.727063
 30
0.0
  0
LWPOLYLINE
  5
14f
100
AcDbEntity
  8
0
 62
5
100
AcDbPolyline
 90
14
 70
1
 10
-7.377048
 20
295.211758
 30
0.0
 10
-7.377048
 20
303.478942
 30
0.0
 10
5.794832
 20
303.478942
 30
0.0
 10
5.794832
 20
574.410201
 30
0.0
 10
-7.377048
 20
574.410201
 30
0.0
 10
-7.377048
 20
583.346137
 30
0.0
 10
-35.148920
 20
583.346137
 30
0.0
 10
-35.148920
 20
574.410201
 30
0.0
 10
-47.164552
 20
574.410201
 30
0.0
 10
-47.164552
 20
303.478942
 30
0.0
 10
-35.148920
 20
303.478942
 30
0.0
 10
-35.148920
 20
295.211758
 30
0.0
 10
-7.377048
 20
295.211758
 30
0.0
 10
-7.377048
 20
295.211758
 30
0.0
  0
SPLINE
  5
150
100
AcDbEntity
  8
0
 62
5
100
AcDbSpline
 70
0
 71
3
 72
25
 73
21
 74
19
 40
0.000000
 40
0.000000
 40
0.000000
 40
0.000000
 40
30.821068
 40
61.497162
 40
93.884195
 40
110.144267
 40
126.156087
 40
142.101161
 40
157.810719
 40
173.185994
 40
188.569285
 40
203.952576
 40
219.327850
 40
235.037407
 40
250.982481
 40
266.994300
 40
283.254371
 40
315.641403
 40
346.317496
 40
377.138563
 40
377.138563
 40
377.138563
 40
377.138563
 10
453.209736
 20
521.727064
 30
0.0
 10
454.962830
 20
532.119885
 30
0.0
 10
458.460771
 20
552.856643
 30
0.0
 10
483.426878
 20
575.097646
 30
0.0
 10
509.999842
 20
581.790755
 30
0.0
 10
531.600094
 20
579.089166
 30
0.0
 10
546.733062
 20
573.197495
 30
0.0
 10
559.764114
 20
563.799633
 30
0.0
 10
569.788986
 20
551.505945
 30
0.0
 10
576.110386
 20
537.156300
 30
0.0
 10
578.277076
 20
521.727064
 30
0.0
 10
576.110385
 20
506.297829
 30
0.0
 10
569.788985
 20
491.948185
 30
0.0
 10
559.764112
 20
479.654497
 30
0.0
 10
546.733061
 20
470.256636
 30
0.0
 10
531.600094
 20
464.364965
 30
0.0
 10
509.999842
 20
461.663377
 30
0.0
 10
483.426880
 20
468.356484
 30
0.0
 10
458.460773
 20
490.597486
 30
0.0
 10
454.962830
 20
511.334242
 30
0.0
 10
453.209736
 20
521.727063
 30
0.0
 11
453.209736
 21
521.727064
 31
0.0
 11
461.698103
 21
551.356203
 31
0.0
 11
484.002579
 21
572.416428
 31
0.0
 11
515.382224
 21
580.431275
 31
0.0
 11
531.517430
 21
578.420039
 31
0.0
 11
546.429321
 21
572.587899
 31
0.0
 11
559.344817
 21
563.237211
 31
0.0
 11
569.247950
 21
551.042205
 31
0.0
 11
575.424657
 21
536.962171
 31
0.0
 11
577.554720
 21
521.727064
 31
0.0
 11
575.424657
 21
506.491958
 31
0.0
 11
569.247949
 21
492.411925
 31
0.0
 11
559.344816
 21
480.216919
 31
0.0
 11
546.429320
 21
470.866232
 31
0.0
 11
531.517430
 21
465.034092
 31
0.0
 11
515.382224
 21
463.022856
 31
0.0
 11
484.002580
 21
471.037702
 31
0.0
 11
461.698104
 21
492.097926
 31
0.0
 11
453.209736
 21
521.727063
 31
0.0
  0
LWPOLYLINE
  5
151
100
AcDbEntity
  8
0
 62
3
100
AcDbPolyline
 90
3
 70
1
 10
-41.400392
 20
332.698550
 30
0.0
 10
-41.384872
 20
330.927118
 30
0.0
 10
-27.666936
 20
331.303110
 30
0.0
  0
SPLINE
  5
152
100
AcDbEntity
  8
0
 62
3
100
AcDbSpline
 70
0
 71
3
 72
10
 73
6
 74
4
 40
0.000000
 40
0.000000
 40
0.000000
 40
0.000000
 40
0.362121
 40
0.720112
 40
1.075542
 40
1.075542
 40
1.075542
 40
1.075542
 10
-27.666936
 20
331.303110
 30
0.0
 10
-27.659217
 20
331.182632
 30
0.0
 10
-27.643866
 20
330.943051
 30
0.0
 10
-27.598470
 20
330.587092
 30
0.0
 10
-27.553618
 20
330.353518
 30
0.0
 10
-27.531272
 20
330.237150
 30
0.0
 11
-27.666936
 21
331.303110
 31
0.0
 11
-27.639974
 21
330.941994
 31
0.0
 11
-27.594650
 21
330.586884
 31
0.0
 11
-27.531272
 21
330.237150
 31
0.0
  0
LWPOLYLINE
  5
153
100
AcDbEntity
  8
0
 62
3
100
AcDbPolyline
 90
4
 70
1
 10
-27.531272
 20
330.237150
 30
0.0
 10
-34.078200
 20
328.768070
 30
0.0
 10
-33.830120
 20
327.632334
 30
0.0
 10
-27.345208
 20
329.543310
 30
0.0
  0
SPLINE
  5
154
100
AcDbEntity
  8
0
 62
3
100
AcDbSpline
 70
0
 71
3
 72
10
 73
6
 74
4
 40
0.000000
 40
0.000000
 40
0.000000
 40
0.000000
 40
0.368244
 40
0.734709
 40
1.099524
 40
1.099524
 40
1.099524
 40
1.099524
 10
-27.345208
 20
329.543310
 30
0.0
 10
-27.305811
 20
329.427036
 30
0.0
 10
-27.227208
 20
329.195050
 30
0.0
 10
-27.087351
 20
328.855894
 30
0.0
 10
-26.980087
 20
328.636961
 30
0.0
 10
-26.926576
 20
328.527742
 30
0.0
 11
-27.345208
 21
329.543310
 31
0.0
 11
-27.223287
 21
329.195835
 31
0.0
 11
-27.083564
 21
328.857051
 31
0.0
 11
-26.926576
 21
328.527742
 31
0.0
  0
LWPOLYLINE
  5
155
100
AcDbEntity
  8
0
 62
3
100
AcDbPolyline
 90
4
 70
1
 10
-26.926576
 20
328.527742
 30
0.0
 10
-38.923472
 20
322.205630
 30
0.0
 10
-38.113344
 20
320.841198
 30
0.0
 10
-26.600976
 20
327.957934
 30
0.0
  0
SPLINE
  5
156
100
AcDbEntity
  8
0
 62
3
100
AcDbSpline
 70
0
 71
3
 72
10
 73
6
 74
4
 40
0.000000
 40
0.000000
 40
0.000000
 40
0.000000
 40
0.411218
 40
0.821070
 40
1.231130
 40
1.231130
 40
1.231130
 40
1.231130
 10
-26.600976
 20
327.957934
 30
0.0
 10
-26.525184
 20
327.843686
 30
0.0
 10
-26.373853
 20
327.615570
 30
0.0
 10
-26.122226
 20
327.290773
 30
0.0
 10
-25.940085
 20
327.086945
 30
0.0
 10
-25.848992
 20
326.985006
 30
0.0
 11
-26.600976
 21
327.957934
 31
0.0
 11
-26.369466
 21
327.618075
 31
0.0
 11
-26.118630
 21
327.293947
 31
0.0
 11
-25.848992
 21
326.985006
 31
0.0
  0
LWPOLYLINE
  5
157
100
AcDbEntity
  8
0
 62
3
100
AcDbPolyline
 90
4
 70
1
 10
-25.848992
 20
326.985006
 30
0.0
 10
-30.795048
 20
322.465334
 30
0.0
 10
-30.085696
 20
321.829630
 30
0.0
 10
-25.445864
 20
326.578006
 30
0.0
  0
SPLINE
  5
158
100
AcDbEntity
  8
0
 62
3
100
AcDbSpline
 70
0
 71
3
 72
10
 73
6
 74
4
 40
0.000000
 40
0.000000
 40
0.000000
 40
0.000000
 40
0.374696
 40
0.750286
 40
1.126073
 40
1.126073
 40
1.126073
 40
1.126073
 10
-25.445864
 20
326.578006
 30
0.0
 10
-25.352174
 20
326.495371
 30
0.0
 10
-25.164570
 20
326.329904
 30
0.0
 10
-24.866042
 20
326.101754
 30
0.0
 10
-24.658256
 20
325.961870
 30
0.0
 10
-24.554336
 20
325.891910
 30
0.0
 11
-25.445864
 21
326.578006
 31
0.0
 11
-25.161975
 21
326.333457
 31
0.0
 11
-24.863948
 21
326.104880
 31
0.0
 11
-24.554336
 21
325.891910
 31
0.0
  0
LWPOLYLINE
  5
159
100
AcDbEntity
  8
0
 62
3
100
AcDbPolyline
 90
4
 70
1
 10
-24.554336
 20
325.891910
 30
0.0
 10
-31.775728
 20
314.410550
 30
0.0
 10
-30.360904
 20
313.495766
 30
0.0
 10
-23.949640
 20
325.535302
 30
0.0
  0
SPLINE
  5
15a
100
AcDbEntity
  8
0
 62
3
100
AcDbSpline
 70
0
 71
3
 72
10
 73
6
 74
4
 40
0.000000
 40
0.000000
 40
0.000000
 40
0.000000
 40
0.330169
 40
0.661383
 40
0.994305
 40
0.994305
 40
0.994305
 40
0.994305
 10
-23.949640
 20
325.535302
 30
0.0
 10
-23.851017
 20
325.486419
 30
0.0
 10
-23.653457
 20
325.388500
 30
0.0
 10
-23.347840
 20
325.259579
 30
0.0
 10
-23.139363
 20
325.185042
 30
0.0
 10
-23.034856
 20
325.147678
 30
0.0
 11
-23.949640
 21
325.535302
 31
0.0
 11
-23.652342
 21
325.391686
 31
0.0
 11
-23.347284
 21
325.262679
 31
0.0
 11
-23.034856
 21
325.147678
 31
0.0
  0
LWPOLYLINE
  5
15b
100
AcDbEntity
  8
0
 62
3
100
AcDbPolyline
 90
4
 70
1
 10
-23.034856
 20
325.147678
 30
0.0
 10
-24.918696
 20
318.705398
 30
0.0
 10
-23.775208
 20
318.375926
 30
0.0
 10
-22.286744
 20
324.938366
 30
0.0
  0
SPLINE
  5
15c
100
AcDbEntity
  8
0
 62
3
100
AcDbSpline
 70
0
 71
3
 72
10
 73
6
 74
4
 40
0.000000
 40
0.000000
 40
0.000000
 40
0.000000
 40
0.313695
 40
0.629756
 40
0.948479
 40
0.948479
 40
0.948479
 40
0.948479
 10
-22.286744
 20
324.938366
 30
0.0
 10
-22.184256
 20
324.917551
 30
0.0
 10
-21.978506
 20
324.875763
 30
0.0
 10
-21.665275
 20
324.831215
 30
0.0
 10
-21.454517
 20
324.812227
 30
0.0
 10
-21.348696
 20
324.802694
 30
0.0
 11
-22.286744
 21
324.938366
 31
0.0
 11
-21.978727
 21
324.878950
 31
0.0
 11
-21.665876
 21
324.834024
 31
0.0
 11
-21.348696
 21
324.802694
 31
0.0
  0
LWPOLYLINE
  5
15d
100
AcDbEntity
  8
0
 62
3
100
AcDbPolyline
 90
4
 70
1
 10
-21.348696
 20
324.802694
 30
0.0
 10
-21.546384
 20
311.162278
 30
0.0
 10
-19.926128
 20
311.057622
 30
0.0
 10
-20.329256
 20
324.798814
 30
0.0
  0
SPLINE
  5
15e
100
AcDbEntity
  8
0
 62
3
100
AcDbSpline
 70
0
 71
3
 72
10
 73
6
 74
4
 40
0.000000
 40
0.000000
 40
0.000000
 40
0.000000
 40
0.337099
 40
0.671414
 40
1.002867
 40
1.002867
 40
1.002867
 40
1.002867
 10
-20.329256
 20
324.798814
 30
0.0
 10
-20.217262
 20
324.808089
 30
0.0
 10
-19.994200
 20
324.826564
 30
0.0
 10
-19.662821
 20
324.872539
 30
0.0
 10
-19.445258
 20
324.916486
 30
0.0
 10
-19.336944
 20
324.938366
 30
0.0
 11
-20.329256
 21
324.798814
 31
0.0
 11
-19.993579
 21
324.829742
 31
0.0
 11
-19.662487
 21
324.876056
 31
0.0
 11
-19.336944
 21
324.938366
 31
0.0
  0
LWPOLYLINE
  5
15f
100
AcDbEntity
  8
0
 62
3
100
AcDbPolyline
 90
4
 70
1
 10
-19.336944
 20
324.938366
 30
0.0
 10
-18.003520
 20
318.360422
 30
0.0
 10
-16.728248
 20
318.647262
 30
0.0
 10
-18.697368
 20
325.108918
 30
0.0
  0
SPLINE
  5
160
100
AcDbEntity
  8
0
 62
3
100
AcDbSpline
 70
0
 71
3
 72
10
 73
6
 74
4
 40
0.000000
 40
0.000000
 40
0.000000
 40
0.000000
 40
0.406833
 40
0.811062
 40
1.213812
 40
1.213812
 40
1.213812
 40
1.213812
 10
-18.697368
 20
325.108918
 30
0.0
 10
-18.569042
 20
325.152841
 30
0.0
 10
-18.313210
 20
325.240407
 30
0.0
 10
-17.940158
 20
325.398274
 30
0.0
 10
-17.700584
 20
325.520708
 30
0.0
 10
-17.581016
 20
325.581814
 30
0.0
 11
-18.697368
 21
325.108918
 31
0.0
 11
-18.314039
 21
325.245197
 31
0.0
 11
-17.941822
 21
325.402852
 31
0.0
 11
-17.581016
 21
325.581814
 31
0.0
  0
LWPOLYLINE
  5
161
100
AcDbEntity
  8
0
 62
3
100
AcDbPolyline
 90
4
 70
1
 10
-17.581016
 20
325.581814
 30
0.0
 10
-11.421704
 20
313.394982
 30
0.0
 10
-9.913856
 20
314.441558
 30
0.0
 10
-17.022840
 20
325.919046
 30
0.0
  0
SPLINE
  5
162
100
AcDbEntity
  8
0
 62
3
100
AcDbSpline
 70
0
 71
3
 72
10
 73
6
 74
4
 40
0.000000
 40
0.000000
 40
0.000000
 40
0.000000
 40
0.334963
 40
0.669894
 40
1.004033
 40
1.004033
 40
1.004033
 40
1.004033
 10
-17.022840
 20
325.919046
 30
0.0
 10
-16.930635
 20
325.982034
 30
0.0
 10
-16.746233
 20
326.108004
 30
0.0
 10
-16.480665
 20
326.312107
 30
0.0
 10
-16.312299
 20
326.458417
 30
0.0
 10
-16.228216
 20
326.531486
 30
0.0
 11
-17.022840
 21
325.919046
 31
0.0
 11
-16.748028
 21
326.110562
 31
0.0
 11
-16.482612
 21
326.314849
 31
0.0
 11
-16.228216
 21
326.531486
 31
0.0
  0
LWPOLYLINE
  5
163
100
AcDbEntity
  8
0
 62
3
100
AcDbPolyline
 90
4
 70
1
 10
-16.228216
 20
326.531486
 30
0.0
 10
-11.739552
 20
321.651326
 30
0.0
 10
-10.929424
 20
322.496342
 30
0.0
 10
-15.797952
 20
326.953998
 30
0.0
  0
SPLINE
  5
164
100
AcDbEntity
  8
0
 62
3
100
AcDbSpline
 70
0
 71
3
 72
10
 73
6
 74
4
 40
0.000000
 40
0.000000
 40
0.000000
 40
0.000000
 40
0.396533
 40
0.793368
 40
1.190886
 40
1.190886
 40
1.190886
 40
1.190886
 10
-15.797952
 20
326.953998
 30
0.0
 10
-15.709204
 20
327.051977
 30
0.0
 10
-15.531639
 20
327.248010
 30
0.0
 10
-15.285096
 20
327.559689
 30
0.0
 10
-15.136056
 20
327.778611
 30
0.0
 10
-15.061472
 20
327.888166
 30
0.0
 11
-15.797952
 21
326.953998
 31
0.0
 11
-15.535034
 21
327.250835
 31
0.0
 11
-15.289083
 21
327.562262
 31
0.0
 11
-15.061472
 21
327.888166
 31
0.0
  0
LWPOLYLINE
  5
165
100
AcDbEntity
  8
0
 62
3
100
AcDbPolyline
 90
4
 70
1
 10
-15.061472
 20
327.888166
 30
0.0
 10
-3.618872
 20
320.709406
 30
0.0
 10
-2.707960
 20
322.131982
 30
0.0
 10
-14.759128
 20
328.399822
 30
0.0
  0
SPLINE
  5
166
100
AcDbEntity
  8
0
 62
3
100
AcDbSpline
 70
0
 71
3
 72
10
 73
6
 74
4
 40
0.000000
 40
0.000000
 40
0.000000
 40
0.000000
 40
0.420401
 40
0.843116
 40
1.267960
 40
1.267960
 40
1.267960
 40
1.267960
 10
-14.759128
 20
328.399822
 30
0.0
 10
-14.695180
 20
328.524547
 30
0.0
 10
-14.566933
 20
328.774684
 30
0.0
 10
-14.402471
 20
329.164611
 30
0.0
 10
-14.312131
 20
329.432356
 30
0.0
 10
-14.266848
 20
329.566566
 30
0.0
 11
-14.759128
 21
328.399822
 31
0.0
 11
-14.571982
 21
328.776270
 31
0.0
 11
-14.407621
 21
329.165723
 31
0.0
 11
-14.266848
 21
329.566566
 31
0.0
  0
LWPOLYLINE
  5
167
100
AcDbEntity
  8
0
 62
3
100
AcDbPolyline
 90
4
 70
1
 10
-14.266848
 20
329.566566
 30
0.0
 10
-7.960240
 20
327.620702
 30
0.0
 10
-7.758672
 20
328.779694
 30
0.0
 10
-14.123424
 20
330.089854
 30
0.0
  0
SPLINE
  5
168
100
AcDbEntity
  8
0
 62
3
100
AcDbSpline
 70
0
 71
3
 72
10
 73
6
 74
4
 40
0.000000
 40
0.000000
 40
0.000000
 40
0.000000
 40
0.392427
 40
0.787937
 40
1.188146
 40
1.188146
 40
1.188146
 40
1.188146
 10
-14.123424
 20
330.089854
 30
0.0
 10
-14.095853
 20
330.217740
 30
0.0
 10
-14.040496
 20
330.474518
 30
0.0
 10
-13.982053
 20
330.866680
 30
0.0
 10
-13.962637
 20
331.131272
 30
0.0
 10
-13.952872
 20
331.264350
 30
0.0
 11
-14.123424
 21
330.089854
 31
0.0
 11
-14.044830
 21
330.474329
 31
0.0
 11
-13.987157
 21
330.865612
 31
0.0
 11
-13.952872
 21
331.264350
 31
0.0
  0
LWPOLYLINE
  5
169
100
AcDbEntity
  8
0
 62
3
100
AcDbPolyline
 90
4
 70
1
 10
-13.952872
 20
331.264350
 30
0.0
 10
-0.351224
 20
330.884486
 30
0.0
 10
-0.393864
 20
332.714054
 30
0.0
 10
-13.964504
 20
332.144254
 30
0.0
  0
SPLINE
  5
16a
100
AcDbEntity
  8
0
 62
3
100
AcDbSpline
 70
0
 71
3
 72
10
 73
6
 74
4
 40
0.000000
 40
0.000000
 40
0.000000
 40
0.000000
 40
0.340305
 40
0.677034
 40
1.011678
 40
1.011678
 40
1.011678
 40
1.011678
 10
-13.964504
 20
332.144254
 30
0.0
 10
-13.974349
 20
332.257276
 30
0.0
 10
-13.993935
 20
332.482134
 30
0.0
 10
-14.043343
 20
332.815998
 30
0.0
 10
-14.089028
 20
333.035105
 30
0.0
 10
-14.111800
 20
333.144318
 30
0.0
 11
-13.964504
 21
332.144254
 31
0.0
 11
-13.997444
 21
332.482961
 31
0.0
 11
-14.046689
 21
332.816069
 31
0.0
 11
-14.111800
 21
333.144318
 31
0.0
  0
LWPOLYLINE
  5
16b
100
AcDbEntity
  8
0
 62
3
100
AcDbPolyline
 90
4
 70
1
 10
-14.111800
 20
333.144318
 30
0.0
 10
-7.700528
 20
334.221910
 30
0.0
 10
-7.739328
 20
335.818910
 30
0.0
 10
-14.286264
 20
333.776142
 30
0.0
  0
SPLINE
  5
16c
100
AcDbEntity
  8
0
 62
3
100
AcDbSpline
 70
0
 71
3
 72
10
 73
6
 74
4
 40
0.000000
 40
0.000000
 40
0.000000
 40
0.000000
 40
0.273241
 40
0.545464
 40
0.816693
 40
0.816693
 40
0.816693
 40
0.816693
 10
-14.286264
 20
333.776142
 30
0.0
 10
-14.315537
 20
333.862396
 30
0.0
 10
-14.373975
 20
334.034584
 30
0.0
 10
-14.473246
 20
334.288225
 30
0.0
 10
-14.547613
 20
334.453428
 30
0.0
 10
-14.584728
 20
334.535878
 30
0.0
 11
-14.286264
 21
333.776142
 31
0.0
 11
-14.376058
 21
334.034207
 31
0.0
 11
-14.475452
 21
334.287636
 31
0.0
 11
-14.584728
 21
334.535878
 31
0.0
  0
SPLINE
  5
16d
100
AcDbEntity
  8
0
 62
3
100
AcDbSpline
 70
0
 71
3
 72
10
 73
6
 74
4
 40
0.000000
 40
0.000000
 40
0.000000
 40
0.000000
 40
0.352831
 40
0.704898
 40
1.056882
 40
1.056882
 40
1.056882
 40
1.056882
 10
-15.049848
 20
335.377022
 30
0.0
 10
-15.115564
 20
335.474584
 30
0.0
 10
-15.246855
 20
335.669496
 30
0.0
 10
-15.462302
 20
335.948622
 30
0.0
 10
-15.616309
 20
336.125738
 30
0.0
 10
-15.693304
 20
336.214286
 30
0.0
 11
-15.049848
 21
335.377022
 31
0.0
 11
-15.250105
 21
335.667516
 31
0.0
 11
-15.464941
 21
335.946437
 31
0.0
 11
-15.693304
 21
336.214286
 31
0.0
  0
LWPOLYLINE
  5
16e
100
AcDbEntity
  8
0
 62
3
100
AcDbPolyline
 90
5
 70
1
 10
-14.584728
 20
334.535878
 30
0.0
 10
-14.604088
 20
334.628910
 30
0.0
 10
-2.564552
 20
341.044054
 30
0.0
 10
-3.533608
 20
342.656558
 30
0.0
 10
-15.049848
 20
335.377022
 30
0.0
  0
SPLINE
  5
16f
100
AcDbEntity
  8
0
 62
3
100
AcDbSpline
 70
0
 71
3
 72
13
 73
9
 74
7
 40
0.000000
 40
0.000000
 40
0.000000
 40
0.000000
 40
0.035625
 40
0.074132
 40
0.116053
 40
2.100953
 40
5.257741
 40
6.905749
 40
6.905749
 40
6.905749
 40
6.905749
 10
-15.693304
 20
336.214286
 30
0.0
 10
-15.687120
 20
336.224452
 30
0.0
 10
-15.674251
 20
336.245606
 30
0.0
 10
-15.647610
 20
336.274040
 30
0.0
 10
-15.110153
 20
336.704547
 30
0.0
 10
-13.835997
 20
337.873538
 30
0.0
 10
-12.142310
 20
339.373944
 30
0.0
 10
-10.953462
 20
340.447229
 30
0.0
 10
-10.545696
 20
340.815358
 30
0.0
 11
-15.693304
 21
336.214286
 31
0.0
 11
-15.673793
 21
336.244093
 31
0.0
 11
-15.647828
 21
336.272529
 31
0.0
 11
-15.615784
 21
336.299558
 31
0.0
 11
-14.121260
 21
337.605784
 31
0.0
 11
-11.770135
 21
339.712326
 31
0.0
 11
-10.545696
 21
340.815358
 31
0.0
  0
LWPOLYLINE
  5
170
100
AcDbEntity
  8
0
 62
3
100
AcDbPolyline
 90
3
 70
1
 10
-10.545696
 20
340.815358
 30
0.0
 10
-11.677552
 20
341.741774
 30
0.0
 10
-16.263112
 20
336.784086
 30
0.0
  0
SPLINE
  5
171
100
AcDbEntity
  8
0
 62
3
100
AcDbSpline
 70
0
 71
3
 72
10
 73
6
 74
4
 40
0.000000
 40
0.000000
 40
0.000000
 40
0.000000
 40
0.349319
 40
0.699516
 40
1.049805
 40
1.049805
 40
1.049805
 40
1.049805
 10
-16.263112
 20
336.784086
 30
0.0
 10
-16.351586
 20
336.859815
 30
0.0
 10
-16.528756
 20
337.011464
 30
0.0
 10
-16.808623
 20
337.222029
 30
0.0
 10
-17.003117
 20
337.351277
 30
0.0
 10
-17.100376
 20
337.415910
 30
0.0
 11
-16.263112
 21
336.784086
 31
0.0
 11
-16.530856
 21
337.008445
 31
0.0
 11
-16.810536
 21
337.219198
 31
0.0
 11
-17.100376
 21
337.415910
 31
0.0
  0
LWPOLYLINE
  5
172
100
AcDbEntity
  8
0
 62
3
100
AcDbPolyline
 90
4
 70
1
 10
-17.100376
 20
337.415910
 30
0.0
 10
-9.824720
 20
348.676326
 30
0.0
 10
-11.375200
 20
349.707398
 30
0.0
 10
-17.809728
 20
337.819038
 30
0.0
  0
SPLINE
  5
173
100
AcDbEntity
  8
0
 62
3
100
AcDbSpline
 70
0
 71
3
 72
10
 73
6
 74
4
 40
0.000000
 40
0.000000
 40
0.000000
 40
0.000000
 40
0.306847
 40
0.614764
 40
0.924126
 40
0.924126
 40
0.924126
 40
0.924126
 10
-17.809728
 20
337.819038
 30
0.0
 10
-17.902362
 20
337.862437
 30
0.0
 10
-18.087952
 20
337.949386
 30
0.0
 10
-18.374094
 20
338.064025
 30
0.0
 10
-18.568791
 20
338.130638
 30
0.0
 10
-18.666368
 20
338.164022
 30
0.0
 11
-17.809728
 21
337.819038
 31
0.0
 11
-18.088815
 21
337.946572
 31
0.0
 11
-18.374534
 21
338.061367
 31
0.0
 11
-18.666368
 21
338.164022
 31
0.0
  0
LWPOLYLINE
  5
174
100
AcDbEntity
  8
0
 62
3
100
AcDbPolyline
 90
4
 70
1
 10
-18.666368
 20
338.164022
 30
0.0
 10
-16.685624
 20
344.482262
 30
0.0
 10
-17.972528
 20
344.831118
 30
0.0
 10
-19.488128
 20
338.377214
 30
0.0
  0
SPLINE
  5
175
100
AcDbEntity
  8
0
 62
3
100
AcDbSpline
 70
0
 71
3
 72
10
 73
6
 74
4
 40
0.000000
 40
0.000000
 40
0.000000
 40
0.000000
 40
0.293572
 40
0.589506
 40
0.887602
 40
0.887602
 40
0.887602
 40
0.887602
 10
-19.488128
 20
338.377214
 30
0.0
 10
-19.584428
 20
338.394663
 30
0.0
 10
-19.777802
 20
338.429703
 30
0.0
 10
-20.071489
 20
338.467034
 30
0.0
 10
-20.268945
 20
338.482074
 30
0.0
 10
-20.368032
 20
338.489622
 30
0.0
 11
-19.488128
 21
338.377214
 31
0.0
 11
-19.777444
 21
338.427021
 31
0.0
 11
-20.070999
 21
338.464475
 31
0.0
 11
-20.368032
 21
338.489622
 31
0.0
  0
LWPOLYLINE
  5
176
100
AcDbEntity
  8
0
 62
3
100
AcDbPolyline
 90
4
 70
1
 10
-20.368032
 20
338.489622
 30
0.0
 10
-19.883504
 20
351.870334
 30
0.0
 10
-21.817736
 20
351.901374
 30
0.0
 10
-21.406856
 20
338.478030
 30
0.0
  0
SPLINE
  5
177
100
AcDbEntity
  8
0
 62
3
100
AcDbSpline
 70
0
 71
3
 72
10
 73
6
 74
4
 40
0.000000
 40
0.000000
 40
0.000000
 40
0.000000
 40
0.300472
 40
0.598573
 40
0.894695
 40
0.894695
 40
0.894695
 40
0.894695
 10
-21.406856
 20
338.478030
 30
0.0
 10
-21.506528
 20
338.468062
 30
0.0
 10
-21.705085
 20
338.448204
 30
0.0
 10
-21.999991
 20
338.402541
 30
0.0
 10
-22.193967
 20
338.362374
 30
0.0
 10
-22.290632
 20
338.342358
 30
0.0
 11
-21.406856
 21
338.478030
 31
0.0
 11
-21.705555
 21
338.445431
 31
0.0
 11
-22.000168
 21
338.399964
 31
0.0
 11
-22.290632
 21
338.342358
 31
0.0
  0
LWPOLYLINE
  5
178
100
AcDbEntity
  8
0
 62
3
100
AcDbPolyline
 90
4
 70
1
 10
-22.290632
 20
338.342358
 30
0.0
 10
-23.759720
 20
344.788510
 30
0.0
 10
-24.930344
 20
344.424150
 30
0.0
 10
-23.015488
 20
338.144670
 30
0.0
  0
SPLINE
  5
179
100
AcDbEntity
  8
0
 62
3
100
AcDbSpline
 70
0
 71
3
 72
10
 73
6
 74
4
 40
0.000000
 40
0.000000
 40
0.000000
 40
0.000000
 40
0.359156
 40
0.716335
 40
1.072371
 40
1.072371
 40
1.072371
 40
1.072371
 10
-23.015488
 20
338.144670
 30
0.0
 10
-23.128270
 20
338.104458
 30
0.0
 10
-23.353214
 20
338.024256
 30
0.0
 10
-23.681986
 20
337.883121
 30
0.0
 10
-23.894141
 20
337.775760
 30
0.0
 10
-24.000048
 20
337.722166
 30
0.0
 11
-23.015488
 21
338.144670
 31
0.0
 11
-23.352495
 21
338.020497
 31
0.0
 11
-23.680705
 21
337.879586
 31
0.0
 11
-24.000048
 21
337.722166
 31
0.0
  0
LWPOLYLINE
  5
17a
100
AcDbEntity
  8
0
 62
3
100
AcDbPolyline
 90
4
 70
1
 10
-24.000048
 20
337.722166
 30
0.0
 10
-30.329912
 20
349.564014
 30
0.0
 10
-31.981184
 20
348.750006
 30
0.0
 10
-24.608616
 20
337.357798
 30
0.0
  0
SPLINE
  5
17b
100
AcDbEntity
  8
0
 62
3
100
AcDbSpline
 70
0
 71
3
 72
10
 73
6
 74
4
 40
0.000000
 40
0.000000
 40
0.000000
 40
0.000000
 40
0.332136
 40
0.664168
 40
0.995512
 40
0.995512
 40
0.995512
 40
0.995512
 10
-24.608616
 20
337.357798
 30
0.0
 10
-24.699916
 20
337.295156
 30
0.0
 10
-24.882489
 20
337.169892
 30
0.0
 10
-25.145420
 20
336.967032
 30
0.0
 10
-25.312190
 20
336.821780
 30
0.0
 10
-25.395488
 20
336.749230
 30
0.0
 11
-24.608616
 21
337.357798
 31
0.0
 11
-24.880728
 21
337.167352
 31
0.0
 11
-25.143488
 21
336.964368
 31
0.0
 11
-25.395488
 21
336.749230
 31
0.0
  0
LWPOLYLINE
  5
17c
100
AcDbEntity
  8
0
 62
3
100
AcDbPolyline
 90
4
 70
1
 10
-25.395488
 20
336.749230
 30
0.0
 10
-30.023696
 20
341.625518
 30
0.0
 10
-31.066392
 20
340.722358
 30
0.0
 10
-26.007928
 20
336.121286
 30
0.0
  0
SPLINE
  5
17d
100
AcDbEntity
  8
0
 62
3
100
AcDbSpline
 70
0
 71
3
 72
10
 73
6
 74
4
 40
0.000000
 40
0.000000
 40
0.000000
 40
0.000000
 40
0.188457
 40
0.376901
 40
0.565551
 40
0.565551
 40
0.565551
 40
0.565551
 10
-26.007928
 20
336.121286
 30
0.0
 10
-26.048645
 20
336.073448
 30
0.0
 10
-26.130077
 20
335.977775
 30
0.0
 10
-26.248121
 20
335.830730
 30
0.0
 10
-26.323136
 20
335.729860
 30
0.0
 10
-26.360664
 20
335.679398
 30
0.0
 11
-26.007928
 21
336.121286
 31
0.0
 11
-26.129389
 21
335.977191
 31
0.0
 11
-26.247155
 21
335.830078
 31
0.0
 11
-26.360664
 21
335.679398
 31
0.0
  0
LWPOLYLINE
  5
17e
100
AcDbEntity
  8
0
 62
3
100
AcDbPolyline
 90
10
 70
1
 10
-26.360664
 20
335.679398
 30
0.0
 10
-26.523464
 20
335.528222
 30
0.0
 10
-38.144368
 20
342.598446
 30
0.0
 10
-39.097920
 20
340.939422
 30
0.0
 10
-27.089392
 20
334.772358
 30
0.0
 10
-27.321968
 20
333.814934
 30
0.0
 10
-33.946424
 20
335.803438
 30
0.0
 10
-34.279784
 20
334.613438
 30
0.0
 10
-27.523536
 20
333.105590
 30
0.0
 10
-27.523536
 20
333.074550
 30
0.0
  0
LWPOLYLINE
  5
17f
100
AcDbEntity
  8
0
 62
3
100
AcDbPolyline
 90
3
 70
1
 10
-27.659200
 20
332.097742
 30
0.0
 10
-41.400392
 20
332.698558
 30
0.0
 10
-41.400392
 20
332.698550
 30
0.0
  0
LWPOLYLINE
  5
180
100
AcDbEntity
  8
0
 62
3
100
AcDbPolyline
 90
2
 70
0
 10
-25.573537
 20
353.476166
 30
0.0
 10
-17.883123
 20
353.476166
 30
0.0
  0
LWPOLYLINE
  5
181
100
AcDbEntity
  8
0
 62
3
100
AcDbPolyline
 90
7
 70
0
 10
-21.545225
 20
353.476166
 30
0.0
 10
-22.643856
 20
354.574796
 30
0.0
 10
-23.010066
 20
355.307216
 30
0.0
 10
-23.010066
 20
356.405847
 30
0.0
 10
-22.643856
 20
357.138267
 30
0.0
 10
-21.545225
 20
357.504477
 30
0.0
 10
-17.883123
 20
357.504477
 30
0.0
  0
LWPOLYLINE
  5
182
100
AcDbEntity
  8
0
 62
3
100
AcDbPolyline
 90
5
 70
0
 10
-25.573537
 20
359.335528
 30
0.0
 10
-19.347964
 20
359.335528
 30
0.0
 10
-18.249334
 20
359.701738
 30
0.0
 10
-17.883123
 20
360.434159
 30
0.0
 10
-17.883123
 20
361.166579
 30
0.0
  0
LWPOLYLINE
  5
183
100
AcDbEntity
  8
0
 62
3
100
AcDbPolyline
 90
2
 70
0
 10
-23.010066
 20
358.236898
 30
0.0
 10
-23.010066
 20
360.800369
 30
0.0
  0
LWPOLYLINE
  5
184
100
AcDbEntity
  8
0
 62
3
100
AcDbPolyline
 90
5
 70
0
 10
-25.573537
 20
362.265210
 30
0.0
 10
-19.347964
 20
362.265210
 30
0.0
 10
-18.249334
 20
362.631420
 30
0.0
 10
-17.883123
 20
363.363840
 30
0.0
 10
-17.883123
 20
364.096260
 30
0.0
  0
LWPOLYLINE
  5
185
100
AcDbEntity
  8
0
 62
3
100
AcDbPolyline
 90
2
 70
0
 10
-23.010066
 20
361.166579
 30
0.0
 10
-23.010066
 20
363.730050
 30
0.0
  0
LWPOLYLINE
  5
186
100
AcDbEntity
  8
0
 62
3
100
AcDbPolyline
 90
2
 70
0
 10
-23.010066
 20
364.828681
 30
0.0
 10
-15.319652
 20
364.828681
 30
0.0
  0
LWPOLYLINE
  5
187
100
AcDbEntity
  8
0
 62
3
100
AcDbPolyline
 90
14
 70
0
 10
-21.911435
 20
364.828681
 30
0.0
 10
-22.643856
 20
365.561101
 30
0.0
 10
-23.010066
 20
366.293521
 30
0.0
 10
-23.010066
 20
367.392152
 30
0.0
 10
-22.643856
 20
368.124572
 30
0.0
 10
-21.911435
 20
368.856993
 30
0.0
 10
-20.812805
 20
369.223203
 30
0.0
 10
-20.080384
 20
369.223203
 30
0.0
 10
-18.981754
 20
368.856993
 30
0.0
 10
-18.249334
 20
368.124572
 30
0.0
 10
-17.883123
 20
367.392152
 30
0.0
 10
-17.883123
 20
366.293521
 30
0.0
 10
-18.249334
 20
365.561101
 30
0.0
 10
-18.981754
 20
364.828681
 30
0.0
  0
LWPOLYLINE
  5
188
100
AcDbEntity
  8
0
 62
3
100
AcDbPolyline
 90
17
 70
0
 10
-21.911435
 20
373.983935
 30
0.0
 10
-22.643856
 20
373.617725
 30
0.0
 10
-23.010066
 20
372.519094
 30
0.0
 10
-23.010066
 20
371.420464
 30
0.0
 10
-22.643856
 20
370.321833
 30
0.0
 10
-21.911435
 20
369.955623
 30
0.0
 10
-21.179015
 20
370.321833
 30
0.0
 10
-20.812805
 20
371.054254
 30
0.0
 10
-20.446595
 20
372.885304
 30
0.0
 10
-20.080384
 20
373.617725
 30
0.0
 10
-19.347964
 20
373.983935
 30
0.0
 10
-18.981754
 20
373.983935
 30
0.0
 10
-18.249334
 20
373.617725
 30
0.0
 10
-17.883123
 20
372.519094
 30
0.0
 10
-17.883123
 20
371.420464
 30
0.0
 10
-18.249334
 20
370.321833
 30
0.0
 10
-18.981754
 20
369.955623
 30
0.0
  0
LWPOLYLINE
  5
189
100
AcDbEntity
  8
0
 62
3
100
AcDbPolyline
 90
5
 70
0
 10
-22.277645
 20
375.814986
 30
0.0
 10
-21.911435
 20
375.448776
 30
0.0
 10
-21.545225
 20
375.814986
 30
0.0
 10
-21.911435
 20
376.181196
 30
0.0
 10
-22.277645
 20
375.814986
 30
0.0
  0
LWPOLYLINE
  5
18a
100
AcDbEntity
  8
0
 62
3
100
AcDbPolyline
 90
5
 70
0
 10
-19.714174
 20
375.814986
 30
0.0
 10
-19.347964
 20
375.448776
 30
0.0
 10
-18.981754
 20
375.814986
 30
0.0
 10
-19.347964
 20
376.181196
 30
0.0
 10
-19.714174
 20
375.814986
 30
0.0
  0
LWPOLYLINE
  5
18b
100
AcDbEntity
  8
0
 62
3
100
AcDbPolyline
 90
2
 70
0
 10
-27.038378
 20
383.139189
 30
0.0
 10
-15.319652
 20
376.547406
 30
0.0
  0
LWPOLYLINE
  5
18c
100
AcDbEntity
  8
0
 62
3
100
AcDbPolyline
 90
2
 70
0
 10
-27.038378
 20
387.533711
 30
0.0
 10
-15.319652
 20
380.941928
 30
0.0
  0
LWPOLYLINE
  5
18d
100
AcDbEntity
  8
0
 62
3
100
AcDbPolyline
 90
2
 70
0
 10
-23.010066
 20
387.899921
 30
0.0
 10
-17.883123
 20
389.364762
 30
0.0
  0
LWPOLYLINE
  5
18e
100
AcDbEntity
  8
0
 62
3
100
AcDbPolyline
 90
2
 70
0
 10
-23.010066
 20
390.829603
 30
0.0
 10
-17.883123
 20
389.364762
 30
0.0
  0
LWPOLYLINE
  5
18f
100
AcDbEntity
  8
0
 62
3
100
AcDbPolyline
 90
2
 70
0
 10
-23.010066
 20
390.829603
 30
0.0
 10
-17.883123
 20
392.294443
 30
0.0
  0
LWPOLYLINE
  5
190
100
AcDbEntity
  8
0
 62
3
100
AcDbPolyline
 90
2
 70
0
 10
-23.010066
 20
393.759284
 30
0.0
 10
-17.883123
 20
392.294443
 30
0.0
  0
LWPOLYLINE
  5
191
100
AcDbEntity
  8
0
 62
3
100
AcDbPolyline
 90
2
 70
0
 10
-23.010066
 20
395.224125
 30
0.0
 10
-17.883123
 20
396.688965
 30
0.0
  0
LWPOLYLINE
  5
192
100
AcDbEntity
  8
0
 62
3
100
AcDbPolyline
 90
2
 70
0
 10
-23.010066
 20
398.153806
 30
0.0
 10
-17.883123
 20
396.688965
 30
0.0
  0
LWPOLYLINE
  5
193
100
AcDbEntity
  8
0
 62
3
100
AcDbPolyline
 90
2
 70
0
 10
-23.010066
 20
398.153806
 30
0.0
 10
-17.883123
 20
399.618647
 30
0.0
  0
LWPOLYLINE
  5
194
100
AcDbEntity
  8
0
 62
3
100
AcDbPolyline
 90
2
 70
0
 10
-23.010066
 20
401.083487
 30
0.0
 10
-17.883123
 20
399.618647
 30
0.0
  0
LWPOLYLINE
  5
195
100
AcDbEntity
  8
0
 62
3
100
AcDbPolyline
 90
2
 70
0
 10
-23.010066
 20
402.548328
 30
0.0
 10
-17.883123
 20
404.013169
 30
0.0
  0
LWPOLYLINE
  5
196
100
AcDbEntity
  8
0
 62
3
100
AcDbPolyline
 90
2
 70
0
 10
-23.010066
 20
405.478009
 30
0.0
 10
-17.883123
 20
404.013169
 30
0.0
  0
LWPOLYLINE
  5
197
100
AcDbEntity
  8
0
 62
3
100
AcDbPolyline
 90
2
 70
0
 10
-23.010066
 20
405.478009
 30
0.0
 10
-17.883123
 20
406.942850
 30
0.0
  0
LWPOLYLINE
  5
198
100
AcDbEntity
  8
0
 62
3
100
AcDbPolyline
 90
2
 70
0
 10
-23.010066
 20
408.407691
 30
0.0
 10
-17.883123
 20
406.942850
 30
0.0
  0
LWPOLYLINE
  5
199
100
AcDbEntity
  8
0
 62
3
100
AcDbPolyline
 90
5
 70
0
 10
-19.714174
 20
409.506321
 30
0.0
 10
-19.347964
 20
409.140111
 30
0.0
 10
-18.981754
 20
409.506321
 30
0.0
 10
-19.347964
 20
409.872531
 30
0.0
 10
-19.714174
 20
409.506321
 30
0.0
  0
LWPOLYLINE
  5
19a
100
AcDbEntity
  8
0
 62
3
100
AcDbPolyline
 90
17
 70
0
 10
-20.812805
 20
410.604952
 30
0.0
 10
-20.812805
 20
414.999474
 30
0.0
 10
-21.545225
 20
414.999474
 30
0.0
 10
-22.277645
 20
414.633264
 30
0.0
 10
-22.643856
 20
414.267053
 30
0.0
 10
-23.010066
 20
413.534633
 30
0.0
 10
-23.010066
 20
412.436003
 30
0.0
 10
-22.643856
 20
411.703582
 30
0.0
 10
-21.911435
 20
410.971162
 30
0.0
 10
-20.812805
 20
410.604952
 30
0.0
 10
-20.080384
 20
410.604952
 30
0.0
 10
-18.981754
 20
410.971162
 30
0.0
 10
-18.249334
 20
411.703582
 30
0.0
 10
-17.883123
 20
412.436003
 30
0.0
 10
-17.883123
 20
413.534633
 30
0.0
 10
-18.249334
 20
414.267053
 30
0.0
 10
-18.981754
 20
414.999474
 30
0.0
  0
LWPOLYLINE
  5
19b
100
AcDbEntity
  8
0
 62
3
100
AcDbPolyline
 90
5
 70
0
 10
-25.573537
 20
417.196735
 30
0.0
 10
-19.347964
 20
417.196735
 30
0.0
 10
-18.249334
 20
417.562945
 30
0.0
 10
-17.883123
 20
418.295365
 30
0.0
 10
-17.883123
 20
419.027786
 30
0.0
  0
LWPOLYLINE
  5
19c
100
AcDbEntity
  8
0
 62
3
100
AcDbPolyline
 90
2
 70
0
 10
-23.010066
 20
416.098104
 30
0.0
 10
-23.010066
 20
418.661575
 30
0.0
  0
LWPOLYLINE
  5
19d
100
AcDbEntity
  8
0
 62
3
100
AcDbPolyline
 90
17
 70
0
 10
-21.911435
 20
424.154728
 30
0.0
 10
-22.643856
 20
423.788518
 30
0.0
 10
-23.010066
 20
422.689887
 30
0.0
 10
-23.010066
 20
421.591257
 30
0.0
 10
-22.643856
 20
420.492626
 30
0.0
 10
-21.911435
 20
420.126416
 30
0.0
 10
-21.179015
 20
420.492626
 30
0.0
 10
-20.812805
 20
421.225047
 30
0.0
 10
-20.446595
 20
423.056097
 30
0.0
 10
-20.080384
 20
423.788518
 30
0.0
 10
-19.347964
 20
424.154728
 30
0.0
 10
-18.981754
 20
424.154728
 30
0.0
 10
-18.249334
 20
423.788518
 30
0.0
 10
-17.883123
 20
422.689887
 30
0.0
 10
-17.883123
 20
421.591257
 30
0.0
 10
-18.249334
 20
420.492626
 30
0.0
 10
-18.981754
 20
420.126416
 30
0.0
  0
LWPOLYLINE
  5
19e
100
AcDbEntity
  8
0
 62
3
100
AcDbPolyline
 90
2
 70
0
 10
-23.010066
 20
425.253358
 30
0.0
 10
-17.883123
 20
427.450619
 30
0.0
  0
LWPOLYLINE
  5
19f
100
AcDbEntity
  8
0
 62
3
100
AcDbPolyline
 90
6
 70
0
 10
-23.010066
 20
429.647881
 30
0.0
 10
-17.883123
 20
427.450619
 30
0.0
 10
-16.418283
 20
426.718199
 30
0.0
 10
-15.685862
 20
425.985779
 30
0.0
 10
-15.319652
 20
425.253358
 30
0.0
 10
-15.319652
 20
424.887148
 30
0.0
  0
LWPOLYLINE
  5
1a0
100
AcDbEntity
  8
0
 62
3
100
AcDbPolyline
 90
5
 70
0
 10
-19.714174
 20
430.380301
 30
0.0
 10
-19.347964
 20
430.014091
 30
0.0
 10
-18.981754
 20
430.380301
 30
0.0
 10
-19.347964
 20
430.746511
 30
0.0
 10
-19.714174
 20
430.380301
 30
0.0
  0
LWPOLYLINE
  5
1a1
100
AcDbEntity
  8
0
 62
3
100
AcDbPolyline
 90
14
 70
0
 10
-21.911435
 20
435.873453
 30
0.0
 10
-22.643856
 20
435.141033
 30
0.0
 10
-23.010066
 20
434.408613
 30
0.0
 10
-23.010066
 20
433.309982
 30
0.0
 10
-22.643856
 20
432.577562
 30
0.0
 10
-21.911435
 20
431.845142
 30
0.0
 10
-20.812805
 20
431.478931
 30
0.0
 10
-20.080384
 20
431.478931
 30
0.0
 10
-18.981754
 20
431.845142
 30
0.0
 10
-18.249334
 20
432.577562
 30
0.0
 10
-17.883123
 20
433.309982
 30
0.0
 10
-17.883123
 20
434.408613
 30
0.0
 10
-18.249334
 20
435.141033
 30
0.0
 10
-18.981754
 20
435.873453
 30
0.0
  0
LWPOLYLINE
  5
1a2
100
AcDbEntity
  8
0
 62
3
100
AcDbPolyline
 90
17
 70
0
 10
-23.010066
 20
438.436925
 30
0.0
 10
-22.643856
 20
437.704504
 30
0.0
 10
-21.911435
 20
436.972084
 30
0.0
 10
-20.812805
 20
436.605874
 30
0.0
 10
-20.080384
 20
436.605874
 30
0.0
 10
-18.981754
 20
436.972084
 30
0.0
 10
-18.249334
 20
437.704504
 30
0.0
 10
-17.883123
 20
438.436925
 30
0.0
 10
-17.883123
 20
439.535555
 30
0.0
 10
-18.249334
 20
440.267975
 30
0.0
 10
-18.981754
 20
441.000396
 30
0.0
 10
-20.080384
 20
441.366606
 30
0.0
 10
-20.812805
 20
441.366606
 30
0.0
 10
-21.911435
 20
441.000396
 30
0.0
 10
-22.643856
 20
440.267975
 30
0.0
 10
-23.010066
 20
439.535555
 30
0.0
 10
-23.010066
 20
438.436925
 30
0.0
  0
LWPOLYLINE
  5
1a3
100
AcDbEntity
  8
0
 62
3
100
AcDbPolyline
 90
2
 70
0
 10
-23.010066
 20
442.465236
 30
0.0
 10
-17.883123
 20
442.465236
 30
0.0
  0
LWPOLYLINE
  5
1a4
100
AcDbEntity
  8
0
 62
3
100
AcDbPolyline
 90
7
 70
0
 10
-21.545225
 20
442.465236
 30
0.0
 10
-22.643856
 20
443.563867
 30
0.0
 10
-23.010066
 20
444.296287
 30
0.0
 10
-23.010066
 20
445.394918
 30
0.0
 10
-22.643856
 20
446.127338
 30
0.0
 10
-21.545225
 20
446.493548
 30
0.0
 10
-17.883123
 20
446.493548
 30
0.0
  0
LWPOLYLINE
  5
1a5
100
AcDbEntity
  8
0
 62
3
100
AcDbPolyline
 90
7
 70
0
 10
-21.545225
 20
446.493548
 30
0.0
 10
-22.643856
 20
447.592179
 30
0.0
 10
-23.010066
 20
448.324599
 30
0.0
 10
-23.010066
 20
449.423230
 30
0.0
 10
-22.643856
 20
450.155650
 30
0.0
 10
-21.545225
 20
450.521860
 30
0.0
 10
-17.883123
 20
450.521860
 30
0.0
  0
LWPOLYLINE
  5
1a6
100
AcDbEntity
  8
0
 62
3
100
AcDbPolyline
 90
2
 70
0
 10
-27.038378
 20
457.113643
 30
0.0
 10
-15.319652
 20
450.521860
 30
0.0
  0
LWPOLYLINE
  5
1a7
100
AcDbEntity
  8
0
 62
3
100
AcDbPolyline
 90
7
 70
0
 10
-23.010066
 20
457.113643
 30
0.0
 10
-19.347964
 20
457.113643
 30
0.0
 10
-18.249334
 20
457.479853
 30
0.0
 10
-17.883123
 20
458.212274
 30
0.0
 10
-17.883123
 20
459.310904
 30
0.0
 10
-18.249334
 20
460.043324
 30
0.0
 10
-19.347964
 20
461.141955
 30
0.0
  0
LWPOLYLINE
  5
1a8
100
AcDbEntity
  8
0
 62
3
100
AcDbPolyline
 90
2
 70
0
 10
-23.010066
 20
461.141955
 30
0.0
 10
-17.883123
 20
461.141955
 30
0.0
  0
LWPOLYLINE
  5
1a9
100
AcDbEntity
  8
0
 62
3
100
AcDbPolyline
 90
2
 70
0
 10
-25.573537
 20
462.606796
 30
0.0
 10
-17.883123
 20
462.606796
 30
0.0
  0
LWPOLYLINE
  5
1aa
100
AcDbEntity
  8
0
 62
3
100
AcDbPolyline
 90
2
 70
0
 10
-23.010066
 20
466.268897
 30
0.0
 10
-19.347964
 20
462.606796
 30
0.0
  0
LWPOLYLINE
  5
1ab
100
AcDbEntity
  8
0
 62
3
100
AcDbPolyline
 90
2
 70
0
 10
-20.812805
 20
464.071636
 30
0.0
 10
-17.883123
 20
466.635107
 30
0.0
  0
LWPOLYLINE
  5
1ac
100
AcDbEntity
  8
0
 62
3
100
AcDbPolyline
 90
2
 70
0
 10
-27.038378
 20
473.226890
 30
0.0
 10
-15.319652
 20
466.635107
 30
0.0
  0
LWPOLYLINE
  5
1ad
100
AcDbEntity
  8
0
 62
3
100
AcDbPolyline
 90
17
 70
0
 10
-21.911435
 20
476.156572
 30
0.0
 10
-22.643856
 20
475.790362
 30
0.0
 10
-23.010066
 20
474.691731
 30
0.0
 10
-23.010066
 20
473.593101
 30
0.0
 10
-22.643856
 20
472.494470
 30
0.0
 10
-21.911435
 20
472.128260
 30
0.0
 10
-21.179015
 20
472.494470
 30
0.0
 10
-20.812805
 20
473.226890
 30
0.0
 10
-20.446595
 20
475.057941
 30
0.0
 10
-20.080384
 20
475.790362
 30
0.0
 10
-19.347964
 20
476.156572
 30
0.0
 10
-18.981754
 20
476.156572
 30
0.0
 10
-18.249334
 20
475.790362
 30
0.0
 10
-17.883123
 20
474.691731
 30
0.0
 10
-17.883123
 20
473.593101
 30
0.0
 10
-18.249334
 20
472.494470
 30
0.0
 10
-18.981754
 20
472.128260
 30
0.0
  0
LWPOLYLINE
  5
1ae
100
AcDbEntity
  8
0
 62
3
100
AcDbPolyline
 90
2
 70
0
 10
-25.573537
 20
477.255202
 30
0.0
 10
-17.883123
 20
477.255202
 30
0.0
  0
LWPOLYLINE
  5
1af
100
AcDbEntity
  8
0
 62
3
100
AcDbPolyline
 90
7
 70
0
 10
-21.545225
 20
477.255202
 30
0.0
 10
-22.643856
 20
478.353833
 30
0.0
 10
-23.010066
 20
479.086253
 30
0.0
 10
-23.010066
 20
480.184884
 30
0.0
 10
-22.643856
 20
480.917304
 30
0.0
 10
-21.545225
 20
481.283514
 30
0.0
 10
-17.883123
 20
481.283514
 30
0.0
  0
LWPOLYLINE
  5
1b0
100
AcDbEntity
  8
0
 62
3
100
AcDbPolyline
 90
17
 70
0
 10
-23.010066
 20
484.213196
 30
0.0
 10
-22.643856
 20
483.480775
 30
0.0
 10
-21.911435
 20
482.748355
 30
0.0
 10
-20.812805
 20
482.382145
 30
0.0
 10
-20.080384
 20
482.382145
 30
0.0
 10
-18.981754
 20
482.748355
 30
0.0
 10
-18.249334
 20
483.480775
 30
0.0
 10
-17.883123
 20
484.213196
 30
0.0
 10
-17.883123
 20
485.311826
 30
0.0
 10
-18.249334
 20
486.044246
 30
0.0
 10
-18.981754
 20
486.776667
 30
0.0
 10
-20.080384
 20
487.142877
 30
0.0
 10
-20.812805
 20
487.142877
 30
0.0
 10
-21.911435
 20
486.776667
 30
0.0
 10
-22.643856
 20
486.044246
 30
0.0
 10
-23.010066
 20
485.311826
 30
0.0
 10
-23.010066
 20
484.213196
 30
0.0
  0
LWPOLYLINE
  5
1b1
100
AcDbEntity
  8
0
 62
3
100
AcDbPolyline
 90
2
 70
0
 10
-23.010066
 20
488.241507
 30
0.0
 10
-15.319652
 20
488.241507
 30
0.0
  0
LWPOLYLINE
  5
1b2
100
AcDbEntity
  8
0
 62
3
100
AcDbPolyline
 90
14
 70
0
 10
-21.911435
 20
488.241507
 30
0.0
 10
-22.643856
 20
488.973928
 30
0.0
 10
-23.010066
 20
489.706348
 30
0.0
 10
-23.010066
 20
490.804979
 30
0.0
 10
-22.643856
 20
491.537399
 30
0.0
 10
-21.911435
 20
492.269819
 30
0.0
 10
-20.812805
 20
492.636029
 30
0.0
 10
-20.080384
 20
492.636029
 30
0.0
 10
-18.981754
 20
492.269819
 30
0.0
 10
-18.249334
 20
491.537399
 30
0.0
 10
-17.883123
 20
490.804979
 30
0.0
 10
-17.883123
 20
489.706348
 30
0.0
 10
-18.249334
 20
488.973928
 30
0.0
 10
-18.981754
 20
488.241507
 30
0.0
  0
LWPOLYLINE
  5
1b3
100
AcDbEntity
  8
0
 62
3
100
AcDbPolyline
 90
2
 70
0
 10
-27.038378
 20
498.861602
 30
0.0
 10
-15.319652
 20
492.269819
 30
0.0
  0
LWPOLYLINE
  5
1b4
100
AcDbEntity
  8
0
 62
3
100
AcDbPolyline
 90
3
 70
0
 10
-25.573537
 20
499.594023
 30
0.0
 10
-17.883123
 20
499.594023
 30
0.0
 10
-17.883123
 20
503.988545
 30
0.0
  0
LWPOLYLINE
  5
1b5
100
AcDbEntity
  8
0
 62
3
100
AcDbPolyline
 90
5
 70
0
 10
-25.573537
 20
504.720965
 30
0.0
 10
-25.207327
 20
505.087175
 30
0.0
 10
-25.573537
 20
505.453385
 30
0.0
 10
-25.939747
 20
505.087175
 30
0.0
 10
-25.573537
 20
504.720965
 30
0.0
  0
LWPOLYLINE
  5
1b6
100
AcDbEntity
  8
0
 62
3
100
AcDbPolyline
 90
2
 70
0
 10
-23.010066
 20
505.087175
 30
0.0
 10
-17.883123
 20
505.087175
 30
0.0
  0
LWPOLYLINE
  5
1b7
100
AcDbEntity
  8
0
 62
3
100
AcDbPolyline
 90
7
 70
0
 10
-23.010066
 20
510.580328
 30
0.0
 10
-17.150703
 20
510.580328
 30
0.0
 10
-16.052073
 20
510.214117
 30
0.0
 10
-15.685862
 20
509.847907
 30
0.0
 10
-15.319652
 20
509.115487
 30
0.0
 10
-15.319652
 20
508.016856
 30
0.0
 10
-15.685862
 20
507.284436
 30
0.0
  0
LWPOLYLINE
  5
1b8
100
AcDbEntity
  8
0
 62
3
100
AcDbPolyline
 90
14
 70
0
 10
-21.911435
 20
510.580328
 30
0.0
 10
-22.643856
 20
509.847907
 30
0.0
 10
-23.010066
 20
509.115487
 30
0.0
 10
-23.010066
 20
508.016856
 30
0.0
 10
-22.643856
 20
507.284436
 30
0.0
 10
-21.911435
 20
506.552016
 30
0.0
 10
-20.812805
 20
506.185806
 30
0.0
 10
-20.080384
 20
506.185806
 30
0.0
 10
-18.981754
 20
506.552016
 30
0.0
 10
-18.249334
 20
507.284436
 30
0.0
 10
-17.883123
 20
508.016856
 30
0.0
 10
-17.883123
 20
509.115487
 30
0.0
 10
-18.249334
 20
509.847907
 30
0.0
 10
-18.981754
 20
510.580328
 30
0.0
  0
LWPOLYLINE
  5
1b9
100
AcDbEntity
  8
0
 62
3
100
AcDbPolyline
 90
2
 70
0
 10
-25.573537
 20
512.045168
 30
0.0
 10
-17.883123
 20
512.045168
 30
0.0
  0
LWPOLYLINE
  5
1ba
100
AcDbEntity
  8
0
 62
3
100
AcDbPolyline
 90
7
 70
0
 10
-21.545225
 20
512.045168
 30
0.0
 10
-22.643856
 20
513.143799
 30
0.0
 10
-23.010066
 20
513.876219
 30
0.0
 10
-23.010066
 20
514.974850
 30
0.0
 10
-22.643856
 20
515.707270
 30
0.0
 10
-21.545225
 20
516.073480
 30
0.0
 10
-17.883123
 20
516.073480
 30
0.0
  0
LWPOLYLINE
  5
1bb
100
AcDbEntity
  8
0
 62
3
100
AcDbPolyline
 90
5
 70
0
 10
-25.573537
 20
517.904531
 30
0.0
 10
-19.347964
 20
517.904531
 30
0.0
 10
-18.249334
 20
518.270741
 30
0.0
 10
-17.883123
 20
519.003161
 30
0.0
 10
-17.883123
 20
519.735582
 30
0.0
  0
LWPOLYLINE
  5
1bc
100
AcDbEntity
  8
0
 62
3
100
AcDbPolyline
 90
2
 70
0
 10
-23.010066
 20
516.805900
 30
0.0
 10
-23.010066
 20
519.369372
 30
0.0
  0
LWPOLYLINE
  5
1bd
100
AcDbEntity
  8
0
 62
3
100
AcDbPolyline
 90
2
 70
0
 10
-25.573537
 20
519.735582
 30
0.0
 10
-17.883123
 20
521.566633
 30
0.0
  0
LWPOLYLINE
  5
1be
100
AcDbEntity
  8
0
 62
3
100
AcDbPolyline
 90
2
 70
0
 10
-25.573537
 20
523.397684
 30
0.0
 10
-17.883123
 20
521.566633
 30
0.0
  0
LWPOLYLINE
  5
1bf
100
AcDbEntity
  8
0
 62
3
100
AcDbPolyline
 90
2
 70
0
 10
-25.573537
 20
523.397684
 30
0.0
 10
-17.883123
 20
525.228734
 30
0.0
  0
LWPOLYLINE
  5
1c0
100
AcDbEntity
  8
0
 62
3
100
AcDbPolyline
 90
2
 70
0
 10
-25.573537
 20
527.059785
 30
0.0
 10
-17.883123
 20
525.228734
 30
0.0
  0
LWPOLYLINE
  5
1c1
100
AcDbEntity
  8
0
 62
3
100
AcDbPolyline
 90
17
 70
0
 10
-23.010066
 20
529.257046
 30
0.0
 10
-22.643856
 20
528.524626
 30
0.0
 10
-21.911435
 20
527.792206
 30
0.0
 10
-20.812805
 20
527.425995
 30
0.0
 10
-20.080384
 20
527.425995
 30
0.0
 10
-18.981754
 20
527.792206
 30
0.0
 10
-18.249334
 20
528.524626
 30
0.0
 10
-17.883123
 20
529.257046
 30
0.0
 10
-17.883123
 20
530.355677
 30
0.0
 10
-18.249334
 20
531.088097
 30
0.0
 10
-18.981754
 20
531.820517
 30
0.0
 10
-20.080384
 20
532.186728
 30
0.0
 10
-20.812805
 20
532.186728
 30
0.0
 10
-21.911435
 20
531.820517
 30
0.0
 10
-22.643856
 20
531.088097
 30
0.0
 10
-23.010066
 20
530.355677
 30
0.0
 10
-23.010066
 20
529.257046
 30
0.0
  0
LWPOLYLINE
  5
1c2
100
AcDbEntity
  8
0
 62
3
100
AcDbPolyline
 90
2
 70
0
 10
-23.010066
 20
534.017778
 30
0.0
 10
-17.883123
 20
534.017778
 30
0.0
  0
LWPOLYLINE
  5
1c3
100
AcDbEntity
  8
0
 62
3
100
AcDbPolyline
 90
5
 70
0
 10
-20.812805
 20
534.017778
 30
0.0
 10
-21.911435
 20
534.383989
 30
0.0
 10
-22.643856
 20
535.116409
 30
0.0
 10
-23.010066
 20
535.848829
 30
0.0
 10
-23.010066
 20
536.947460
 30
0.0
  0
LWPOLYLINE
  5
1c4
100
AcDbEntity
  8
0
 62
3
100
AcDbPolyline
 90
2
 70
0
 10
-25.573537
 20
538.046090
 30
0.0
 10
-17.883123
 20
538.046090
 30
0.0
  0
LWPOLYLINE
  5
1c5
100
AcDbEntity
  8
0
 62
3
100
AcDbPolyline
 90
2
 70
0
 10
-23.010066
 20
541.708192
 30
0.0
 10
-19.347964
 20
538.046090
 30
0.0
  0
LWPOLYLINE
  5
1c6
100
AcDbEntity
  8
0
 62
3
100
AcDbPolyline
 90
2
 70
0
 10
-20.812805
 20
539.510931
 30
0.0
 10
-17.883123
 20
542.074402
 30
0.0
  0
LWPOLYLINE
  5
1c7
100
AcDbEntity
  8
0
 62
3
100
AcDbPolyline
 90
17
 70
0
 10
-21.911435
 20
546.468924
 30
0.0
 10
-22.643856
 20
546.102714
 30
0.0
 10
-23.010066
 20
545.004083
 30
0.0
 10
-23.010066
 20
543.905453
 30
0.0
 10
-22.643856
 20
542.806822
 30
0.0
 10
-21.911435
 20
542.440612
 30
0.0
 10
-21.179015
 20
542.806822
 30
0.0
 10
-20.812805
 20
543.539243
 30
0.0
 10
-20.446595
 20
545.370294
 30
0.0
 10
-20.080384
 20
546.102714
 30
0.0
 10
-19.347964
 20
546.468924
 30
0.0
 10
-18.981754
 20
546.468924
 30
0.0
 10
-18.249334
 20
546.102714
 30
0.0
 10
-17.883123
 20
545.004083
 30
0.0
 10
-17.883123
 20
543.905453
 30
0.0
 10
-18.249334
 20
542.806822
 30
0.0
 10
-18.981754
 20
542.440612
 30
0.0
  0
LWPOLYLINE
  5
1c8
100
AcDbEntity
  8
0
 62
3
100
AcDbPolyline
 90
3
 70
0
 10
-25.573537
 20
547.567555
 30
0.0
 10
-17.883123
 20
547.567555
 30
0.0
 10
-17.883123
 20
551.962077
 30
0.0
  0
LWPOLYLINE
  5
1c9
100
AcDbEntity
  8
0
 62
3
100
AcDbPolyline
 90
2
 70
0
 10
-23.010066
 20
556.356599
 30
0.0
 10
-17.883123
 20
556.356599
 30
0.0
  0
LWPOLYLINE
  5
1ca
100
AcDbEntity
  8
0
 62
3
100
AcDbPolyline
 90
14
 70
0
 10
-21.911435
 20
556.356599
 30
0.0
 10
-22.643856
 20
555.624178
 30
0.0
 10
-23.010066
 20
554.891758
 30
0.0
 10
-23.010066
 20
553.793127
 30
0.0
 10
-22.643856
 20
553.060707
 30
0.0
 10
-21.911435
 20
552.328287
 30
0.0
 10
-20.812805
 20
551.962077
 30
0.0
 10
-20.080384
 20
551.962077
 30
0.0
 10
-18.981754
 20
552.328287
 30
0.0
 10
-18.249334
 20
553.060707
 30
0.0
 10
-17.883123
 20
553.793127
 30
0.0
 10
-17.883123
 20
554.891758
 30
0.0
 10
-18.249334
 20
555.624178
 30
0.0
 10
-18.981754
 20
556.356599
 30
0.0
  0
LWPOLYLINE
  5
1cb
100
AcDbEntity
  8
0
 62
3
100
AcDbPolyline
 90
17
 70
0
 10
-21.911435
 20
561.483537
 30
0.0
 10
-22.643856
 20
561.117327
 30
0.0
 10
-23.010066
 20
560.018700
 30
0.0
 10
-23.010066
 20
558.920070
 30
0.0
 10
-22.643856
 20
557.821439
 30
0.0
 10
-21.911435
 20
557.455229
 30
0.0
 10
-21.179015
 20
557.821439
 30
0.0
 10
-20.812805
 20
558.553860
 30
0.0
 10
-20.446595
 20
560.384907
 30
0.0
 10
-20.080384
 20
561.117327
 30
0.0
 10
-19.347964
 20
561.483537
 30
0.0
 10
-18.981754
 20
561.483537
 30
0.0
 10
-18.249334
 20
561.117327
 30
0.0
 10
-17.883123
 20
560.018700
 30
0.0
 10
-17.883123
 20
558.920070
 30
0.0
 10
-18.249334
 20
557.821439
 30
0.0
 10
-18.981754
 20
557.455229
 30
0.0
  0
LWPOLYLINE
  5
1cc
100
AcDbEntity
  8
0
 62
3
100
AcDbPolyline
 90
17
 70
0
 10
-20.812805
 20
562.215958
 30
0.0
 10
-20.812805
 20
566.610472
 30
0.0
 10
-21.545225
 20
566.610472
 30
0.0
 10
-22.277645
 20
566.244262
 30
0.0
 10
-22.643856
 20
565.878056
 30
0.0
 10
-23.010066
 20
565.145635
 30
0.0
 10
-23.010066
 20
564.047005
 30
0.0
 10
-22.643856
 20
563.314584
 30
0.0
 10
-21.911435
 20
562.582164
 30
0.0
 10
-20.812805
 20
562.215958
 30
0.0
 10
-20.080384
 20
562.215958
 30
0.0
 10
-18.981754
 20
562.582164
 30
0.0
 10
-18.249334
 20
563.314584
 30
0.0
 10
-17.883123
 20
564.047005
 30
0.0
 10
-17.883123
 20
565.145635
 30
0.0
 10
-18.249334
 20
565.878056
 30
0.0
 10
-18.981754
 20
566.610472
 30
0.0
  0
LWPOLYLINE
  5
1cd
100
AcDbEntity
  8
0
 62
3
100
AcDbPolyline
 90
2
 70
0
 10
-23.010066
 20
567.709103
 30
0.0
 10
-17.883123
 20
567.709103
 30
0.0
  0
SPLINE
  5
1ce
100
AcDbEntity
  8
0
 62
3
100
AcDbSpline
 70
0
 71
3
 72
10
 73
6
 74
4
 40
0.000000
 40
0.000000
 40
0.000000
 40
0.000000
 40
0.326488
 40
0.654965
 40
0.986947
 40
0.986947
 40
0.986947
 40
0.986947
 10
-27.523536
 20
333.074550
 30
0.0
 10
-27.544691
 20
332.967784
 30
0.0
 10
-27.587129
 20
332.753601
 30
0.0
 10
-27.632760
 20
332.427542
 30
0.0
 10
-27.650355
 20
332.208064
 30
0.0
 10
-27.659200
 20
332.097742
 30
0.0
 11
-27.523536
 21
333.074550
 31
0.0
 11
-27.583979
 21
332.753705
 31
0.0
 11
-27.629397
 21
332.428384
 31
0.0
 11
-27.659200
 21
332.097742
 31
0.0
  0
LWPOLYLINE
  5
1cf
100
AcDbEntity
  8
0
 62
3
100
AcDbPolyline
 90
5
 70
0
 10
-20.812805
 20
567.709103
 30
0.0
 10
-21.911435
 20
568.075313
 30
0.0
 10
-22.643856
 20
568.807730
 30
0.0
 10
-23.010066
 20
569.540150
 30
0.0
 10
-23.010066
 20
570.638781
 30
0.0
  0
ENDSEC
  0
SECTION
  2
OBJECTS
  0
DICTIONARY
  5
C
330
0
100
AcDbDictionary
  3
ACAD_GROUP
350
D
  3
ACAD_MLINESTYLE
350
17
  0
DICTIONARY
  5
D
330
C
100
AcDbDictionary
  0
DICTIONARY
  5
1A
330
C
100
AcDbDictionary
  0
DICTIONARY
  5
17
330
C
100
AcDbDictionary
  3
STANDARD
350
18
  0
DICTIONARY
  5
19
330
C
100
AcDbDictionary
  0
ENDSEC
  0
EOF
