0
SECTION
2
HEADER
9
$INSUNITS
70
4
9
$ACADVER
1
AC1014
9
$HANDSEED
5
FFFF
0
ENDSEC
0
SECTION
2
TABLES
0
TABLE
2
VPORT
5
8
100
AcDbSymbolTable
0
ENDTAB
0
TABLE
2
LTYPE
5
5
100
AcDbSymbolTable
0
LTYPE
5
14
100
AcDbSymbolTableRecord
100
AcDbLinetypeTableRecord
2
BYBLOCK
70
0
0
LTYPE
5
15
100
AcDbSymbolTableRecord
100
AcDbLinetypeTableRecord
2
BYLAYER
70
0
0
ENDTAB
0
TABLE
2
LAYER
5
2
100
AcDbSymbolTable
70
2
0
LAYER
5
50
100
AcDbSymbolTableRecord
100
AcDbLayerTableRecord
2
0
70
0
6
CONTINUOUS
0
ENDTAB
0
TABLE
2
STYLE
5
3
100
AcDbSymbolTable
70
1
0
STYLE
5
11
100
AcDbSymbolTableRecord
100
AcDbTextStyleTableRecord
2
STANDARD
70
0
0
ENDTAB
0
TABLE
2
VIEW
5
6
100
AcDbSymbolTable
70
0
0
ENDTAB
0
TABLE
2
UCS
5
7
100
AcDbSymbolTable
70
0
0
ENDTAB
0
TABLE
2
APPID
5
9
100
AcDbSymbolTable
70
2
0
APPID
5
12
100
AcDbSymbolTableRecord
100
AcDbRegAppTableRecord
2
ACAD
70
0
0
ENDTAB
0
TABLE
2
DIMSTYLE
5
A
100
AcDbSymbolTable
70
1
0
ENDTAB
0
TABLE
2
BLOCK_RECORD
5
1
100
AcDbSymbolTable
70
1
0
BLOCK_RECORD
5
1F
100
AcDbSymbolTableRecord
100
AcDbBlockTableRecord
2
*MODEL_SPACE
0
BLOCK_RECORD
5
1B
100
AcDbSymbolTableRecord
100
AcDbBlockTableRecord
2
*PAPER_SPACE
0
ENDTAB
0
ENDSEC
0
SECTION
2
BLOCKS
0
BLOCK
5
20
100
AcDbEntity
100
AcDbBlockBegin
2
*MODEL_SPACE
0
ENDBLK
5
21
100
AcDbEntity
100
AcDbBlockEnd
0
BLOCK
5
1C
100
AcDbEntity
100
AcDbBlockBegin
2
*PAPER_SPACE
0
ENDBLK
5
1D
100
AcDbEntity
100
AcDbBlockEnd
0
ENDSEC
0
SECTION
2
ENTITIES
0
LWPOLYLINE
5
100
100
AcDbEntity
8
0
100
AcDbPolyline
90
10
70
1
43
0.0
10
306.999999999279
20
10.000000148290598
42
-0.41421356244348995
10
310
20
7.0000001482905834
10
310
20
-7
42
-0.41421356237308915
10
307
20
-10
10
-307
20
-9.9999999999999822
42
-0.41421356237308915
10
-310
20
-7
10
-309.99999999999994
20
7.0000000007210232
42
-0.41421356230268841
10
-307.000000000721
20
10.000000000721023
10
-300.00000000000006
20
10
10
299.99999999999994
20
10
0
LINE
5
101
100
AcDbEntity
8
0
100
AcDbLine
10
298.25
20
-2.4999999999999885
30
0
11
2.6637785310867912e-08
21
-2.4999999999999996
31
0
0
ARC
5
102
100
AcDbEntity
8
0
100
AcDbCircle
10
-2.7755575615628914e-16
20
-2.7755575615628914e-16
30
0
40
2.5
100
AcDbArc
50
89.999999999999986
51
270
0
LINE
5
103
100
AcDbEntity
8
0
100
AcDbLine
10
3.0616169246677665e-16
20
2.4999999999999996
30
0
11
298.25
21
2.5000000000000178
31
0
0
LINE
5
104
100
AcDbEntity
8
0
100
AcDbLine
10
298.25
20
2.5000000000000178
30
0
11
298.25
21
7.7045941967520903
31
0
0
LINE
5
105
100
AcDbEntity
8
0
100
AcDbLine
10
298.25
20
7.7045941967520903
30
0
11
299.99999999999994
21
7.7045941967520903
31
0
0
LINE
5
106
100
AcDbEntity
8
0
100
AcDbLine
10
299.99999999999994
20
7.7045941967520903
30
0
11
299.99999999999994
21
-4.295391090380809
31
0
0
LINE
5
107
100
AcDbEntity
8
0
100
AcDbLine
10
299.99999999999994
20
-4.295391090380809
30
0
11
298.25
21
-4.2953910903808099
31
0
0
LINE
5
108
100
AcDbEntity
8
0
100
AcDbLine
10
298.25
20
-4.2953910903808099
30
0
11
298.25
21
-2.4999999999999885
31
0
0
LWPOLYLINE
5
109
100
AcDbEntity
8
0
100
AcDbPolyline
90
4
70
1
43
0.0
10
-300.00000000000006
20
7.7045941967520903
10
-300.00000000000006
20
-4.295391090380809
10
-298.00000000000006
20
-4.295391090380809
10
-298.00000000000006
20
7.7045941967520903
0
CIRCLE
5
110
100
AcDbEntity
8
0
100
AcDbCircle
10
-304
20
-6
30
0
40
2.5
0
CIRCLE
5
111
100
AcDbEntity
8
0
100
AcDbCircle
10
-304
20
6
30
0
40
2.5
0
CIRCLE
5
112
100
AcDbEntity
8
0
100
AcDbCircle
10
-19.808688457449495
20
0
30
0
40
2.0472756898480693
0
CIRCLE
5
113
100
AcDbEntity
8
0
100
AcDbCircle
10
304
20
6.0000000000000009
30
0
40
2.5
0
CIRCLE
5
114
100
AcDbEntity
8
0
100
AcDbCircle
10
304
20
-6.0000000000000009
30
0
40
2.5
0
ENDSEC
0
SECTION
2
OBJECTS
0
DICTIONARY
5
C
100
AcDbDictionary
3
ACAD_GROUP
350
D
3
ACAD_MLINESTYLE
350
17
0
DICTIONARY
5
D
100
AcDbDictionary
0
DICTIONARY
5
1A
330
C
100
AcDbDictionary
0
DICTIONARY
5
17
100
AcDbDictionary
0
ENDSEC
0
EOF
